  0
SECTION
  2
HEADER
  9
$ACADVER
  1
AC1015
  9
$ACADMAINTVER
 70
    14
  9
$DWGCODEPAGE
  3
ANSI_1250
  9
$INSBASE
 10
0.0
 20
0.0
 30
0.0
  9
$EXTMIN
 10
-2356.403984177638
 20
-778.7177925793453
 30
0.0
  9
$EXTMAX
 10
-1531.536853952572
 20
407.2664536383321
 30
0.0
  9
$LIMMIN
 10
0.0
 20
0.0
  9
$LIMMAX
 10
420.0
 20
297.0
  9
$ORTHOMODE
 70
     1
  9
$REGENMODE
 70
     1
  9
$FILLMODE
 70
     1
  9
$QTEXTMODE
 70
     0
  9
$MIRRTEXT
 70
     1
  9
$LTSCALE
 40
1.0
  9
$ATTMODE
 70
     1
  9
$TEXTSIZE
 40
2.5
  9
$TRACEWID
 40
1.0
  9
$TEXTSTYLE
  7
Standard
  9
$CLAYER
  8
0
  9
$CELTYPE
  6
ByLayer
  9
$CECOLOR
 62
   256
  9
$CELTSCALE
 40
1.0
  9
$DISPSILH
 70
     0
  9
$DIMSCALE
 40
1.0
  9
$DIMASZ
 40
2.5
  9
$DIMEXO
 40
0.625
  9
$DIMDLI
 40
3.75
  9
$DIMRND
 40
0.0
  9
$DIMDLE
 40
0.0
  9
$DIMEXE
 40
1.25
  9
$DIMTP
 40
0.0
  9
$DIMTM
 40
0.0
  9
$DIMTXT
 40
2.5
  9
$DIMCEN
 40
2.5
  9
$DIMTSZ
 40
0.0
  9
$DIMTOL
 70
     0
  9
$DIMLIM
 70
     0
  9
$DIMTIH
 70
     0
  9
$DIMTOH
 70
     0
  9
$DIMSE1
 70
     0
  9
$DIMSE2
 70
     0
  9
$DIMTAD
 70
     1
  9
$DIMZIN
 70
     8
  9
$DIMBLK
  1

  9
$DIMASO
 70
     1
  9
$DIMSHO
 70
     1
  9
$DIMPOST
  1

  9
$DIMAPOST
  1

  9
$DIMALT
 70
     0
  9
$DIMALTD
 70
     3
  9
$DIMALTF
 40
0.03937007874016
  9
$DIMLFAC
 40
1.0
  9
$DIMTOFL
 70
     1
  9
$DIMTVP
 40
0.0
  9
$DIMTIX
 70
     0
  9
$DIMSOXD
 70
     0
  9
$DIMSAH
 70
     0
  9
$DIMBLK1
  1

  9
$DIMBLK2
  1

  9
$DIMSTYLE
  2
ISO-25
  9
$DIMCLRD
 70
     0
  9
$DIMCLRE
 70
     0
  9
$DIMCLRT
 70
     0
  9
$DIMTFAC
 40
1.0
  9
$DIMGAP
 40
0.625
  9
$DIMJUST
 70
     0
  9
$DIMSD1
 70
     0
  9
$DIMSD2
 70
     0
  9
$DIMTOLJ
 70
     0
  9
$DIMTZIN
 70
     8
  9
$DIMALTZ
 70
     0
  9
$DIMALTTZ
 70
     0
  9
$DIMUPT
 70
     0
  9
$DIMDEC
 70
     2
  9
$DIMTDEC
 70
     2
  9
$DIMALTU
 70
     2
  9
$DIMALTTD
 70
     3
  9
$DIMTXSTY
  7
Standard
  9
$DIMAUNIT
 70
     0
  9
$DIMADEC
 70
     0
  9
$DIMALTRND
 40
0.0
  9
$DIMAZIN
 70
     0
  9
$DIMDSEP
 70
    44
  9
$DIMATFIT
 70
     3
  9
$DIMFRAC
 70
     0
  9
$DIMLDRBLK
  1

  9
$DIMLUNIT
 70
     2
  9
$DIMLWD
 70
    -2
  9
$DIMLWE
 70
    -2
  9
$DIMTMOVE
 70
     0
  9
$LUNITS
 70
     2
  9
$LUPREC
 70
     4
  9
$SKETCHINC
 40
1.0
  9
$FILLETRAD
 40
10.0
  9
$AUNITS
 70
     0
  9
$AUPREC
 70
     0
  9
$MENU
  1
.
  9
$ELEVATION
 40
0.0
  9
$PELEVATION
 40
0.0
  9
$THICKNESS
 40
0.0
  9
$LIMCHECK
 70
     0
  9
$CHAMFERA
 40
10.0
  9
$CHAMFERB
 40
10.0
  9
$CHAMFERC
 40
20.0
  9
$CHAMFERD
 40
0.0
  9
$SKPOLY
 70
     0
  9
$TDCREATE
 40
2452339.371895717
  9
$TDUCREATE
 40
2452339.330229051
  9
$TDUPDATE
 40
2455610.302113507
  9
$TDUUPDATE
 40
2455610.260446840
  9
$TDINDWG
 40
0.0404210764
  9
$TDUSRTIMER
 40
0.0404210764
  9
$USRTIMER
 70
     1
  9
$ANGBASE
 50
0.0
  9
$ANGDIR
 70
     0
  9
$PDMODE
 70
     0
  9
$PDSIZE
 40
0.0
  9
$PLINEWID
 40
0.0
  9
$SPLFRAME
 70
     0
  9
$SPLINETYPE
 70
     6
  9
$SPLINESEGS
 70
     8
  9
$HANDSEED
  5
3BC3
  9
$SURFTAB1
 70
     6
  9
$SURFTAB2
 70
     6
  9
$SURFTYPE
 70
     6
  9
$SURFU
 70
     6
  9
$SURFV
 70
     6
  9
$UCSBASE
  2

  9
$UCSNAME
  2

  9
$UCSORG
 10
0.0
 20
0.0
 30
0.0
  9
$UCSXDIR
 10
1.0
 20
0.0
 30
0.0
  9
$UCSYDIR
 10
0.0
 20
1.0
 30
0.0
  9
$UCSORTHOREF
  2

  9
$UCSORTHOVIEW
 70
     0
  9
$UCSORGTOP
 10
0.0
 20
0.0
 30
0.0
  9
$UCSORGBOTTOM
 10
0.0
 20
0.0
 30
0.0
  9
$UCSORGLEFT
 10
0.0
 20
0.0
 30
0.0
  9
$UCSORGRIGHT
 10
0.0
 20
0.0
 30
0.0
  9
$UCSORGFRONT
 10
0.0
 20
0.0
 30
0.0
  9
$UCSORGBACK
 10
0.0
 20
0.0
 30
0.0
  9
$PUCSBASE
  2

  9
$PUCSNAME
  2

  9
$PUCSORG
 10
0.0
 20
0.0
 30
0.0
  9
$PUCSXDIR
 10
1.0
 20
0.0
 30
0.0
  9
$PUCSYDIR
 10
0.0
 20
1.0
 30
0.0
  9
$PUCSORTHOREF
  2

  9
$PUCSORTHOVIEW
 70
     0
  9
$PUCSORGTOP
 10
0.0
 20
0.0
 30
0.0
  9
$PUCSORGBOTTOM
 10
0.0
 20
0.0
 30
0.0
  9
$PUCSORGLEFT
 10
0.0
 20
0.0
 30
0.0
  9
$PUCSORGRIGHT
 10
0.0
 20
0.0
 30
0.0
  9
$PUCSORGFRONT
 10
0.0
 20
0.0
 30
0.0
  9
$PUCSORGBACK
 10
0.0
 20
0.0
 30
0.0
  9
$USERI1
 70
     0
  9
$USERI2
 70
     0
  9
$USERI3
 70
     0
  9
$USERI4
 70
     0
  9
$USERI5
 70
     0
  9
$USERR1
 40
0.0
  9
$USERR2
 40
0.0
  9
$USERR3
 40
0.0
  9
$USERR4
 40
0.0
  9
$USERR5
 40
0.0
  9
$WORLDVIEW
 70
     1
  9
$SHADEDGE
 70
     3
  9
$SHADEDIF
 70
    70
  9
$TILEMODE
 70
     1
  9
$MAXACTVP
 70
    48
  9
$PINSBASE
 10
0.0
 20
0.0
 30
0.0
  9
$PLIMCHECK
 70
     0
  9
$PEXTMIN
 10
1.000000000000000E+20
 20
1.000000000000000E+20
 30
1.000000000000000E+20
  9
$PEXTMAX
 10
-1.000000000000000E+20
 20
-1.000000000000000E+20
 30
-1.000000000000000E+20
  9
$PLIMMIN
 10
0.0
 20
0.0
  9
$PLIMMAX
 10
420.0
 20
297.0
  9
$UNITMODE
 70
     0
  9
$VISRETAIN
 70
     1
  9
$PLINEGEN
 70
     0
  9
$PSLTSCALE
 70
     1
  9
$TREEDEPTH
 70
  3020
  9
$CMLSTYLE
  2
Standard
  9
$CMLJUST
 70
     0
  9
$CMLSCALE
 40
20.0
  9
$PROXYGRAPHICS
 70
     1
  9
$MEASUREMENT
 70
     1
  9
$CELWEIGHT
370
    -1
  9
$ENDCAPS
280
     0
  9
$JOINSTYLE
280
     0
  9
$LWDISPLAY
290
     0
  9
$INSUNITS
 70
     4
  9
$HYPERLINKBASE
  1

  9
$STYLESHEET
  1

  9
$XEDIT
290
     1
  9
$CEPSNTYPE
380
     0
  9
$PSTYLEMODE
290
     1
  9
$FINGERPRINTGUID
  2
{9FA890EF-883C-4FD4-884F-6B075534EB0B}
  9
$VERSIONGUID
  2
{C92516FB-402E-416A-84D5-3A99B2BE5F00}
  9
$EXTNAMES
290
     1
  9
$PSVPSCALE
 40
0.0
  9
$OLESTARTUP
290
     0
  0
ENDSEC
  0
SECTION
  2
CLASSES
  0
CLASS
  1
ACDBDICTIONARYWDFLT
  2
AcDbDictionaryWithDefault
  3
AutoCAD 2000
 90
        0
280
     0
281
     0
  0
CLASS
  1
ACDBPLACEHOLDER
  2
AcDbPlaceHolder
  3
AutoCAD 2000
 90
        0
280
     0
281
     0
  0
CLASS
  1
LAYOUT
  2
AcDbLayout
  3
AutoCAD 2000
 90
        0
280
     0
281
     0
  0
CLASS
  1
LONG_TRANSACTION
  2
AcDbLongTransaction
  3
AutoCAD 2000
 90
    32768
280
     0
281
     0
  0
CLASS
  1
LWPOLYLINE
  2
AcDbPolyline
  3
AutoCAD 2000
 90
    32768
280
     0
281
     1
  0
CLASS
  1
HATCH
  2
AcDbHatch
  3
AutoCAD 2000
 90
    32768
280
     0
281
     1
  0
CLASS
  1
XRECORD
  2
AcDbXrecord
  3
AutoCAD 2000
 90
    32768
280
     0
281
     0
  0
CLASS
  1
DICTIONARYVAR
  2
AcDbDictionaryVar
  3
AutoCAD 2000
 90
        0
280
     0
281
     0
  0
ENDSEC
  0
SECTION
  2
TABLES
  0
TABLE
  2
VPORT
  5
8
330
0
100
AcDbSymbolTable
 70
     2
  0
VPORT
  5
3BC2
330
8
100
AcDbSymbolTableRecord
100
AcDbViewportTableRecord
  2
*Active
 70
     0
 10
0.0
 20
0.0
 11
1.0
 21
1.0
 12
-1985.822859040973
 22
-193.4970199631777
 13
0.0
 23
0.0
 14
10.0
 24
10.0
 15
10.0
 25
10.0
 16
0.0
 26
0.0
 36
1.0
 17
0.0
 27
0.0
 37
0.0
 40
1313.73112557399
 41
2.031862745098039
 42
50.0
 43
0.0
 44
0.0
 50
0.0
 51
0.0
 71
     0
 72
   100
 73
     1
 74
     3
 75
     0
 76
     0
 77
     0
 78
     0
281
     0
 65
     1
110
0.0
120
0.0
130
0.0
111
1.0
121
0.0
131
0.0
112
0.0
122
1.0
132
0.0
 79
     0
146
0.0
  0
ENDTAB
  0
TABLE
  2
LTYPE
  5
5
330
0
100
AcDbSymbolTable
 70
     4
  0
LTYPE
  5
14
330
5
100
AcDbSymbolTableRecord
100
AcDbLinetypeTableRecord
  2
ByBlock
 70
     0
  3

 72
    65
 73
     0
 40
0.0
  0
LTYPE
  5
15
330
5
100
AcDbSymbolTableRecord
100
AcDbLinetypeTableRecord
  2
ByLayer
 70
     0
  3

 72
    65
 73
     0
 40
0.0
  0
LTYPE
  5
16
330
5
100
AcDbSymbolTableRecord
100
AcDbLinetypeTableRecord
  2
Continuous
 70
     0
  3
Solid line
 72
    65
 73
     0
 40
0.0
  0
LTYPE
  5
33
330
5
100
AcDbSymbolTableRecord
100
AcDbLinetypeTableRecord
  2
IZOLACE
 70
     0
  3
Izolace SSSSSSSSSSSSSSSSSSSSSSSSSSSSSSSSSSSSSSS
 72
    65
 73
     4
 40
10.16253999999999
 49
0.00254
 74
     0
 49
-2.54
 74
     4
 75
   134
340
3D
 46
2.54
 50
0.0
 44
-2.54
 45
0.0
 49
-5.08
 74
     4
 75
   134
340
3D
 46
2.54
 50
180.0
 44
2.54
 45
0.0
 49
-2.54
 74
     0
  0
LTYPE
  5
34
330
5
100
AcDbSymbolTableRecord
100
AcDbLinetypeTableRecord
  2
DASHED
 70
     0
  3
Dashed __ __ __ __ __ __ __ __ __ __ __ __ __ _
 72
    65
 73
     2
 40
19.04999999999999
 49
12.7
 74
     0
 49
-6.349999999999999
 74
     0
  0
LTYPE
  5
35
330
5
100
AcDbSymbolTableRecord
100
AcDbLinetypeTableRecord
  2
DASHDOT2
 70
     0
  3
Dash dot (.5x) _._._._._._._._._._._._._._._.
 72
    65
 73
     4
 40
12.7
 49
6.349999999999999
 74
     0
 49
-3.174999999999999
 74
     0
 49
0.0
 74
     0
 49
-3.174999999999999
 74
     0
  0
ENDTAB
  0
TABLE
  2
LAYER
  5
2
330
0
100
AcDbSymbolTable
 70
     8
  0
LAYER
  5
10
330
2
100
AcDbSymbolTableRecord
100
AcDbLayerTableRecord
  2
0
 70
     0
 62
     7
  6
Continuous
370
    -3
390
F
  0
LAYER
  5
36
330
2
100
AcDbSymbolTableRecord
100
AcDbLayerTableRecord
  2
POPIS
 70
     0
 62
    30
  6
Continuous
370
    -3
390
F
  0
LAYER
  5
37
330
2
100
AcDbSymbolTableRecord
100
AcDbLayerTableRecord
  2
SPOJOVACÍ
 70
     0
 62
   180
  6
Continuous
370
    -3
390
F
  0
LAYER
  5
38
330
2
100
AcDbSymbolTableRecord
100
AcDbLayerTableRecord
  2
CETRIS
 70
     0
 62
     1
  6
Continuous
370
    -3
390
F
  0
LAYER
  5
39
330
2
100
AcDbSymbolTableRecord
100
AcDbLayerTableRecord
  2
NOSNÉ KONSTRUKCE
 70
     0
 62
    33
  6
Continuous
370
    -3
390
F
  0
LAYER
  5
3B
330
2
100
AcDbSymbolTableRecord
100
AcDbLayerTableRecord
  2
STAVBA OBRYS
 70
     0
 62
     6
  6
Continuous
370
    -3
390
F
  0
LAYER
  5
37AB
330
2
100
AcDbSymbolTableRecord
100
AcDbLayerTableRecord
  2
Defpoints
 70
     0
 62
     7
  6
Continuous
290
     0
370
    -3
390
F
  0
LAYER
  5
3B82
330
2
100
AcDbSymbolTableRecord
100
AcDbLayerTableRecord
  2
PROFILY
 70
     0
 62
    73
  6
Continuous
370
    -3
390
F
  0
ENDTAB
  0
TABLE
  2
STYLE
  5
3
330
0
100
AcDbSymbolTable
 70
     3
  0
STYLE
  5
11
330
3
100
AcDbSymbolTableRecord
100
AcDbTextStyleTableRecord
  2
Standard
 70
     0
 40
0.0
 41
1.0
 50
0.0
 71
     0
 42
2.5
  3
txt
  4

  0
STYLE
  5
3C
330
3
100
AcDbSymbolTableRecord
100
AcDbTextStyleTableRecord
  2
SIMPLEX7
 70
     0
 40
0.0
 41
0.85
 50
0.0
 71
     0
 42
102.0
  3
ARIAL.TTF
  4

1001
ACAD
1000
Arial CE
1071
    60962
  0
STYLE
  5
3D
330
3
100
AcDbSymbolTableRecord
100
AcDbTextStyleTableRecord
  2

 70
     1
 40
0.0
 41
1.0
 50
0.0
 71
     0
 42
2.5
  3
ltypeshp.shx
  4

  0
ENDTAB
  0
TABLE
  2
VIEW
  5
6
330
0
100
AcDbSymbolTable
 70
     0
  0
ENDTAB
  0
TABLE
  2
UCS
  5
7
330
0
100
AcDbSymbolTable
 70
     0
  0
ENDTAB
  0
TABLE
  2
APPID
  5
9
330
0
100
AcDbSymbolTable
 70
     1
  0
APPID
  5
12
330
9
100
AcDbSymbolTableRecord
100
AcDbRegAppTableRecord
  2
ACAD
 70
     0
  0
ENDTAB
  0
TABLE
  2
DIMSTYLE
  5
A
330
0
100
AcDbSymbolTable
 70
     1
100
AcDbDimStyleTable
 71
     0
  0
DIMSTYLE
105
27
330
A
100
AcDbSymbolTableRecord
100
AcDbDimStyleTableRecord
  2
ISO-25
 70
     0
 41
2.5
 42
0.625
 43
3.75
 44
1.25
 73
     0
 74
     0
 77
     1
 78
     8
140
2.5
141
2.5
143
0.03937007874016
147
0.625
171
     3
172
     1
271
     2
272
     2
274
     3
278
    44
283
     0
284
     8
340
11
  0
ENDTAB
  0
TABLE
  2
BLOCK_RECORD
  5
1
330
0
100
AcDbSymbolTable
 70
     3
  0
BLOCK_RECORD
  5
1F
102
{ACAD_XDICTIONARY
360
3B33
102
}
330
1
100
AcDbSymbolTableRecord
100
AcDbBlockTableRecord
  2
*Model_Space
340
22
  0
BLOCK_RECORD
  5
1B
102
{ACAD_XDICTIONARY
360
3B35
102
}
330
1
100
AcDbSymbolTableRecord
100
AcDbBlockTableRecord
  2
*Paper_Space
340
1E
  0
BLOCK_RECORD
  5
23
102
{ACAD_XDICTIONARY
360
3B37
102
}
330
1
100
AcDbSymbolTableRecord
100
AcDbBlockTableRecord
  2
*Paper_Space0
340
26
  0
BLOCK_RECORD
  5
2B
330
1
100
AcDbSymbolTableRecord
100
AcDbBlockTableRecord
  2
E_PUNKT
340
0
102
{BLKREFS
331
396F
331
3970
331
3971
331
3972
331
397C
331
397D
331
3AD7
331
3BA1
102
}
  0
BLOCK_RECORD
  5
3B7E
330
1
100
AcDbSymbolTableRecord
100
AcDbBlockTableRecord
  2
_ArchTick
340
0
102
{BLKREFS
331
3BA9
331
3BAC
102
}
  0
ENDTAB
  0
ENDSEC
  0
SECTION
  2
BLOCKS
  0
BLOCK
  5
20
330
1F
100
AcDbEntity
  8
0
100
AcDbBlockBegin
  2
*Model_Space
 70
     0
 10
0.0
 20
0.0
 30
0.0
  3
*Model_Space
  1

  0
ENDBLK
  5
21
330
1F
100
AcDbEntity
  8
0
100
AcDbBlockEnd
  0
BLOCK
  5
1C
330
1B
100
AcDbEntity
 67
     1
  8
0
100
AcDbBlockBegin
  2
*Paper_Space
 70
     0
 10
0.0
 20
0.0
 30
0.0
  3
*Paper_Space
  1

  0
ENDBLK
  5
1D
330
1B
100
AcDbEntity
 67
     1
  8
0
100
AcDbBlockEnd
  0
BLOCK
  5
24
330
23
100
AcDbEntity
  8
0
100
AcDbBlockBegin
  2
*Paper_Space0
 70
     0
 10
0.0
 20
0.0
 30
0.0
  3
*Paper_Space0
  1

  0
ENDBLK
  5
25
330
23
100
AcDbEntity
  8
0
100
AcDbBlockEnd
  0
BLOCK
  5
2D
330
2B
100
AcDbEntity
  8
0
100
AcDbBlockBegin
  2
E_PUNKT
 70
     0
 10
0.0
 20
0.0
 30
0.0
  3
E_PUNKT
  1

  0
LWPOLYLINE
  5
2C
330
2B
100
AcDbEntity
  8
POPIS
100
AcDbPolyline
 90
        2
 70
     1
 43
2.5
 10
1.27761037562675
 20
0.0290683308725193
 42
-1.0
 10
-1.222389624373249
 20
0.0290683308725193
 42
-1.0
  0
ENDBLK
  5
2E
330
2B
100
AcDbEntity
  8
0
100
AcDbBlockEnd
  0
BLOCK
  5
3B80
330
3B7E
100
AcDbEntity
  8
0
100
AcDbBlockBegin
  2
_ArchTick
 70
     0
 10
0.0
 20
0.0
 30
0.0
  3
_ArchTick
  1

  0
LWPOLYLINE
  5
3B7F
330
3B7E
100
AcDbEntity
  8
0
  6
ByBlock
 62
     0
100
AcDbPolyline
 90
        2
 70
     0
 43
0.15
 10
-0.5
 20
-0.5
 10
0.5
 20
0.5
  0
ENDBLK
  5
3B81
330
3B7E
100
AcDbEntity
  8
0
100
AcDbBlockEnd
  0
ENDSEC
  0
SECTION
  2
ENTITIES
  0
HATCH
  5
395C
330
1F
100
AcDbEntity
  8
STAVBA OBRYS
100
AcDbHatch
 10
0.0
 20
0.0
 30
0.0
210
0.0
220
0.0
230
1.0
  2
AR-SAND
 70
     0
 71
     0
 91
        1
 92
        7
 72
     0
 73
     1
 93
        6
 10
-1566.493306047168
 20
63.18034590977777
 10
-1763.439147853125
 20
63.18034590977777
 10
-1763.439147853126
 20
227.9380472572725
 10
-1773.439147853124
 20
227.9380472572726
 10
-1773.439147853126
 20
53.18034590977777
 10
-1566.493306047168
 20
53.18034590977777
 97
        0
 75
     0
 76
     1
 52
0.0
 41
0.1
 77
     0
 78
     4
 53
37.5
 43
-12297.26140341488
 44
1237.547418918819
 45
-0.1600031295984046
 46
4.894132373293423
 79
     6
 49
0.0
 49
-3.8608
 49
0.0
 49
-4.318
 49
0.0
 49
-4.1275
 53
7.499999999999999
 43
-12297.26140341488
 44
1237.547418918819
 45
4.495232831380026
 46
7.168251005683543
 79
     6
 49
0.0
 49
-2.0828
 49
0.0
 49
-3.4798
 49
0.0
 49
-1.3335
 53
327.4999999999999
 43
-12300.38560341489
 44
1237.547418918819
 45
7.909923702414579
 46
0.0143718467854569
 79
     6
 49
0.0
 49
-1.27
 49
0.0
 49
-4.572
 49
0.0
 49
-5.969
 53
317.5
 43
-12300.38560341489
 44
1237.547418918819
 45
7.635564524722972
 46
2.229293232572162
 79
     6
 49
0.0
 49
-0.635
 49
0.0
 49
-2.997199999999999
 49
0.0
 49
-3.429
 47
0.8733352055991284
 98
        1
 10
-1678.826584653357
 20
61.2507671814842
  0
LINE
  5
395D
330
1F
100
AcDbEntity
  8
STAVBA OBRYS
100
AcDbLine
 10
-1763.439147853125
 20
63.18034590977777
 30
0.0
 11
-1566.493306047166
 21
63.18034590977777
 31
0.0
  0
LINE
  5
395E
330
1F
100
AcDbEntity
  8
STAVBA OBRYS
100
AcDbLine
 10
-1763.439147853125
 20
227.9380472572725
 30
0.0
 11
-1763.439147853125
 21
63.18034590977777
 31
0.0
  0
TEXT
  5
395F
330
1F
100
AcDbEntity
  8
POPIS
100
AcDbText
 10
-2326.35610692617
 20
289.408422754414
 30
0.0
 40
35.0
  1
PŮDORYS-ŘEŠENÍ S PŘESAHEM
 41
0.75
  7
SIMPLEX7
100
AcDbText
  0
LWPOLYLINE
  5
3960
330
1F
100
AcDbEntity
  8
STAVBA OBRYS
  6
DASHED
100
AcDbPolyline
 90
        4
 70
     1
 43
0.0
 10
-1597.082144353944
 20
-265.1482053396962
 10
-1597.082144353944
 20
-259.7749240148427
 10
-1647.201716372966
 20
-259.7749240148427
 10
-1647.201716372966
 20
-265.1482053396962
  0
LINE
  5
3961
330
1F
100
AcDbEntity
  8
STAVBA OBRYS
  6
DASHED
100
AcDbLine
 10
-1622.141930363455
 20
-95.61573164066112
 30
0.0
 11
-1628.704430363455
 21
-99.4045927822176
 31
0.0
  0
LINE
  5
3962
330
1F
100
AcDbEntity
  8
STAVBA OBRYS
  6
DASHED
100
AcDbLine
 10
-1622.141930363455
 20
-95.61573164066112
 30
0.0
 11
-1615.579430363455
 21
-99.4045927822176
 31
0.0
  0
LINE
  5
3963
330
1F
100
AcDbEntity
  8
STAVBA OBRYS
  6
DASHED
100
AcDbLine
 10
-1615.579430363455
 20
-99.4045927822176
 30
0.0
 11
-1615.579430363457
 21
-259.7749240148427
 31
0.0
  0
LINE
  5
3964
330
1F
100
AcDbEntity
  8
STAVBA OBRYS
  6
DASHED
100
AcDbLine
 10
-1628.704430363455
 20
-99.4045927822176
 30
0.0
 11
-1628.704430363456
 21
-259.7749240148427
 31
0.0
  0
LINE
  5
3965
330
1F
100
AcDbEntity
  8
STAVBA OBRYS
  6
DASHDOT2
100
AcDbLine
 10
-1622.141930363456
 20
-293.533168516517
 30
0.0
 11
-1622.141930363455
 21
-80.75667945041869
 31
0.0
  0
LWPOLYLINE
  5
3966
330
1F
100
AcDbEntity
  8
NOSNÉ KONSTRUKCE
100
AcDbPolyline
 90
        4
 70
     1
 43
0.0
 10
-1948.937300652854
 20
-312.5957702661703
 10
-1948.937300652854
 20
-315.3493632364348
 10
-2145.250384959122
 20
-315.3493632364348
 10
-2145.250384959122
 20
-312.5957702661703
  0
LWPOLYLINE
  5
3967
330
1F
100
AcDbEntity
  8
NOSNÉ KONSTRUKCE
100
AcDbPolyline
 90
        4
 70
     1
 43
0.0
 10
-2145.250384959122
 20
-120.8296147277228
 10
-2142.496791988858
 20
-120.8296147277228
 10
-2142.496791988858
 20
-315.3493632364348
 10
-2145.250384959122
 20
-315.3493632364348
  0
HATCH
  5
3968
330
1F
100
AcDbEntity
  8
NOSNÉ KONSTRUKCE
100
AcDbHatch
 10
0.0
 20
0.0
 30
0.0
210
0.0
220
0.0
230
1.0
  2
SOLID
 70
     1
 71
     0
 91
        9
 92
        7
 72
     0
 73
     1
 93
        4
 10
-2142.496791988856
 20
-120.8296147277224
 10
-2145.250384959122
 20
-120.8296147277228
 10
-2145.25038495912
 20
-124.8572724711816
 10
-2142.49679198886
 20
-124.8572724711812
 97
        0
 92
        7
 72
     1
 73
     1
 93
        6
 10
-2142.49679198886
 20
-129.2781150494715
 42
0.0
 10
-2145.250384959122
 20
-129.2781150494715
 42
0.0
 10
-2145.25038495912
 20
-177.4988877379196
 42
0.0
 10
-2144.882539285712
 20
-177.4988877379196
 42
-0.0219507802188373
 10
-2144.887353013254
 20
-177.389292359895
 42
-0.8086719427280632
 10
-2142.496791988858
 20
-176.877803797337
 42
0.0
 97
        0
 92
        7
 72
     1
 73
     1
 93
        5
 10
-2142.496791988858
 20
-177.9007809224531
 42
-0.7729996609236557
 10
-2144.882539285712
 20
-177.4988877379196
 42
0.0
 10
-2145.250384959122
 20
-177.4988877379196
 42
0.0
 10
-2145.25038495912
 20
-228.1335668443912
 42
0.0
 10
-2142.49679198886
 20
-228.1335668443912
 42
0.0
 97
        0
 92
        7
 72
     0
 73
     1
 93
        4
 10
-2142.496791988858
 20
-228.1335668443912
 10
-2145.250384959122
 20
-228.1335668443907
 10
-2145.250384959122
 20
-283.7469317349205
 10
-2142.496791988858
 20
-283.7469317349205
 97
        0
 92
        7
 72
     0
 73
     1
 93
        4
 10
-2142.496791988858
 20
-289.4308721927209
 10
-2145.250384959122
 20
-289.4308721927209
 10
-2145.25038495912
 20
-312.5957702661708
 10
-2142.496791988858
 20
-312.5957702661708
 97
        0
 92
        7
 72
     0
 73
     1
 93
        4
 10
-2142.496791988856
 20
-312.5957702661708
 10
-2145.250384959122
 20
-312.5957702661703
 10
-2145.25038495912
 20
-315.3493632364348
 10
-2142.496791988858
 20
-315.3493632364348
 97
        0
 92
        7
 72
     0
 73
     1
 93
        4
 10
-2119.64855689655
 20
-312.5957702661703
 10
-2142.496791988858
 20
-312.5957702661703
 10
-2142.496791988858
 20
-315.3493632364348
 10
-2119.648556896552
 20
-315.3493632364348
 97
        0
 92
        7
 72
     0
 73
     1
 93
        4
 10
-1962.387682853802
 20
-312.5957702661703
 10
-2113.964616438748
 20
-312.5957702661708
 10
-2113.964616438746
 20
-315.3493632364348
 10
-1962.3876828538
 20
-315.3493632364352
 97
        0
 92
        7
 72
     0
 73
     1
 93
        4
 10
-1948.937300652854
 20
-312.5957702661708
 10
-1957.966840275511
 20
-312.5957702661703
 10
-1957.966840275511
 20
-315.3493632364348
 10
-1948.937300652854
 20
-315.3493632364348
 97
        0
 75
     0
 76
     1
 47
0.407716661894762
 98
        9
 10
-2143.884892311892
 20
-122.2645893244384
 10
-2143.476930362302
 20
-145.0967193594201
 10
-2143.476930362302
 20
-205.8465206427877
 10
-2143.068968412705
 20
-260.8882674077554
 10
-2143.068968412705
 20
-306.1448206170839
 10
-2143.884892311892
 20
-313.4837201857458
 10
-2137.765403710843
 20
-313.076013325111
 10
-2085.953583183748
 20
-313.4837201857458
 10
-1950.916486189358
 20
-314.2991515147382
  0
HATCH
  5
3969
330
1F
100
AcDbEntity
  8
NOSNÉ KONSTRUKCE
100
AcDbHatch
 10
0.0
 20
0.0
 30
0.0
210
0.0
220
0.0
230
1.0
  2
SOLID
 70
     1
 71
     1
 91
       12
 92
        7
 72
     0
 73
     1
 93
        4
 10
-2010.032018427773
 20
-56.10781650818672
 10
-2012.994899507953
 20
-56.10781650818603
 10
-2012.994899507953
 20
-58.66918918185229
 10
-2010.032018427771
 20
-60.55350098834174
 97
        4
330
3A64
330
3A4E
330
3973
330
3AFC
 92
        7
 72
     0
 73
     1
 93
        4
 10
-2010.032018427773
 20
-60.55350098833947
 10
-2012.994899507953
 20
-58.66918918185206
 10
-2012.994899507953
 20
-74.93868017771979
 10
-2010.032018427773
 20
-74.93868017772001
 97
        4
330
3973
330
3A4E
330
3B05
330
3AFC
 92
        7
 72
     0
 73
     1
 93
        4
 10
-2010.032018427773
 20
-74.93868017771979
 10
-2012.994899507953
 20
-74.93868017772001
 10
-2012.994899507953
 20
-81.50118017772001
 10
-2010.032018427771
 20
-81.50118017772024
 97
        4
330
3B05
330
3A4E
330
3B03
330
3AFC
 92
        7
 72
     0
 73
     1
 93
        4
 10
-2010.032018427773
 20
-81.50118017772024
 10
-2012.994899507955
 20
-81.50118017772001
 10
-2012.994899507955
 20
-88.06368017772001
 10
-2010.032018427773
 20
-88.06368017772024
 97
        4
330
3B03
330
3A4E
330
3B04
330
3AFC
 92
        7
 72
     0
 73
     1
 93
        4
 10
-2010.032018427773
 20
-88.06368017772024
 10
-2012.994899507955
 20
-88.06368017772001
 10
-2012.994899507955
 20
-106.8945438472574
 10
-2010.032018427773
 20
-106.8945438472578
 97
        4
330
3B04
330
3A4E
330
3A93
330
3AFC
 92
        7
 72
     0
 73
     1
 93
        4
 10
-2010.032018427773
 20
-106.8945438472578
 10
-2051.887929586897
 20
-106.8945438472553
 10
-2051.885811926956
 20
-108.3319742577302
 10
-2010.032018427773
 20
-108.3319742577325
 97
        4
330
3A93
330
3AFB
330
3A94
330
3AFC
 92
        7
 72
     0
 73
     1
 93
        4
 10
-2051.887929586897
 20
-106.8945438472551
 10
-2093.703431359517
 20
-106.8945438472524
 10
-2093.703431359517
 20
-108.3319742577275
 10
-2051.885811926956
 20
-108.33197425773
 97
        4
330
3A93
330
3AFA
330
3A94
330
3AFB
 92
        7
 72
     0
 73
     1
 93
        6
 10
-2077.991295826781
 20
-108.3319742577284
 10
-2080.783654098687
 20
-108.3319742577282
 10
-2084.788762458689
 20
-110.6130313533444
 10
-2093.703431359517
 20
-110.6130313533444
 10
-2093.703431359517
 20
-112.0504617638196
 10
-2083.647840657311
 20
-112.0504617638193
 97
        6
330
3A94
330
3A66
330
3A7A
330
3AFA
330
3A79
330
3A67
 92
        7
 72
     0
 73
     1
 93
        4
 10
-2093.703431359519
 20
-110.6130313533447
 10
-2122.375267920387
 20
-110.6130313533444
 10
-2122.375267920387
 20
-112.0504617638193
 10
-2093.703431359519
 20
-112.0504617638193
 97
        4
330
3A7A
330
3A91
330
3A79
330
3AFA
 92
        7
 72
     0
 73
     1
 93
        4
 10
-2093.703431359519
 20
-106.8945438472526
 10
-2122.375267920387
 20
-106.8945438472508
 10
-2122.375267920387
 20
-108.3319742577255
 10
-2093.703431359519
 20
-108.3319742577273
 97
        4
330
3A93
330
3A91
330
3A94
330
3AFA
 92
        7
 72
     0
 73
     1
 93
        4
 10
-2126.796110498682
 20
-106.8945438472501
 10
-2138.017840626614
 20
-106.8945438472496
 10
-2138.017840626616
 20
-108.3319742577246
 10
-2126.79611049868
 20
-108.3319742577255
 97
        4
330
3A93
330
3A73
330
3A94
330
3A92
 92
        7
 72
     0
 73
     1
 93
        4
 10
-2126.796110498682
 20
-110.6130313533444
 10
-2138.017840626614
 20
-110.6130313533444
 10
-2138.017840626618
 20
-112.0504617638193
 10
-2126.79611049868
 20
-112.0504617638193
 97
        4
330
3A7A
330
3A74
330
3A79
330
3A92
 75
     0
 76
     1
 47
0.2654489300344482
 98
       12
 10
-2011.38973803235
 20
-57.59001291217055
 10
-2011.124114618348
 20
-66.34982063196503
 10
-2011.655331767757
 20
-77.76413368086787
 10
-2011.38973803235
 20
-84.66581584264487
 10
-2011.38973803235
 20
-96.08011128382486
 10
-2022.27982314883
 20
-107.7598607794584
 10
-2072.746105271395
 20
-107.7598607794584
 10
-2082.308132675064
 20
-110.4143485008439
 10
-2113.915953725696
 20
-111.2107106642083
 10
-2113.384736576288
 20
-107.4944243327277
 10
-2134.899283395254
 20
-107.7598607794584
 10
-2134.102442831852
 20
-111.4761471109427
  0
HATCH
  5
396A
330
1F
100
AcDbEntity
  8
NOSNÉ KONSTRUKCE
100
AcDbHatch
 10
0.0
 20
0.0
 30
0.0
210
0.0
220
0.0
230
1.0
  2
SOLID
 70
     1
 71
     1
 91
       11
 92
        7
 72
     0
 73
     1
 93
        4
 10
-1916.594518427773
 20
-181.819654090222
 10
-1939.231859129434
 20
-181.8196540902217
 10
-1939.231859129434
 20
-184.8567730100398
 10
-1916.594518427773
 20
-184.8567730100407
 97
        4
330
3B00
330
3A1C
330
39FF
330
3A01
 92
        7
 72
     0
 73
     1
 93
        4
 10
-1888.445131790361
 20
-181.8196540902222
 10
-1903.469518427774
 20
-181.819654090222
 10
-1903.469518427774
 20
-184.8567730100416
 10
-1888.445131790361
 20
-184.8567730100426
 97
        4
330
3B00
330
3A00
330
39FF
330
39FB
 92
        7
 72
     0
 73
     1
 93
        4
 10
-1939.231859129423
 20
-298.6208650809471
 10
-1940.6692895399
 20
-298.6208650809471
 10
-1940.669289539896
 20
-309.8425952088825
 10
-1939.231859129423
 20
-309.8425952088821
 97
        4
330
3A0A
330
3A1B
330
3A0C
330
3A1C
 92
        7
 72
     0
 73
     1
 93
        4
 10
-1942.950346635519
 20
-298.6208650809471
 10
-1944.387777045992
 20
-298.6208650809473
 10
-1944.387777045992
 20
-309.8425952088827
 10
-1942.950346635519
 20
-309.8425952088819
 97
        4
330
3A0A
330
3A20
330
3A0B
330
3A1F
 92
        7
 72
     0
 73
     1
 93
        4
 10
-1942.950346635518
 20
-265.1482053396962
 10
-1944.387777045996
 20
-265.148205339696
 10
-1944.387777045998
 20
-294.200022502657
 10
-1942.950346635521
 20
-294.200022502657
 97
        4
330
3AFE
330
3A20
330
3A11
330
3A1F
 92
        7
 72
     0
 73
     1
 93
        4
 10
-1939.231859129425
 20
-265.1482053396962
 10
-1940.669289539902
 20
-265.1482053396964
 10
-1940.6692895399
 20
-294.2000225026572
 10
-1939.231859129425
 20
-294.2000225026572
 97
        4
330
3AFE
330
3A1B
330
3A11
330
3A1C
 92
        7
 72
     0
 73
     1
 93
        4
 10
-1939.231859129433
 20
-223.5596264792475
 10
-1940.669289539906
 20
-223.5617441391871
 10
-1940.669289539902
 20
-265.1482053396962
 10
-1939.231859129427
 20
-265.148205339696
 97
        4
330
3AFF
330
3A1B
330
3AFE
330
3A1C
 92
        7
 72
     0
 73
     1
 93
        6
 10
-1942.950346635519
 20
-256.6135170409568
 10
-1940.669289539902
 20
-252.6084086809542
 10
-1940.669289539902
 20
-249.8160504090469
 10
-1944.387777045992
 20
-255.4725952395774
 10
-1944.387777045994
 20
-265.1482053396962
 10
-1942.950346635519
 20
-265.1482053396962
 97
        6
330
39F7
330
3A1B
330
39F6
330
3A20
330
3AFE
330
3A1F
 92
        7
 72
     0
 73
     1
 93
        4
 10
-1939.231859129433
 20
-181.8196540902222
 10
-1940.669289539909
 20
-181.8196540902222
 10
-1940.669289539909
 20
-223.5617441391873
 10
-1939.231859129431
 20
-223.5596264792472
 97
        4
330
3B00
330
3A1B
330
3AFF
330
3A1C
 92
        7
 72
     0
 73
     1
 93
        4
 10
-1903.469518427773
 20
-181.819654090222
 10
-1910.032018427771
 20
-181.819654090222
 10
-1910.032018427771
 20
-184.8567730100412
 10
-1903.469518427773
 20
-184.8567730100419
 97
        4
330
3B00
330
3A02
330
39FF
330
3A00
 92
        7
 72
     0
 73
     1
 93
        4
 10
-1910.032018427771
 20
-181.819654090222
 10
-1916.594518427773
 20
-181.819654090222
 10
-1916.594518427773
 20
-184.8567730100407
 10
-1910.032018427771
 20
-184.8567730100412
 97
        4
330
3B00
330
3A01
330
39FF
330
3A02
 75
     0
 76
     1
 47
0.2350059666692046
 98
       11
 10
-1932.343712100151
 20
-183.0552447969362
 10
-1893.539633388881
 20
-183.5114785462733
 10
-1939.999127284583
 20
-304.3660573416577
 10
-1943.996685468791
 20
-305.0710706303557
 10
-1943.761512291977
 20
-284.625544396325
 10
-1939.999127284583
 20
-284.3905517052421
 10
-1940.234270782809
 20
-258.774886936067
 10
-1943.996685468791
 20
-262.0649782962004
 10
-1939.763954107769
 20
-203.5484879643422
 10
-1904.961736976797
 20
-183.5729647202001
 10
-1915.543491182881
 20
-183.1029617303115
  0
CIRCLE
  5
396B
330
1F
100
AcDbEntity
  8
POPIS
100
AcDbCircle
 10
-2100.310608966814
 20
-450.1580818064872
 30
0.0
 40
11.13656048292026
  0
TEXT
  5
396C
330
1F
100
AcDbEntity
  8
POPIS
100
AcDbText
 10
-2104.692892477136
 20
-456.2682431744328
 30
0.0
 40
12.0
  1
R
 41
0.85
  7
SIMPLEX7
100
AcDbText
  0
TEXT
  5
396D
330
1F
100
AcDbEntity
  8
POPIS
100
AcDbText
 10
-2326.35610692617
 20
344.0331657802148
 30
0.0
 40
50.0
  1
VNĚJŠÍ ROH
 41
0.85
  7
SIMPLEX7
100
AcDbText
  0
HATCH
  5
396E
330
1F
100
AcDbEntity
  8
STAVBA OBRYS
100
AcDbHatch
 10
0.0
 20
0.0
 30
0.0
210
0.0
220
0.0
230
1.0
  2
BRICK
 70
     0
 71
     0
 91
        3
 92
        7
 72
     0
 73
     1
 93
       27
 10
-1566.493306047166
 20
53.18034590977777
 10
-1773.439147853124
 20
53.18034590977777
 10
-1773.439147853124
 20
227.9380472572725
 10
-2010.032018427764
 20
227.9380472572726
 10
-2010.032018427769
 20
28.9781456147873
 10
-1927.959818802038
 20
28.97814561478639
 10
-1924.170957660482
 20
22.41564561478685
 10
-1927.959818802038
 20
15.85314561478662
 10
-2010.032018427769
 20
15.85314561478753
 10
-2010.032018427771
 20
-60.55350098834242
 10
-1987.412845152695
 20
-74.93868017772047
 10
-1932.486345185079
 20
-74.93868017772093
 10
-1928.697484043521
 20
-81.5011801777207
 10
-1932.486345185077
 20
-88.06368017772092
 10
-2010.032018427771
 20
-88.06368017772001
 10
-2010.032018427773
 20
-181.8196540902222
 10
-1916.594518427771
 20
-181.8196540902222
 10
-1916.594518427771
 20
-104.3110997673461
 10
-1910.032018427771
 20
-100.5222386257894
 10
-1903.469518427771
 20
-104.3110997673461
 10
-1903.469518427773
 20
-181.8196540902222
 10
-1802.128206326717
 20
-181.8196540902222
 10
-1802.128206326717
 20
-99.40459278221716
 10
-1795.565706326716
 20
-95.61573164066135
 10
-1789.003206326713
 20
-99.40459278221807
 10
-1789.003206326716
 20
-181.8196540902222
 10
-1552.506964341187
 20
-181.8196540902222
 97
        0
 92
       24
 93
        4
 72
     1
 10
-1984.442030396436
 20
15.48868278476084
 11
-1935.584887539292
 21
15.48868278476084
 72
     1
 10
-1935.58488753929
 20
15.48868278476084
 11
-1935.58488753929
 21
-14.51131721523916
 72
     1
 10
-1935.58488753929
 20
-14.51131721523916
 11
-1984.442030396433
 21
-14.51131721523916
 72
     1
 10
-1984.442030396436
 20
-14.51131721523916
 11
-1984.442030396436
 21
15.48868278476084
 97
        0
 92
       24
 93
        4
 72
     1
 10
-1888.794632453947
 20
-156.088988562542
 11
-1888.794632453947
 21
-107.2318457053991
 72
     1
 10
-1888.794632453947
 20
-107.2318457053991
 11
-1858.794632453947
 21
-107.2318457053991
 72
     1
 10
-1858.794632453947
 20
-107.2318457053991
 11
-1858.794632453947
 21
-156.088988562542
 72
     1
 10
-1858.794632453947
 20
-156.088988562542
 11
-1888.794632453947
 21
-156.088988562542
 97
        0
 75
     0
 76
     1
 52
0.0
 41
10.0
 77
     0
 78
     3
 53
0.0
 43
-8305.316439554168
 44
-378.0610156842572
 45
0.0
 46
63.5
 79
     0
 53
90.0
 43
-8305.316439554168
 44
-378.0610156842572
 45
-127.0
 46
0.0000000000000078
 79
     2
 49
63.5
 49
-63.5
 53
90.0
 43
-8241.816439554169
 44
-378.0610156842572
 45
-127.0
 46
0.0000000000000078
 79
     2
 49
-63.5
 49
63.5
 47
3.453225100644859
 98
        1
 10
-1731.388216781469
 20
-53.63841913626811
  0
INSERT
  5
396F
330
1F
100
AcDbEntity
  8
POPIS
100
AcDbBlockReference
  2
E_PUNKT
 10
-2133.580843198805
 20
109.3020572359419
 30
0.0
  0
INSERT
  5
3970
330
1F
100
AcDbEntity
  8
POPIS
100
AcDbBlockReference
  2
E_PUNKT
 10
-2143.720027577368
 20
-77.28103059900968
 30
0.0
  0
INSERT
  5
3971
330
1F
100
AcDbEntity
  8
POPIS
100
AcDbBlockReference
  2
E_PUNKT
 10
-2051.921147763681
 20
-103.1171351460047
 30
0.0
  0
INSERT
  5
3972
330
1F
100
AcDbEntity
  8
POPIS
100
AcDbBlockReference
  2
E_PUNKT
 10
-1981.12575585238
 20
-78.98372580629711
 30
0.0
  0
LINE
  5
3973
102
{ACAD_REACTORS
330
3969
102
}
330
1F
100
AcDbEntity
  8
POPIS
100
AcDbLine
 10
-1981.098145476752
 20
-78.95465747542449
 30
0.0
 11
-2181.386274053602
 21
48.42314648074443
 31
0.0
  0
LINE
  5
3974
330
1F
100
AcDbEntity
  8
POPIS
100
AcDbLine
 10
-2051.893537388055
 20
-103.0880668151321
 30
0.0
 11
-2181.386274053602
 21
15.58867092667696
 31
0.0
  0
TEXT
  5
3975
330
1F
100
AcDbEntity
  8
POPIS
100
AcDbText
 10
-2355.846035226357
 20
34.97980503137432
 30
0.0
 40
25.0
  1
04
 41
0.7
  7
SIMPLEX7
100
AcDbText
  0
LINE
  5
3976
330
1F
100
AcDbEntity
  8
POPIS
100
AcDbLine
 10
-2315.868548883088
 20
48.42314648074489
 30
0.0
 11
-2181.386274053602
 21
48.42314648074443
 31
0.0
  0
TEXT
  5
3977
330
1F
100
AcDbEntity
  8
POPIS
100
AcDbText
 10
-2355.846035226357
 20
2.145329477306859
 30
0.0
 40
25.0
  1
05
 41
0.7
  7
SIMPLEX7
100
AcDbText
  0
LINE
  5
3978
330
1F
100
AcDbEntity
  8
POPIS
100
AcDbLine
 10
-2315.868548883088
 20
15.58867092667742
 30
0.0
 11
-2181.386274053602
 21
15.58867092667696
 31
0.0
  0
LINE
  5
3979
330
1F
100
AcDbEntity
  8
POPIS
100
AcDbLine
 10
-2143.692417201742
 20
-77.25196226813705
 30
0.0
 11
-2181.3862740536
 21
-20.89407776750613
 31
0.0
  0
TEXT
  5
397A
330
1F
100
AcDbEntity
  8
POPIS
100
AcDbText
 10
-2356.403984177638
 20
-241.5768069157197
 30
0.0
 40
25.0
  1
08
 41
0.7
  7
SIMPLEX7
100
AcDbText
  0
LINE
  5
397B
330
1F
100
AcDbEntity
  8
POPIS
100
AcDbLine
 10
-2315.868548883088
 20
-228.1334654663492
 30
0.0
 11
-2079.103692326334
 21
-228.1334654663492
 31
0.0
  0
INSERT
  5
397C
330
1F
100
AcDbEntity
  8
POPIS
100
AcDbBlockReference
  2
E_PUNKT
 10
-2077.886116429504
 20
-228.0529384191972
 30
0.0
  0
INSERT
  5
397D
330
1F
100
AcDbEntity
  8
POPIS
100
AcDbBlockReference
  2
E_PUNKT
 10
-2141.580537264296
 20
-177.4182593127257
 30
0.0
  0
TEXT
  5
397E
330
1F
100
AcDbEntity
  8
POPIS
100
AcDbText
 10
-2356.403984177638
 20
-299.713490633439
 30
0.0
 40
25.0
  1
02
 41
0.7
  7
SIMPLEX7
100
AcDbText
  0
LINE
  5
397F
330
1F
100
AcDbEntity
  8
POPIS
100
AcDbLine
 10
-2315.868548883088
 20
-286.2701491840685
 30
0.0
 11
-2169.747383420231
 21
-286.2701491840685
 31
0.0
  0
TEXT
  5
3980
330
1F
100
AcDbEntity
  8
POPIS
100
AcDbText
 10
-2356.403984177638
 20
-190.9421278092481
 30
0.0
 40
25.0
  1
07
 41
0.7
  7
SIMPLEX7
100
AcDbText
  0
LINE
  5
3981
330
1F
100
AcDbEntity
  8
POPIS
100
AcDbLine
 10
-2315.868548883088
 20
-177.4987863598776
 30
0.0
 11
-2142.798113161126
 21
-177.4987863598776
 31
0.0
  0
TEXT
  5
3982
330
1F
100
AcDbEntity
  8
POPIS
100
AcDbText
 10
-2354.17219998081
 20
155.7804072997955
 30
0.0
 40
25.0
  1
01
 41
0.7
  7
SIMPLEX7
100
AcDbText
  0
TEXT
  5
3983
330
1F
100
AcDbEntity
  8
POPIS
100
AcDbText
 10
-2356.403984177638
 20
95.88778411744442
 30
0.0
 40
25.0
  1
03
 41
0.7
  7
SIMPLEX7
100
AcDbText
  0
LINE
  5
3984
330
1F
100
AcDbEntity
  8
POPIS
100
AcDbLine
 10
-2315.868548883088
 20
169.2237487491661
 30
0.0
 11
-2153.032018427765
 21
169.2237487491652
 31
0.0
  0
LINE
  5
3985
330
1F
100
AcDbEntity
  8
POPIS
100
AcDbLine
 10
-2315.868548883088
 20
109.3311255668145
 30
0.0
 11
-2133.553232823178
 21
109.3311255668145
 31
0.0
  0
TEXT
  5
3986
330
1F
100
AcDbEntity
  8
POPIS
100
AcDbText
 10
-2326.35610692617
 20
-481.0772541131204
 30
0.0
 40
25.0
  1
01
 41
0.85
  7
SIMPLEX7
100
AcDbText
  0
TEXT
  5
3987
330
1F
100
AcDbEntity
  8
POPIS
100
AcDbText
 10
-2326.359752200997
 20
-519.717918902385
 30
0.0
 40
25.0
  1
02
 41
0.85
  7
SIMPLEX7
100
AcDbText
  0
TEXT
  5
3988
330
1F
100
AcDbEntity
  8
POPIS
100
AcDbText
 10
-2326.359752200997
 20
-553.6681071471071
 30
0.0
 40
25.0
  1
03
 41
0.85
  7
SIMPLEX7
100
AcDbText
  0
TEXT
  5
3989
330
1F
100
AcDbEntity
  8
POPIS
100
AcDbText
 10
-2272.016049041248
 20
-483.1229072867568
 30
0.0
 40
25.0
  1
Deska CETRIS   (BASIC,FINISH,LASUR)
 41
0.7
  7
SIMPLEX7
100
AcDbText
  0
TEXT
  5
398A
330
1F
100
AcDbEntity
  8
POPIS
100
AcDbText
 10
-2272.016049041248
 20
-553.6681071471071
 30
0.0
 40
25.0
  1
Vzduchová mezera - min. 25 mm
 41
0.7
  7
SIMPLEX7
100
AcDbText
  0
TEXT
  5
398B
330
1F
100
AcDbEntity
  8
POPIS
100
AcDbText
 10
-2272.016049041248
 20
-519.717918902385
 30
0.0
 40
25.0
  1
Nerezový vrut s podložkou (np. SFS, EJOT)
 41
0.7
  7
SIMPLEX7
100
AcDbText
  0
TEXT
  5
398C
330
1F
100
AcDbEntity
  8
POPIS
100
AcDbText
 10
-2326.359752200997
 20
-734.4234755297561
 30
0.0
 40
25.0
  1
08
 41
0.85
  7
SIMPLEX7
100
AcDbText
  0
TEXT
  5
398D
330
1F
100
AcDbEntity
  8
POPIS
100
AcDbText
 10
-2326.359752200997
 20
-625.1790898524582
 30
0.0
 40
25.0
  1
05
 41
0.85
  7
SIMPLEX7
100
AcDbText
  0
TEXT
  5
398E
330
1F
100
AcDbEntity
  8
POPIS
100
AcDbText
 10
-2326.359752200997
 20
-660.7979785505472
 30
0.0
 40
25.0
  1
06
 41
0.85
  7
SIMPLEX7
100
AcDbText
  0
TEXT
  5
398F
330
1F
100
AcDbEntity
  8
POPIS
100
AcDbText
 10
-2326.359752200997
 20
-698.9813183930723
 30
0.0
 40
25.0
  1
07
 41
0.85
  7
SIMPLEX7
100
AcDbText
  0
TEXT
  5
3990
330
1F
100
AcDbEntity
  8
POPIS
100
AcDbText
 10
-2272.016049041248
 20
-734.4234755297561
 30
0.0
 40
25.0
  1
Tepelná izolace (np. ORSIL, ROCKWOOL, ISOVER, NOBASIL)
 41
0.7
  7
SIMPLEX7
100
AcDbText
  0
TEXT
  5
3991
330
1F
100
AcDbEntity
  8
POPIS
100
AcDbText
 10
-2272.016049041248
 20
-625.1790898524582
 30
0.0
 40
25.0
  1
Upevňovací prvek systému - kotva (np. SPIDI, EuroFox, SPEEDY...)
 41
0.7
  7
SIMPLEX7
100
AcDbText
  0
TEXT
  5
3992
330
1F
100
AcDbEntity
  8
POPIS
100
AcDbText
 10
-2272.016049041248
 20
-660.7979785505472
 30
0.0
 40
25.0
  1
Nosný profil systému - úhelník (np. SPIDI, EuroFox, SPEEDY...)
 41
0.7
  7
SIMPLEX7
100
AcDbText
  0
TEXT
  5
3993
330
1F
100
AcDbEntity
  8
POPIS
100
AcDbText
 10
-2272.016049041248
 20
-698.9813183930723
 30
0.0
 40
25.0
  1
Hliníkový L profil (á 500 mm)
 41
0.7
  7
SIMPLEX7
100
AcDbText
  0
TEXT
  5
3994
330
1F
100
AcDbEntity
  8
POPIS
100
AcDbText
 10
-2272.016049041248
 20
-589.0722683652698
 30
0.0
 40
25.0
  1
Kotevní prvek
 41
0.7
  7
SIMPLEX7
100
AcDbText
  0
TEXT
  5
3995
330
1F
100
AcDbEntity
  8
POPIS
100
AcDbText
 10
-2326.359752200997
 20
-589.0722683652698
 30
0.0
 40
25.0
  1
04
 41
0.85
  7
SIMPLEX7
100
AcDbText
  0
LINE
  5
3998
330
1F
100
AcDbEntity
  8
STAVBA OBRYS
  6
DASHED
100
AcDbLine
 10
-1974.588438035368
 20
-95.61573164066112
 30
0.0
 11
-1981.150938035368
 21
-99.4045927822176
 31
0.0
  0
LINE
  5
3999
330
1F
100
AcDbEntity
  8
STAVBA OBRYS
  6
DASHED
100
AcDbLine
 10
-1974.588438035368
 20
-95.61573164066112
 30
0.0
 11
-1968.025938035368
 21
-99.4045927822176
 31
0.0
  0
LWPOLYLINE
  5
399A
330
1F
100
AcDbEntity
  8
STAVBA OBRYS
  6
DASHED
100
AcDbPolyline
 90
        4
 70
     1
 43
0.0
 10
-1949.528652025857
 20
-265.1482053396962
 10
-1949.528652025857
 20
-259.7749240148427
 10
-1999.64822404488
 20
-259.7749240148427
 10
-1999.64822404488
 20
-265.1482053396962
  0
LINE
  5
399B
330
1F
100
AcDbEntity
  8
STAVBA OBRYS
  6
DASHDOT2
100
AcDbLine
 10
-1974.58843803537
 20
-293.533168516517
 30
0.0
 11
-1974.588438035368
 21
-80.75667945041869
 31
0.0
  0
LINE
  5
399C
330
1F
100
AcDbEntity
  8
STAVBA OBRYS
  6
DASHED
100
AcDbLine
 10
-1968.025938035368
 20
-99.4045927822176
 30
0.0
 11
-1968.02593803537
 21
-259.7749240148427
 31
0.0
  0
LINE
  5
399D
330
1F
100
AcDbEntity
  8
STAVBA OBRYS
  6
DASHED
100
AcDbLine
 10
-1981.150938035368
 20
-99.4045927822176
 30
0.0
 11
-1981.15093803537
 21
-259.7749240148427
 31
0.0
  0
LINE
  5
399E
330
1F
100
AcDbEntity
  8
STAVBA OBRYS
  6
DASHED
100
AcDbLine
 10
-1924.170957660482
 20
85.94154717948914
 30
0.0
 11
-1927.959818802038
 21
92.50404717948914
 31
0.0
  0
LINE
  5
399F
330
1F
100
AcDbEntity
  8
STAVBA OBRYS
  6
DASHED
100
AcDbLine
 10
-1924.170957660482
 20
85.94154717948914
 30
0.0
 11
-1927.959818802038
 21
79.37904717948914
 31
0.0
  0
LWPOLYLINE
  5
39A0
330
1F
100
AcDbEntity
  8
STAVBA OBRYS
  6
DASHED
100
AcDbPolyline
 90
        4
 70
     1
 43
0.0
 10
-2093.703431359517
 20
60.88176116997738
 10
-2088.330150034664
 20
60.88176116997738
 10
-2088.330150034664
 20
111.0013331889999
 10
-2093.703431359517
 20
111.0013331889999
  0
LINE
  5
39A1
330
1F
100
AcDbEntity
  8
STAVBA OBRYS
  6
DASHDOT2
100
AcDbLine
 10
-2122.088394536338
 20
85.94154717949004
 30
0.0
 11
-1909.311905470239
 21
85.94154717948914
 31
0.0
  0
LINE
  5
39A2
330
1F
100
AcDbEntity
  8
STAVBA OBRYS
  6
DASHED
100
AcDbLine
 10
-1927.959818802038
 20
79.37904717948914
 30
0.0
 11
-2088.330150034664
 21
79.37904717949095
 31
0.0
  0
LINE
  5
39A3
330
1F
100
AcDbEntity
  8
STAVBA OBRYS
  6
DASHED
100
AcDbLine
 10
-1927.959818802038
 20
92.50404717948914
 30
0.0
 11
-2088.330150034664
 21
92.50404717949095
 31
0.0
  0
LINE
  5
39A4
330
1F
100
AcDbEntity
  8
STAVBA OBRYS
100
AcDbLine
 10
-1773.439147853124
 20
53.18034590977777
 30
0.0
 11
-1566.493306047166
 21
53.18034590977777
 31
0.0
  0
LINE
  5
39A5
330
1F
100
AcDbEntity
  8
SPOJOVACÍ
  6
DASHED
100
AcDbLine
 10
-1928.697484043522
 20
-81.50118017772092
 30
0.0
 11
-1932.486345185079
 21
-88.06368017772092
 31
0.0
  0
LINE
  5
39A6
330
1F
100
AcDbEntity
  8
SPOJOVACÍ
  6
DASHED
100
AcDbLine
 10
-1938.072484043522
 20
-81.50118017772138
 30
0.0
 11
-1941.320079307713
 21
-87.12618017772138
 31
0.0
  0
LINE
  5
39A7
330
1F
100
AcDbEntity
  8
SPOJOVACÍ
100
AcDbLine
 10
-1946.524140709577
 20
-82.87702508283519
 30
0.0
 11
-1945.758487765531
 21
-80.0195693946871
 31
0.0
  0
LINE
  5
39A8
330
1F
100
AcDbEntity
  8
SPOJOVACÍ
100
AcDbLine
 10
-1944.60709188467
 20
-82.72009673187904
 30
0.0
 11
-1943.934192770078
 21
-80.20880304785078
 31
0.0
  0
LINE
  5
39A9
330
1F
100
AcDbEntity
  8
SPOJOVACÍ
100
AcDbLine
 10
-1942.687160478724
 20
-82.55241044203286
 30
0.0
 11
-1942.102930942178
 21
-80.37203612835583
 31
0.0
  0
LINE
  5
39AA
330
1F
100
AcDbEntity
  8
SPOJOVACÍ
100
AcDbLine
 10
-1940.764329304086
 20
-82.3739020680955
 30
0.0
 11
-1940.2741756712
 21
-80.54462380665199
 31
0.0
  0
LINE
  5
39AB
330
1F
100
AcDbEntity
  8
SPOJOVACÍ
100
AcDbLine
 10
-1936.909896724209
 20
-81.98415437402946
 30
0.0
 11
-1936.624158628735
 21
-80.91776528407081
 31
0.0
  0
LINE
  5
39AC
330
1F
100
AcDbEntity
  8
SPOJOVACÍ
100
AcDbLine
 10
-1934.978258738192
 20
-81.77277853258193
 30
0.0
 11
-1934.802884343882
 21
-81.11827238266597
 31
0.0
  0
LINE
  5
39AD
330
1F
100
AcDbEntity
  8
SPOJOVACÍ
100
AcDbLine
 10
-1933.043647799957
 20
-81.55030748239779
 30
0.0
 11
-1932.98409158386
 21
-81.32804065801565
 31
0.0
  0
LINE
  5
39AE
330
1F
100
AcDbEntity
  8
SPOJOVACÍ
100
AcDbLine
 10
-1938.838580740397
 20
-82.18450585000027
 30
0.0
 11
-1938.447920356825
 21
-80.72654145000843
 31
0.0
  0
LINE
  5
39AF
330
1F
100
AcDbEntity
  8
SPOJOVACÍ
  6
DASHED
100
AcDbLine
 10
-1938.072484043522
 20
-81.50118017772092
 30
0.0
 11
-1941.320079307713
 21
-75.87618017772093
 31
0.0
  0
LINE
  5
39B0
330
1F
100
AcDbEntity
  8
SPOJOVACÍ
  6
DASHED
100
AcDbLine
 10
-1928.697484043522
 20
-81.50118017772092
 30
0.0
 11
-1932.486345185079
 21
-74.93868017772093
 31
0.0
  0
LINE
  5
39B1
330
1F
100
AcDbEntity
  8
SPOJOVACÍ
100
AcDbLine
 10
-1909.549044231461
 20
-108.7346513064753
 30
0.0
 11
-1910.615433321421
 21
-108.4489132110034
 31
0.0
  0
LINE
  5
39B2
330
1F
100
AcDbEntity
  8
SPOJOVACÍ
100
AcDbLine
 10
-1909.34869275549
 20
-110.6633353226648
 30
0.0
 11
-1910.806657155483
 21
-110.2726749390935
 31
0.0
  0
LINE
  5
39B3
330
1F
100
AcDbEntity
  8
SPOJOVACÍ
  6
DASHED
100
AcDbLine
 10
-1910.032018427771
 20
-100.5222386257896
 30
0.0
 11
-1916.594518427771
 21
-104.3110997673461
 31
0.0
  0
LINE
  5
39B4
330
1F
100
AcDbEntity
  8
SPOJOVACÍ
  6
DASHED
100
AcDbLine
 10
-1910.032018427771
 20
-100.5222386257896
 30
0.0
 11
-1903.469518427771
 21
-104.3110997673461
 31
0.0
  0
LINE
  5
39B5
330
1F
100
AcDbEntity
  8
SPOJOVACÍ
100
AcDbLine
 10
-1909.76042007291
 20
-106.8030133204597
 30
0.0
 11
-1910.414926222827
 21
-106.6276389261488
 31
0.0
  0
LINE
  5
39B6
330
1F
100
AcDbEntity
  8
SPOJOVACÍ
100
AcDbLine
 10
-1909.982891123094
 20
-104.8684023822247
 30
0.0
 11
-1910.205157947476
 21
-104.8088461661277
 31
0.0
  0
LINE
  5
39B7
330
1F
100
AcDbEntity
  8
SPOJOVACÍ
100
AcDbLine
 10
-1907.579330574149
 20
-152.3874344902728
 30
0.0
 11
-1912.609004960544
 21
-151.0397373002465
 31
0.0
  0
LINE
  5
39B8
330
1F
100
AcDbEntity
  8
SPOJOVACÍ
100
AcDbLine
 10
-1907.643909644351
 20
-154.2451305805639
 30
0.0
 11
-1912.578541130067
 21
-152.9229000590207
 31
0.0
  0
LINE
  5
39B9
330
1F
100
AcDbEntity
  8
SPOJOVACÍ
100
AcDbLine
 10
-1909.003526681398
 20
-153.8808222934708
 30
0.0
 11
-1910.834707384859
 21
-153.3901589027832
 31
0.0
  0
LINE
  5
39BA
330
1F
100
AcDbEntity
  8
SPOJOVACÍ
100
AcDbLine
 10
-1908.289998533596
 20
-169.072011584451
 30
0.0
 11
-1911.967354122319
 21
-168.0866671241724
 31
0.0
  0
LINE
  5
39BB
330
1F
100
AcDbEntity
  8
SPOJOVACÍ
100
AcDbLine
 10
-1908.070863760767
 20
-165.3807285698653
 30
0.0
 11
-1912.182105539264
 21
-164.2791246554274
 31
0.0
  0
LINE
  5
39BC
330
1F
100
AcDbEntity
  8
SPOJOVACÍ
100
AcDbLine
 10
-1908.175667843824
 20
-167.2276464004458
 30
0.0
 11
-1912.079954847354
 21
-166.1814958508307
 31
0.0
  0
LINE
  5
39BD
330
1F
100
AcDbEntity
  8
SPOJOVACÍ
100
AcDbLine
 10
-1907.747550711395
 20
-157.9673600403471
 30
0.0
 11
-1912.487286374743
 21
-156.697351697016
 31
0.0
  0
LINE
  5
39BE
330
1F
100
AcDbEntity
  8
SPOJOVACÍ
100
AcDbLine
 10
-1907.975617421587
 20
-163.5312497495301
 30
0.0
 11
-1912.273861140281
 21
-162.3795388162356
 31
0.0
  0
LINE
  5
39BF
330
1F
100
AcDbEntity
  8
SPOJOVACÍ
100
AcDbLine
 10
-1907.889960922402
 20
-161.6792013393146
 30
0.0
 11
-1912.355275218149
 21
-160.4827239798173
 31
0.0
  0
LINE
  5
39C0
330
1F
100
AcDbEntity
  8
SPOJOVACÍ
100
AcDbLine
 10
-1907.813927332883
 20
-159.8245744782229
 30
0.0
 11
-1912.42639999493
 21
-158.5886661533163
 31
0.0
  0
LINE
  5
39C1
330
1F
100
AcDbEntity
  8
SPOJOVACÍ
100
AcDbLine
 10
-1907.579330574149
 20
-156.1374344902728
 30
0.0
 11
-1912.537983970566
 21
-154.8087673171571
 31
0.0
  0
LINE
  5
39C2
330
1F
100
AcDbEntity
  8
SPOJOVACÍ
100
AcDbLine
 10
-1909.354637950236
 20
-181.9117423125321
 30
0.0
 11
-1910.881630027095
 21
-181.5025860186901
 31
0.0
  0
LINE
  5
39C3
330
1F
100
AcDbEntity
  8
SPOJOVACÍ
100
AcDbLine
 10
-1909.174415125689
 20
-180.085032872827
 30
0.0
 11
-1911.069041373637
 21
-179.5773692997313
 31
0.0
  0
LINE
  5
39C4
330
1F
100
AcDbEntity
  8
SPOJOVACÍ
100
AcDbLine
 10
-1909.003526681398
 20
-178.2558222934708
 30
0.0
 11
-1911.245576956048
 21
-177.6550667329888
 31
0.0
  0
LINE
  5
39C5
330
1F
100
AcDbEntity
  8
SPOJOVACÍ
100
AcDbLine
 10
-1908.841997407311
 20
-176.4241039320181
 30
0.0
 11
-1911.411302237905
 21
-175.7356607775495
 31
0.0
  0
LINE
  5
39C6
330
1F
100
AcDbEntity
  8
SPOJOVACÍ
100
AcDbLine
 10
-1908.689852964356
 20
-174.589870912639
 30
0.0
 11
-1911.566281074801
 21
-173.8191343233588
 31
0.0
  0
LINE
  5
39C7
330
1F
100
AcDbEntity
  8
SPOJOVACÍ
100
AcDbLine
 10
-1908.41382563782
 20
-170.9138322118728
 30
0.0
 11
-1911.844247017623
 21
-169.9946535734575
 31
0.0
  0
LINE
  5
39C8
330
1F
100
AcDbEntity
  8
SPOJOVACÍ
100
AcDbLine
 10
-1908.547119895599
 20
-172.7531161231459
 30
0.0
 11
-1911.710575751483
 21
-171.9054706812707
 31
0.0
  0
LINE
  5
39C9
330
1F
100
AcDbEntity
  8
SPOJOVACÍ
100
AcDbLine
 10
-1917.609239518269
 20
-191.0805862061256
 30
0.0
 11
-1895.969518427773
 21
-191.0805862061256
 31
0.0
  0
LINE
  5
39CA
330
1F
100
AcDbEntity
  8
SPOJOVACÍ
100
AcDbLine
 10
-1920.344518427772
 20
-191.0899612061261
 30
0.0
 11
-1899.719518427772
 21
-191.0899612061261
 31
0.0
  0
LINE
  5
39CB
330
1F
100
AcDbEntity
  8
SPOJOVACÍ
100
AcDbLine
 10
-1918.469518427772
 20
-197.6430862061256
 30
0.0
 11
-1901.594518427772
 21
-197.6430862061256
 31
0.0
  0
ARC
  5
39CC
330
1F
100
AcDbEntity
  8
SPOJOVACÍ
100
AcDbCircle
 10
-1910.032018427773
 20
-190.9785155113836
 30
0.0
 40
6.701689614562111
100
AcDbArc
 50
225.6170676674255
 51
314.3829323325744
  0
ARC
  5
39CD
330
1F
100
AcDbEntity
  8
SPOJOVACÍ
100
AcDbCircle
 10
-1916.594518427773
 20
-195.7680862061256
 30
0.0
 40
1.875
100
AcDbArc
 50
270.0
 51
0.0
  0
ARC
  5
39CE
330
1F
100
AcDbEntity
  8
SPOJOVACÍ
100
AcDbCircle
 10
-1918.469518427772
 20
-195.7680862061256
 30
0.0
 40
1.875
100
AcDbArc
 50
180.0
 51
270.0
  0
LINE
  5
39CF
330
1F
100
AcDbEntity
  8
SPOJOVACÍ
100
AcDbLine
 10
-1920.344518427772
 20
-191.0805862061256
 30
0.0
 11
-1920.344518427772
 21
-195.7680862061256
 31
0.0
  0
LINE
  5
39D0
330
1F
100
AcDbEntity
  8
SPOJOVACÍ
100
AcDbLine
 10
-1920.344518427772
 20
-191.0805862061256
 30
0.0
 11
-1920.344518427772
 21
-191.0899612061261
 31
0.0
  0
LINE
  5
39D1
330
1F
100
AcDbEntity
  8
SPOJOVACÍ
100
AcDbLine
 10
-1914.719518427773
 20
-191.0805862061256
 30
0.0
 11
-1914.719518427773
 21
-195.7680862061256
 31
0.0
  0
LINE
  5
39D2
330
1F
100
AcDbEntity
  8
SPOJOVACÍ
100
AcDbLine
 10
-1909.742991871389
 20
-185.5576831929815
 30
0.0
 11
-1910.325064769334
 21
-185.4017172300414
 31
0.0
  0
LINE
  5
39D3
330
1F
100
AcDbEntity
  8
SPOJOVACÍ
100
AcDbLine
 10
-1909.544171225361
 20
-183.7359570245239
 30
0.0
 11
-1910.456771609183
 21
-183.4914264886661
 31
0.0
  0
ARC
  5
39D4
330
1F
100
AcDbEntity
  8
SPOJOVACÍ
100
AcDbCircle
 10
-1903.469518427773
 20
-195.7680862061256
 30
0.0
 40
1.875
100
AcDbArc
 50
180.0
 51
270.0
  0
LINE
  5
39D5
330
1F
100
AcDbEntity
  8
SPOJOVACÍ
100
AcDbLine
 10
-1910.032018427773
 20
-188.2226947110207
 30
0.0
 11
-1895.969518427773
 21
-188.2226947110207
 31
0.0
  0
LINE
  5
39D6
330
1F
100
AcDbEntity
  8
SPOJOVACÍ
100
AcDbLine
 10
-1910.032018427773
 20
-188.2226947110207
 30
0.0
 11
-1895.969518427773
 21
-188.2226947110207
 31
0.0
  0
ARC
  5
39D7
330
1F
100
AcDbEntity
  8
SPOJOVACÍ
100
AcDbCircle
 10
-1901.594518427772
 20
-195.7680862061256
 30
0.0
 40
1.875
100
AcDbArc
 50
270.0
 51
0.0
  0
LINE
  5
39D8
330
1F
100
AcDbEntity
  8
SPOJOVACÍ
100
AcDbLine
 10
-1895.969518427773
 20
-191.0805862061256
 30
0.0
 11
-1895.969518427773
 21
-188.2226947110207
 31
0.0
  0
LINE
  5
39D9
330
1F
100
AcDbEntity
  8
SPOJOVACÍ
100
AcDbLine
 10
-1899.719518427772
 20
-195.7680862061256
 30
0.0
 11
-1899.719518427772
 21
-191.0805862061256
 31
0.0
  0
LINE
  5
39DA
330
1F
100
AcDbEntity
  8
SPOJOVACÍ
100
AcDbLine
 10
-1905.344518427773
 20
-191.0805862061256
 30
0.0
 11
-1905.344518427773
 21
-195.7680862061256
 31
0.0
  0
LINE
  5
39DB
330
1F
100
AcDbEntity
  8
SPOJOVACÍ
100
AcDbLine
 10
-1908.509940542891
 20
-120.2630783006802
 30
0.0
 11
-1911.622695038284
 21
-119.4290182474046
 31
0.0
  0
LINE
  5
39DC
330
1F
100
AcDbEntity
  8
SPOJOVACÍ
100
AcDbLine
 10
-1908.547119895599
 20
-124.0031161231477
 30
0.0
 11
-1911.883258596557
 21
-123.1092004523884
 31
0.0
  0
LINE
  5
39DD
330
1F
100
AcDbEntity
  8
SPOJOVACÍ
100
AcDbLine
 10
-1908.41382563782
 20
-122.1638322118747
 30
0.0
 11
-1911.757707783242
 21
-121.2678416914254
 31
0.0
  0
LINE
  5
39DE
330
1F
100
AcDbEntity
  8
SPOJOVACÍ
100
AcDbLine
 10
-1908.656173522656
 20
-118.3488952918455
 30
0.0
 11
-1911.513629210805
 21
-117.5832423477982
 31
0.0
  0
LINE
  5
39DF
330
1F
100
AcDbEntity
  8
SPOJOVACÍ
100
AcDbLine
 10
-1908.813101873612
 20
-116.4318464669372
 30
0.0
 11
-1911.324395557641
 21
-115.7589473523453
 31
0.0
  0
LINE
  5
39E0
330
1F
100
AcDbEntity
  8
SPOJOVACÍ
100
AcDbLine
 10
-1908.980788163458
 20
-114.5119150609912
 30
0.0
 11
-1911.161162477135
 21
-113.9276855244447
 31
0.0
  0
LINE
  5
39E1
330
1F
100
AcDbEntity
  8
SPOJOVACÍ
100
AcDbLine
 10
-1907.59085498131
 20
-141.1343465346813
 30
0.0
 11
-1912.58231564465
 21
-139.796888680888
 31
0.0
  0
LINE
  5
39E2
330
1F
100
AcDbEntity
  8
SPOJOVACÍ
100
AcDbLine
 10
-1907.568614866937
 20
-143.0153057553666
 30
0.0
 11
-1912.611489068461
 21
-141.6640716855367
 31
0.0
  0
LINE
  5
39E3
330
1F
100
AcDbEntity
  8
SPOJOVACÍ
100
AcDbLine
 10
-1907.813927332883
 20
-135.4495744782229
 30
0.0
 11
-1911.909602799497
 21
-134.3521415444834
 31
0.0
  0
LINE
  5
39E4
330
1F
100
AcDbEntity
  8
SPOJOVACÍ
100
AcDbLine
 10
-1907.747550711395
 20
-133.5923600403471
 30
0.0
 11
-1912.368032635789
 21
-132.3543056400644
 31
0.0
  0
LINE
  5
39E5
330
1F
100
AcDbEntity
  8
SPOJOVACÍ
100
AcDbLine
 10
-1908.030764213087
 20
-127.8914732112839
 30
0.0
 11
-1912.105857127498
 21
-126.7995553557852
 31
0.0
  0
LINE
  5
39E6
330
1F
100
AcDbEntity
  8
SPOJOVACÍ
100
AcDbLine
 10
-1907.937122336068
 20
-129.7915644766085
 30
0.0
 11
-1912.177029785217
 21
-128.6554846996255
 31
0.0
  0
LINE
  5
39E7
330
1F
100
AcDbEntity
  8
SPOJOVACÍ
100
AcDbLine
 10
-1907.853831622316
 20
-131.6888821560955
 30
0.0
 11
-1912.290246658848
 21
-130.5001483297669
 31
0.0
  0
LINE
  5
39E8
330
1F
100
AcDbEntity
  8
SPOJOVACÍ
100
AcDbLine
 10
-1907.561785406198
 20
-148.6421357038566
 30
0.0
 11
-1912.639835005261
 21
-147.2814764146619
 31
0.0
  0
LINE
  5
39E9
330
1F
100
AcDbEntity
  8
SPOJOVACÍ
100
AcDbLine
 10
-1907.579330574149
 20
-150.5124344902728
 30
0.0
 11
-1912.629421352979
 21
-149.1592667443815
 31
0.0
  0
LINE
  5
39EA
330
1F
100
AcDbEntity
  8
SPOJOVACÍ
100
AcDbLine
 10
-1908.689852964356
 20
-150.214870912639
 30
0.0
 11
-1911.072386639177
 21
-149.5764729385323
 31
0.0
  0
LINE
  5
39EB
330
1F
100
AcDbEntity
  8
SPOJOVACÍ
100
AcDbLine
 10
-1908.841997407311
 20
-152.0491039320181
 30
0.0
 11
-1910.954971983078
 21
-151.482934100813
 31
0.0
  0
LINE
  5
39EC
330
1F
100
AcDbEntity
  8
SPOJOVACÍ
100
AcDbLine
 10
-1907.556385533094
 20
-144.8935825954936
 30
0.0
 11
-1912.63082704902
 21
-143.5338900892634
 31
0.0
  0
LINE
  5
39ED
330
1F
100
AcDbEntity
  8
SPOJOVACÍ
100
AcDbLine
 10
-1907.554123241342
 20
-146.7691887747418
 30
0.0
 11
-1912.640289444574
 21
-145.406354648016
 31
0.0
  0
LINE
  5
39EE
330
1F
100
AcDbEntity
  8
SPOJOVACÍ
100
AcDbLine
 10
-1907.889960922402
 20
-137.3042013393146
 30
0.0
 11
-1912.49461760947
 21
-136.07038729859
 31
0.0
  0
LINE
  5
39EF
330
1F
100
AcDbEntity
  8
SPOJOVACÍ
100
AcDbLine
 10
-1907.623150789369
 20
-139.2506928989928
 30
0.0
 11
-1912.543345830632
 21
-137.9323306110832
 31
0.0
  0
LINE
  5
39F0
330
1F
100
AcDbEntity
  8
SPOJOVACÍ
100
AcDbLine
 10
-1908.134811068895
 20
-125.9885939402952
 30
0.0
 11
-1911.999318385278
 21
-124.9531023257263
 31
0.0
  0
LINE
  5
39F1
330
1F
100
AcDbEntity
  8
SPOJOVACÍ
100
AcDbLine
 10
-1924.094518427773
 20
-188.2226947110207
 30
0.0
 11
-1924.094518427773
 21
-191.0805862061256
 31
0.0
  0
LINE
  5
39F2
330
1F
100
AcDbEntity
  8
NOSNÉ KONSTRUKCE
100
AcDbLine
 10
-1891.445131790361
 20
-187.8196540902222
 30
0.0
 11
-1932.425382097306
 21
-187.8196540902195
 31
0.0
  0
LINE
  5
39F3
330
1F
100
AcDbEntity
  8
SPOJOVACÍ
100
AcDbLine
 10
-1924.094518427773
 20
-188.2226947110207
 30
0.0
 11
-1910.032018427773
 21
-188.2226947110207
 31
0.0
  0
LINE
  5
39F4
330
1F
100
AcDbEntity
  8
SPOJOVACÍ
100
AcDbLine
 10
-1924.094518427773
 20
-188.2226947110207
 30
0.0
 11
-1910.032018427773
 21
-188.2226947110207
 31
0.0
  0
LINE
  5
39F5
330
1F
100
AcDbEntity
  8
SPOJOVACÍ
100
AcDbLine
 10
-1910.032018427773
 20
-191.0805862061256
 30
0.0
 11
-1924.094518427773
 21
-191.0805862061256
 31
0.0
  0
LINE
  5
39F6
102
{ACAD_REACTORS
330
396A
102
}
330
1F
100
AcDbEntity
  8
NOSNÉ KONSTRUKCE
100
AcDbLine
 10
-1944.387777045994
 20
-255.472595239577
 30
0.0
 11
-1940.669289539904
 21
-249.8160504090478
 31
0.0
  0
LINE
  5
39F7
102
{ACAD_REACTORS
330
396A
102
}
330
1F
100
AcDbEntity
  8
NOSNÉ KONSTRUKCE
100
AcDbLine
 10
-1942.950346635519
 20
-256.6135170409566
 30
0.0
 11
-1940.669289539904
 21
-252.6084086809519
 31
0.0
  0
LINE
  5
39F8
330
1F
100
AcDbEntity
  8
NOSNÉ KONSTRUKCE
100
AcDbLine
 10
-1940.941993793821
 20
-263.0280944770224
 30
0.0
 11
-1942.618154406478
 21
-263.0280944770224
 31
0.0
  0
ARC
  5
39F9
330
1F
100
AcDbEntity
  8
NOSNÉ KONSTRUKCE
100
AcDbCircle
 10
-1932.425382097306
 20
-190.8196540902222
 30
0.0
 40
3.0
100
AcDbArc
 50
90.0
 51
180.0
  0
ARC
  5
39FA
330
1F
100
AcDbEntity
  8
NOSNÉ KONSTRUKCE
100
AcDbCircle
 10
-1891.445131790361
 20
-184.8196540902194
 30
0.0
 40
3.0
100
AcDbArc
 50
270.0
 51
0.0000000000130276
  0
LINE
  5
39FB
102
{ACAD_REACTORS
330
396A
102
}
330
1F
100
AcDbEntity
  8
NOSNÉ KONSTRUKCE
100
AcDbLine
 10
-1888.445131790361
 20
-184.8196540902194
 30
0.0
 11
-1888.445131790361
 21
-181.8196540902213
 31
0.0
  0
HATCH
  5
39FC
330
1F
100
AcDbEntity
  8
NOSNÉ KONSTRUKCE
100
AcDbHatch
 10
0.0
 20
0.0
 30
0.0
210
0.0
220
0.0
230
1.0
  2
ANSI37
 70
     0
 71
     0
 91
        1
 92
        7
 72
     0
 73
     1
 93
        4
 10
-1939.232088773922
 20
-181.89389192986
 10
-1939.232088773922
 20
-184.89389192986
 10
-1888.445361434852
 20
-184.8938919298627
 10
-1888.44536143485
 20
-181.89389192986
 97
        0
 75
     0
 76
     1
 52
90.0
 41
1.0
 77
     0
 78
     2
 53
135.0
 43
-1576.573548536256
 44
-704.861443495671
 45
-2.245064030267288
 46
-2.245064030267287
 79
     0
 53
225.0
 43
-1576.573548536256
 44
-704.861443495671
 45
2.245064030267287
 46
-2.245064030267288
 79
     0
 47
0.13614220447659
 98
        1
 10
-1921.36882348652
 20
-182.806700581674
  0
HATCH
  5
39FD
330
1F
100
AcDbEntity
  8
NOSNÉ KONSTRUKCE
100
AcDbHatch
 10
0.0
 20
0.0
 30
0.0
210
0.0
220
0.0
230
1.0
  2
ANSI37
 70
     0
 71
     0
 91
        1
 92
        7
 72
     0
 73
     1
 93
        4
 10
-1939.232088773922
 20
-181.8567730100396
 10
-1939.232088773922
 20
-184.8567730100396
 10
-1888.445361434852
 20
-184.8567730100423
 10
-1888.44536143485
 20
-181.8567730100396
 97
        0
 75
     0
 76
     1
 52
90.0
 41
1.0
 77
     0
 78
     2
 53
135.0
 43
-1576.573548536256
 44
-704.8243245758506
 45
-2.245064030267288
 46
-2.245064030267287
 79
     0
 53
225.0
 43
-1576.573548536256
 44
-704.8243245758506
 45
2.245064030267287
 46
-2.245064030267288
 79
     0
 47
0.13614220447659
 98
        1
 10
-1921.36882348652
 20
-182.7695816618536
  0
LINE
  5
39FE
330
1F
100
AcDbEntity
  8
NOSNÉ KONSTRUKCE
100
AcDbLine
 10
-1888.445361434852
 20
-184.893891929863
 30
0.0
 11
-1939.232088773925
 21
-184.8938919298602
 31
0.0
  0
LINE
  5
39FF
102
{ACAD_REACTORS
330
396A
102
}
330
1F
100
AcDbEntity
  8
NOSNÉ KONSTRUKCE
100
AcDbLine
 10
-1888.445361434852
 20
-184.8567730100426
 30
0.0
 11
-1939.232088773925
 21
-184.8567730100398
 31
0.0
  0
LINE
  5
3A00
102
{ACAD_REACTORS
330
396A
102
}
330
1F
100
AcDbEntity
  8
SPOJOVACÍ
  6
DASHED
100
AcDbLine
 10
-1903.469518427771
 20
-104.3110997673461
 30
0.0
 11
-1903.469518427773
 21
-185.4101947110198
 31
0.0
  0
LINE
  5
3A01
102
{ACAD_REACTORS
330
396A
102
}
330
1F
100
AcDbEntity
  8
SPOJOVACÍ
  6
DASHED
100
AcDbLine
 10
-1916.594518427771
 20
-104.3110997673461
 30
0.0
 11
-1916.594518427773
 21
-185.4101947110198
 31
0.0
  0
LINE
  5
3A02
102
{ACAD_REACTORS
330
396A
102
}
330
1F
100
AcDbEntity
  8
SPOJOVACÍ
  6
DASHDOT2
100
AcDbLine
 10
-1910.032018427773
 20
-200.5832961794544
 30
0.0
 11
-1910.032018427771
 21
-85.66318643554723
 31
0.0
  0
LINE
  5
3A03
330
1F
100
AcDbEntity
  8
SPOJOVACÍ
100
AcDbLine
 10
-1909.159296537396
 20
-112.5890838863538
 30
0.0
 11
-1910.98857479884
 21
-112.0989302534667
 31
0.0
  0
LINE
  5
3A04
330
1F
100
AcDbEntity
  8
SPOJOVACÍ
  6
DASHED
100
AcDbLine
 10
-1910.032018427771
 20
-109.8972386257896
 30
0.0
 11
-1915.657018427771
 21
-113.1448338899804
 31
0.0
  0
LINE
  5
3A05
330
1F
100
AcDbEntity
  8
SPOJOVACÍ
  6
DASHED
100
AcDbLine
 10
-1910.032018427771
 20
-109.8972386257896
 30
0.0
 11
-1904.407018427771
 21
-113.1448338899804
 31
0.0
  0
LWPOLYLINE
  5
3A06
330
1F
100
AcDbEntity
  8
NOSNÉ KONSTRUKCE
100
AcDbPolyline
 90
        3
 70
     0
 43
0.0
 10
-1940.941993793821
 20
-315.517171784008
 10
-1909.589277550312
 20
-315.517171784008
 10
-1909.589277550312
 20
-318.0432592160091
  0
LINE
  5
3A07
330
1F
100
AcDbEntity
  8
NOSNÉ KONSTRUKCE
100
AcDbLine
 10
-1921.358699044714
 20
-320.4209350037876
 30
0.0
 11
-1921.358699044714
 21
-318.0432592160091
 31
0.0
  0
LINE
  5
3A08
330
1F
100
AcDbEntity
  8
NOSNÉ KONSTRUKCE
100
AcDbLine
 10
-1909.589277550312
 20
-318.0432592160091
 30
0.0
 11
-1909.589277550312
 21
-320.4209350037876
 31
0.0
  0
LINE
  5
3A09
330
1F
100
AcDbEntity
  8
NOSNÉ KONSTRUKCE
100
AcDbLine
 10
-1909.589277550312
 20
-320.4209350037876
 30
0.0
 11
-1921.358699044714
 21
-320.4209350037876
 31
0.0
  0
LINE
  5
3A0A
102
{ACAD_REACTORS
330
396A
102
}
330
1F
100
AcDbEntity
  8
SPOJOVACÍ
100
AcDbLine
 10
-1945.448749082359
 20
-298.6208650809471
 30
0.0
 11
-1938.851133499028
 21
-298.6208650809471
 31
0.0
  0
LINE
  5
3A0B
102
{ACAD_REACTORS
330
396A
102
}
330
1F
100
AcDbEntity
  8
NOSNÉ KONSTRUKCE
100
AcDbLine
 10
-1942.950346635519
 20
-309.8425952088814
 30
0.0
 11
-1944.387777045994
 21
-309.8425952088823
 31
0.0
  0
LINE
  5
3A0C
102
{ACAD_REACTORS
330
396A
102
}
330
1F
100
AcDbEntity
  8
NOSNÉ KONSTRUKCE
100
AcDbLine
 10
-1939.231859129423
 20
-309.8425952088823
 30
0.0
 11
-1940.669289539898
 21
-309.8425952088823
 31
0.0
  0
ARC
  5
3A0D
330
1F
100
AcDbEntity
  8
SPOJOVACÍ
100
AcDbCircle
 10
-1943.161433567825
 20
-296.4104437918026
 30
0.0
 40
7.016998426235272
100
AcDbArc
 50
307.8985698078477
 51
52.10143019215225
  0
LINE
  5
3A0E
330
1F
100
AcDbEntity
  8
SPOJOVACÍ
100
AcDbLine
 10
-1938.851133499028
 20
-296.4104437918026
 30
0.0
 11
-1938.851133499028
 21
-290.8733344168026
 31
0.0
  0
LINE
  5
3A0F
330
1F
100
AcDbEntity
  8
SPOJOVACÍ
100
AcDbLine
 10
-1938.851133499028
 20
-301.9475531668026
 30
0.0
 11
-1938.851133499028
 21
-296.4104437918026
 31
0.0
  0
LINE
  5
3A10
330
1F
100
AcDbEntity
  8
SPOJOVACÍ
100
AcDbLine
 10
-1941.540627699747
 20
-294.2000225026572
 30
0.0
 11
-1942.725188898466
 21
-298.6208650809471
 31
0.0
  0
LINE
  5
3A11
102
{ACAD_REACTORS
330
396A
102
}
330
1F
100
AcDbEntity
  8
SPOJOVACÍ
100
AcDbLine
 10
-1945.448749082359
 20
-294.2000225026572
 30
0.0
 11
-1938.851133499028
 21
-294.2000225026572
 31
0.0
  0
LINE
  5
3A12
330
1F
100
AcDbEntity
  8
SPOJOVACÍ
100
AcDbLine
 10
-1939.079690199745
 20
-294.2000225026572
 30
0.0
 11
-1940.264251398464
 21
-298.6208650809471
 31
0.0
  0
LINE
  5
3A13
330
1F
100
AcDbEntity
  8
SPOJOVACÍ
100
AcDbLine
 10
-1940.310158949747
 20
-294.2000225026572
 30
0.0
 11
-1941.494720148464
 21
-298.6208650809471
 31
0.0
  0
LINE
  5
3A14
330
1F
100
AcDbEntity
  8
SPOJOVACÍ
100
AcDbLine
 10
-1942.771096449746
 20
-294.2000225026572
 30
0.0
 11
-1943.955657648464
 21
-298.6208650809471
 31
0.0
  0
LINE
  5
3A15
330
1F
100
AcDbEntity
  8
SPOJOVACÍ
100
AcDbLine
 10
-1945.232033949746
 20
-294.2000225026572
 30
0.0
 11
-1946.166851272631
 21
-297.6888082474602
 31
0.0
  0
LINE
  5
3A16
330
1F
100
AcDbEntity
  8
SPOJOVACÍ
100
AcDbLine
 10
-1947.151765799938
 20
-296.4104437918026
 30
0.0
 11
-1945.448749082359
 21
-298.6208650809471
 31
0.0
  0
LINE
  5
3A17
330
1F
100
AcDbEntity
  8
SPOJOVACÍ
100
AcDbLine
 10
-1947.151765799938
 20
-296.4104437918026
 30
0.0
 11
-1945.448749082359
 21
-294.2000225026572
 31
0.0
  0
LINE
  5
3A18
330
1F
100
AcDbEntity
  8
SPOJOVACÍ
100
AcDbLine
 10
-1944.001565199748
 20
-294.2000225026572
 30
0.0
 11
-1945.186126398464
 21
-298.6208650809471
 31
0.0
  0
LINE
  5
3A19
330
1F
100
AcDbEntity
  8
NOSNÉ KONSTRUKCE
100
AcDbLine
 10
-1936.084349036296
 20
-271.2149881755253
 30
0.0
 11
-1939.231859129427
 21
-274.0596747071581
 31
0.0
  0
ARC
  5
3A1A
330
1F
100
AcDbEntity
  8
NOSNÉ KONSTRUKCE
100
AcDbCircle
 10
-1937.425382097309
 20
-269.7311989960039
 30
0.0
 40
2.0
100
AcDbArc
 50
312.1069433989998
 51
0.0
  0
LINE
  5
3A1B
102
{ACAD_REACTORS
330
396A
102
}
330
1F
100
AcDbEntity
  8
NOSNÉ KONSTRUKCE
100
AcDbLine
 10
-1940.669289539898
 20
-309.8425952088823
 30
0.0
 11
-1940.669289539909
 21
-181.6141744964102
 31
0.0
  0
LINE
  5
3A1C
102
{ACAD_REACTORS
330
396A
102
}
330
1F
100
AcDbEntity
  8
NOSNÉ KONSTRUKCE
100
AcDbLine
 10
-1939.231859129423
 20
-309.8425952088823
 30
0.0
 11
-1939.231859129434
 21
-181.8196540902194
 31
0.0
  0
LINE
  5
3A1D
330
1F
100
AcDbEntity
  8
NOSNÉ KONSTRUKCE
100
AcDbLine
 10
-1942.618154406478
 20
-263.0280944770224
 30
0.0
 11
-1942.618154406478
 21
-315.517171784008
 31
0.0
  0
LINE
  5
3A1E
330
1F
100
AcDbEntity
  8
NOSNÉ KONSTRUKCE
100
AcDbLine
 10
-1940.941993793821
 20
-315.517171784008
 30
0.0
 11
-1940.941993793821
 21
-263.0280944770224
 31
0.0
  0
LINE
  5
3A1F
102
{ACAD_REACTORS
330
396A
102
}
330
1F
100
AcDbEntity
  8
NOSNÉ KONSTRUKCE
100
AcDbLine
 10
-1942.950346635519
 20
-256.6135170409566
 30
0.0
 11
-1942.950346635519
 21
-309.8425952088814
 31
0.0
  0
LINE
  5
3A20
102
{ACAD_REACTORS
330
396A
102
}
330
1F
100
AcDbEntity
  8
NOSNÉ KONSTRUKCE
100
AcDbLine
 10
-1944.387777045994
 20
-309.8425952088823
 30
0.0
 11
-1944.387777045994
 21
-255.472595239577
 31
0.0
  0
LINE
  5
3A21
330
1F
100
AcDbEntity
  8
NOSNÉ KONSTRUKCE
100
AcDbLine
 10
-1935.425382097309
 20
-269.7311989960039
 30
0.0
 11
-1935.425382097306
 21
-190.8196540902222
 31
0.0
  0
LINE
  5
3A22
330
1F
100
AcDbEntity
  8
STAVBA OBRYS
100
AcDbLine
 10
-1773.439147853124
 20
227.9380472572725
 30
0.0
 11
-1773.439147853124
 21
53.18034590977777
 31
0.0
  0
LINE
  5
3A23
330
1F
100
AcDbEntity
  8
SPOJOVACÍ
100
AcDbLine
 10
-1969.309591952414
 20
-83.94234362418229
 30
0.0
 11
-1967.972134098621
 21
-78.95088296084168
 31
0.0
  0
LINE
  5
3A24
330
1F
100
AcDbEntity
  8
SPOJOVACÍ
100
AcDbLine
 10
-1971.190551173099
 20
-83.96458373855512
 30
0.0
 11
-1969.839317103269
 21
-78.92170953702907
 31
0.0
  0
LINE
  5
3A25
330
1F
100
AcDbEntity
  8
SPOJOVACÍ
100
AcDbLine
 10
-1963.624819895956
 20
-83.7192712726096
 30
0.0
 11
-1962.527386962217
 21
-79.62359580599422
 31
0.0
  0
LINE
  5
3A26
330
1F
100
AcDbEntity
  8
SPOJOVACÍ
100
AcDbLine
 10
-1961.76760545808
 20
-83.78564789409621
 30
0.0
 11
-1960.529551057797
 21
-79.16516596970268
 31
0.0
  0
LINE
  5
3A27
330
1F
100
AcDbEntity
  8
SPOJOVACÍ
100
AcDbLine
 10
-1954.163839358028
 20
-83.39838753659705
 30
0.0
 11
-1953.128347743458
 21
-79.53388022021363
 31
0.0
  0
LINE
  5
3A28
330
1F
100
AcDbEntity
  8
SPOJOVACÍ
100
AcDbLine
 10
-1956.066718629017
 20
-83.50243439240466
 30
0.0
 11
-1954.974800773517
 21
-79.42734147799502
 31
0.0
  0
LINE
  5
3A29
330
1F
100
AcDbEntity
  8
SPOJOVACÍ
100
AcDbLine
 10
-1957.966809894341
 20
-83.59607626942306
 30
0.0
 11
-1956.830730117358
 21
-79.35616882027488
 31
0.0
  0
LINE
  5
3A2A
330
1F
100
AcDbEntity
  8
SPOJOVACÍ
100
AcDbLine
 10
-1959.864127573829
 20
-83.67936698317681
 30
0.0
 11
-1958.6753937475
 21
-79.24295194664273
 31
0.0
  0
LINE
  5
3A2B
330
1F
100
AcDbEntity
  8
SPOJOVACÍ
100
AcDbLine
 10
-1952.178361540881
 20
-82.9860787098919
 30
0.0
 11
-1951.284445870121
 21
-79.64994000893558
 31
0.0
  0
LINE
  5
3A2C
330
1F
100
AcDbEntity
  8
SPOJOVACÍ
100
AcDbLine
 10
-1976.817381121589
 20
-83.97141319929415
 30
0.0
 11
-1975.456721832395
 21
-78.89336360023162
 31
0.0
  0
LINE
  5
3A2D
330
1F
100
AcDbEntity
  8
SPOJOVACÍ
100
AcDbLine
 10
-1982.420375998297
 20
-83.88928896114066
 30
0.0
 11
-1981.098145476752
 21
-78.95465747542449
 31
0.0
  0
LINE
  5
3A2E
330
1F
100
AcDbEntity
  8
SPOJOVACÍ
100
AcDbLine
 10
-1980.562679908005
 20
-83.95386803134398
 30
0.0
 11
-1979.214982717979
 21
-78.92419364494845
 31
0.0
  0
LINE
  5
3A2F
330
1F
100
AcDbEntity
  8
SPOJOVACÍ
100
AcDbLine
 10
-1978.687679908005
 20
-83.95386803134398
 30
0.0
 11
-1977.334512162114
 21
-78.90377725251301
 31
0.0
  0
LINE
  5
3A30
330
1F
100
AcDbEntity
  8
SPOJOVACÍ
100
AcDbLine
 10
-1978.390116330372
 20
-82.84334564113578
 30
0.0
 11
-1977.751718356266
 21
-80.46081196631531
 31
0.0
  0
LINE
  5
3A31
330
1F
100
AcDbEntity
  8
SPOJOVACÍ
100
AcDbLine
 10
-1980.224349349751
 20
-82.69120119818172
 30
0.0
 11
-1979.658179518546
 21
-80.57822662241369
 31
0.0
  0
LINE
  5
3A32
330
1F
100
AcDbEntity
  8
SPOJOVACÍ
100
AcDbLine
 10
-1982.056067711203
 20
-82.5296719240937
 30
0.0
 11
-1981.565404320517
 21
-80.6984912206326
 31
0.0
  0
LINE
  5
3A33
330
1F
100
AcDbEntity
  8
SPOJOVACÍ
100
AcDbLine
 10
-1997.247257002184
 20
-83.24320007189545
 30
0.0
 11
-1996.261912541905
 21
-79.56584448317108
 31
0.0
  0
LINE
  5
3A34
330
1F
100
AcDbEntity
  8
SPOJOVACÍ
100
AcDbLine
 10
-1993.555973987598
 20
-83.46233484472623
 30
0.0
 11
-1992.45437007316
 21
-79.35109306622689
 31
0.0
  0
LINE
  5
3A35
330
1F
100
AcDbEntity
  8
SPOJOVACÍ
100
AcDbLine
 10
-1995.402891818178
 20
-83.35753076166794
 30
0.0
 11
-1994.356741268563
 21
-79.45324375813743
 31
0.0
  0
LINE
  5
3A36
330
1F
100
AcDbEntity
  8
SPOJOVACÍ
100
AcDbLine
 10
-1986.14260545808
 20
-83.78564789409621
 30
0.0
 11
-1984.87259711475
 21
-79.04591223074749
 31
0.0
  0
LINE
  5
3A37
330
1F
100
AcDbEntity
  8
SPOJOVACÍ
100
AcDbLine
 10
-1991.706495167263
 20
-83.55758118390577
 30
0.0
 11
-1990.554784233968
 21
-79.2593374652115
 31
0.0
  0
LINE
  5
3A38
330
1F
100
AcDbEntity
  8
SPOJOVACÍ
100
AcDbLine
 10
-1989.854446757047
 20
-83.64323768309033
 30
0.0
 11
-1988.65796939755
 21
-79.17792338734262
 31
0.0
  0
LINE
  5
3A39
330
1F
100
AcDbEntity
  8
SPOJOVACÍ
100
AcDbLine
 10
-1987.999819895956
 20
-83.7192712726096
 30
0.0
 11
-1986.763911571049
 21
-79.10679861056223
 31
0.0
  0
LINE
  5
3A3A
330
1F
100
AcDbEntity
  8
SPOJOVACÍ
100
AcDbLine
 10
-1984.312679908004
 20
-83.95386803134398
 30
0.0
 11
-1982.98401273489
 21
-78.99521463492419
 31
0.0
  0
LINE
  5
3A3B
330
1F
100
AcDbEntity
  8
SPOJOVACÍ
100
AcDbLine
 10
-2010.086987730264
 20
-82.17856065525621
 30
0.0
 11
-2009.677831436423
 21
-80.65156857839657
 31
0.0
  0
LINE
  5
3A3C
330
1F
100
AcDbEntity
  8
SPOJOVACÍ
100
AcDbLine
 10
-2008.260278290559
 20
-82.35878347980179
 30
0.0
 11
-2007.752614717464
 21
-80.46415723185646
 31
0.0
  0
LINE
  5
3A3D
330
1F
100
AcDbEntity
  8
SPOJOVACÍ
100
AcDbLine
 10
-2006.431067711204
 20
-82.5296719240937
 30
0.0
 11
-2005.830312150723
 21
-80.28762164944328
 31
0.0
  0
LINE
  5
3A3E
330
1F
100
AcDbEntity
  8
SPOJOVACÍ
100
AcDbLine
 10
-2004.599349349751
 20
-82.69120119818172
 30
0.0
 11
-2003.910906195283
 21
-80.12189636758648
 31
0.0
  0
LINE
  5
3A3F
330
1F
100
AcDbEntity
  8
SPOJOVACÍ
100
AcDbLine
 10
-2002.765116330372
 20
-82.84334564113578
 30
0.0
 11
-2001.994379741092
 21
-79.96691753069035
 31
0.0
  0
LINE
  5
3A40
330
1F
100
AcDbEntity
  8
SPOJOVACÍ
100
AcDbLine
 10
-1999.089077629607
 20
-83.11937296767018
 30
0.0
 11
-1998.16989899119
 21
-79.68895158786882
 31
0.0
  0
LINE
  5
3A41
330
1F
100
AcDbEntity
  8
SPOJOVACÍ
100
AcDbLine
 10
-2000.928361540878
 20
-82.9860787098919
 30
0.0
 11
-2000.080716099004
 21
-79.8226228540102
 31
0.0
  0
LINE
  5
3A42
330
1F
100
AcDbEntity
  8
SPOJOVACÍ
100
AcDbLine
 10
-1973.068828013226
 20
-83.97681307239736
 30
0.0
 11
-1971.709135506996
 21
-78.90237155647174
 31
0.0
  0
LINE
  5
3A43
330
1F
100
AcDbEntity
  8
SPOJOVACÍ
100
AcDbLine
 10
-1974.944434192475
 20
-83.9790753641496
 30
0.0
 11
-1973.58160006575
 21
-78.89290916091749
 31
0.0
  0
LINE
  5
3A44
330
1F
100
AcDbEntity
  8
SPOJOVACÍ
100
AcDbLine
 10
-1950.339077629607
 20
-83.11937296767018
 30
0.0
 11
-1949.443087109158
 21
-79.77549082225095
 31
0.0
  0
LINE
  5
3A45
330
1F
100
AcDbEntity
  8
SPOJOVACÍ
100
AcDbLine
 10
-1965.479446757047
 20
-83.64323768309033
 30
0.0
 11
-1964.245632716323
 21
-79.03858099602121
 31
0.0
  0
LINE
  5
3A46
330
1F
100
AcDbEntity
  8
SPOJOVACÍ
100
AcDbLine
 10
-1967.425938316726
 20
-83.91004781612265
 30
0.0
 11
-1966.107576028816
 21
-78.98985277486008
 31
0.0
  0
LINE
  5
3A47
330
1F
100
AcDbEntity
  8
NOSNÉ KONSTRUKCE
100
AcDbLine
 10
-2015.994899507955
 20
-100.0880668151307
 30
0.0
 11
-2015.994899507953
 21
-59.10781650818581
 31
0.0
  0
LINE
  5
3A48
330
1F
100
AcDbEntity
  8
SPOJOVACÍ
100
AcDbLine
 10
-2019.255831623858
 20
-73.92395908722301
 30
0.0
 11
-2019.255831623858
 21
-95.56368017772001
 31
0.0
  0
LINE
  5
3A49
330
1F
100
AcDbEntity
  8
SPOJOVACÍ
100
AcDbLine
 10
-2019.265206623858
 20
-71.18868017772001
 30
0.0
 11
-2019.265206623858
 21
-91.81368017772001
 31
0.0
  0
LINE
  5
3A4A
330
1F
100
AcDbEntity
  8
SPOJOVACÍ
100
AcDbLine
 10
-2025.818331623858
 20
-73.06368017772001
 30
0.0
 11
-2025.818331623858
 21
-89.93868017772001
 31
0.0
  0
ARC
  5
3A4B
330
1F
100
AcDbEntity
  8
SPOJOVACÍ
100
AcDbCircle
 10
-2023.943331623859
 20
-88.06368017772001
 30
0.0
 40
1.875
100
AcDbArc
 50
90.0
 51
180.0
  0
LINE
  5
3A4C
330
1F
100
AcDbEntity
  8
SPOJOVACÍ
100
AcDbLine
 10
-2016.397940128753
 20
-81.50118017772001
 30
0.0
 11
-2016.397940128753
 21
-95.56368017772001
 31
0.0
  0
LINE
  5
3A4D
330
1F
100
AcDbEntity
  8
SPOJOVACÍ
100
AcDbLine
 10
-2016.397940128753
 20
-81.50118017772001
 30
0.0
 11
-2016.397940128753
 21
-95.56368017772001
 31
0.0
  0
LINE
  5
3A4E
102
{ACAD_REACTORS
330
3969
102
}
330
1F
100
AcDbEntity
  8
NOSNÉ KONSTRUKCE
100
AcDbLine
 10
-2012.994899507955
 20
-106.8945438472578
 30
0.0
 11
-2012.994899507953
 21
-56.10781650818307
 31
0.0
  0
LINE
  5
3A4F
330
1F
100
AcDbEntity
  8
NOSNÉ KONSTRUKCE
100
AcDbLine
 10
-2013.032018427777
 20
-106.8945438472578
 30
0.0
 11
-2013.032018427773
 21
-56.10781650818307
 31
0.0
  0
ARC
  5
3A50
330
1F
100
AcDbEntity
  8
NOSNÉ KONSTRUKCE
100
AcDbCircle
 10
-2018.994899507955
 20
-100.0880668151307
 30
0.0
 40
3.0
100
AcDbArc
 50
270.0
 51
0.0
  0
ARC
  5
3A51
330
1F
100
AcDbEntity
  8
SPOJOVACÍ
100
AcDbCircle
 10
-2023.943331623859
 20
-89.93868017772001
 30
0.0
 40
1.875
100
AcDbArc
 50
180.0
 51
270.0
  0
LINE
  5
3A52
330
1F
100
AcDbEntity
  8
SPOJOVACÍ
100
AcDbLine
 10
-2019.255831623858
 20
-95.56368017772001
 30
0.0
 11
-2016.397940128753
 21
-95.56368017772001
 31
0.0
  0
LINE
  5
3A53
330
1F
100
AcDbEntity
  8
SPOJOVACÍ
100
AcDbLine
 10
-2023.943331623859
 20
-91.81368017772001
 30
0.0
 11
-2019.255831623858
 21
-91.81368017772001
 31
0.0
  0
LINE
  5
3A54
330
1F
100
AcDbEntity
  8
SPOJOVACÍ
100
AcDbLine
 10
-2016.397940128753
 20
-67.43868017772001
 30
0.0
 11
-2016.397940128753
 21
-81.50118017772001
 31
0.0
  0
LINE
  5
3A55
330
1F
100
AcDbEntity
  8
SPOJOVACÍ
100
AcDbLine
 10
-2016.397940128753
 20
-67.43868017772001
 30
0.0
 11
-2016.397940128753
 21
-81.50118017772001
 31
0.0
  0
LINE
  5
3A56
330
1F
100
AcDbEntity
  8
SPOJOVACÍ
100
AcDbLine
 10
-2019.255831623858
 20
-81.50118017772001
 30
0.0
 11
-2019.255831623858
 21
-67.43868017772001
 31
0.0
  0
ARC
  5
3A57
330
1F
100
AcDbEntity
  8
SPOJOVACÍ
100
AcDbCircle
 10
-2019.153760929116
 20
-81.50118017772001
 30
0.0
 40
6.701689614562111
100
AcDbArc
 50
135.6170676673749
 51
224.382932332625
  0
LINE
  5
3A58
330
1F
100
AcDbEntity
  8
SPOJOVACÍ
100
AcDbLine
 10
-2013.732928610715
 20
-81.79020673410196
 30
0.0
 11
-2013.576962647773
 21
-81.20813383615631
 31
0.0
  0
LINE
  5
3A59
330
1F
100
AcDbEntity
  8
SPOJOVACÍ
100
AcDbLine
 10
-2011.911202442257
 20
-81.98902738013158
 30
0.0
 11
-2011.666671906399
 21
-81.07642699630742
 31
0.0
  0
LINE
  5
3A5A
330
1F
100
AcDbEntity
  8
SPOJOVACÍ
100
AcDbLine
 10
-2019.255831623858
 20
-86.18868017772001
 30
0.0
 11
-2023.943331623859
 21
-86.18868017772001
 31
0.0
  0
ARC
  5
3A5B
330
1F
100
AcDbEntity
  8
SPOJOVACÍ
100
AcDbCircle
 10
-2023.943331623859
 20
-74.93868017772001
 30
0.0
 40
1.875
100
AcDbArc
 50
180.0
 51
270.0
  0
ARC
  5
3A5C
330
1F
100
AcDbEntity
  8
SPOJOVACÍ
100
AcDbCircle
 10
-2023.943331623859
 20
-73.06368017772001
 30
0.0
 40
1.875
100
AcDbArc
 50
90.0
 51
180.0
  0
LINE
  5
3A5D
330
1F
100
AcDbEntity
  8
SPOJOVACÍ
100
AcDbLine
 10
-2019.255831623858
 20
-71.18868017772001
 30
0.0
 11
-2023.943331623859
 21
-71.18868017772001
 31
0.0
  0
LINE
  5
3A5E
330
1F
100
AcDbEntity
  8
SPOJOVACÍ
100
AcDbLine
 10
-2019.255831623858
 20
-71.18868017772001
 30
0.0
 11
-2019.265206623858
 21
-71.18868017772001
 31
0.0
  0
LINE
  5
3A5F
330
1F
100
AcDbEntity
  8
SPOJOVACÍ
100
AcDbLine
 10
-2016.397940128753
 20
-67.43868017772001
 30
0.0
 11
-2019.255831623858
 21
-67.43868017772001
 31
0.0
  0
LINE
  5
3A60
330
1F
100
AcDbEntity
  8
SPOJOVACÍ
100
AcDbLine
 10
-2019.255831623858
 20
-76.81368017772001
 30
0.0
 11
-2023.943331623859
 21
-76.81368017772001
 31
0.0
  0
ARC
  5
3A61
330
1F
100
AcDbEntity
  8
NOSNÉ KONSTRUKCE
100
AcDbCircle
 10
-2012.994899507953
 20
-59.10781650818581
 30
0.0
 40
3.0
100
AcDbArc
 50
90.0
 51
180.0
  0
HATCH
  5
3A62
330
1F
100
AcDbEntity
  8
NOSNÉ KONSTRUKCE
100
AcDbHatch
 10
0.0
 20
0.0
 30
0.0
210
0.0
220
0.0
230
1.0
  2
ANSI37
 70
     0
 71
     0
 91
        1
 92
        7
 72
     0
 73
     1
 93
        4
 10
-2009.994899507953
 20
-56.10781650818648
 10
-2012.994899507953
 20
-56.10781650818626
 10
-2012.994899507955
 20
-106.8945438472578
 10
-2009.994899507953
 20
-106.894543847258
 97
        0
 75
     0
 76
     1
 52
0.0
 41
1.0
 77
     0
 78
     2
 53
45.00000000000001
 43
-2532.962451073762
 44
-418.7663567458526
 45
-2.245064030267287
 46
2.245064030267288
 79
     0
 53
135.0
 43
-2532.962451073762
 44
-418.7663567458526
 45
-2.245064030267288
 46
-2.245064030267287
 79
     0
 47
0.13614220447659
 98
        1
 10
-2010.907708159767
 20
-73.97108179558904
  0
HATCH
  5
3A63
330
1F
100
AcDbEntity
  8
NOSNÉ KONSTRUKCE
100
AcDbHatch
 10
0.0
 20
0.0
 30
0.0
210
0.0
220
0.0
230
1.0
  2
ANSI37
 70
     0
 71
     0
 91
        1
 92
        7
 72
     0
 73
     1
 93
        4
 10
-2010.032018427773
 20
-56.10781650818648
 10
-2013.032018427773
 20
-56.10781650818626
 10
-2013.032018427777
 20
-106.8945438472578
 10
-2010.032018427773
 20
-106.894543847258
 97
        0
 75
     0
 76
     1
 52
0.0
 41
1.0
 77
     0
 78
     2
 53
45.00000000000001
 43
-2532.999569993584
 44
-418.7663567458526
 45
-2.245064030267287
 46
2.245064030267288
 79
     0
 53
135.0
 43
-2532.999569993584
 44
-418.7663567458526
 45
-2.245064030267288
 46
-2.245064030267287
 79
     0
 47
0.13614220447659
 98
        1
 10
-2010.944827079586
 20
-73.97108179558904
  0
LINE
  5
3A64
102
{ACAD_REACTORS
330
3969
102
}
330
1F
100
AcDbEntity
  8
NOSNÉ KONSTRUKCE
100
AcDbLine
 10
-2012.994899507953
 20
-56.1078165081858
 30
0.0
 11
-2009.994899507953
 21
-56.10781650818672
 31
0.0
  0
LINE
  5
3A65
330
1F
100
AcDbEntity
  8
NOSNÉ KONSTRUKCE
100
AcDbLine
 10
-2091.203339894756
 20
-108.6046785116463
 30
0.0
 11
-2091.203339894756
 21
-110.2808391243029
 31
0.0
  0
LINE
  5
3A66
102
{ACAD_REACTORS
330
3969
102
}
330
1F
100
AcDbEntity
  8
NOSNÉ KONSTRUKCE
100
AcDbLine
 10
-2084.78876245869
 20
-110.6130313533444
 30
0.0
 11
-2080.783654098686
 21
-108.3319742577282
 31
0.0
  0
LINE
  5
3A67
102
{ACAD_REACTORS
330
3969
102
}
330
1F
100
AcDbEntity
  8
NOSNÉ KONSTRUKCE
100
AcDbLine
 10
-2083.647840657311
 20
-112.0504617638193
 30
0.0
 11
-2077.991295826781
 21
-108.3319742577286
 31
0.0
  0
LINE
  5
3A68
330
1F
100
AcDbEntity
  8
SPOJOVACÍ
100
AcDbLine
 10
-2122.375267920389
 20
-110.4337811675718
 30
0.0
 11
-2126.79611049868
 21
-111.6183423662892
 31
0.0
  0
LINE
  5
3A69
330
1F
100
AcDbEntity
  8
SPOJOVACÍ
100
AcDbLine
 10
-2122.375267920389
 20
-107.9728436675718
 30
0.0
 11
-2126.79611049868
 21
-109.1574048662901
 31
0.0
  0
LINE
  5
3A6A
330
1F
100
AcDbEntity
  8
SPOJOVACÍ
100
AcDbLine
 10
-2122.375267920389
 20
-106.74237491757
 30
0.0
 11
-2126.79611049868
 21
-107.9269361162892
 31
0.0
  0
LINE
  5
3A6B
330
1F
100
AcDbEntity
  8
SPOJOVACÍ
100
AcDbLine
 10
-2122.375267920389
 20
-109.2033124175718
 30
0.0
 11
-2126.79611049868
 21
-110.387873616291
 31
0.0
  0
LINE
  5
3A6C
330
1F
100
AcDbEntity
  8
SPOJOVACÍ
100
AcDbLine
 10
-2130.122798584535
 20
-106.5138182168534
 30
0.0
 11
-2124.585689209535
 21
-106.5138182168534
 31
0.0
  0
ARC
  5
3A6D
330
1F
100
AcDbEntity
  8
SPOJOVACÍ
100
AcDbCircle
 10
-2124.585689209535
 20
-110.8241182856504
 30
0.0
 40
7.016998426235272
100
AcDbArc
 50
37.89856980784375
 51
142.1014301921562
  0
LINE
  5
3A6E
330
1F
100
AcDbEntity
  8
SPOJOVACÍ
100
AcDbLine
 10
-2124.585689209535
 20
-106.5138182168534
 30
0.0
 11
-2119.048579834535
 21
-106.5138182168534
 31
0.0
  0
ARC
  5
3A6F
330
1F
100
AcDbEntity
  8
NOSNÉ KONSTRUKCE
100
AcDbCircle
 10
-2097.906444413736
 20
-105.0880668151344
 30
0.0
 40
2.0
100
AcDbArc
 50
90.0
 51
137.8930566009638
  0
LINE
  5
3A70
330
1F
100
AcDbEntity
  8
NOSNÉ KONSTRUKCE
100
AcDbLine
 10
-2099.390233593257
 20
-103.7470337541199
 30
0.0
 11
-2102.23492012489
 21
-106.8945438472524
 31
0.0
  0
LWPOLYLINE
  5
3A71
330
1F
100
AcDbEntity
  8
NOSNÉ KONSTRUKCE
100
AcDbPolyline
 90
        3
 70
     0
 43
0.0
 10
-2143.692417201742
 20
-108.6046785116463
 10
-2143.692417201742
 20
-77.25196226813705
 10
-2146.218504633743
 20
-77.25196226813705
  0
LINE
  5
3A72
330
1F
100
AcDbEntity
  8
NOSNÉ KONSTRUKCE
100
AcDbLine
 10
-2148.596180421522
 20
-77.25196226813705
 30
0.0
 11
-2148.596180421522
 21
-89.02138376253924
 31
0.0
  0
LINE
  5
3A73
102
{ACAD_REACTORS
330
3969
102
}
330
1F
100
AcDbEntity
  8
NOSNÉ KONSTRUKCE
100
AcDbLine
 10
-2138.017840626616
 20
-106.8945438472496
 30
0.0
 11
-2138.017840626616
 21
-108.3319742577246
 31
0.0
  0
LINE
  5
3A74
102
{ACAD_REACTORS
330
3969
102
}
330
1F
100
AcDbEntity
  8
NOSNÉ KONSTRUKCE
100
AcDbLine
 10
-2138.017840626614
 20
-110.6130313533444
 30
0.0
 11
-2138.017840626616
 21
-112.0504617638193
 31
0.0
  0
LINE
  5
3A75
330
1F
100
AcDbEntity
  8
NOSNÉ KONSTRUKCE
100
AcDbLine
 10
-2148.596180421522
 20
-89.02138376253924
 30
0.0
 11
-2146.218504633743
 21
-89.02138376253924
 31
0.0
  0
LINE
  5
3A76
330
1F
100
AcDbEntity
  8
NOSNÉ KONSTRUKCE
100
AcDbLine
 10
-2146.218504633743
 20
-77.25196226813705
 30
0.0
 11
-2148.596180421522
 21
-77.25196226813705
 31
0.0
  0
LINE
  5
3A77
330
1F
100
AcDbEntity
  8
NOSNÉ KONSTRUKCE
100
AcDbLine
 10
-2143.692417201742
 20
-108.6046785116463
 30
0.0
 11
-2091.203339894756
 21
-108.6046785116463
 31
0.0
  0
LINE
  5
3A78
330
1F
100
AcDbEntity
  8
NOSNÉ KONSTRUKCE
100
AcDbLine
 10
-2091.203339894756
 20
-110.2808391243029
 30
0.0
 11
-2143.692417201742
 21
-110.2808391243029
 31
0.0
  0
LINE
  5
3A79
102
{ACAD_REACTORS
330
3969
102
}
330
1F
100
AcDbEntity
  8
NOSNÉ KONSTRUKCE
100
AcDbLine
 10
-2138.017840626616
 20
-112.0504617638193
 30
0.0
 11
-2083.647840657311
 21
-112.0504617638193
 31
0.0
  0
LINE
  5
3A7A
102
{ACAD_REACTORS
330
3969
102
}
330
1F
100
AcDbEntity
  8
NOSNÉ KONSTRUKCE
100
AcDbLine
 10
-2084.78876245869
 20
-110.6130313533444
 30
0.0
 11
-2138.017840626614
 21
-110.6130313533444
 31
0.0
  0
LINE
  5
3A7B
330
1F
100
AcDbEntity
  8
SPOJOVACÍ
100
AcDbLine
 10
-2124.585689209535
 20
-114.8144505177638
 30
0.0
 11
-2122.375267920389
 21
-113.111433800183
 31
0.0
  0
LINE
  5
3A7C
330
1F
100
AcDbEntity
  8
SPOJOVACÍ
100
AcDbLine
 10
-2124.585689209535
 20
-114.8144505177638
 30
0.0
 11
-2126.79611049868
 21
-113.111433800183
 31
0.0
  0
LINE
  5
3A7D
330
1F
100
AcDbEntity
  8
SPOJOVACÍ
100
AcDbLine
 10
-2122.375267920389
 20
-112.8947186675718
 30
0.0
 11
-2125.864053665194
 21
-113.8295359904563
 31
0.0
  0
LINE
  5
3A7E
330
1F
100
AcDbEntity
  8
NOSNÉ KONSTRUKCE
100
AcDbLine
 10
-2148.596180421522
 20
-129.86413387341
 30
0.0
 11
-2146.218504633743
 21
-129.86413387341
 31
0.0
  0
LINE
  5
3A7F
330
1F
100
AcDbEntity
  8
NOSNÉ KONSTRUKCE
100
AcDbLine
 10
-2148.596180421522
 20
-141.6335553678122
 30
0.0
 11
-2148.596180421522
 21
-129.86413387341
 31
0.0
  0
LINE
  5
3A80
330
1F
100
AcDbEntity
  8
NOSNÉ KONSTRUKCE
100
AcDbLine
 10
-2146.218504633743
 20
-141.6335553678122
 30
0.0
 11
-2148.596180421522
 21
-141.6335553678122
 31
0.0
  0
LINE
  5
3A81
330
1F
100
AcDbEntity
  8
SPOJOVACÍ
100
AcDbLine
 10
-2147.41117033605
 20
-124.8571710931396
 30
0.0
 11
-2148.595731534765
 21
-129.2780136714295
 31
0.0
  0
LINE
  5
3A82
330
1F
100
AcDbEntity
  8
SPOJOVACÍ
100
AcDbLine
 10
-2150.56137093624
 20
-127.067592382285
 30
0.0
 11
-2148.85835421866
 21
-124.8571710931396
 31
0.0
  0
LINE
  5
3A83
330
1F
100
AcDbEntity
  8
SPOJOVACÍ
100
AcDbLine
 10
-2150.56137093624
 20
-127.067592382285
 30
0.0
 11
-2148.85835421866
 21
-129.2780136714295
 31
0.0
  0
LINE
  5
3A84
330
1F
100
AcDbEntity
  8
SPOJOVACÍ
100
AcDbLine
 10
-2148.641639086048
 20
-124.8571710931396
 30
0.0
 11
-2149.576456408933
 21
-128.3459568379425
 31
0.0
  0
LINE
  5
3A85
330
1F
100
AcDbEntity
  8
SPOJOVACÍ
100
AcDbLine
 10
-2146.180701586048
 20
-124.8571710931396
 30
0.0
 11
-2147.365262784765
 21
-129.2780136714295
 31
0.0
  0
LINE
  5
3A86
330
1F
100
AcDbEntity
  8
SPOJOVACÍ
100
AcDbLine
 10
-2143.719764086048
 20
-124.8571710931396
 30
0.0
 11
-2144.904325284765
 21
-129.2780136714295
 31
0.0
  0
LINE
  5
3A87
330
1F
100
AcDbEntity
  8
SPOJOVACÍ
100
AcDbLine
 10
-2142.489295336046
 20
-124.8571710931396
 30
0.0
 11
-2143.673856534765
 21
-129.2780136714295
 31
0.0
  0
LINE
  5
3A88
330
1F
100
AcDbEntity
  8
SPOJOVACÍ
100
AcDbLine
 10
-2144.950232836048
 20
-124.8571710931396
 30
0.0
 11
-2146.134794034767
 21
-129.2780136714295
 31
0.0
  0
LINE
  5
3A89
330
1F
100
AcDbEntity
  8
SPOJOVACÍ
100
AcDbLine
 10
-2142.26073863533
 20
-132.604701757285
 30
0.0
 11
-2142.26073863533
 21
-127.067592382285
 31
0.0
  0
LINE
  5
3A8A
330
1F
100
AcDbEntity
  8
SPOJOVACÍ
100
AcDbLine
 10
-2142.26073863533
 20
-127.067592382285
 30
0.0
 11
-2142.26073863533
 21
-121.530483007285
 31
0.0
  0
LINE
  5
3A8B
330
1F
100
AcDbEntity
  8
SPOJOVACÍ
100
AcDbLine
 10
-2148.85835421866
 20
-129.2780136714295
 30
0.0
 11
-2142.26073863533
 21
-129.2780136714295
 31
0.0
  0
LINE
  5
3A8C
330
1F
100
AcDbEntity
  8
SPOJOVACÍ
100
AcDbLine
 10
-2148.85835421866
 20
-124.8571710931396
 30
0.0
 11
-2142.26073863533
 21
-124.8571710931396
 31
0.0
  0
ARC
  5
3A8D
330
1F
100
AcDbEntity
  8
SPOJOVACÍ
100
AcDbCircle
 10
-2146.571038704126
 20
-127.067592382285
 30
0.0
 40
7.016998426235272
100
AcDbArc
 50
307.8985698078477
 51
52.10143019215225
  0
LWPOLYLINE
  5
3A8E
330
1F
100
AcDbEntity
  8
NOSNÉ KONSTRUKCE
100
AcDbPolyline
 90
        3
 70
     0
 43
0.0
 10
-2146.218504633743
 20
-141.6335553678122
 10
-2143.692417201742
 20
-141.6335553678122
 10
-2143.692417201742
 20
-110.2808391243029
  0
LINE
  5
3A8F
330
1F
100
AcDbEntity
  8
NOSNÉ KONSTRUKCE
100
AcDbLine
 10
-2146.218504633743
 20
-89.02138376253924
 30
0.0
 11
-2146.218504633743
 21
-129.86413387341
 31
0.0
  0
LINE
  5
3A90
330
1F
100
AcDbEntity
  8
SPOJOVACÍ
100
AcDbLine
 10
-2122.375267920389
 20
-111.6642499175727
 30
0.0
 11
-2126.79611049868
 21
-112.8488111162882
 31
0.0
  0
LINE
  5
3A91
102
{ACAD_REACTORS
330
3969
102
}
330
1F
100
AcDbEntity
  8
SPOJOVACÍ
100
AcDbLine
 10
-2122.375267920389
 20
-113.111433800183
 30
0.0
 11
-2122.375267920389
 21
-106.5138182168534
 31
0.0
  0
LINE
  5
3A92
102
{ACAD_REACTORS
330
3969
102
}
330
1F
100
AcDbEntity
  8
SPOJOVACÍ
100
AcDbLine
 10
-2126.79611049868
 20
-113.111433800183
 30
0.0
 11
-2126.79611049868
 21
-106.5138182168534
 31
0.0
  0
LINE
  5
3A93
102
{ACAD_REACTORS
330
3969
102
}
330
1F
100
AcDbEntity
  8
NOSNÉ KONSTRUKCE
100
AcDbLine
 10
-2138.017840626616
 20
-106.8945438472496
 30
0.0
 11
-2009.994899507953
 21
-106.8945438472578
 31
0.0
  0
LINE
  5
3A94
102
{ACAD_REACTORS
330
3969
102
}
330
1F
100
AcDbEntity
  8
NOSNÉ KONSTRUKCE
100
AcDbLine
 10
-2138.017840626616
 20
-108.3319742577246
 30
0.0
 11
-2009.789419914144
 21
-108.3319742577327
 31
0.0
  0
LINE
  5
3A95
330
1F
100
AcDbEntity
  8
NOSNÉ KONSTRUKCE
100
AcDbLine
 10
-2097.906444413736
 20
-103.0880668151344
 30
0.0
 11
-2018.994899507955
 21
-103.0880668151307
 31
0.0
  0
LINE
  5
3A96
330
1F
100
AcDbEntity
  8
STAVBA OBRYS
100
AcDbLine
 10
-2010.032018427773
 20
-181.8196540902222
 30
0.0
 11
-2093.703431359517
 21
-181.8196540902222
 31
0.0
  0
LINE
  5
3A97
330
1F
100
AcDbEntity
  8
NOSNÉ KONSTRUKCE
100
AcDbLine
 10
-1973.970870649987
 20
-320.4209350037876
 30
0.0
 11
-1962.201449155585
 21
-320.4209350037876
 31
0.0
  0
LINE
  5
3A98
330
1F
100
AcDbEntity
  8
NOSNÉ KONSTRUKCE
100
AcDbLine
 10
-1962.201449155585
 20
-320.4209350037876
 30
0.0
 11
-1962.201449155585
 21
-318.0432592160091
 31
0.0
  0
LINE
  5
3A99
330
1F
100
AcDbEntity
  8
NOSNÉ KONSTRUKCE
100
AcDbLine
 10
-1973.970870649987
 20
-318.0432592160091
 30
0.0
 11
-1973.970870649987
 21
-320.4209350037876
 31
0.0
  0
LINE
  5
3A9A
330
1F
100
AcDbEntity
  8
SPOJOVACÍ
100
AcDbLine
 10
-1957.913913892636
 20
-317.3248296556489
 30
0.0
 11
-1962.334756470927
 21
-318.5093908543644
 31
0.0
  0
LINE
  5
3A9B
330
1F
100
AcDbEntity
  8
SPOJOVACÍ
100
AcDbLine
 10
-1957.913913892636
 20
-318.555298405648
 30
0.0
 11
-1961.40269963744
 21
-319.4901157285325
 31
0.0
  0
LINE
  5
3A9C
330
1F
100
AcDbEntity
  8
SPOJOVACÍ
100
AcDbLine
 10
-1960.124335181782
 20
-320.47503025584
 30
0.0
 11
-1962.334756470927
 21
-318.7720135382592
 31
0.0
  0
LINE
  5
3A9D
330
1F
100
AcDbEntity
  8
SPOJOVACÍ
100
AcDbLine
 10
-1960.124335181782
 20
-320.47503025584
 30
0.0
 11
-1957.913913892636
 21
-318.7720135382592
 31
0.0
  0
LINE
  5
3A9E
330
1F
100
AcDbEntity
  8
SPOJOVACÍ
100
AcDbLine
 10
-1960.124335181782
 20
-312.1743979549296
 30
0.0
 11
-1954.587225806782
 21
-312.1743979549296
 31
0.0
  0
ARC
  5
3A9F
330
1F
100
AcDbEntity
  8
SPOJOVACÍ
100
AcDbCircle
 10
-1960.124335181782
 20
-316.4846980237266
 30
0.0
 40
7.016998426235272
100
AcDbArc
 50
37.89856980784375
 51
142.1014301921562
  0
LINE
  5
3AA0
330
1F
100
AcDbEntity
  8
SPOJOVACÍ
100
AcDbLine
 10
-1965.661444556782
 20
-312.1743979549296
 30
0.0
 11
-1960.124335181782
 21
-312.1743979549296
 31
0.0
  0
LINE
  5
3AA1
330
1F
100
AcDbEntity
  8
SPOJOVACÍ
100
AcDbLine
 10
-1957.913913892636
 20
-314.863892155648
 30
0.0
 11
-1962.334756470927
 21
-316.0484533543672
 31
0.0
  0
LINE
  5
3AA2
330
1F
100
AcDbEntity
  8
SPOJOVACÍ
100
AcDbLine
 10
-1957.913913892636
 20
-312.4029546556462
 30
0.0
 11
-1962.334756470927
 21
-313.5875158543654
 31
0.0
  0
LINE
  5
3AA3
330
1F
100
AcDbEntity
  8
SPOJOVACÍ
100
AcDbLine
 10
-1957.913913892636
 20
-313.633423405648
 30
0.0
 11
-1962.334756470927
 21
-314.8179846043662
 31
0.0
  0
LINE
  5
3AA4
330
1F
100
AcDbEntity
  8
SPOJOVACÍ
100
AcDbLine
 10
-1957.913913892636
 20
-316.094360905648
 30
0.0
 11
-1962.334756470927
 21
-317.2789221043653
 31
0.0
  0
LINE
  5
3AA5
330
1F
100
AcDbEntity
  8
SPOJOVACÍ
100
AcDbLine
 10
-1957.913913892636
 20
-318.7720135382592
 30
0.0
 11
-1957.913913892636
 21
-312.1743979549296
 31
0.0
  0
LINE
  5
3AA6
330
1F
100
AcDbEntity
  8
SPOJOVACÍ
100
AcDbLine
 10
-1962.334756470927
 20
-318.7720135382592
 30
0.0
 11
-1962.334756470927
 21
-312.1743979549296
 31
0.0
  0
LINE
  5
3AA7
330
1F
100
AcDbEntity
  8
SPOJOVACÍ
100
AcDbLine
 10
-2131.741014838165
 20
-286.5888005857791
 30
0.0
 11
-2133.930607760768
 21
-283.7468303568785
 31
0.0
  0
LINE
  5
3AA8
330
1F
100
AcDbEntity
  8
SPOJOVACÍ
100
AcDbLine
 10
-2131.741014838165
 20
-286.5888005857791
 30
0.0
 11
-2133.930607760768
 21
-289.4307708146789
 31
0.0
  0
LINE
  5
3AA9
330
1F
100
AcDbEntity
  8
SPOJOVACÍ
100
AcDbLine
 10
-2133.71278370913
 20
-289.4307708146789
 30
0.0
 11
-2132.638982141439
 21
-285.4232888068133
 31
0.0
  0
LINE
  5
3AAA
330
1F
100
AcDbEntity
  8
SPOJOVACÍ
100
AcDbLine
 10
-2135.294814959131
 20
-289.4307708146789
 30
0.0
 11
-2133.771807703634
 21
-283.7468303568785
 31
0.0
  0
LINE
  5
3AAB
330
1F
100
AcDbEntity
  8
SPOJOVACÍ
100
AcDbLine
 10
-2136.876846209128
 20
-289.4307708146789
 30
0.0
 11
-2135.353838953636
 21
-283.7468303568785
 31
0.0
  0
LINE
  5
3AAC
330
1F
100
AcDbEntity
  8
SPOJOVACÍ
100
AcDbLine
 10
-2138.458877459127
 20
-289.4307708146789
 30
0.0
 11
-2136.935870203636
 21
-283.7468303568785
 31
0.0
  0
LINE
  5
3AAD
330
1F
100
AcDbEntity
  8
SPOJOVACÍ
100
AcDbLine
 10
-2114.012326519821
 20
-311.5535705734243
 30
0.0
 11
-2119.696266977623
 21
-310.0305633179313
 31
0.0
  0
LINE
  5
3AAE
330
1F
100
AcDbEntity
  8
SPOJOVACÍ
100
AcDbLine
 10
-2123.973437373722
 20
-334.2102593979248
 30
0.0
 11
-2116.854296748722
 21
-334.2102593979248
 31
0.0
  0
LINE
  5
3AAF
330
1F
100
AcDbEntity
  8
SPOJOVACÍ
100
AcDbLine
 10
-2116.854296748722
 20
-334.2102593979248
 30
0.0
 11
-2109.735156123722
 21
-334.2102593979248
 31
0.0
  0
HATCH
  5
3AB0
330
1F
100
AcDbEntity
  8
SPOJOVACÍ
100
AcDbHatch
 10
0.0
 20
0.0
 30
0.0
210
0.0
220
0.0
230
1.0
  2
ANSI37
 70
     0
 71
     0
 91
        1
 92
        7
 72
     0
 73
     1
 93
        6
 10
-2123.973437373722
 20
-334.2102593979248
 10
-2123.973437373722
 20
-335.8970792564014
 10
-2116.854296748722
 20
-335.8970792564014
 10
-2109.735156123722
 20
-335.8970792564014
 10
-2109.735156123722
 20
-334.2102593979248
 10
-2116.854296748722
 20
-334.2102593979248
 97
        0
 75
     0
 76
     1
 52
90.0
 41
0.9
 77
     0
 78
     2
 53
135.0
 43
-1665.960366313605
 44
-667.4820346118838
 45
-2.020557627240559
 46
-2.020557627240559
 79
     0
 53
225.0
 43
-1665.960366313605
 44
-667.4820346118838
 45
2.020557627240559
 46
-2.020557627240559
 79
     0
 47
0.1350114543121608
 98
        1
 10
-2116.881662766525
 20
-335.2983488902718
  0
LINE
  5
3AB1
330
1F
100
AcDbEntity
  8
SPOJOVACÍ
100
AcDbLine
 10
-2116.854296748722
 20
-335.8970792564014
 30
0.0
 11
-2123.973437373722
 21
-335.8970792564014
 31
0.0
  0
LINE
  5
3AB2
330
1F
100
AcDbEntity
  8
SPOJOVACÍ
100
AcDbLine
 10
-2122.074999873722
 20
-335.0808029278789
 30
0.0
 11
-2122.074999873722
 21
-335.0855490216283
 31
0.0
  0
LINE
  5
3AB3
330
1F
100
AcDbEntity
  8
SPOJOVACÍ
100
AcDbLine
 10
-2123.973437373722
 20
-334.2102593979248
 30
0.0
 11
-2123.973437373722
 21
-335.8970792564014
 31
0.0
  0
ARC
  5
3AB4
330
1F
100
AcDbEntity
  8
SPOJOVACÍ
100
AcDbCircle
 10
-2120.176562373722
 20
-339.6058479458681
 30
0.0
 40
0.94921875
100
AcDbArc
 50
270.0
 51
0.0
  0
ARC
  5
3AB5
330
1F
100
AcDbEntity
  8
SPOJOVACÍ
100
AcDbCircle
 10
-2121.125781123722
 20
-339.6058479458681
 30
0.0
 40
0.94921875
100
AcDbArc
 50
180.0
 51
270.0
  0
LINE
  5
3AB6
330
1F
100
AcDbEntity
  8
SPOJOVACÍ
100
AcDbLine
 10
-2119.227343623722
 20
-335.8970792564014
 30
0.0
 11
-2119.227343623722
 21
-339.6058479458681
 31
0.0
  0
LINE
  5
3AB7
330
1F
100
AcDbEntity
  8
SPOJOVACÍ
100
AcDbLine
 10
-2122.074999873722
 20
-335.8970792564014
 30
0.0
 11
-2122.074999873722
 21
-339.6058479458681
 31
0.0
  0
LINE
  5
3AB8
330
1F
100
AcDbEntity
  8
SPOJOVACÍ
100
AcDbLine
 10
-2109.735156123722
 20
-335.8970792564014
 30
0.0
 11
-2109.735156123722
 21
-334.2102593979248
 31
0.0
  0
ARC
  5
3AB9
330
1F
100
AcDbEntity
  8
SPOJOVACÍ
100
AcDbCircle
 10
-2112.582812373722
 20
-339.6058479458681
 30
0.0
 40
0.94921875
100
AcDbArc
 50
270.0
 51
0.0
  0
ARC
  5
3ABA
330
1F
100
AcDbEntity
  8
SPOJOVACÍ
100
AcDbCircle
 10
-2113.532031123722
 20
-339.6058479458681
 30
0.0
 40
0.94921875
100
AcDbArc
 50
180.0
 51
270.0
  0
LINE
  5
3ABB
330
1F
100
AcDbEntity
  8
SPOJOVACÍ
100
AcDbLine
 10
-2111.633593623722
 20
-339.6058479458681
 30
0.0
 11
-2111.633593623722
 21
-335.8970792564014
 31
0.0
  0
LINE
  5
3ABC
330
1F
100
AcDbEntity
  8
SPOJOVACÍ
100
AcDbLine
 10
-2114.481249873722
 20
-335.8970792564014
 30
0.0
 11
-2114.481249873722
 21
-339.6058479458681
 31
0.0
  0
LINE
  5
3ABD
330
1F
100
AcDbEntity
  8
SPOJOVACÍ
100
AcDbLine
 10
-2120.690264925787
 20
-335.8970792564014
 30
0.0
 11
-2109.735156123722
 21
-335.8970792564014
 31
0.0
  0
LINE
  5
3ABE
330
1F
100
AcDbEntity
  8
SPOJOVACÍ
100
AcDbLine
 10
-2121.125781123722
 20
-340.5550666958681
 30
0.0
 11
-2112.582812373722
 21
-340.5550666958681
 31
0.0
  0
ARC
  5
3ABF
330
1F
100
AcDbEntity
  8
SPOJOVACÍ
100
AcDbCircle
 10
-2116.854296748722
 20
-337.1811277816557
 30
0.0
 40
3.392730367372068
100
AcDbArc
 50
225.6170676674255
 51
314.3829323325744
  0
LINE
  5
3AC0
330
1F
100
AcDbEntity
  8
SPOJOVACÍ
100
AcDbLine
 10
-2114.012326519821
 20
-313.1356018234244
 30
0.0
 11
-2119.696266977623
 21
-311.6125945679296
 31
0.0
  0
LINE
  5
3AC1
330
1F
100
AcDbEntity
  8
SPOJOVACÍ
100
AcDbLine
 10
-2114.012326519821
 20
-314.7176330734259
 30
0.0
 11
-2119.696266977623
 21
-313.1946258179295
 31
0.0
  0
LINE
  5
3AC2
330
1F
100
AcDbEntity
  8
SPOJOVACÍ
100
AcDbLine
 10
-2114.012326519821
 20
-317.8816955734228
 30
0.0
 11
-2119.696266977623
 21
-316.3586883179295
 31
0.0
  0
LINE
  5
3AC3
330
1F
100
AcDbEntity
  8
SPOJOVACÍ
100
AcDbLine
 10
-2114.012326519821
 20
-316.2996643234228
 30
0.0
 11
-2119.696266977623
 21
-314.7766570679296
 31
0.0
  0
LINE
  5
3AC4
330
1F
100
AcDbEntity
  8
SPOJOVACÍ
100
AcDbLine
 10
-2114.012326519821
 20
-319.4637268234234
 30
0.0
 11
-2119.696266977623
 21
-317.940719567928
 31
0.0
  0
LINE
  5
3AC5
330
1F
100
AcDbEntity
  8
SPOJOVACÍ
100
AcDbLine
 10
-2114.012326519821
 20
-321.0457580734209
 30
0.0
 11
-2119.696266977623
 21
-319.5227508179296
 31
0.0
  0
LINE
  5
3AC6
330
1F
100
AcDbEntity
  8
SPOJOVACÍ
100
AcDbLine
 10
-2114.012326519821
 20
-322.6277893234219
 30
0.0
 11
-2119.696266977623
 21
-321.1047820679295
 31
0.0
  0
LINE
  5
3AC7
330
1F
100
AcDbEntity
  8
SPOJOVACÍ
100
AcDbLine
 10
-2114.012326519821
 20
-324.2098205734228
 30
0.0
 11
-2119.696266977623
 21
-322.6868133179288
 31
0.0
  0
LINE
  5
3AC8
330
1F
100
AcDbEntity
  8
SPOJOVACÍ
100
AcDbLine
 10
-2114.012326519821
 20
-328.9559143234234
 30
0.0
 11
-2119.696266977623
 21
-327.432907067928
 31
0.0
  0
LINE
  5
3AC9
330
1F
100
AcDbEntity
  8
SPOJOVACÍ
100
AcDbLine
 10
-2114.012326519821
 20
-327.3738830734243
 30
0.0
 11
-2119.696266977623
 21
-325.850875817928
 31
0.0
  0
LINE
  5
3ACA
330
1F
100
AcDbEntity
  8
SPOJOVACÍ
100
AcDbLine
 10
-2114.012326519821
 20
-325.7918518234228
 30
0.0
 11
-2119.696266977623
 21
-324.2688445679279
 31
0.0
  0
LINE
  5
3ACB
330
1F
100
AcDbEntity
  8
SPOJOVACÍ
100
AcDbLine
 10
-2114.012326519821
 20
-332.119976823421
 30
0.0
 11
-2119.696266977623
 21
-330.5969695679296
 31
0.0
  0
LINE
  5
3ACC
330
1F
100
AcDbEntity
  8
SPOJOVACÍ
100
AcDbLine
 10
-2114.012326519821
 20
-330.5379455734227
 30
0.0
 11
-2119.696266977623
 21
-329.0149383179289
 31
0.0
  0
LINE
  5
3ACD
330
1F
100
AcDbEntity
  8
SPOJOVACÍ
100
AcDbLine
 10
-2116.854296748722
 20
-303.2536767024609
 30
0.0
 11
-2119.696266977623
 21
-305.4432696250639
 31
0.0
  0
LINE
  5
3ACE
330
1F
100
AcDbEntity
  8
SPOJOVACÍ
100
AcDbLine
 10
-2116.854296748722
 20
-303.2536767024609
 30
0.0
 11
-2114.012326519821
 21
-305.4432696250639
 31
0.0
  0
LINE
  5
3ACF
330
1F
100
AcDbEntity
  8
SPOJOVACÍ
100
AcDbLine
 10
-2114.012326519821
 20
-305.2254455734244
 30
0.0
 11
-2118.019808527687
 21
-304.1516440057353
 31
0.0
  0
LINE
  5
3AD0
330
1F
100
AcDbEntity
  8
SPOJOVACÍ
100
AcDbLine
 10
-2114.012326519821
 20
-306.807476823425
 30
0.0
 11
-2119.696266977623
 21
-305.2844695679295
 31
0.0
  0
LINE
  5
3AD1
330
1F
100
AcDbEntity
  8
SPOJOVACÍ
100
AcDbLine
 10
-2114.012326519821
 20
-308.3895080734234
 30
0.0
 11
-2119.696266977623
 21
-306.866500817932
 31
0.0
  0
LINE
  5
3AD2
330
1F
100
AcDbEntity
  8
SPOJOVACÍ
100
AcDbLine
 10
-2114.012326519821
 20
-309.9715393234234
 30
0.0
 11
-2119.696266977623
 21
-308.4485320679314
 31
0.0
  0
LINE
  5
3AD3
330
1F
100
AcDbEntity
  8
SPOJOVACÍ
100
AcDbLine
 10
-2114.012326519821
 20
-305.4432696250639
 30
0.0
 11
-2114.012326519821
 21
-334.2102593979248
 31
0.0
  0
LINE
  5
3AD4
330
1F
100
AcDbEntity
  8
SPOJOVACÍ
100
AcDbLine
 10
-2119.696266977623
 20
-305.4432696250639
 30
0.0
 11
-2119.696266977623
 21
-334.2102593979248
 31
0.0
  0
LINE
  5
3AD5
330
1F
100
AcDbEntity
  8
SPOJOVACÍ
100
AcDbLine
 10
-2162.697597533629
 20
-279.4696599607791
 30
0.0
 11
-2162.697597533629
 21
-286.5888005857791
 31
0.0
  0
LINE
  5
3AD6
330
1F
100
AcDbEntity
  8
SPOJOVACÍ
100
AcDbLine
 10
-2162.697597533629
 20
-286.5888005857791
 30
0.0
 11
-2162.697597533629
 21
-293.7079412107791
 31
0.0
  0
INSERT
  5
3AD7
330
1F
100
AcDbEntity
  8
POPIS
100
AcDbBlockReference
  2
E_PUNKT
 10
-2169.795504474739
 20
-286.2172736705683
 30
0.0
  0
HATCH
  5
3AD8
330
1F
100
AcDbEntity
  8
SPOJOVACÍ
100
AcDbHatch
 10
0.0
 20
0.0
 30
0.0
210
0.0
220
0.0
230
1.0
  2
ANSI37
 70
     0
 71
     0
 91
        1
 92
        7
 72
     0
 73
     1
 93
        6
 10
-2162.697597533629
 20
-279.4696599607791
 10
-2164.384417392105
 20
-279.4696599607791
 10
-2164.384417392105
 20
-286.5888005857791
 10
-2164.384417392105
 20
-293.7079412107791
 10
-2162.697597533629
 20
-293.7079412107791
 10
-2162.697597533629
 20
-286.5888005857791
 97
        0
 75
     0
 76
     1
 52
0.0
 41
0.9
 77
     0
 78
     2
 53
45.00000000000001
 43
-2495.969372747587
 44
-737.4827310208961
 45
-2.020557627240559
 46
2.020557627240559
 79
     0
 53
135.0
 43
-2495.969372747587
 44
-737.4827310208961
 45
-2.020557627240559
 46
-2.020557627240559
 79
     0
 47
0.1350114543121608
 98
        1
 10
-2163.785687025975
 20
-286.5614345679746
  0
LINE
  5
3AD9
330
1F
100
AcDbEntity
  8
SPOJOVACÍ
100
AcDbLine
 10
-2164.384417392107
 20
-286.5888005857791
 30
0.0
 11
-2164.384417392107
 21
-279.4696599607791
 31
0.0
  0
LINE
  5
3ADA
330
1F
100
AcDbEntity
  8
SPOJOVACÍ
100
AcDbLine
 10
-2163.568141063584
 20
-281.3680974607791
 30
0.0
 11
-2163.572887157333
 21
-281.3680974607791
 31
0.0
  0
LINE
  5
3ADB
330
1F
100
AcDbEntity
  8
SPOJOVACÍ
100
AcDbLine
 10
-2162.697597533629
 20
-279.4696599607791
 30
0.0
 11
-2164.384417392107
 21
-279.4696599607791
 31
0.0
  0
ARC
  5
3ADC
330
1F
100
AcDbEntity
  8
SPOJOVACÍ
100
AcDbCircle
 10
-2168.093186081572
 20
-283.2665349607791
 30
0.0
 40
0.94921875
100
AcDbArc
 50
180.0
 51
270.0
  0
ARC
  5
3ADD
330
1F
100
AcDbEntity
  8
SPOJOVACÍ
100
AcDbCircle
 10
-2168.093186081572
 20
-282.3173162107791
 30
0.0
 40
0.94921875
100
AcDbArc
 50
90.0
 51
180.0
  0
LINE
  5
3ADE
330
1F
100
AcDbEntity
  8
SPOJOVACÍ
100
AcDbLine
 10
-2164.384417392107
 20
-284.2157537107791
 30
0.0
 11
-2168.093186081572
 21
-284.2157537107791
 31
0.0
  0
LINE
  5
3ADF
330
1F
100
AcDbEntity
  8
SPOJOVACÍ
100
AcDbLine
 10
-2164.384417392107
 20
-281.3680974607791
 30
0.0
 11
-2168.093186081572
 21
-281.3680974607791
 31
0.0
  0
LINE
  5
3AE0
330
1F
100
AcDbEntity
  8
SPOJOVACÍ
100
AcDbLine
 10
-2164.384417392107
 20
-293.7079412107791
 30
0.0
 11
-2162.697597533629
 21
-293.7079412107791
 31
0.0
  0
ARC
  5
3AE1
330
1F
100
AcDbEntity
  8
SPOJOVACÍ
100
AcDbCircle
 10
-2168.093186081572
 20
-290.8602849607791
 30
0.0
 40
0.94921875
100
AcDbArc
 50
180.0
 51
270.0
  0
ARC
  5
3AE2
330
1F
100
AcDbEntity
  8
SPOJOVACÍ
100
AcDbCircle
 10
-2168.093186081572
 20
-289.9110662107791
 30
0.0
 40
0.94921875
100
AcDbArc
 50
90.0
 51
180.0
  0
LINE
  5
3AE3
330
1F
100
AcDbEntity
  8
SPOJOVACÍ
100
AcDbLine
 10
-2168.093186081572
 20
-291.8095037107791
 30
0.0
 11
-2164.384417392107
 21
-291.8095037107791
 31
0.0
  0
LINE
  5
3AE4
330
1F
100
AcDbEntity
  8
SPOJOVACÍ
100
AcDbLine
 10
-2164.384417392107
 20
-288.9618474607791
 30
0.0
 11
-2168.093186081572
 21
-288.9618474607791
 31
0.0
  0
LINE
  5
3AE5
330
1F
100
AcDbEntity
  8
SPOJOVACÍ
100
AcDbLine
 10
-2164.384417392107
 20
-282.7528324087145
 30
0.0
 11
-2164.384417392107
 21
-293.7079412107791
 31
0.0
  0
LINE
  5
3AE6
330
1F
100
AcDbEntity
  8
SPOJOVACÍ
100
AcDbLine
 10
-2169.042404831572
 20
-282.3173162107791
 30
0.0
 11
-2169.042404831572
 21
-290.8602849607791
 31
0.0
  0
ARC
  5
3AE7
330
1F
100
AcDbEntity
  8
SPOJOVACÍ
100
AcDbCircle
 10
-2165.66846591736
 20
-286.5888005857791
 30
0.0
 40
3.392730367372068
100
AcDbArc
 50
135.6170676673749
 51
224.382932332625
  0
LINE
  5
3AE8
330
1F
100
AcDbEntity
  8
SPOJOVACÍ
100
AcDbLine
 10
-2141.62293995913
 20
-289.4307708146789
 30
0.0
 11
-2140.099932703634
 21
-283.7468303568785
 31
0.0
  0
LINE
  5
3AE9
330
1F
100
AcDbEntity
  8
SPOJOVACÍ
100
AcDbLine
 10
-2143.204971209131
 20
-289.4307708146789
 30
0.0
 11
-2141.681963953634
 21
-283.7468303568785
 31
0.0
  0
LINE
  5
3AEA
330
1F
100
AcDbEntity
  8
SPOJOVACÍ
100
AcDbLine
 10
-2146.369033709127
 20
-289.4307708146789
 30
0.0
 11
-2144.846026453634
 21
-283.7468303568785
 31
0.0
  0
LINE
  5
3AEB
330
1F
100
AcDbEntity
  8
SPOJOVACÍ
100
AcDbLine
 10
-2144.787002459128
 20
-289.4307708146789
 30
0.0
 11
-2143.263995203634
 21
-283.7468303568785
 31
0.0
  0
LINE
  5
3AEC
330
1F
100
AcDbEntity
  8
SPOJOVACÍ
100
AcDbLine
 10
-2147.951064959128
 20
-289.4307708146789
 30
0.0
 11
-2146.428057703633
 21
-283.7468303568785
 31
0.0
  0
LINE
  5
3AED
330
1F
100
AcDbEntity
  8
SPOJOVACÍ
100
AcDbLine
 10
-2149.533096209126
 20
-289.4307708146789
 30
0.0
 11
-2148.010088953634
 21
-283.7468303568785
 31
0.0
  0
LINE
  5
3AEE
330
1F
100
AcDbEntity
  8
SPOJOVACÍ
100
AcDbLine
 10
-2151.115127459128
 20
-289.4307708146789
 30
0.0
 11
-2149.592120203635
 21
-283.7468303568785
 31
0.0
  0
LINE
  5
3AEF
330
1F
100
AcDbEntity
  8
SPOJOVACÍ
100
AcDbLine
 10
-2152.697158709127
 20
-289.4307708146789
 30
0.0
 11
-2151.174151453632
 21
-283.7468303568785
 31
0.0
  0
LINE
  5
3AF0
330
1F
100
AcDbEntity
  8
SPOJOVACÍ
100
AcDbLine
 10
-2157.443252459128
 20
-289.4307708146789
 30
0.0
 11
-2155.920245203633
 21
-283.7468303568785
 31
0.0
  0
LINE
  5
3AF1
330
1F
100
AcDbEntity
  8
SPOJOVACÍ
100
AcDbLine
 10
-2155.861221209129
 20
-289.4307708146789
 30
0.0
 11
-2154.338213953633
 21
-283.7468303568785
 31
0.0
  0
LINE
  5
3AF2
330
1F
100
AcDbEntity
  8
SPOJOVACÍ
100
AcDbLine
 10
-2154.279189959127
 20
-289.4307708146789
 30
0.0
 11
-2152.756182703633
 21
-283.7468303568785
 31
0.0
  0
LINE
  5
3AF3
330
1F
100
AcDbEntity
  8
SPOJOVACÍ
100
AcDbLine
 10
-2160.607314959126
 20
-289.4307708146789
 30
0.0
 11
-2159.084307703634
 21
-283.7468303568785
 31
0.0
  0
LINE
  5
3AF4
330
1F
100
AcDbEntity
  8
SPOJOVACÍ
100
AcDbLine
 10
-2159.025283709128
 20
-289.4307708146789
 30
0.0
 11
-2157.502276453632
 21
-283.7468303568785
 31
0.0
  0
LINE
  5
3AF5
330
1F
100
AcDbEntity
  8
SPOJOVACÍ
100
AcDbLine
 10
-2140.040908709129
 20
-289.4307708146789
 30
0.0
 11
-2138.517901453636
 21
-283.7468303568785
 31
0.0
  0
LINE
  5
3AF6
330
1F
100
AcDbEntity
  8
SPOJOVACÍ
100
AcDbLine
 10
-2133.930607760768
 20
-289.4307708146789
 30
0.0
 11
-2162.697597533629
 21
-289.4307708146789
 31
0.0
  0
LINE
  5
3AF7
330
1F
100
AcDbEntity
  8
SPOJOVACÍ
100
AcDbLine
 10
-2133.930607760768
 20
-283.7468303568785
 30
0.0
 11
-2162.697597533629
 21
-283.7468303568785
 31
0.0
  0
TEXT
  5
3AF8
330
1F
100
AcDbEntity
  8
POPIS
100
AcDbText
 10
-2355.846035226357
 20
-34.33741921687624
 30
0.0
 40
25.0
  1
06
 41
0.7
  7
SIMPLEX7
100
AcDbText
  0
LINE
  5
3AF9
330
1F
100
AcDbEntity
  8
POPIS
100
AcDbLine
 10
-2315.868548883088
 20
-20.89407776750567
 30
0.0
 11
-2181.3862740536
 21
-20.89407776750613
 31
0.0
  0
LINE
  5
3AFA
102
{ACAD_REACTORS
330
3969
102
}
330
1F
100
AcDbEntity
  8
STAVBA OBRYS
100
AcDbLine
 10
-2093.703431359517
 20
227.9380472572725
 30
0.0
 11
-2093.703431359517
 21
-265.1482053396962
 31
0.0
  0
LINE
  5
3AFB
102
{ACAD_REACTORS
330
3969
102
}
330
1F
100
AcDbEntity
  8
STAVBA OBRYS
  6
IZOLACE
 48
4.0
100
AcDbLine
 10
-2051.775651769839
 20
-183.1067560277001
 30
0.0
 11
-2052.381213685771
 21
227.9380472572725
 31
0.0
  0
LINE
  5
3AFC
102
{ACAD_REACTORS
330
3969
102
}
330
1F
100
AcDbEntity
  8
STAVBA OBRYS
100
AcDbLine
 10
-2010.032018427773
 20
-181.8196540902222
 30
0.0
 11
-2010.032018427765
 21
227.9380472572725
 31
0.0
  0
SOLID
  5
3AFD
330
1F
100
AcDbEntity
  8
CETRIS
100
AcDbTrace
 10
-2162.168066413286
 20
227.9380472572725
 30
0.0
 11
-2150.140882931311
 21
227.9380472572725
 31
0.0
 12
-2162.140882931318
 22
-333.5882053396958
 32
0.0
 13
-2150.140882931318
 23
-333.5882053396958
 33
0.0
  0
LINE
  5
3AFE
102
{ACAD_REACTORS
330
396A
102
}
330
1F
100
AcDbEntity
  8
STAVBA OBRYS
100
AcDbLine
 10
-2093.703431359517
 20
-265.1482053396962
 30
0.0
 11
-1547.547553312935
 21
-265.1482053396962
 31
0.0
  0
LINE
  5
3AFF
102
{ACAD_REACTORS
330
396A
102
}
330
1F
100
AcDbEntity
  8
STAVBA OBRYS
  6
IZOLACE
 48
4.0
100
AcDbLine
 10
-1550.05687689712
 20
-222.9862837536125
 30
0.0
 11
-2093.703431359517
 21
-223.7871980249506
 31
0.0
  0
LINE
  5
3B00
102
{ACAD_REACTORS
330
396A
102
}
330
1F
100
AcDbEntity
  8
STAVBA OBRYS
100
AcDbLine
 10
-2010.032018427773
 20
-181.8196540902222
 30
0.0
 11
-1552.506964341187
 21
-181.8196540902222
 31
0.0
  0
SOLID
  5
3B01
330
1F
100
AcDbEntity
  8
CETRIS
100
AcDbTrace
 10
-1544.190174557652
 20
-321.5592400532618
 30
0.0
 11
-1543.474254477372
 21
-333.5882053397031
 31
0.0
 12
-2139.743199018593
 22
-321.5882053396958
 32
0.0
 13
-2139.743199018593
 23
-333.5882053396958
 33
0.0
  0
LINE
  5
3B02
330
1F
100
AcDbEntity
  8
SPOJOVACÍ
100
AcDbLine
 10
-1948.438323718413
 20
-83.02325806260023
 30
0.0
 11
-1947.604263665137
 21
-79.91050356720871
 31
0.0
  0
LINE
  5
3B03
102
{ACAD_REACTORS
330
3969
102
}
330
1F
100
AcDbEntity
  8
SPOJOVACÍ
  6
DASHDOT2
100
AcDbLine
 10
-2028.758541597187
 20
-81.50118017772001
 30
0.0
 11
-1913.83843185328
 21
-81.50118017772092
 31
0.0
  0
LINE
  5
3B04
102
{ACAD_REACTORS
330
3969
102
}
330
1F
100
AcDbEntity
  8
SPOJOVACÍ
  6
DASHED
100
AcDbLine
 10
-1932.486345185079
 20
-88.06368017772092
 30
0.0
 11
-2013.585440128753
 21
-88.06368017772001
 31
0.0
  0
LINE
  5
3B05
102
{ACAD_REACTORS
330
3969
102
}
330
1F
100
AcDbEntity
  8
SPOJOVACÍ
  6
DASHED
100
AcDbLine
 10
-1932.486345185079
 20
-74.93868017772093
 30
0.0
 11
-2013.585440128753
 21
-74.93868017772001
 31
0.0
  0
LINE
  5
3B06
330
1F
100
AcDbEntity
  8
NOSNÉ KONSTRUKCE
100
AcDbLine
 10
-1921.358699044714
 20
-318.0432592160091
 30
0.0
 11
-1962.201449155585
 21
-318.0432592160091
 31
0.0
  0
LWPOLYLINE
  5
3B07
330
1F
100
AcDbEntity
  8
NOSNÉ KONSTRUKCE
100
AcDbPolyline
 90
        3
 70
     0
 43
0.0
 10
-1973.970870649987
 20
-318.0432592160091
 10
-1973.970870649987
 20
-315.517171784008
 10
-1942.618154406478
 20
-315.517171784008
  0
LINE
  5
3B9D
330
1F
100
AcDbEntity
  8
PROFILY
100
AcDbLine
 10
-1909.540051813151
 20
-321.1627513782109
 30
0.0
 11
-1973.983108060499
 21
-321.1627513782109
 31
0.0
  0
LINE
  5
3B9E
330
1F
100
AcDbEntity
  8
PROFILY
  6
DASHED
370
    40
100
AcDbLine
 10
-1909.540051813151
 20
-320.9627513782106
 30
0.0
 11
-1973.983108060499
 21
-320.9627513782102
 31
0.0
  0
LINE
  5
3B9F
330
1F
100
AcDbEntity
  8
PROFILY
100
AcDbLine
 10
-1909.553507886563
 20
-320.7627513782103
 30
0.0
 11
-1973.983108060499
 21
-320.7627513782103
 31
0.0
  0
LINE
  5
3BA0
330
1F
100
AcDbEntity
  8
POPIS
100
AcDbLine
 10
-2314.533988778146
 20
-101.5162146068078
 30
0.0
 11
-2149.177802115925
 21
-101.5162146068078
 31
0.0
  0
INSERT
  5
3BA1
330
1F
100
AcDbEntity
  8
POPIS
100
AcDbBlockReference
  2
E_PUNKT
 10
-2149.474702658554
 20
-102.2415295141963
 30
0.0
 41
-1.0
  0
LINE
  5
3BA2
330
1F
100
AcDbEntity
  8
PROFILY
100
AcDbLine
 10
-2149.577802115925
 20
-76.91187345132471
 30
0.0
 11
-2149.577802115925
 21
-141.3414736252607
 31
0.0
  0
LINE
  5
3BA3
330
1F
100
AcDbEntity
  8
PROFILY
  6
DASHED
370
    40
100
AcDbLine
 10
-2149.377802115925
 20
-76.89841737791266
 30
0.0
 11
-2149.377802115926
 21
-141.3414736252607
 31
0.0
  0
LINE
  5
3BA4
330
1F
100
AcDbEntity
  8
PROFILY
100
AcDbLine
 10
-2149.177802115925
 20
-76.89841737791266
 30
0.0
 11
-2149.177802115925
 21
-141.3414736252607
 31
0.0
  0
TEXT
  5
3BA5
330
1F
100
AcDbEntity
  8
POPIS
100
AcDbText
 10
-2355.069424072697
 20
-114.9595560561783
 30
0.0
 40
25.0
  1
09
 41
0.7
  7
SIMPLEX7
100
AcDbText
  0
LINE
  5
3BA6
330
1F
100
AcDbEntity
  8
POPIS
100
AcDbLine
 10
-2070.319185611165
 20
-392.2595074393748
 30
0.0
 11
-2141.2612863203
 21
-392.2595074393748
 31
0.0
  0
TEXT
  5
3BA7
330
1F
100
AcDbEntity
  8
POPIS
100
AcDbText
 10
-2096.555446922035
 20
-385.4273027073489
 30
0.0
 40
25.0
  1
c
 41
0.7
  7
SIMPLEX7
100
AcDbText
  0
LINE
  5
3BA8
330
1F
100
AcDbEntity
  8
POPIS
100
AcDbLine
 10
-2136.971443506561
 20
-363.4654398164739
 30
0.0
 11
-2136.971443506561
 21
-404.7595074393748
 31
0.0
  0
INSERT
  5
3BA9
330
1F
100
AcDbEntity
  8
POPIS
100
AcDbBlockReference
  2
_ArchTick
 10
-2137.030129016646
 20
-392.2595074393747
 30
0.0
 41
15.0
 42
15.0
 43
15.0
 50
180.0
  0
TEXT
  5
3BAA
330
1F
100
AcDbEntity
  8
POPIS
100
AcDbText
 10
-2082.729116248596
 20
-389.6483558836406
 30
0.0
 40
15.0
  1
1
 41
0.7
  7
SIMPLEX7
100
AcDbText
  0
LINE
  5
3BAB
330
1F
100
AcDbEntity
  8
POPIS
100
AcDbLine
 10
-2113.68112609161
 20
-361.2764975834716
 30
0.0
 11
-2113.68112609161
 21
-404.7595074393748
 31
0.0
  0
INSERT
  5
3BAC
330
1F
100
AcDbEntity
  8
POPIS
100
AcDbBlockReference
  2
_ArchTick
 10
-2113.68112609161
 20
-392.2595074393747
 30
0.0
 41
15.0
 42
15.0
 43
15.0
  0
TEXT
  5
3BAD
330
1F
100
AcDbEntity
  8
POPIS
100
AcDbText
 10
-1719.519561139571
 20
-416.3767185006212
 30
0.0
 40
25.0
  1
50 mm AL rošt
 41
0.7
  7
SIMPLEX7
100
AcDbText
  0
TEXT
  5
3BAE
330
1F
100
AcDbEntity
  8
POPIS
100
AcDbText
 10
-1719.519561139571
 20
-385.4273027073489
 30
0.0
 40
25.0
  1
35 mm PZ rošt
 41
0.7
  7
SIMPLEX7
100
AcDbText
  0
TEXT
  5
3BAF
330
1F
100
AcDbEntity
  8
POPIS
100
AcDbText
 10
-1754.798051536168
 20
-385.4273027073489
 30
0.0
 40
25.0
  1
c
 41
0.7
  7
SIMPLEX7
100
AcDbText
  0
TEXT
  5
3BB0
330
1F
100
AcDbEntity
  8
POPIS
100
AcDbText
 10
-1740.971720862729
 20
-389.6483558836406
 30
0.0
 40
15.0
  1
1
 41
0.7
  7
SIMPLEX7
100
AcDbText
  0
TEXT
  5
3BB1
330
1F
100
AcDbEntity
  8
POPIS
100
AcDbText
 10
-2328.143115029807
 20
-771.3167011741611
 30
0.0
 40
25.0
  1
10
 41
0.85
  7
SIMPLEX7
100
AcDbText
  0
TEXT
  5
3BB2
330
1F
100
AcDbEntity
  8
POPIS
100
AcDbText
 10
-2273.799411870065
 20
-771.3167011741611
 30
0.0
 40
25.0
  1
Podkladní EPDM páska tl.1 mm
 41
0.7
  7
SIMPLEX7
100
AcDbText
  0
ENDSEC
  0
SECTION
  2
OBJECTS
  0
DICTIONARY
  5
C
330
0
100
AcDbDictionary
281
     1
  3
ACAD_GROUP
350
D
  3
ACAD_LAYOUT
350
1A
  3
ACAD_MLINESTYLE
350
17
  3
ACAD_PLOTSETTINGS
350
19
  3
ACAD_PLOTSTYLENAME
350
E
  3
AcDbVariableDictionary
350
3BB4
  0
DICTIONARY
  5
3B33
330
1F
100
AcDbDictionary
280
     1
281
     1
  3
ACAD_LAYOUTSELFREF
360
3B6F
  0
DICTIONARY
  5
3B35
330
1B
100
AcDbDictionary
280
     1
281
     1
  3
ACAD_LAYOUTSELFREF
360
3B6E
  0
DICTIONARY
  5
3B37
330
23
100
AcDbDictionary
280
     1
281
     1
  3
ACAD_LAYOUTSELFREF
360
3B70
  0
DICTIONARY
  5
D
102
{ACAD_REACTORS
330
C
102
}
330
C
100
AcDbDictionary
281
     1
  0
DICTIONARY
  5
1A
102
{ACAD_REACTORS
330
C
102
}
330
C
100
AcDbDictionary
281
     1
  3
Model
350
22
  3
Rozvržení1
350
1E
  3
Rozvržení2
350
26
  0
DICTIONARY
  5
17
102
{ACAD_REACTORS
330
C
102
}
330
C
100
AcDbDictionary
281
     1
  3
Standard
350
18
  0
DICTIONARY
  5
19
102
{ACAD_REACTORS
330
C
102
}
330
C
100
AcDbDictionary
281
     1
  0
ACDBDICTIONARYWDFLT
  5
E
102
{ACAD_REACTORS
330
C
102
}
330
C
100
AcDbDictionary
281
     1
  3
Normal
350
F
100
AcDbDictionaryWithDefault
340
F
  0
DICTIONARY
  5
3BB4
102
{ACAD_REACTORS
330
C
102
}
330
C
100
AcDbDictionary
281
     1
  3
DIMASSOC
350
3BB5
  0
XRECORD
  5
3B6F
102
{ACAD_REACTORS
330
3B33
102
}
330
3B33
100
AcDbXrecord
280
     1
340
1F
  0
XRECORD
  5
3B6E
102
{ACAD_REACTORS
330
3B35
102
}
330
3B35
100
AcDbXrecord
280
     1
340
1B
  0
XRECORD
  5
3B70
102
{ACAD_REACTORS
330
3B37
102
}
330
3B37
100
AcDbXrecord
280
     1
340
23
  0
LAYOUT
  5
22
102
{ACAD_REACTORS
330
1A
102
}
330
1A
100
AcDbPlotSettings
  1

  2
HP DeskJet 690C
  4

  6

 40
0.0
 41
0.0
 42
0.0
 43
0.0
 44
0.0
 45
0.0
 46
0.0
 47
0.0
 48
0.0
 49
0.0
140
0.0
141
0.0
142
1.0
143
1.0
 70
  1712
 72
     0
 73
     0
 74
     0
  7
monochrome.ctb
 75
     0
147
1.0
148
0.0
149
0.0
100
AcDbLayout
  1
Model
 70
     1
 71
     0
 10
0.0
 20
0.0
 11
12.0
 21
9.0
 12
0.0
 22
0.0
 32
0.0
 14
0.0
 24
0.0
 34
0.0
 15
0.0
 25
0.0
 35
0.0
146
0.0
 13
0.0
 23
0.0
 33
0.0
 16
1.0
 26
0.0
 36
0.0
 17
0.0
 27
1.0
 37
0.0
 76
     0
330
1F
  0
LAYOUT
  5
1E
102
{ACAD_REACTORS
330
1A
102
}
330
1A
100
AcDbPlotSettings
  1

  2
HP DeskJet 690C
  4

  6

 40
0.0
 41
0.0
 42
0.0
 43
0.0
 44
0.0
 45
0.0
 46
0.0
 47
0.0
 48
0.0
 49
0.0
140
0.0
141
0.0
142
1.0
143
1.0
 70
   688
 72
     0
 73
     0
 74
     5
  7
monochrome.ctb
 75
    16
147
1.0
148
0.0
149
0.0
100
AcDbLayout
  1
Rozvržení1
 70
     1
 71
     1
 10
0.0
 20
0.0
 11
420.0
 21
297.0
 12
0.0
 22
0.0
 32
0.0
 14
1.000000000000000E+20
 24
1.000000000000000E+20
 34
1.000000000000000E+20
 15
-1.000000000000000E+20
 25
-1.000000000000000E+20
 35
-1.000000000000000E+20
146
0.0
 13
0.0
 23
0.0
 33
0.0
 16
1.0
 26
0.0
 36
0.0
 17
0.0
 27
1.0
 37
0.0
 76
     0
330
1B
  0
LAYOUT
  5
26
102
{ACAD_REACTORS
330
1A
102
}
330
1A
100
AcDbPlotSettings
  1

  2
HP DeskJet 690C
  4

  6

 40
0.0
 41
0.0
 42
0.0
 43
0.0
 44
0.0
 45
0.0
 46
0.0
 47
0.0
 48
0.0
 49
0.0
140
0.0
141
0.0
142
1.0
143
1.0
 70
   688
 72
     0
 73
     0
 74
     5
  7
monochrome.ctb
 75
    16
147
1.0
148
0.0
149
0.0
100
AcDbLayout
  1
Rozvržení2
 70
     1
 71
     2
 10
0.0
 20
0.0
 11
12.0
 21
9.0
 12
0.0
 22
0.0
 32
0.0
 14
0.0
 24
0.0
 34
0.0
 15
0.0
 25
0.0
 35
0.0
146
0.0
 13
0.0
 23
0.0
 33
0.0
 16
1.0
 26
0.0
 36
0.0
 17
0.0
 27
1.0
 37
0.0
 76
     0
330
23
  0
MLINESTYLE
  5
18
102
{ACAD_REACTORS
330
17
102
}
330
17
100
AcDbMlineStyle
  2
STANDARD
 70
     0
  3

 62
   256
 51
90.0
 52
90.0
 71
     2
 49
0.5
 62
   256
  6
BYLAYER
 49
-0.5
 62
   256
  6
BYLAYER
  0
ACDBPLACEHOLDER
  5
F
102
{ACAD_REACTORS
330
E
102
}
330
E
  0
DICTIONARYVAR
  5
3BB5
102
{ACAD_REACTORS
330
3BB4
102
}
330
3BB4
100
DictionaryVariables
280
     0
  1
1
  0
ENDSEC
  0
EOF
