  0
SECTION
  2
HEADER
  9
$ACADVER
  1
AC1015
  9
$ACADMAINTVER
 70
    14
  9
$DWGCODEPAGE
  3
ANSI_1250
  9
$INSBASE
 10
0.0
 20
0.0
 30
0.0
  9
$EXTMIN
 10
-2429.797754877785
 20
-851.132165744451
 30
-0.0000000349181948
  9
$EXTMAX
 10
-1560.720982675595
 20
536.9507676685489
 30
0.0000000814935746
  9
$LIMMIN
 10
0.0
 20
0.0
  9
$LIMMAX
 10
420.0
 20
297.0
  9
$ORTHOMODE
 70
     0
  9
$REGENMODE
 70
     1
  9
$FILLMODE
 70
     1
  9
$QTEXTMODE
 70
     0
  9
$MIRRTEXT
 70
     1
  9
$LTSCALE
 40
1.0
  9
$ATTMODE
 70
     1
  9
$TEXTSIZE
 40
2.5
  9
$TRACEWID
 40
1.0
  9
$TEXTSTYLE
  7
Standard
  9
$CLAYER
  8
0
  9
$CELTYPE
  6
ByLayer
  9
$CECOLOR
 62
   256
  9
$CELTSCALE
 40
1.0
  9
$DISPSILH
 70
     0
  9
$DIMSCALE
 40
1.0
  9
$DIMASZ
 40
2.5
  9
$DIMEXO
 40
0.625
  9
$DIMDLI
 40
3.75
  9
$DIMRND
 40
0.0
  9
$DIMDLE
 40
0.0
  9
$DIMEXE
 40
1.25
  9
$DIMTP
 40
0.0
  9
$DIMTM
 40
0.0
  9
$DIMTXT
 40
2.5
  9
$DIMCEN
 40
2.5
  9
$DIMTSZ
 40
0.0
  9
$DIMTOL
 70
     0
  9
$DIMLIM
 70
     0
  9
$DIMTIH
 70
     0
  9
$DIMTOH
 70
     0
  9
$DIMSE1
 70
     0
  9
$DIMSE2
 70
     0
  9
$DIMTAD
 70
     1
  9
$DIMZIN
 70
     8
  9
$DIMBLK
  1

  9
$DIMASO
 70
     1
  9
$DIMSHO
 70
     1
  9
$DIMPOST
  1

  9
$DIMAPOST
  1

  9
$DIMALT
 70
     0
  9
$DIMALTD
 70
     3
  9
$DIMALTF
 40
0.03937007874016
  9
$DIMLFAC
 40
1.0
  9
$DIMTOFL
 70
     1
  9
$DIMTVP
 40
0.0
  9
$DIMTIX
 70
     0
  9
$DIMSOXD
 70
     0
  9
$DIMSAH
 70
     0
  9
$DIMBLK1
  1

  9
$DIMBLK2
  1

  9
$DIMSTYLE
  2
ISO-25
  9
$DIMCLRD
 70
     0
  9
$DIMCLRE
 70
     0
  9
$DIMCLRT
 70
     0
  9
$DIMTFAC
 40
1.0
  9
$DIMGAP
 40
0.625
  9
$DIMJUST
 70
     0
  9
$DIMSD1
 70
     0
  9
$DIMSD2
 70
     0
  9
$DIMTOLJ
 70
     0
  9
$DIMTZIN
 70
     8
  9
$DIMALTZ
 70
     0
  9
$DIMALTTZ
 70
     0
  9
$DIMUPT
 70
     0
  9
$DIMDEC
 70
     2
  9
$DIMTDEC
 70
     2
  9
$DIMALTU
 70
     2
  9
$DIMALTTD
 70
     3
  9
$DIMTXSTY
  7
Standard
  9
$DIMAUNIT
 70
     0
  9
$DIMADEC
 70
     0
  9
$DIMALTRND
 40
0.0
  9
$DIMAZIN
 70
     0
  9
$DIMDSEP
 70
    44
  9
$DIMATFIT
 70
     3
  9
$DIMFRAC
 70
     0
  9
$DIMLDRBLK
  1

  9
$DIMLUNIT
 70
     2
  9
$DIMLWD
 70
    -2
  9
$DIMLWE
 70
    -2
  9
$DIMTMOVE
 70
     0
  9
$LUNITS
 70
     2
  9
$LUPREC
 70
     4
  9
$SKETCHINC
 40
1.0
  9
$FILLETRAD
 40
10.0
  9
$AUNITS
 70
     0
  9
$AUPREC
 70
     0
  9
$MENU
  1
.
  9
$ELEVATION
 40
0.0
  9
$PELEVATION
 40
0.0
  9
$THICKNESS
 40
0.0
  9
$LIMCHECK
 70
     0
  9
$CHAMFERA
 40
10.0
  9
$CHAMFERB
 40
10.0
  9
$CHAMFERC
 40
20.0
  9
$CHAMFERD
 40
0.0
  9
$SKPOLY
 70
     0
  9
$TDCREATE
 40
2452339.371895717
  9
$TDUCREATE
 40
2452339.330229051
  9
$TDUPDATE
 40
2455610.301480752
  9
$TDUUPDATE
 40
2455610.259814085
  9
$TDINDWG
 40
0.0286341435
  9
$TDUSRTIMER
 40
0.0286341435
  9
$USRTIMER
 70
     1
  9
$ANGBASE
 50
0.0
  9
$ANGDIR
 70
     0
  9
$PDMODE
 70
     0
  9
$PDSIZE
 40
0.0
  9
$PLINEWID
 40
0.0
  9
$SPLFRAME
 70
     0
  9
$SPLINETYPE
 70
     6
  9
$SPLINESEGS
 70
     8
  9
$HANDSEED
  5
37DA
  9
$SURFTAB1
 70
     6
  9
$SURFTAB2
 70
     6
  9
$SURFTYPE
 70
     6
  9
$SURFU
 70
     6
  9
$SURFV
 70
     6
  9
$UCSBASE
  2

  9
$UCSNAME
  2

  9
$UCSORG
 10
0.0
 20
0.0
 30
0.0
  9
$UCSXDIR
 10
1.0
 20
0.0
 30
0.0
  9
$UCSYDIR
 10
0.0
 20
1.0
 30
0.0
  9
$UCSORTHOREF
  2

  9
$UCSORTHOVIEW
 70
     0
  9
$UCSORGTOP
 10
0.0
 20
0.0
 30
0.0
  9
$UCSORGBOTTOM
 10
0.0
 20
0.0
 30
0.0
  9
$UCSORGLEFT
 10
0.0
 20
0.0
 30
0.0
  9
$UCSORGRIGHT
 10
0.0
 20
0.0
 30
0.0
  9
$UCSORGFRONT
 10
0.0
 20
0.0
 30
0.0
  9
$UCSORGBACK
 10
0.0
 20
0.0
 30
0.0
  9
$PUCSBASE
  2

  9
$PUCSNAME
  2

  9
$PUCSORG
 10
0.0
 20
0.0
 30
0.0
  9
$PUCSXDIR
 10
1.0
 20
0.0
 30
0.0
  9
$PUCSYDIR
 10
0.0
 20
1.0
 30
0.0
  9
$PUCSORTHOREF
  2

  9
$PUCSORTHOVIEW
 70
     0
  9
$PUCSORGTOP
 10
0.0
 20
0.0
 30
0.0
  9
$PUCSORGBOTTOM
 10
0.0
 20
0.0
 30
0.0
  9
$PUCSORGLEFT
 10
0.0
 20
0.0
 30
0.0
  9
$PUCSORGRIGHT
 10
0.0
 20
0.0
 30
0.0
  9
$PUCSORGFRONT
 10
0.0
 20
0.0
 30
0.0
  9
$PUCSORGBACK
 10
0.0
 20
0.0
 30
0.0
  9
$USERI1
 70
     0
  9
$USERI2
 70
     0
  9
$USERI3
 70
     0
  9
$USERI4
 70
     0
  9
$USERI5
 70
     0
  9
$USERR1
 40
0.0
  9
$USERR2
 40
0.0
  9
$USERR3
 40
0.0
  9
$USERR4
 40
0.0
  9
$USERR5
 40
0.0
  9
$WORLDVIEW
 70
     1
  9
$SHADEDGE
 70
     3
  9
$SHADEDIF
 70
    70
  9
$TILEMODE
 70
     1
  9
$MAXACTVP
 70
    48
  9
$PINSBASE
 10
0.0
 20
0.0
 30
0.0
  9
$PLIMCHECK
 70
     0
  9
$PEXTMIN
 10
1.000000000000000E+20
 20
1.000000000000000E+20
 30
1.000000000000000E+20
  9
$PEXTMAX
 10
-1.000000000000000E+20
 20
-1.000000000000000E+20
 30
-1.000000000000000E+20
  9
$PLIMMIN
 10
0.0
 20
0.0
  9
$PLIMMAX
 10
420.0
 20
297.0
  9
$UNITMODE
 70
     0
  9
$VISRETAIN
 70
     1
  9
$PLINEGEN
 70
     0
  9
$PSLTSCALE
 70
     1
  9
$TREEDEPTH
 70
  3020
  9
$CMLSTYLE
  2
Standard
  9
$CMLJUST
 70
     0
  9
$CMLSCALE
 40
20.0
  9
$PROXYGRAPHICS
 70
     1
  9
$MEASUREMENT
 70
     1
  9
$CELWEIGHT
370
    -1
  9
$ENDCAPS
280
     0
  9
$JOINSTYLE
280
     0
  9
$LWDISPLAY
290
     0
  9
$INSUNITS
 70
     4
  9
$HYPERLINKBASE
  1

  9
$STYLESHEET
  1

  9
$XEDIT
290
     1
  9
$CEPSNTYPE
380
     0
  9
$PSTYLEMODE
290
     1
  9
$FINGERPRINTGUID
  2
{9FA890EF-883C-4FD4-884F-6B075534EB0B}
  9
$VERSIONGUID
  2
{F43C230E-4D18-4A86-8A76-87AB08B162A4}
  9
$EXTNAMES
290
     1
  9
$PSVPSCALE
 40
0.0
  9
$OLESTARTUP
290
     0
  0
ENDSEC
  0
SECTION
  2
CLASSES
  0
CLASS
  1
ACDBDICTIONARYWDFLT
  2
AcDbDictionaryWithDefault
  3
AutoCAD 2000
 90
        0
280
     0
281
     0
  0
CLASS
  1
ACDBPLACEHOLDER
  2
AcDbPlaceHolder
  3
AutoCAD 2000
 90
        0
280
     0
281
     0
  0
CLASS
  1
LAYOUT
  2
AcDbLayout
  3
AutoCAD 2000
 90
        0
280
     0
281
     0
  0
CLASS
  1
LONG_TRANSACTION
  2
AcDbLongTransaction
  3
AutoCAD 2000
 90
    32768
280
     0
281
     0
  0
CLASS
  1
LWPOLYLINE
  2
AcDbPolyline
  3
AutoCAD 2000
 90
    32768
280
     0
281
     1
  0
CLASS
  1
HATCH
  2
AcDbHatch
  3
AutoCAD 2000
 90
    32768
280
     0
281
     1
  0
CLASS
  1
XRECORD
  2
AcDbXrecord
  3
AutoCAD 2000
 90
    32768
280
     0
281
     0
  0
CLASS
  1
DICTIONARYVAR
  2
AcDbDictionaryVar
  3
AutoCAD 2000
 90
        0
280
     0
281
     0
  0
ENDSEC
  0
SECTION
  2
TABLES
  0
TABLE
  2
VPORT
  5
8
330
0
100
AcDbSymbolTable
 70
     2
  0
VPORT
  5
37D9
330
8
100
AcDbSymbolTableRecord
100
AcDbViewportTableRecord
  2
*Active
 70
     0
 10
0.0
 20
0.0
 11
1.0
 21
1.0
 12
-1995.25936877669
 22
-157.090699037951
 13
0.0
 23
0.0
 14
10.0
 24
10.0
 15
10.0
 25
10.0
 16
0.0
 26
0.0
 36
1.0
 17
0.0
 27
0.0
 37
0.0
 40
1398.276932923988
 41
2.031862745098039
 42
50.0
 43
0.0
 44
0.0
 50
0.0
 51
0.0
 71
     0
 72
   100
 73
     1
 74
     3
 75
     0
 76
     0
 77
     0
 78
     0
281
     0
 65
     1
110
0.0
120
0.0
130
0.0
111
1.0
121
0.0
131
0.0
112
0.0
122
1.0
132
0.0
 79
     0
146
0.0
  0
ENDTAB
  0
TABLE
  2
LTYPE
  5
5
330
0
100
AcDbSymbolTable
 70
     4
  0
LTYPE
  5
14
330
5
100
AcDbSymbolTableRecord
100
AcDbLinetypeTableRecord
  2
ByBlock
 70
     0
  3

 72
    65
 73
     0
 40
0.0
  0
LTYPE
  5
15
330
5
100
AcDbSymbolTableRecord
100
AcDbLinetypeTableRecord
  2
ByLayer
 70
     0
  3

 72
    65
 73
     0
 40
0.0
  0
LTYPE
  5
16
330
5
100
AcDbSymbolTableRecord
100
AcDbLinetypeTableRecord
  2
Continuous
 70
     0
  3
Solid line
 72
    65
 73
     0
 40
0.0
  0
LTYPE
  5
33
330
5
100
AcDbSymbolTableRecord
100
AcDbLinetypeTableRecord
  2
IZOLACE
 70
     0
  3
Izolace SSSSSSSSSSSSSSSSSSSSSSSSSSSSSSSSSSSSSSS
 72
    65
 73
     4
 40
10.16253999999999
 49
0.00254
 74
     0
 49
-2.54
 74
     4
 75
   134
340
3D
 46
2.54
 50
0.0
 44
-2.54
 45
0.0
 49
-5.08
 74
     4
 75
   134
340
3D
 46
2.54
 50
180.0
 44
2.54
 45
0.0
 49
-2.54
 74
     0
  0
LTYPE
  5
34
330
5
100
AcDbSymbolTableRecord
100
AcDbLinetypeTableRecord
  2
DASHED
 70
     0
  3
Dashed __ __ __ __ __ __ __ __ __ __ __ __ __ _
 72
    65
 73
     2
 40
19.04999999999999
 49
12.7
 74
     0
 49
-6.349999999999999
 74
     0
  0
LTYPE
  5
35
330
5
100
AcDbSymbolTableRecord
100
AcDbLinetypeTableRecord
  2
DASHDOT2
 70
     0
  3
Dash dot (.5x) _._._._._._._._._._._._._._._.
 72
    65
 73
     4
 40
12.7
 49
6.349999999999999
 74
     0
 49
-3.174999999999999
 74
     0
 49
0.0
 74
     0
 49
-3.174999999999999
 74
     0
  0
ENDTAB
  0
TABLE
  2
LAYER
  5
2
330
0
100
AcDbSymbolTable
 70
     7
  0
LAYER
  5
10
330
2
100
AcDbSymbolTableRecord
100
AcDbLayerTableRecord
  2
0
 70
     0
 62
     7
  6
Continuous
370
    -3
390
F
  0
LAYER
  5
36
330
2
100
AcDbSymbolTableRecord
100
AcDbLayerTableRecord
  2
POPIS
 70
     0
 62
    30
  6
Continuous
370
    -3
390
F
  0
LAYER
  5
37
330
2
100
AcDbSymbolTableRecord
100
AcDbLayerTableRecord
  2
SPOJOVACÍ
 70
     0
 62
   180
  6
Continuous
370
    -3
390
F
  0
LAYER
  5
38
330
2
100
AcDbSymbolTableRecord
100
AcDbLayerTableRecord
  2
CETRIS
 70
     0
 62
     1
  6
Continuous
370
    -3
390
F
  0
LAYER
  5
39
330
2
100
AcDbSymbolTableRecord
100
AcDbLayerTableRecord
  2
NOSNÉ KONSTRUKCE
 70
     0
 62
    33
  6
Continuous
370
    -3
390
F
  0
LAYER
  5
3B
330
2
100
AcDbSymbolTableRecord
100
AcDbLayerTableRecord
  2
STAVBA OBRYS
 70
     0
 62
     6
  6
Continuous
370
    -3
390
F
  0
LAYER
  5
33E3
330
2
100
AcDbSymbolTableRecord
100
AcDbLayerTableRecord
  2
PROFILY
 70
     0
 62
    73
  6
Continuous
370
    -3
390
F
  0
ENDTAB
  0
TABLE
  2
STYLE
  5
3
330
0
100
AcDbSymbolTable
 70
     3
  0
STYLE
  5
11
330
3
100
AcDbSymbolTableRecord
100
AcDbTextStyleTableRecord
  2
Standard
 70
     0
 40
0.0
 41
1.0
 50
0.0
 71
     0
 42
2.5
  3
txt
  4

  0
STYLE
  5
3C
330
3
100
AcDbSymbolTableRecord
100
AcDbTextStyleTableRecord
  2
SIMPLEX7
 70
     0
 40
0.0
 41
0.85
 50
0.0
 71
     0
 42
102.0
  3
ARIAL.TTF
  4

1001
ACAD
1000
Arial CE
1071
    60962
  0
STYLE
  5
3D
330
3
100
AcDbSymbolTableRecord
100
AcDbTextStyleTableRecord
  2

 70
     1
 40
0.0
 41
1.0
 50
0.0
 71
     0
 42
2.5
  3
ltypeshp.shx
  4

  0
ENDTAB
  0
TABLE
  2
VIEW
  5
6
330
0
100
AcDbSymbolTable
 70
     0
  0
ENDTAB
  0
TABLE
  2
UCS
  5
7
330
0
100
AcDbSymbolTable
 70
     0
  0
ENDTAB
  0
TABLE
  2
APPID
  5
9
330
0
100
AcDbSymbolTable
 70
     1
  0
APPID
  5
12
330
9
100
AcDbSymbolTableRecord
100
AcDbRegAppTableRecord
  2
ACAD
 70
     0
  0
ENDTAB
  0
TABLE
  2
DIMSTYLE
  5
A
330
0
100
AcDbSymbolTable
 70
     1
100
AcDbDimStyleTable
 71
     0
  0
DIMSTYLE
105
27
330
A
100
AcDbSymbolTableRecord
100
AcDbDimStyleTableRecord
  2
ISO-25
 70
     0
 41
2.5
 42
0.625
 43
3.75
 44
1.25
 73
     0
 74
     0
 77
     1
 78
     8
140
2.5
141
2.5
143
0.03937007874016
147
0.625
171
     3
172
     1
271
     2
272
     2
274
     3
278
    44
283
     0
284
     8
340
11
  0
ENDTAB
  0
TABLE
  2
BLOCK_RECORD
  5
1
330
0
100
AcDbSymbolTable
 70
     3
  0
BLOCK_RECORD
  5
1F
102
{ACAD_XDICTIONARY
360
3751
102
}
330
1
100
AcDbSymbolTableRecord
100
AcDbBlockTableRecord
  2
*Model_Space
340
22
  0
BLOCK_RECORD
  5
1B
102
{ACAD_XDICTIONARY
360
3753
102
}
330
1
100
AcDbSymbolTableRecord
100
AcDbBlockTableRecord
  2
*Paper_Space
340
1E
  0
BLOCK_RECORD
  5
23
102
{ACAD_XDICTIONARY
360
3755
102
}
330
1
100
AcDbSymbolTableRecord
100
AcDbBlockTableRecord
  2
*Paper_Space0
340
26
  0
BLOCK_RECORD
  5
2B
330
1
100
AcDbSymbolTableRecord
100
AcDbBlockTableRecord
  2
E_PUNKT
340
0
102
{BLKREFS
331
35CC
331
35FD
331
3604
331
3645
331
3651
331
3654
331
37B3
102
}
  0
BLOCK_RECORD
  5
3794
330
1
100
AcDbSymbolTableRecord
100
AcDbBlockTableRecord
  2
_ArchTick
340
0
102
{BLKREFS
331
37B6
331
37BA
102
}
  0
ENDTAB
  0
ENDSEC
  0
SECTION
  2
BLOCKS
  0
BLOCK
  5
20
330
1F
100
AcDbEntity
  8
0
100
AcDbBlockBegin
  2
*Model_Space
 70
     0
 10
0.0
 20
0.0
 30
0.0
  3
*Model_Space
  1

  0
ENDBLK
  5
21
330
1F
100
AcDbEntity
  8
0
100
AcDbBlockEnd
  0
BLOCK
  5
1C
330
1B
100
AcDbEntity
 67
     1
  8
0
100
AcDbBlockBegin
  2
*Paper_Space
 70
     0
 10
0.0
 20
0.0
 30
0.0
  3
*Paper_Space
  1

  0
ENDBLK
  5
1D
330
1B
100
AcDbEntity
 67
     1
  8
0
100
AcDbBlockEnd
  0
BLOCK
  5
24
330
23
100
AcDbEntity
  8
0
100
AcDbBlockBegin
  2
*Paper_Space0
 70
     0
 10
0.0
 20
0.0
 30
0.0
  3
*Paper_Space0
  1

  0
ENDBLK
  5
25
330
23
100
AcDbEntity
  8
0
100
AcDbBlockEnd
  0
BLOCK
  5
2D
330
2B
100
AcDbEntity
  8
0
100
AcDbBlockBegin
  2
E_PUNKT
 70
     0
 10
0.0
 20
0.0
 30
0.0
  3
E_PUNKT
  1

  0
LWPOLYLINE
  5
2C
330
2B
100
AcDbEntity
  8
POPIS
100
AcDbPolyline
 90
        2
 70
     1
 43
2.5
 10
1.27761037562675
 20
0.0290683308725193
 42
-1.0
 10
-1.222389624373249
 20
0.0290683308725193
 42
-1.0
  0
ENDBLK
  5
2E
330
2B
100
AcDbEntity
  8
0
100
AcDbBlockEnd
  0
BLOCK
  5
3796
330
3794
100
AcDbEntity
  8
0
100
AcDbBlockBegin
  2
_ArchTick
 70
     0
 10
0.0
 20
0.0
 30
0.0
  3
_ArchTick
  1

  0
LWPOLYLINE
  5
3795
330
3794
100
AcDbEntity
  8
0
  6
ByBlock
 62
     0
100
AcDbPolyline
 90
        2
 70
     0
 43
0.15
 10
-0.5
 20
-0.5
 10
0.5
 20
0.5
  0
ENDBLK
  5
3797
330
3794
100
AcDbEntity
  8
0
100
AcDbBlockEnd
  0
ENDSEC
  0
SECTION
  2
ENTITIES
  0
HATCH
  5
359C
330
1F
100
AcDbEntity
  8
PROFILY
100
AcDbHatch
 10
0.0
 20
0.0
 30
0.0
210
0.0
220
0.0
230
1.0
  2
SOLID
 70
     1
 71
     1
 91
        3
 92
        7
 72
     1
 73
     1
 93
        8
 10
-2015.407217000681
 20
70.84408670246967
 42
0.0
 10
-2017.752490379205
 20
70.8440867024699
 42
0.0
 10
-2017.752490379203
 20
27.97379191242521
 42
0.0
 10
-1974.705843394208
 20
27.97379191242407
 42
0.0
 10
-1974.705843394208
 20
30.307461467464
 42
0.0
 10
-2005.564095546981
 20
30.30746146746378
 42
-0.8565956696867266
 10
-2008.034442008253
 20
30.30746146746378
 42
0.0
 10
-2015.407217000677
 20
30.30746146746378
 42
0.0
 97
        7
330
361B
330
35D5
330
35D3
330
3691
330
35D2
330
35CC
330
35D4
 92
        7
 72
     0
 73
     1
 93
        4
 10
-2015.407217000681
 20
88.2224175604947
 10
-2017.752490379205
 20
88.22241756049493
 10
-2017.752490379203
 20
76.52802716027031
 10
-2015.407217000679
 20
76.52802716027008
 97
        4
330
35D0
330
35D5
330
361C
330
35D4
 92
        7
 72
     0
 73
     1
 93
        4
 10
-1957.258781150029
 20
30.30746146746378
 10
-1969.021902936404
 20
30.307461467464
 10
-1969.021902936404
 20
27.97379191242407
 10
-1957.258781150031
 20
27.97379191242384
 97
        4
330
35D2
330
3692
330
35D3
330
35D1
 75
     0
 76
     1
 47
0.3107180571711244
 98
        3
 10
-2016.700082781052
 20
39.6983706343758
 10
-2016.389184945769
 20
83.50961674887503
 10
-1962.605474340159
 20
28.82323441688777
  0
HATCH
  5
359D
330
1F
100
AcDbEntity
  8
PROFILY
100
AcDbHatch
 10
0.0
 20
0.0
 30
0.0
210
0.0
220
0.0
230
1.0
  2
SOLID
 70
     1
 71
     1
 91
        6
 92
        7
 72
     0
 73
     1
 93
        4
 10
-2068.039026604038
 20
-749.2450803130182
 10
-2070.384299982562
 20
-749.2450803130182
 10
-2070.38429998256
 20
-792.248691060608
 10
-2068.039026604034
 20
-792.2486910606084
 97
        4
330
35A7
330
35A5
330
35A1
330
35A4
 92
        7
 72
     0
 73
     1
 93
        6
 10
-2281.00918752311
 20
-749.2450803130182
 10
-2283.354460901632
 20
-749.2450803130182
 10
-2283.354460901634
 20
-809.4937059610879
 10
-2222.860751672463
 20
-809.4937059610888
 10
-2222.860751672461
 20
-807.1600364060492
 10
-2281.00918752311
 20
-807.1600364060492
 97
        6
330
35A9
330
35AB
330
35AD
330
35AA
330
35AE
330
35AC
 92
        7
 72
     0
 73
     1
 93
       10
 10
-2153.269451005636
 20
-789.9150215055729
 10
-2170.682355145977
 20
-789.9150215055729
 10
-2170.682355145979
 20
-749.2450803130187
 10
-2173.0276285245
 20
-749.2450803130182
 10
-2173.0276285245
 20
-792.2486910606116
 10
-2155.614724384159
 20
-792.2486910606112
 10
-2155.614724384156
 20
-809.4937059610888
 10
-2112.533919295328
 20
-809.4937059610893
 10
-2112.533919295328
 20
-807.1600364060492
 10
-2153.269451005632
 20
-807.1600364060492
 97
       10
330
35B3
330
35AF
330
35B1
330
35B0
330
35B2
330
35B6
330
35B5
330
35B8
330
35B4
330
35B7
 92
        7
 72
     0
 73
     1
 93
        4
 10
-2009.890590753387
 20
-807.1600364060492
 10
-2052.971395842217
 20
-807.1600364060492
 10
-2052.971395842215
 20
-809.4937059610888
 10
-2009.890590753387
 20
-809.4937059610888
 97
        4
330
35A2
330
359F
330
35A3
330
35A6
 92
        7
 72
     0
 73
     1
 93
        6
 10
-2050.626122463693
 20
-789.9150215055688
 10
-2068.039026604034
 20
-789.9150215055692
 10
-2068.039026604034
 20
-792.248691060608
 10
-2052.971395842218
 20
-792.248691060608
 10
-2052.971395842217
 20
-807.1600364060492
 10
-2050.626122463691
 20
-807.1600364060492
 97
        6
330
35A0
330
35A4
330
35A1
330
359F
330
35A2
330
359E
 92
        7
 72
     0
 73
     1
 93
        6
 10
-2052.971395842217
 20
-807.1600364060492
 10
-2068.039026604036
 20
-807.1600364060492
 10
-2068.039026604034
 20
-792.2486910606084
 10
-2070.38429998256
 20
-792.2486910606084
 10
-2070.38429998256
 20
-809.4937059610883
 10
-2052.971395842215
 20
-809.4937059610888
 97
        6
330
35A2
330
35A4
330
35A1
330
35A5
330
35A3
330
359F
 75
     0
 76
     1
 47
0.3789984706849625
 98
        6
 10
-2068.867758640318
 20
-772.3334816968185
 10
-2282.030092461417
 20
-797.9687050056659
 10
-2154.237445240844
 20
-796.8316895785742
 10
-2044.267593604495
 20
-807.8226535013223
 10
-2051.472492437894
 20
-800.2426988186838
 10
-2061.331865459001
 20
-808.5806637860427
  0
LINE
  5
359E
102
{ACAD_REACTORS
330
359D
102
}
330
1F
100
AcDbEntity
  8
PROFILY
100
AcDbLine
 10
-2050.626122463691
 20
-807.1600364060454
 30
0.0
 11
-2050.626122463695
 21
-789.9150215055692
 31
0.0
  0
LINE
  5
359F
102
{ACAD_REACTORS
330
359D
102
}
330
1F
100
AcDbEntity
  8
PROFILY
100
AcDbLine
 10
-2052.971395842217
 20
-792.248691060608
 30
0.0
 11
-2052.971395842217
 21
-809.4937059610847
 31
0.0
  0
LINE
  5
35A0
102
{ACAD_REACTORS
330
359D
102
}
330
1F
100
AcDbEntity
  8
PROFILY
100
AcDbLine
 10
-2068.039026604036
 20
-789.9150215055692
 30
0.0
 11
-2050.626122463695
 21
-789.9150215055692
 31
0.0
  0
LINE
  5
35A1
102
{ACAD_REACTORS
330
359D
102
}
330
1F
100
AcDbEntity
  8
PROFILY
100
AcDbLine
 10
-2052.971395842217
 20
-792.248691060608
 30
0.0
 11
-2070.38429998256
 21
-792.248691060608
 31
0.0
  0
LINE
  5
35A2
102
{ACAD_REACTORS
330
359D
102
}
330
1F
100
AcDbEntity
  8
PROFILY
100
AcDbLine
 10
-2068.039026604036
 20
-807.1600364060492
 30
0.0
 11
-2009.890590753387
 21
-807.1600364060492
 31
0.0
  0
LINE
  5
35A3
102
{ACAD_REACTORS
330
359D
102
}
330
1F
100
AcDbEntity
  8
PROFILY
100
AcDbLine
 10
-2009.890590753389
 20
-809.4937059610893
 30
0.0
 11
-2070.38429998256
 21
-809.4937059610879
 31
0.0
  0
LINE
  5
35A4
102
{ACAD_REACTORS
330
359D
102
}
330
1F
100
AcDbEntity
  8
PROFILY
100
AcDbLine
 10
-2068.039026604036
 20
-807.1600364060492
 30
0.0
 11
-2068.039026604038
 21
-749.2450803130182
 31
0.0
  0
LINE
  5
35A5
102
{ACAD_REACTORS
330
359D
102
}
330
1F
100
AcDbEntity
  8
PROFILY
100
AcDbLine
 10
-2070.38429998256
 20
-749.2450803130182
 30
0.0
 11
-2070.38429998256
 21
-809.4937059610879
 31
0.0
  0
LINE
  5
35A6
102
{ACAD_REACTORS
330
359D
102
}
330
1F
100
AcDbEntity
  8
PROFILY
100
AcDbLine
 10
-2009.890590753387
 20
-807.1600364060492
 30
0.0
 11
-2009.890590753387
 21
-809.4937059610888
 31
0.0
  0
LINE
  5
35A7
102
{ACAD_REACTORS
330
359D
102
}
330
1F
100
AcDbEntity
  8
PROFILY
100
AcDbLine
 10
-2068.039026604038
 20
-749.2450803130182
 30
0.0
 11
-2070.384299982558
 21
-749.2450803130182
 31
0.0
  0
TEXT
  5
35A8
330
1F
100
AcDbEntity
  8
POPIS
100
AcDbText
 10
-2153.427425404607
 20
-723.4600551620883
 30
0.0
 40
25.0
  1
- profil PROTECTOR 3638 (3505,3528)
 41
0.7
  7
SIMPLEX7
100
AcDbText
  0
LINE
  5
35A9
102
{ACAD_REACTORS
330
359D
102
}
330
1F
100
AcDbEntity
  8
PROFILY
100
AcDbLine
 10
-2281.009187523113
 20
-749.2450803130182
 30
0.0
 11
-2283.354460901632
 21
-749.2450803130182
 31
0.0
  0
LINE
  5
35AA
102
{ACAD_REACTORS
330
359D
102
}
330
1F
100
AcDbEntity
  8
PROFILY
100
AcDbLine
 10
-2222.860751672461
 20
-807.1600364060492
 30
0.0
 11
-2222.860751672461
 21
-809.4937059610888
 31
0.0
  0
LINE
  5
35AB
102
{ACAD_REACTORS
330
359D
102
}
330
1F
100
AcDbEntity
  8
PROFILY
100
AcDbLine
 10
-2283.354460901634
 20
-749.2450803130182
 30
0.0
 11
-2283.354460901634
 21
-809.4937059610879
 31
0.0
  0
LINE
  5
35AC
102
{ACAD_REACTORS
330
359D
102
}
330
1F
100
AcDbEntity
  8
PROFILY
100
AcDbLine
 10
-2281.00918752311
 20
-807.1600364060492
 30
0.0
 11
-2281.009187523113
 21
-749.2450803130182
 31
0.0
  0
LINE
  5
35AD
102
{ACAD_REACTORS
330
359D
102
}
330
1F
100
AcDbEntity
  8
PROFILY
100
AcDbLine
 10
-2222.860751672463
 20
-809.4937059610893
 30
0.0
 11
-2283.354460901634
 21
-809.4937059610879
 31
0.0
  0
LINE
  5
35AE
102
{ACAD_REACTORS
330
359D
102
}
330
1F
100
AcDbEntity
  8
PROFILY
100
AcDbLine
 10
-2281.00918752311
 20
-807.1600364060492
 30
0.0
 11
-2222.860751672461
 21
-807.1600364060492
 31
0.0
  0
LINE
  5
35AF
102
{ACAD_REACTORS
330
359D
102
}
330
1F
100
AcDbEntity
  8
PROFILY
100
AcDbLine
 10
-2170.682355145977
 20
-789.9150215055729
 30
0.0
 11
-2170.682355145979
 21
-749.2450803130182
 31
0.0
  0
LINE
  5
35B0
102
{ACAD_REACTORS
330
359D
102
}
330
1F
100
AcDbEntity
  8
PROFILY
100
AcDbLine
 10
-2173.0276285245
 20
-749.2450803130182
 30
0.0
 11
-2173.0276285245
 21
-792.2486910606116
 31
0.0
  0
LINE
  5
35B1
102
{ACAD_REACTORS
330
359D
102
}
330
1F
100
AcDbEntity
  8
PROFILY
100
AcDbLine
 10
-2170.682355145979
 20
-749.2450803130182
 30
0.0
 11
-2173.027628524498
 21
-749.2450803130182
 31
0.0
  0
LINE
  5
35B2
102
{ACAD_REACTORS
330
359D
102
}
330
1F
100
AcDbEntity
  8
PROFILY
100
AcDbLine
 10
-2155.614724384157
 20
-792.2486910606116
 30
0.0
 11
-2173.0276285245
 21
-792.2486910606116
 31
0.0
  0
LINE
  5
35B3
102
{ACAD_REACTORS
330
359D
102
}
330
1F
100
AcDbEntity
  8
PROFILY
100
AcDbLine
 10
-2170.682355145977
 20
-789.9150215055729
 30
0.0
 11
-2153.269451005636
 21
-789.9150215055729
 31
0.0
  0
LINE
  5
35B4
102
{ACAD_REACTORS
330
359D
102
}
330
1F
100
AcDbEntity
  8
PROFILY
100
AcDbLine
 10
-2153.269451005632
 20
-807.1600364060492
 30
0.0
 11
-2112.533919295328
 21
-807.1600364060492
 31
0.0
  0
LINE
  5
35B5
102
{ACAD_REACTORS
330
359D
102
}
330
1F
100
AcDbEntity
  8
PROFILY
100
AcDbLine
 10
-2112.53391929533
 20
-809.4937059610893
 30
0.0
 11
-2155.614724384157
 21
-809.4937059610883
 31
0.0
  0
LINE
  5
35B6
102
{ACAD_REACTORS
330
359D
102
}
330
1F
100
AcDbEntity
  8
PROFILY
100
AcDbLine
 10
-2155.614724384157
 20
-792.2486910606116
 30
0.0
 11
-2155.614724384157
 21
-809.4937059610883
 31
0.0
  0
LINE
  5
35B7
102
{ACAD_REACTORS
330
359D
102
}
330
1F
100
AcDbEntity
  8
PROFILY
100
AcDbLine
 10
-2153.269451005632
 20
-807.1600364060492
 30
0.0
 11
-2153.269451005636
 21
-789.9150215055729
 31
0.0
  0
LINE
  5
35B8
102
{ACAD_REACTORS
330
359D
102
}
330
1F
100
AcDbEntity
  8
PROFILY
100
AcDbLine
 10
-2112.533919295328
 20
-807.1600364060492
 30
0.0
 11
-2112.533919295328
 21
-809.4937059610888
 31
0.0
  0
HATCH
  5
35B9
330
1F
100
AcDbEntity
  8
STAVBA OBRYS
100
AcDbHatch
 10
0.0
 20
0.0
 30
0.0
210
0.0
220
0.0
230
1.0
  2
AR-SAND
 70
     0
 71
     0
 91
        1
 92
        7
 72
     0
 73
     1
 93
        4
 10
-2393.043482290283
 20
357.224424951511
 10
-2403.043482290285
 20
357.2244249515112
 10
-2403.043482290289
 20
6.962246870204126
 10
-2393.043482290285
 20
-3.21292010632419
 97
        0
 75
     0
 76
     1
 52
0.0
 41
0.1
 77
     0
 78
     4
 53
37.5
 43
-16034.77330332517
 44
1326.262691697936
 45
-0.1600031295984046
 46
4.894132373293423
 79
     6
 49
0.0
 49
-3.8608
 49
0.0
 49
-4.318
 49
0.0
 49
-4.1275
 53
7.499999999999999
 43
-16034.77330332517
 44
1326.262691697936
 45
4.495232831380026
 46
7.168251005683543
 79
     6
 49
0.0
 49
-2.0828
 49
0.0
 49
-3.4798
 49
0.0
 49
-1.3335
 53
327.4999999999999
 43
-16037.89750332517
 44
1326.262691697936
 45
7.909923702414579
 46
0.0143718467854569
 79
     6
 49
0.0
 49
-1.27
 49
0.0
 49
-4.572
 49
0.0
 49
-5.969
 53
317.5
 43
-16037.89750332517
 44
1326.262691697936
 45
7.635564524722972
 46
2.229293232572162
 79
     6
 49
0.0
 49
-0.635
 49
0.0
 49
-2.997199999999999
 49
0.0
 49
-3.429
 47
0.5688859858000485
 98
        1
 10
-2398.272149425339
 20
177.3107561615847
  0
HATCH
  5
35BA
330
1F
100
AcDbEntity
  8
STAVBA OBRYS
100
AcDbHatch
 10
0.0
 20
0.0
 30
0.0
210
0.0
220
0.0
230
1.0
  2
AR-SAND
 70
     0
 71
     0
 91
        1
 92
        7
 72
     0
 73
     1
 93
        5
 10
-1649.233204849618
 20
-345.726692900726
 10
-1935.518428203705
 20
-345.726692900726
 10
-2056.426133813719
 20
-345.726692900726
 10
-2046.598285265313
 20
-355.7266929007259
 10
-1649.233204849618
 20
-355.7266929007264
 97
        0
 75
     0
 76
     1
 52
0.0
 41
0.1
 77
     0
 78
     4
 53
37.5
 43
-16034.77330332517
 44
1326.262691697936
 45
-0.1600031295984046
 46
4.894132373293423
 79
     6
 49
0.0
 49
-3.8608
 49
0.0
 49
-4.318
 49
0.0
 49
-4.1275
 53
7.499999999999999
 43
-16034.77330332517
 44
1326.262691697936
 45
4.495232831380026
 46
7.168251005683543
 79
     6
 49
0.0
 49
-2.0828
 49
0.0
 49
-3.4798
 49
0.0
 49
-1.3335
 53
327.4999999999999
 43
-16037.89750332517
 44
1326.262691697936
 45
7.909923702414579
 46
0.0143718467854569
 79
     6
 49
0.0
 49
-1.27
 49
0.0
 49
-4.572
 49
0.0
 49
-5.969
 53
317.5
 43
-16037.89750332517
 44
1326.262691697936
 45
7.635564524722972
 46
2.229293232572162
 79
     6
 49
0.0
 49
-0.635
 49
0.0
 49
-2.997199999999999
 49
0.0
 49
-3.429
 47
0.4508345885710983
 98
        1
 10
-1793.558634217767
 20
-353.4022935531161
  0
HATCH
  5
35BB
330
1F
100
AcDbEntity
  8
STAVBA OBRYS
100
AcDbHatch
 10
0.0
 20
0.0
 30
0.0
210
0.0
220
0.0
230
1.0
  2
AR-SAND
 70
     0
 71
     0
 91
        1
 92
        7
 72
     0
 73
     1
 93
        6
 10
-2393.043482290287
 20
-3.212920106323963
 10
-2403.043482290291
 20
6.962246870203216
 10
-2403.043482290291
 20
-355.7266929007257
 10
-2046.598285265317
 20
-355.7266929007255
 10
-2056.426133813719
 20
-345.726692900726
 10
-2393.043482290292
 20
-345.726692900726
 97
        0
 75
     0
 76
     1
 52
0.0
 41
0.1
 77
     0
 78
     4
 53
37.5
 43
-16034.77330332517
 44
1326.262691697936
 45
-0.1600031295984046
 46
4.894132373293423
 79
     6
 49
0.0
 49
-3.8608
 49
0.0
 49
-4.318
 49
0.0
 49
-4.1275
 53
7.499999999999999
 43
-16034.77330332517
 44
1326.262691697936
 45
4.495232831380026
 46
7.168251005683543
 79
     6
 49
0.0
 49
-2.0828
 49
0.0
 49
-3.4798
 49
0.0
 49
-1.3335
 53
327.4999999999999
 43
-16037.89750332517
 44
1326.262691697936
 45
7.909923702414579
 46
0.0143718467854569
 79
     6
 49
0.0
 49
-1.27
 49
0.0
 49
-4.572
 49
0.0
 49
-5.969
 53
317.5
 43
-16037.89750332517
 44
1326.262691697936
 45
7.635564524722972
 46
2.229293232572162
 79
     6
 49
0.0
 49
-0.635
 49
0.0
 49
-2.997199999999999
 49
0.0
 49
-3.429
 47
1.072953267924302
 98
        1
 10
-2399.921917603603
 20
-303.7653556942736
  0
LINE
  5
35BC
330
1F
100
AcDbEntity
  8
STAVBA OBRYS
100
AcDbLine
 10
-1649.233204849618
 20
-345.7266929007262
 30
0.0
 11
-1649.233204849618
 21
-355.7266929007262
 31
0.0
  0
LINE
  5
35BD
330
1F
100
AcDbEntity
  8
STAVBA OBRYS
100
AcDbLine
 10
-2403.043482290291
 20
-355.7266929007257
 30
0.0
 11
-1649.233204849618
 21
-355.7266929007262
 31
0.0
  0
LINE
  5
35BE
330
1F
100
AcDbEntity
  8
STAVBA OBRYS
100
AcDbLine
 10
-2403.043482290281
 20
357.224424951511
 30
0.0
 11
-2393.043482290281
 21
357.224424951511
 31
0.0
  0
LINE
  5
35BF
330
1F
100
AcDbEntity
  8
STAVBA OBRYS
100
AcDbLine
 10
-2403.043482290291
 20
-355.7266929007257
 30
0.0
 11
-2403.043482290281
 21
357.224424951511
 31
0.0
  0
HATCH
  5
35C0
330
1F
100
AcDbEntity
  8
NOSNÉ KONSTRUKCE
100
AcDbHatch
 10
0.0
 20
0.0
 30
0.0
210
0.0
220
0.0
230
1.0
  2
SOLID
 70
     1
 71
     1
 91
       11
 92
        7
 72
     0
 73
     1
 93
        4
 10
-2153.48773063546
 20
152.4508259731528
 10
-2156.45061171564
 20
150.4991976482115
 10
-2156.450611715639
 20
135.4566422295022
 10
-2153.487730635454
 20
135.4566422295022
 97
        4
330
36D8
330
374E
330
36D0
330
364A
 92
        7
 72
     0
 73
     1
 93
        4
 10
-2153.487730635456
 20
135.4566422295024
 10
-2156.450611715642
 20
135.4566422295026
 10
-2156.45061171564
 20
128.8941422295022
 10
-2153.487730635458
 20
128.8941422295022
 97
        4
330
36D0
330
374E
330
36CE
330
364A
 92
        7
 72
     0
 73
     1
 93
        4
 10
-2153.487730635458
 20
128.8941422295024
 10
-2156.45061171564
 20
128.8941422295024
 10
-2156.450611715639
 20
122.3316422295024
 10
-2153.487730635454
 20
122.3316422295024
 97
        4
330
36CE
330
374E
330
36D1
330
364A
 92
        7
 72
     0
 73
     1
 93
        4
 10
-2153.487730635456
 20
122.3316422295024
 10
-2156.450611715642
 20
122.3316422295022
 10
-2156.450611715642
 20
103.5007785599646
 10
-2153.487730635456
 20
103.5007785599648
 97
        4
330
36D1
330
374E
330
3681
330
364A
 92
        7
 72
     0
 73
     1
 93
        4
 10
-2114.767158812206
 20
103.5007785599673
 10
-2156.45061171564
 20
103.5007785599646
 10
-2156.45061171564
 20
102.0633481494899
 10
-2114.769276472144
 20
102.0633481494924
 97
        4
330
3681
330
374E
330
3680
330
36D6
 92
        7
 72
     0
 73
     1
 93
        4
 10
-2072.940911611339
 20
103.50077855997
 10
-2114.767158812204
 20
103.5007785599671
 10
-2114.769276472148
 20
102.0633481494926
 10
-2072.940911611335
 20
102.0633481494953
 97
        4
330
3681
330
36D6
330
3680
330
36D5
 92
        7
 72
     0
 73
     1
 93
        6
 10
-2072.940911611337
 20
99.78229105387777
 10
-2081.693867684723
 20
99.78229105387823
 10
-2085.698976044726
 20
102.0633481494944
 10
-2088.491334316632
 20
102.0633481494942
 10
-2082.834789486101
 20
98.34486064340309
 10
-2072.940911611337
 20
98.34486064340309
 97
        6
330
3682
330
3653
330
3680
330
3652
330
3683
330
36D5
 92
        7
 72
     0
 73
     1
 93
        4
 10
-2044.107362223027
 20
99.78229105387823
 10
-2072.940911611333
 20
99.78229105387823
 10
-2072.940911611333
 20
98.34486064340332
 10
-2044.107362223022
 20
98.34486064340309
 97
        4
330
3682
330
36D5
330
3683
330
3612
 92
        7
 72
     0
 73
     1
 93
        4
 10
-2044.107362223026
 20
103.5007785599718
 10
-2072.940911611337
 20
103.50077855997
 10
-2072.940911611337
 20
102.0633481494951
 10
-2044.107362223022
 20
102.0633481494967
 97
        4
330
3681
330
36D5
330
3680
330
3612
 92
        7
 72
     0
 73
     1
 93
        4
 10
-2028.464789516793
 20
103.5007785599727
 10
-2039.686519644731
 20
103.5007785599721
 10
-2039.686519644731
 20
102.0633481494974
 10
-2028.464789516793
 20
102.0633481494978
 97
        4
330
3681
330
3611
330
3680
330
3608
 92
        7
 72
     0
 73
     1
 93
        4
 10
-2028.464789516797
 20
99.78229105387823
 10
-2039.686519644731
 20
99.782291053878
 10
-2039.686519644735
 20
98.34486064340309
 10
-2028.464789516793
 20
98.34486064340309
 97
        4
330
3682
330
3611
330
3683
330
3607
 75
     0
 76
     1
 47
0.2286367050032537
 98
       11
 10
-2155.474994980662
 20
141.9582261899245
 10
-2154.331211656402
 20
133.0413927831009
 10
-2155.246262058685
 20
125.4963947992487
 10
-2154.788736857543
 20
109.7204547084743
 10
-2152.501110851834
 20
103.0899843270613
 10
-2097.598324143601
 20
102.6327117219784
 10
-2079.068642533148
 20
99.4318034864059
 10
-2063.970399931259
 20
98.74589457878165
 10
-2062.140299126692
 20
103.0899843270613
 10
-2032.17254684489
 20
102.8613480245198
 10
-2034.002617970863
 20
99.20316718386448
  0
HATCH
  5
35C1
330
1F
100
AcDbEntity
  8
NOSNÉ KONSTRUKCE
100
AcDbHatch
 10
0.0
 20
0.0
 30
0.0
210
0.0
220
0.0
230
1.0
  2
SOLID
 70
     1
 71
     1
 91
        1
 92
        7
 72
     0
 73
     1
 93
        6
 10
-1947.810936844863
 20
-26.33122538758675
 10
-1949.248367255336
 20
-26.33122538758675
 10
-1949.248367255336
 20
-37.07375175136849
 10
-1945.529879749248
 20
-42.73029658189829
 10
-1945.529879749246
 20
-39.93793830999743
 10
-1947.810936844861
 20
-35.93282994998571
 97
        6
330
36DB
330
35E8
330
35F8
330
3742
330
35F9
330
35E7
 75
     0
 76
     1
 47
0.1278280300421985
 98
        1
 10
-1948.213912326206
 20
-34.72042817737611
  0
HATCH
  5
35C2
330
1F
100
AcDbEntity
  8
NOSNÉ KONSTRUKCE
100
AcDbHatch
 10
0.0
 20
0.0
 30
0.0
210
0.0
220
0.0
230
1.0
  2
SOLID
 70
     1
 71
     1
 91
        4
 92
        7
 72
     0
 73
     1
 93
        4
 10
-1947.810936844861
 20
17.29624821793322
 10
-1949.248367255338
 20
17.29624821793436
 10
-1949.248367255336
 20
6.074518089998719
 10
-1947.810936844863
 20
6.074518089998719
 97
        4
330
35EA
330
35E8
330
35E9
330
35E7
 92
        7
 72
     0
 73
     1
 93
        4
 10
-1944.092449338765
 20
17.29624821793413
 10
-1945.52987974924
 20
17.2962482179339
 10
-1945.52987974924
 20
6.074518089998946
 10
-1944.092449338765
 20
6.074518089998946
 97
        4
330
35EB
330
3742
330
35E9
330
3743
 92
        7
 72
     0
 73
     1
 93
        4
 10
-1944.092449338769
 20
1.653675511709252
 10
-1945.529879749242
 20
1.653675511709025
 10
-1945.529879749242
 20
-26.33122538758675
 10
-1944.092449338771
 20
-26.33122538758675
 97
        4
330
35F0
330
3742
330
36DB
330
3743
 92
        7
 72
     0
 73
     1
 93
        4
 10
-1947.810936844863
 20
1.653675511709025
 10
-1949.248367255338
 20
1.653675511709025
 10
-1949.248367255336
 20
-26.33122538758675
 10
-1947.810936844861
 20
-26.33122538758675
 97
        4
330
35F0
330
35E8
330
36DB
330
35E7
 75
     0
 76
     1
 47
0.1592723572117705
 98
        4
 10
-1948.630302996415
 20
12.38387964023923
 10
-1944.646337608142
 20
11.58751747687483
 10
-1944.965056026351
 20
-3.861904970907289
 10
-1948.789677044817
 20
-7.365894968176235
  0
HATCH
  5
35C3
330
1F
100
AcDbEntity
  8
NOSNÉ KONSTRUKCE
100
AcDbHatch
 10
0.0
 20
0.0
 30
0.0
210
0.0
220
0.0
230
1.0
  2
SOLID
 70
     1
 71
     1
 91
        6
 92
        7
 72
     0
 73
     1
 93
        4
 10
-1921.455108637115
 20
-107.6895739809071
 10
-1944.09244933878
 20
-107.6895739809081
 10
-1944.092449338776
 20
-110.7266929007257
 10
-1921.455108637116
 20
-110.7266929007259
 97
        4
330
3723
330
3743
330
372F
330
372B
 92
        7
 72
     0
 73
     1
 93
        4
 10
-1914.892608637114
 20
-107.6895739809067
 10
-1921.455108637116
 20
-107.6895739809071
 10
-1921.455108637116
 20
-110.7266929007259
 10
-1914.892608637113
 20
-110.7266929007259
 97
        4
330
3723
330
372B
330
372F
330
3745
 92
        7
 72
     0
 73
     1
 93
        4
 10
-1908.330108637114
 20
-107.6895739809062
 10
-1914.892608637113
 20
-107.6895739809067
 10
-1914.892608637113
 20
-110.7266929007257
 10
-1908.330108637118
 20
-110.7266929007257
 97
        4
330
3723
330
3745
330
372F
330
372E
 92
        7
 72
     1
 73
     1
 93
        5
 10
-1893.305721999703
 20
-107.7266929007207
 42
0.0030933321140477
 10
-1893.305951644194
 20
-107.6895739809056
 42
0.0
 10
-1908.330108637114
 20
-107.6895739809065
 42
0.0
 10
-1908.330108637111
 20
-110.7266929007259
 42
0.0
 10
-1893.305721999701
 20
-110.7266929007262
 42
0.0
 97
        5
330
36E4
330
3723
330
372E
330
372F
330
371B
 92
        7
 72
     0
 73
     1
 93
        4
 10
-1944.092449338774
 20
-67.63321533431576
 10
-1945.529879749249
 20
-67.63109767437595
 10
-1945.529879749249
 20
-110.7266929007259
 10
-1944.092449338776
 20
-110.7266929007262
 97
        4
330
36DA
330
3742
330
372F
330
3743
 92
        7
 72
     0
 73
     1
 93
        4
 10
-1944.092449338771
 20
-26.33122538758675
 10
-1945.529879749246
 20
-26.33122538758652
 10
-1945.529879749249
 20
-67.63109767437573
 10
-1944.092449338774
 20
-67.63321533431554
 97
        4
330
36DB
330
3742
330
36DA
330
3743
 75
     0
 76
     1
 47
0.3080940520130233
 98
        6
 10
-1932.67423032098
 20
-109.0273321495428
 10
-1917.877640945899
 20
-109.0273321495428
 10
-1912.0206595065
 20
-108.7192321863644
 10
-1903.697594677226
 20
-108.4111498309125
 10
-1944.696464752972
 20
-105.0221030591296
 10
-1944.696464752972
 20
-56.03515973100229
  0
LINE
  5
35C4
330
1F
100
AcDbEntity
  8
STAVBA OBRYS
  6
DASHDOT2
100
AcDbLine
 10
-1710.685458237564
 20
2.451205873303933
 30
0.0
 11
-1710.685458237563
 21
-210.3252831927943
 31
0.0
  0
LWPOLYLINE
  5
35C5
330
1F
100
AcDbEntity
  8
STAVBA OBRYS
  6
DASHED
100
AcDbPolyline
 90
        4
 70
     1
 43
0.0
 10
-1685.625672228051
 20
-25.93375730351681
 10
-1685.625672228051
 20
-31.30703862837026
 10
-1735.745244247074
 20
-31.30703862837026
 10
-1735.745244247074
 20
-25.93375730351681
  0
LINE
  5
35C6
330
1F
100
AcDbEntity
  8
STAVBA OBRYS
  6
DASHED
100
AcDbLine
 10
-1710.685458237563
 20
-195.4662310025519
 30
0.0
 11
-1704.122958237562
 21
-191.6773698609954
 31
0.0
  0
LINE
  5
35C7
330
1F
100
AcDbEntity
  8
STAVBA OBRYS
  6
DASHED
100
AcDbLine
 10
-1710.685458237563
 20
-195.4662310025519
 30
0.0
 11
-1717.247958237562
 21
-191.6773698609954
 31
0.0
  0
LINE
  5
35C8
330
1F
100
AcDbEntity
  8
STAVBA OBRYS
  6
DASHED
100
AcDbLine
 10
-1704.122958237562
 20
-191.6773698609954
 30
0.0
 11
-1704.122958237564
 21
-31.30703862837026
 31
0.0
  0
LINE
  5
35C9
330
1F
100
AcDbEntity
  8
STAVBA OBRYS
  6
DASHED
100
AcDbLine
 10
-1717.247958237562
 20
-191.6773698609954
 30
0.0
 11
-1717.247958237564
 21
-31.30703862837026
 31
0.0
  0
TEXT
  5
35CA
330
1F
100
AcDbEntity
  8
POPIS
100
AcDbText
 10
-2427.952925178783
 20
417.564575812355
 30
0.0
 40
35.0
  1
PŮDORYS-ŘEŠENÍ S ROHOVÝM PROFILEM
 41
0.75
  7
SIMPLEX7
100
AcDbText
  0
TEXT
  5
35CB
330
1F
100
AcDbEntity
  8
POPIS
100
AcDbText
 10
-2429.678078035621
 20
473.6332931083757
 30
0.0
 40
50.0
  1
VNITŘNÍ ROH
 41
0.85
  7
SIMPLEX7
100
AcDbText
  0
INSERT
  5
35CC
102
{ACAD_REACTORS
330
359C
102
}
330
1F
100
AcDbEntity
  8
POPIS
100
AcDbBlockReference
  2
E_PUNKT
 10
-2006.771658401992
 20
30.47034909591729
 30
0.0
 41
-1.0
  0
LINE
  5
35CD
330
1F
100
AcDbEntity
  8
POPIS
100
AcDbLine
 10
-1985.096852603018
 20
79.17566680304776
 30
0.0
 11
-2006.799268777617
 21
30.49941742678993
 31
0.0
  0
LINE
  5
35CE
330
1F
100
AcDbEntity
  8
POPIS
100
AcDbLine
 10
-1985.096852603018
 20
79.17566680304776
 30
0.0
 11
-1847.608820478729
 21
79.17423202402642
 31
0.0
  0
TEXT
  5
35CF
330
1F
100
AcDbEntity
  8
POPIS
100
AcDbText
 10
-1836.959262161574
 20
66.8105340782704
 30
0.0
 40
25.0
  1
07
 41
0.7
  7
SIMPLEX7
100
AcDbText
  0
LINE
  5
35D0
102
{ACAD_REACTORS
330
359C
102
}
330
1F
100
AcDbEntity
  8
PROFILY
100
AcDbLine
 10
-2015.407217000681
 20
88.2224175604947
 30
0.0
 11
-2017.752490379201
 21
88.2224175604947
 31
0.0
  0
LINE
  5
35D1
102
{ACAD_REACTORS
330
359C
102
}
330
1F
100
AcDbEntity
  8
PROFILY
100
AcDbLine
 10
-1957.258781150029
 20
30.30746146746378
 30
0.0
 11
-1957.258781150029
 21
27.97379191242407
 31
0.0
  0
LINE
  5
35D2
102
{ACAD_REACTORS
330
359C
102
}
330
1F
100
AcDbEntity
  8
PROFILY
100
AcDbLine
 10
-2015.407217000679
 20
30.30746146746378
 30
0.0
 11
-1957.258781150029
 21
30.30746146746378
 31
0.0
  0
LINE
  5
35D3
102
{ACAD_REACTORS
330
359C
102
}
330
1F
100
AcDbEntity
  8
PROFILY
100
AcDbLine
 10
-1957.258781150031
 20
27.97379191242362
 30
0.0
 11
-2017.752490379203
 21
27.97379191242498
 31
0.0
  0
LINE
  5
35D4
102
{ACAD_REACTORS
330
359C
102
}
330
1F
100
AcDbEntity
  8
PROFILY
100
AcDbLine
 10
-2015.407217000679
 20
30.30746146746378
 30
0.0
 11
-2015.407217000681
 21
88.2224175604947
 31
0.0
  0
LINE
  5
35D5
102
{ACAD_REACTORS
330
359C
102
}
330
1F
100
AcDbEntity
  8
PROFILY
100
AcDbLine
 10
-2017.752490379203
 20
88.22241756049448
 30
0.0
 11
-2017.752490379203
 21
27.97379191242498
 31
0.0
  0
CIRCLE
  5
35D6
330
1F
100
AcDbEntity
  8
POPIS
100
AcDbCircle
 10
-2128.668839924642
 20
-443.9876275162219
 30
0.0
 40
11.13656048292026
  0
TEXT
  5
35D7
330
1F
100
AcDbEntity
  8
POPIS
100
AcDbText
 10
-2133.051123434964
 20
-450.0977888841675
 30
0.0
 40
12.0
  1
R
 41
0.85
  7
SIMPLEX7
100
AcDbText
  0
TEXT
  5
35D8
330
1F
100
AcDbEntity
  8
POPIS
100
AcDbText
 10
-2356.430774355377
 20
-687.1306046579689
 30
0.0
 40
25.0
  1
07
 41
0.85
  7
SIMPLEX7
100
AcDbText
  0
TEXT
  5
35D9
330
1F
100
AcDbEntity
  8
POPIS
100
AcDbText
 10
-2302.087071195627
 20
-687.1306046579689
 30
0.0
 40
25.0
  1
Rohový profil - klempířský výrobek
 41
0.7
  7
SIMPLEX7
100
AcDbText
  0
TEXT
  5
35DA
330
1F
100
AcDbEntity
  8
POPIS
100
AcDbText
 10
-1835.952854972901
 20
278.6232381225713
 30
0.0
 40
25.0
  1
03
 41
0.7
  7
SIMPLEX7
100
AcDbText
  0
TEXT
  5
35DB
330
1F
100
AcDbEntity
  8
POPIS
100
AcDbText
 10
-1835.952854972901
 20
312.7890229211193
 30
0.0
 40
25.0
  1
01
 41
0.7
  7
SIMPLEX7
100
AcDbText
  0
TEXT
  5
35DC
330
1F
100
AcDbEntity
  8
POPIS
100
AcDbText
 10
-1835.952854972901
 20
251.0053077806869
 30
0.0
 40
25.0
  1
04
 41
0.7
  7
SIMPLEX7
100
AcDbText
  0
TEXT
  5
35DD
330
1F
100
AcDbEntity
  8
POPIS
100
AcDbText
 10
-1835.952854972901
 20
177.1375466939598
 30
0.0
 40
25.0
  1
06
 41
0.7
  7
SIMPLEX7
100
AcDbText
  0
TEXT
  5
35DE
330
1F
100
AcDbEntity
  8
POPIS
100
AcDbText
 10
-1836.959262161574
 20
100.2168442779893
 30
0.0
 40
25.0
  1
02
 41
0.7
  7
SIMPLEX7
100
AcDbText
  0
LINE
  5
35DF
330
1F
100
AcDbEntity
  8
SPOJOVACÍ
100
AcDbLine
 10
-1923.330108637115
 20
-94.90326078482258
 30
0.0
 11
-1906.455108637115
 21
-94.90326078482258
 31
0.0
  0
LINE
  5
35E0
330
1F
100
AcDbEntity
  8
NOSNÉ KONSTRUKCE
100
AcDbLine
 10
-1947.478744615819
 20
-29.51825251392574
 30
0.0
 11
-1947.478744615819
 21
22.97082479305982
 31
0.0
  0
LINE
  5
35E1
330
1F
100
AcDbEntity
  8
NOSNÉ KONSTRUKCE
100
AcDbLine
 10
-1945.802584003163
 20
22.97082479305982
 30
0.0
 11
-1945.802584003163
 21
-29.51825251392574
 31
0.0
  0
LINE
  5
35E2
330
1F
100
AcDbEntity
  8
SPOJOVACÍ
100
AcDbLine
 10
-1952.01235600928
 20
3.86409680085444
 30
0.0
 11
-1950.309339291701
 21
1.653675511709025
 31
0.0
  0
LINE
  5
35E3
330
1F
100
AcDbEntity
  8
NOSNÉ KONSTRUKCE
100
AcDbLine
 10
-1914.449867759654
 20
25.49691222506089
 30
0.0
 11
-1914.449867759654
 21
27.87458801283946
 31
0.0
  0
LINE
  5
35E4
330
1F
100
AcDbEntity
  8
NOSNÉ KONSTRUKCE
100
AcDbLine
 10
-1926.219289254056
 20
27.87458801283946
 30
0.0
 11
-1926.219289254056
 21
25.49691222506089
 31
0.0
  0
LINE
  5
35E5
330
1F
100
AcDbEntity
  8
NOSNÉ KONSTRUKCE
100
AcDbLine
 10
-1914.449867759654
 20
27.87458801283946
 30
0.0
 11
-1926.219289254056
 21
27.87458801283946
 31
0.0
  0
LWPOLYLINE
  5
35E6
330
1F
100
AcDbEntity
  8
NOSNÉ KONSTRUKCE
100
AcDbPolyline
 90
        3
 70
     0
 43
0.0
 10
-1945.802584003163
 20
22.97082479305982
 10
-1914.449867759654
 20
22.97082479305982
 10
-1914.449867759654
 20
25.49691222506089
  0
LINE
  5
35E7
102
{ACAD_REACTORS
330
35C2
330
35C1
102
}
330
1F
100
AcDbEntity
  8
NOSNÉ KONSTRUKCE
100
AcDbLine
 10
-1947.810936844861
 20
-35.93282994999162
 30
0.0
 11
-1947.810936844861
 21
17.29624821793322
 31
0.0
  0
LINE
  5
35E8
102
{ACAD_REACTORS
330
35C2
330
35C1
102
}
330
1F
100
AcDbEntity
  8
NOSNÉ KONSTRUKCE
100
AcDbLine
 10
-1949.248367255336
 20
17.29624821793413
 30
0.0
 11
-1949.248367255336
 21
-37.07375175137122
 31
0.0
  0
LINE
  5
35E9
102
{ACAD_REACTORS
330
35C2
102
}
330
1F
100
AcDbEntity
  8
SPOJOVACÍ
100
AcDbLine
 10
-1950.309339291701
 20
6.074518089998946
 30
0.0
 11
-1943.71172370837
 21
6.074518089998946
 31
0.0
  0
LINE
  5
35EA
102
{ACAD_REACTORS
330
35C2
102
}
330
1F
100
AcDbEntity
  8
NOSNÉ KONSTRUKCE
100
AcDbLine
 10
-1947.810936844861
 20
17.29624821793322
 30
0.0
 11
-1949.248367255336
 21
17.29624821793413
 31
0.0
  0
LINE
  5
35EB
102
{ACAD_REACTORS
330
35C2
102
}
330
1F
100
AcDbEntity
  8
NOSNÉ KONSTRUKCE
100
AcDbLine
 10
-1944.092449338765
 20
17.29624821793413
 30
0.0
 11
-1945.52987974924
 21
17.29624821793413
 31
0.0
  0
ARC
  5
35EC
330
1F
100
AcDbEntity
  8
SPOJOVACÍ
100
AcDbCircle
 10
-1948.022023777167
 20
3.86409680085444
 30
0.0
 40
7.016998426235272
100
AcDbArc
 50
307.8985698078477
 51
52.10143019215225
  0
LINE
  5
35ED
330
1F
100
AcDbEntity
  8
SPOJOVACÍ
100
AcDbLine
 10
-1943.71172370837
 20
3.86409680085444
 30
0.0
 11
-1943.71172370837
 21
-1.673012574145559
 31
0.0
  0
LINE
  5
35EE
330
1F
100
AcDbEntity
  8
SPOJOVACÍ
100
AcDbLine
 10
-1943.71172370837
 20
9.40120617585444
 30
0.0
 11
-1943.71172370837
 21
3.86409680085444
 31
0.0
  0
LINE
  5
35EF
330
1F
100
AcDbEntity
  8
SPOJOVACÍ
100
AcDbLine
 10
-1946.401217909088
 20
1.653675511709025
 30
0.0
 11
-1947.585779107808
 21
6.074518089998946
 31
0.0
  0
LINE
  5
35F0
102
{ACAD_REACTORS
330
35C2
102
}
330
1F
100
AcDbEntity
  8
SPOJOVACÍ
100
AcDbLine
 10
-1950.309339291701
 20
1.653675511709025
 30
0.0
 11
-1943.71172370837
 21
1.653675511709025
 31
0.0
  0
LINE
  5
35F1
330
1F
100
AcDbEntity
  8
SPOJOVACÍ
100
AcDbLine
 10
-1943.940280409086
 20
1.653675511709025
 30
0.0
 11
-1945.124841607806
 21
6.074518089998946
 31
0.0
  0
LINE
  5
35F2
330
1F
100
AcDbEntity
  8
SPOJOVACÍ
100
AcDbLine
 10
-1945.170749159088
 20
1.653675511709025
 30
0.0
 11
-1946.355310357806
 21
6.074518089998946
 31
0.0
  0
LINE
  5
35F3
330
1F
100
AcDbEntity
  8
SPOJOVACÍ
100
AcDbLine
 10
-1947.631686659089
 20
1.653675511709025
 30
0.0
 11
-1948.816247857806
 21
6.074518089998946
 31
0.0
  0
LINE
  5
35F4
330
1F
100
AcDbEntity
  8
SPOJOVACÍ
100
AcDbLine
 10
-1950.092624159088
 20
1.653675511709025
 30
0.0
 11
-1951.027441481973
 21
5.142461256511978
 31
0.0
  0
LINE
  5
35F5
330
1F
100
AcDbEntity
  8
SPOJOVACÍ
100
AcDbLine
 10
-1948.86215540909
 20
1.653675511709025
 30
0.0
 11
-1950.046716607806
 21
6.074518089998946
 31
0.0
  0
LINE
  5
35F6
330
1F
100
AcDbEntity
  8
NOSNÉ KONSTRUKCE
100
AcDbLine
 10
-1940.944939245638
 20
-21.33135881542284
 30
0.0
 11
-1944.092449338769
 21
-18.48667228379008
 31
0.0
  0
ARC
  5
35F7
330
1F
100
AcDbEntity
  8
NOSNÉ KONSTRUKCE
100
AcDbCircle
 10
-1942.285972306651
 20
-22.81514799494425
 30
0.0
 40
2.0
100
AcDbArc
 50
0.0
 51
47.8930566009958
  0
LINE
  5
35F8
102
{ACAD_REACTORS
330
35C1
102
}
330
1F
100
AcDbEntity
  8
NOSNÉ KONSTRUKCE
100
AcDbLine
 10
-1949.248367255336
 20
-37.07375175137122
 30
0.0
 11
-1945.529879749246
 21
-42.73029658190035
 31
0.0
  0
LINE
  5
35F9
102
{ACAD_REACTORS
330
35C1
102
}
330
1F
100
AcDbEntity
  8
NOSNÉ KONSTRUKCE
100
AcDbLine
 10
-1947.810936844861
 20
-35.93282994999162
 30
0.0
 11
-1945.529879749246
 21
-39.9379383099963
 31
0.0
  0
LINE
  5
35FA
330
1F
100
AcDbEntity
  8
NOSNÉ KONSTRUKCE
100
AcDbLine
 10
-1945.802584003163
 20
-29.51825251392574
 30
0.0
 11
-1947.478744615819
 21
-29.51825251392574
 31
0.0
  0
LINE
  5
35FB
330
1F
100
AcDbEntity
  8
SPOJOVACÍ
100
AcDbLine
 10
-1950.309339291701
 20
6.074518089998946
 30
0.0
 11
-1952.01235600928
 21
3.86409680085444
 31
0.0
  0
TEXT
  5
35FC
330
1F
100
AcDbEntity
  8
POPIS
100
AcDbText
 10
-1835.952854972901
 20
213.6202953881429
 30
0.0
 40
25.0
  1
05
 41
0.7
  7
SIMPLEX7
100
AcDbText
  0
INSERT
  5
35FD
330
1F
100
AcDbEntity
  8
POPIS
100
AcDbBlockReference
  2
E_PUNKT
 10
-2042.158815852203
 20
290.9578677374552
 30
0.0
 41
-1.0
  0
LINE
  5
35FE
330
1F
100
AcDbEntity
  8
NOSNÉ KONSTRUKCE
100
AcDbLine
 10
-2075.279290248655
 20
100.1144832829195
 30
0.0
 11
-2022.790212941669
 21
100.1144832829195
 31
0.0
  0
LINE
  5
35FF
330
1F
100
AcDbEntity
  8
NOSNÉ KONSTRUKCE
100
AcDbLine
 10
-2022.790212941669
 20
101.790643895576
 30
0.0
 11
-2075.279290248655
 21
101.790643895576
 31
0.0
  0
LINE
  5
3600
330
1F
100
AcDbEntity
  8
NOSNÉ KONSTRUKCE
100
AcDbLine
 10
-2075.279290248655
 20
101.790643895576
 30
0.0
 11
-2075.279290248655
 21
100.1144832829195
 31
0.0
  0
LWPOLYLINE
  5
3602
330
1F
100
AcDbEntity
  8
NOSNÉ KONSTRUKCE
100
AcDbPolyline
 90
        3
 70
     0
 43
0.0
 10
-2022.790212941669
 20
101.790643895576
 10
-2022.790212941669
 20
133.1433601390854
 10
-2020.264125509668
 20
133.1433601390854
  0
LINE
  5
3603
330
1F
100
AcDbEntity
  8
NOSNÉ KONSTRUKCE
100
AcDbLine
 10
-2020.264125509668
 20
121.3739386446832
 30
0.0
 11
-2020.264125509668
 21
80.53118853381239
 31
0.0
  0
INSERT
  5
3604
330
1F
100
AcDbEntity
  8
POPIS
100
AcDbBlockReference
  2
E_PUNKT
 10
-1997.562023210387
 20
80.17128171335025
 30
0.0
 41
-1.0
  0
LINE
  5
3605
330
1F
100
AcDbEntity
  8
SPOJOVACÍ
100
AcDbLine
 10
-2041.896940933876
 20
103.881504190369
 30
0.0
 11
-2047.434050308876
 21
103.881504190369
 31
0.0
  0
ARC
  5
3606
330
1F
100
AcDbEntity
  8
SPOJOVACÍ
100
AcDbCircle
 10
-2041.896940933876
 20
99.57120412157202
 30
0.0
 40
7.016998426235272
100
AcDbArc
 50
37.89856980784375
 51
142.1014301921562
  0
LINE
  5
3607
102
{ACAD_REACTORS
330
35C0
102
}
330
1F
100
AcDbEntity
  8
NOSNÉ KONSTRUKCE
100
AcDbLine
 10
-2028.464789516797
 20
99.782291053878
 30
0.0
 11
-2028.464789516795
 21
98.34486064340309
 31
0.0
  0
LINE
  5
3608
102
{ACAD_REACTORS
330
35C0
102
}
330
1F
100
AcDbEntity
  8
NOSNÉ KONSTRUKCE
100
AcDbLine
 10
-2028.464789516795
 20
103.5007785599727
 30
0.0
 11
-2028.464789516795
 21
102.0633481494978
 31
0.0
  0
LINE
  5
3609
330
1F
100
AcDbEntity
  8
SPOJOVACÍ
100
AcDbLine
 10
-2036.359831558876
 20
103.881504190369
 30
0.0
 11
-2041.896940933876
 21
103.881504190369
 31
0.0
  0
LINE
  5
360A
330
1F
100
AcDbEntity
  8
SPOJOVACÍ
100
AcDbLine
 10
-2044.107362223022
 20
101.1920099896506
 30
0.0
 11
-2039.686519644731
 21
100.0074487909314
 31
0.0
  0
LINE
  5
360B
330
1F
100
AcDbEntity
  8
SPOJOVACÍ
100
AcDbLine
 10
-2044.107362223022
 20
103.6529474896524
 30
0.0
 11
-2039.686519644731
 21
102.4683862909332
 31
0.0
  0
LINE
  5
360C
330
1F
100
AcDbEntity
  8
SPOJOVACÍ
100
AcDbLine
 10
-2044.107362223022
 20
102.4224787396506
 30
0.0
 11
-2039.686519644731
 21
101.2379175409323
 31
0.0
  0
LINE
  5
360D
330
1F
100
AcDbEntity
  8
SPOJOVACÍ
100
AcDbLine
 10
-2044.107362223022
 20
99.96154123965062
 30
0.0
 11
-2039.686519644731
 21
98.77698004093327
 31
0.0
  0
LINE
  5
360E
330
1F
100
AcDbEntity
  8
SPOJOVACÍ
100
AcDbLine
 10
-2044.107362223022
 20
97.50060373965062
 30
0.0
 11
-2040.618576478217
 21
96.56578641676606
 31
0.0
  0
LINE
  5
360F
330
1F
100
AcDbEntity
  8
SPOJOVACÍ
100
AcDbLine
 10
-2041.896940933876
 20
95.58087188945865
 30
0.0
 11
-2039.686519644731
 21
97.28388860703944
 31
0.0
  0
LINE
  5
3610
330
1F
100
AcDbEntity
  8
SPOJOVACÍ
100
AcDbLine
 10
-2041.896940933876
 20
95.58087188945865
 30
0.0
 11
-2044.107362223022
 21
97.28388860703944
 31
0.0
  0
LINE
  5
3611
102
{ACAD_REACTORS
330
35C0
102
}
330
1F
100
AcDbEntity
  8
SPOJOVACÍ
100
AcDbLine
 10
-2039.686519644731
 20
97.28388860703944
 30
0.0
 11
-2039.686519644731
 21
103.881504190369
 31
0.0
  0
LINE
  5
3612
102
{ACAD_REACTORS
330
35C0
102
}
330
1F
100
AcDbEntity
  8
SPOJOVACÍ
100
AcDbLine
 10
-2044.107362223022
 20
97.28388860703944
 30
0.0
 11
-2044.107362223022
 21
103.881504190369
 31
0.0
  0
LINE
  5
3613
330
1F
100
AcDbEntity
  8
SPOJOVACÍ
100
AcDbLine
 10
-2044.107362223022
 20
98.7310724896497
 30
0.0
 11
-2039.686519644731
 21
97.54651129093417
 31
0.0
  0
LWPOLYLINE
  5
3614
330
1F
100
AcDbEntity
  8
NOSNÉ KONSTRUKCE
100
AcDbPolyline
 90
        3
 70
     0
 43
0.0
 10
-2020.264125509668
 20
68.76176703941019
 10
-2022.790212941669
 20
68.76176703941019
 10
-2022.790212941669
 20
100.1144832829195
  0
LINE
  5
3615
330
1F
100
AcDbEntity
  8
NOSNÉ KONSTRUKCE
100
AcDbLine
 10
-2067.092396550154
 20
106.6482886531025
 30
0.0
 11
-2064.247710018521
 21
103.50077855997
 31
0.0
  0
ARC
  5
3616
330
1F
100
AcDbEntity
  8
NOSNÉ KONSTRUKCE
100
AcDbCircle
 10
-2068.576185729675
 20
105.307255592088
 30
0.0
 40
2.0
100
AcDbArc
 50
42.10694339903134
 51
90.0
  0
LINE
  5
3617
330
1F
100
AcDbEntity
  8
NOSNÉ KONSTRUKCE
100
AcDbLine
 10
-2017.88644972189
 20
80.53118853381239
 30
0.0
 11
-2020.264125509668
 21
80.53118853381239
 31
0.0
  0
LINE
  5
3618
330
1F
100
AcDbEntity
  8
NOSNÉ KONSTRUKCE
100
AcDbLine
 10
-2017.88644972189
 20
68.76176703941019
 30
0.0
 11
-2017.88644972189
 21
80.53118853381239
 31
0.0
  0
LINE
  5
3619
330
1F
100
AcDbEntity
  8
NOSNÉ KONSTRUKCE
100
AcDbLine
 10
-2020.264125509668
 20
68.76176703941019
 30
0.0
 11
-2017.88644972189
 21
68.76176703941019
 31
0.0
  0
LINE
  5
361A
330
1F
100
AcDbEntity
  8
SPOJOVACÍ
100
AcDbLine
 10
-2012.995353769464
 20
70.84408670246943
 30
0.0
 11
-2014.518361024959
 21
76.52802716027008
 31
0.0
  0
LINE
  5
361B
102
{ACAD_REACTORS
330
359C
102
}
330
1F
100
AcDbEntity
  8
SPOJOVACÍ
100
AcDbLine
 10
-2031.761904717824
 20
70.84408670246943
 30
0.0
 11
-2002.994914944963
 21
70.84408670246943
 31
0.0
  0
LINE
  5
361C
102
{ACAD_REACTORS
330
359C
102
}
330
1F
100
AcDbEntity
  8
SPOJOVACÍ
100
AcDbLine
 10
-2031.761904717824
 20
76.52802716027008
 30
0.0
 11
-2002.994914944963
 21
76.52802716027008
 31
0.0
  0
LINE
  5
361D
330
1F
100
AcDbEntity
  8
SPOJOVACÍ
100
AcDbLine
 10
-2002.994914944963
 20
80.80519755636942
 30
0.0
 11
-2002.994914944963
 21
73.68605693136942
 31
0.0
  0
LINE
  5
361E
330
1F
100
AcDbEntity
  8
SPOJOVACÍ
100
AcDbLine
 10
-2002.994914944963
 20
73.68605693136942
 30
0.0
 11
-2002.994914944963
 21
66.56691630636942
 31
0.0
  0
HATCH
  5
361F
330
1F
100
AcDbEntity
  8
SPOJOVACÍ
100
AcDbHatch
 10
0.0
 20
0.0
 30
0.0
210
0.0
220
0.0
230
1.0
  2
ANSI37
 70
     0
 71
     0
 91
        1
 92
        7
 72
     0
 73
     1
 93
        6
 10
-2002.994914944963
 20
80.80519755636942
 10
-2001.308095086485
 20
80.80519755636942
 10
-2001.308095086485
 20
73.68605693136942
 10
-2001.308095086485
 20
66.56691630636942
 10
-2002.994914944963
 20
66.56691630636942
 10
-2002.994914944963
 20
73.68605693136942
 97
        0
 75
     0
 76
     1
 52
0.0
 41
0.9
 77
     0
 78
     2
 53
134.9999999999999
 43
-1669.723139731003
 44
-377.2078735037475
 45
2.020557627240559
 46
2.020557627240559
 79
     0
 53
45.0
 43
-1669.723139731003
 44
-377.2078735037475
 45
2.020557627240559
 46
-2.020557627240559
 79
     0
 47
0.1350114543121608
 98
        1
 10
-2001.906825452616
 20
73.71342294917394
  0
LINE
  5
3620
330
1F
100
AcDbEntity
  8
SPOJOVACÍ
100
AcDbLine
 10
-2001.308095086485
 20
73.68605693136942
 30
0.0
 11
-2001.308095086485
 21
80.80519755636942
 31
0.0
  0
LINE
  5
3621
330
1F
100
AcDbEntity
  8
SPOJOVACÍ
100
AcDbLine
 10
-2002.124371415008
 20
78.90676005636942
 30
0.0
 11
-2002.119625321259
 21
78.90676005636942
 31
0.0
  0
LINE
  5
3622
330
1F
100
AcDbEntity
  8
SPOJOVACÍ
100
AcDbLine
 10
-2002.994914944963
 20
80.80519755636942
 30
0.0
 11
-2001.308095086485
 21
80.80519755636942
 31
0.0
  0
ARC
  5
3623
330
1F
100
AcDbEntity
  8
SPOJOVACÍ
100
AcDbCircle
 10
-1997.59932639702
 20
77.00832255636942
 30
0.0
 40
0.94921875
100
AcDbArc
 50
270.0
 51
0.0
  0
ARC
  5
3624
330
1F
100
AcDbEntity
  8
SPOJOVACÍ
100
AcDbCircle
 10
-1997.59932639702
 20
77.95754130636942
 30
0.0
 40
0.94921875
100
AcDbArc
 50
0.0
 51
90.0
  0
LINE
  5
3625
330
1F
100
AcDbEntity
  8
SPOJOVACÍ
100
AcDbLine
 10
-2001.308095086485
 20
76.05910380636942
 30
0.0
 11
-1997.59932639702
 21
76.05910380636942
 31
0.0
  0
LINE
  5
3626
330
1F
100
AcDbEntity
  8
SPOJOVACÍ
100
AcDbLine
 10
-2001.308095086485
 20
78.90676005636942
 30
0.0
 11
-1997.59932639702
 21
78.90676005636942
 31
0.0
  0
LINE
  5
3627
330
1F
100
AcDbEntity
  8
SPOJOVACÍ
100
AcDbLine
 10
-2001.308095086485
 20
66.56691630636942
 30
0.0
 11
-2002.994914944963
 21
66.56691630636942
 31
0.0
  0
ARC
  5
3628
330
1F
100
AcDbEntity
  8
SPOJOVACÍ
100
AcDbCircle
 10
-1997.59932639702
 20
69.41457255636942
 30
0.0
 40
0.94921875
100
AcDbArc
 50
270.0
 51
0.0
  0
ARC
  5
3629
330
1F
100
AcDbEntity
  8
SPOJOVACÍ
100
AcDbCircle
 10
-1997.59932639702
 20
70.36379130636942
 30
0.0
 40
0.94921875
100
AcDbArc
 50
0.0
 51
90.0
  0
LINE
  5
362A
330
1F
100
AcDbEntity
  8
SPOJOVACÍ
100
AcDbLine
 10
-1997.59932639702
 20
68.46535380636942
 30
0.0
 11
-2001.308095086485
 21
68.46535380636942
 31
0.0
  0
LINE
  5
362B
330
1F
100
AcDbEntity
  8
SPOJOVACÍ
100
AcDbLine
 10
-2001.308095086485
 20
71.31301005636942
 30
0.0
 11
-1997.59932639702
 21
71.31301005636942
 31
0.0
  0
LINE
  5
362C
330
1F
100
AcDbEntity
  8
SPOJOVACÍ
100
AcDbLine
 10
-2001.308095086485
 20
77.52202510843381
 30
0.0
 11
-2001.308095086485
 21
66.56691630636942
 31
0.0
  0
LINE
  5
362D
330
1F
100
AcDbEntity
  8
SPOJOVACÍ
100
AcDbLine
 10
-1996.65010764702
 20
77.95754130636942
 30
0.0
 11
-1996.65010764702
 21
69.41457255636942
 31
0.0
  0
ARC
  5
362E
330
1F
100
AcDbEntity
  8
SPOJOVACÍ
100
AcDbCircle
 10
-2000.024046561232
 20
73.68605693136942
 30
0.0
 40
3.392730367372068
100
AcDbArc
 50
315.6170676673749
 51
44.38293233262505
  0
LINE
  5
362F
330
1F
100
AcDbEntity
  8
SPOJOVACÍ
100
AcDbLine
 10
-2008.249260019464
 20
70.84408670246943
 30
0.0
 11
-2009.772267274959
 21
76.52802716027008
 31
0.0
  0
LINE
  5
3630
330
1F
100
AcDbEntity
  8
SPOJOVACÍ
100
AcDbLine
 10
-2009.831291269462
 20
70.84408670246943
 30
0.0
 11
-2011.354298524959
 21
76.52802716027008
 31
0.0
  0
LINE
  5
3631
330
1F
100
AcDbEntity
  8
SPOJOVACÍ
100
AcDbLine
 10
-2005.085197519466
 20
70.84408670246943
 30
0.0
 11
-2006.608204774957
 21
76.52802716027008
 31
0.0
  0
LINE
  5
3632
330
1F
100
AcDbEntity
  8
SPOJOVACÍ
100
AcDbLine
 10
-2006.667228769464
 20
70.84408670246943
 30
0.0
 11
-2008.190236024959
 21
76.52802716027008
 31
0.0
  0
LINE
  5
3633
330
1F
100
AcDbEntity
  8
SPOJOVACÍ
100
AcDbLine
 10
-2011.413322519464
 20
70.84408670246943
 30
0.0
 11
-2012.936329774959
 21
76.52802716027008
 31
0.0
  0
LINE
  5
3634
330
1F
100
AcDbEntity
  8
SPOJOVACÍ
100
AcDbLine
 10
-2033.951497640427
 20
73.68605693136942
 30
0.0
 11
-2031.761904717824
 21
76.52802716027008
 31
0.0
  0
LINE
  5
3635
330
1F
100
AcDbEntity
  8
SPOJOVACÍ
100
AcDbLine
 10
-2033.951497640427
 20
73.68605693136942
 30
0.0
 11
-2031.761904717824
 21
70.84408670246943
 31
0.0
  0
LINE
  5
3636
330
1F
100
AcDbEntity
  8
SPOJOVACÍ
100
AcDbLine
 10
-2031.979728769462
 20
70.84408670246943
 30
0.0
 11
-2033.053530337153
 21
74.85156871033519
 31
0.0
  0
LINE
  5
3637
330
1F
100
AcDbEntity
  8
SPOJOVACÍ
100
AcDbLine
 10
-2030.397697519461
 20
70.84408670246943
 30
0.0
 11
-2031.920704774957
 21
76.52802716027008
 31
0.0
  0
LINE
  5
3638
330
1F
100
AcDbEntity
  8
SPOJOVACÍ
100
AcDbLine
 10
-2028.815666269464
 20
70.84408670246943
 30
0.0
 11
-2030.338673524956
 21
76.52802716027008
 31
0.0
  0
LINE
  5
3639
330
1F
100
AcDbEntity
  8
SPOJOVACÍ
100
AcDbLine
 10
-2027.233635019464
 20
70.84408670246943
 30
0.0
 11
-2028.756642274955
 21
76.52802716027008
 31
0.0
  0
LINE
  5
363A
330
1F
100
AcDbEntity
  8
SPOJOVACÍ
100
AcDbLine
 10
-2024.069572519462
 20
70.84408670246943
 30
0.0
 11
-2025.592579774957
 21
76.52802716027008
 31
0.0
  0
LINE
  5
363B
330
1F
100
AcDbEntity
  8
SPOJOVACÍ
100
AcDbLine
 10
-2022.487541269461
 20
70.84408670246943
 30
0.0
 11
-2024.010548524957
 21
76.52802716027008
 31
0.0
  0
LINE
  5
363C
330
1F
100
AcDbEntity
  8
SPOJOVACÍ
100
AcDbLine
 10
-2019.323478769464
 20
70.84408670246943
 30
0.0
 11
-2020.846486024957
 21
76.52802716027008
 31
0.0
  0
LINE
  5
363D
330
1F
100
AcDbEntity
  8
SPOJOVACÍ
100
AcDbLine
 10
-2020.905510019464
 20
70.84408670246943
 30
0.0
 11
-2022.428517274958
 21
76.52802716027008
 31
0.0
  0
LINE
  5
363E
330
1F
100
AcDbEntity
  8
SPOJOVACÍ
100
AcDbLine
 10
-2017.741447519464
 20
70.84408670246943
 30
0.0
 11
-2019.26445477496
 21
76.52802716027008
 31
0.0
  0
LINE
  5
363F
330
1F
100
AcDbEntity
  8
SPOJOVACÍ
100
AcDbLine
 10
-2025.651603769462
 20
70.84408670246943
 30
0.0
 11
-2027.174611024955
 21
76.52802716027008
 31
0.0
  0
LINE
  5
3640
330
1F
100
AcDbEntity
  8
SPOJOVACÍ
100
AcDbLine
 10
-2014.577385019464
 20
70.84408670246943
 30
0.0
 11
-2016.100392274958
 21
76.52802716027008
 31
0.0
  0
LINE
  5
3641
330
1F
100
AcDbEntity
  8
SPOJOVACÍ
100
AcDbLine
 10
-2016.159416269466
 20
70.84408670246943
 30
0.0
 11
-2017.682423524957
 21
76.52802716027008
 31
0.0
  0
LINE
  5
3642
330
1F
100
AcDbEntity
  8
NOSNÉ KONSTRUKCE
100
AcDbLine
 10
-2020.264125509668
 20
133.1433601390854
 30
0.0
 11
-2017.88644972189
 21
133.1433601390854
 31
0.0
  0
LINE
  5
3643
330
1F
100
AcDbEntity
  8
NOSNÉ KONSTRUKCE
100
AcDbLine
 10
-2017.88644972189
 20
121.3739386446832
 30
0.0
 11
-2020.264125509668
 21
121.3739386446832
 31
0.0
  0
LINE
  5
3644
330
1F
100
AcDbEntity
  8
NOSNÉ KONSTRUKCE
100
AcDbLine
 10
-2017.88644972189
 20
133.1433601390854
 30
0.0
 11
-2017.88644972189
 21
121.3739386446832
 31
0.0
  0
INSERT
  5
3645
330
1F
100
AcDbEntity
  8
POPIS
100
AcDbBlockReference
  2
E_PUNKT
 10
-2022.762602566043
 20
133.1142918082127
 30
0.0
 41
-1.0
  0
LINE
  5
3646
330
1F
100
AcDbEntity
  8
POPIS
100
AcDbLine
 10
-2022.790212941669
 20
133.1433601390854
 30
0.0
 11
-1985.096356089812
 21
189.5012446397163
 31
0.0
  0
HATCH
  5
3647
330
1F
100
AcDbEntity
  8
NOSNÉ KONSTRUKCE
100
AcDbHatch
 10
0.0
 20
0.0
 30
0.0
210
0.0
220
0.0
230
1.0
  2
ANSI37
 70
     0
 71
     0
 91
        1
 92
        7
 72
     0
 73
     1
 93
        4
 10
-2156.450611715639
 20
154.2875058990359
 10
-2153.450611715638
 20
154.2875058990362
 10
-2153.450611715635
 20
103.5007785599646
 10
-2156.450611715639
 20
103.5007785599643
 97
        0
 75
     0
 76
     1
 52
0.0
 41
1.0
 77
     0
 78
     2
 53
134.9999999999999
 43
-1633.483060149828
 44
-208.3710343386301
 45
2.245064030267287
 46
2.245064030267288
 79
     0
 53
45.0
 43
-1633.483060149828
 44
-208.3710343386301
 45
2.245064030267288
 46
-2.245064030267287
 79
     0
 47
0.13614220447659
 98
        1
 10
-2155.537803063825
 20
136.4242406116334
  0
HATCH
  5
3648
330
1F
100
AcDbEntity
  8
NOSNÉ KONSTRUKCE
100
AcDbHatch
 10
0.0
 20
0.0
 30
0.0
210
0.0
220
0.0
230
1.0
  2
ANSI37
 70
     0
 71
     0
 91
        1
 92
        7
 72
     0
 73
     1
 93
        4
 10
-2156.487730635458
 20
154.2875058990359
 10
-2153.487730635458
 20
154.2875058990362
 10
-2153.487730635456
 20
103.5007785599646
 10
-2156.487730635458
 20
103.5007785599643
 97
        0
 75
     0
 76
     1
 52
0.0
 41
1.0
 77
     0
 78
     2
 53
134.9999999999999
 43
-1633.520179069649
 44
-208.3710343386301
 45
2.245064030267287
 46
2.245064030267288
 79
     0
 53
45.0
 43
-1633.520179069649
 44
-208.3710343386301
 45
2.245064030267288
 46
-2.245064030267287
 79
     0
 47
0.13614220447659
 98
        1
 10
-2155.574921983644
 20
136.4242406116334
  0
LINE
  5
3649
330
1F
100
AcDbEntity
  8
NOSNÉ KONSTRUKCE
100
AcDbLine
 10
-2153.450611715635
 20
103.5007785599646
 30
0.0
 11
-2153.450611715638
 21
154.2875058990393
 31
0.0
  0
LINE
  5
364A
102
{ACAD_REACTORS
330
35C0
102
}
330
1F
100
AcDbEntity
  8
NOSNÉ KONSTRUKCE
100
AcDbLine
 10
-2153.487730635456
 20
103.5007785599646
 30
0.0
 11
-2153.487730635458
 21
154.2875058990393
 31
0.0
  0
LINE
  5
364B
330
1F
100
AcDbEntity
  8
SPOJOVACÍ
100
AcDbLine
 10
-2150.084690014657
 20
128.8941422295024
 30
0.0
 11
-2150.084690014657
 21
114.8316422295024
 31
0.0
  0
LINE
  5
364C
330
1F
100
AcDbEntity
  8
SPOJOVACÍ
100
AcDbLine
 10
-2150.084690014657
 20
128.8941422295024
 30
0.0
 11
-2150.084690014657
 21
114.8316422295024
 31
0.0
  0
LINE
  5
364D
330
1F
100
AcDbEntity
  8
SPOJOVACÍ
100
AcDbLine
 10
-2147.226798519553
 20
136.4713633199994
 30
0.0
 11
-2147.226798519553
 21
114.8316422295024
 31
0.0
  0
LINE
  5
364E
330
1F
100
AcDbEntity
  8
NOSNÉ KONSTRUKCE
100
AcDbLine
 10
-2150.487730635456
 20
110.3072555920916
 30
0.0
 11
-2150.487730635458
 21
151.2875058990366
 31
0.0
  0
LINE
  5
364F
330
1F
100
AcDbEntity
  8
SPOJOVACÍ
100
AcDbLine
 10
-2147.226798519553
 20
114.8316422295024
 30
0.0
 11
-2150.084690014657
 21
114.8316422295024
 31
0.0
  0
ARC
  5
3650
330
1F
100
AcDbEntity
  8
NOSNÉ KONSTRUKCE
100
AcDbCircle
 10
-2147.487730635456
 20
110.3072555920916
 30
0.0
 40
3.0
100
AcDbArc
 50
180.0
 51
270.0
  0
INSERT
  5
3651
330
1F
100
AcDbEntity
  8
POPIS
100
AcDbBlockReference
  2
E_PUNKT
 10
-2114.56148237973
 20
107.2781872612176
 30
0.0
 41
-1.0
  0
LINE
  5
3652
102
{ACAD_REACTORS
330
35C0
102
}
330
1F
100
AcDbEntity
  8
NOSNÉ KONSTRUKCE
100
AcDbLine
 10
-2082.834789486101
 20
98.34486064340309
 30
0.0
 11
-2088.491334316631
 21
102.0633481494937
 31
0.0
  0
LINE
  5
3653
102
{ACAD_REACTORS
330
35C0
102
}
330
1F
100
AcDbEntity
  8
NOSNÉ KONSTRUKCE
100
AcDbLine
 10
-2081.693867684721
 20
99.782291053878
 30
0.0
 11
-2085.698976044726
 21
102.0633481494942
 31
0.0
  0
INSERT
  5
3654
330
1F
100
AcDbEntity
  8
POPIS
100
AcDbBlockReference
  2
E_PUNKT
 10
-2185.356874291031
 20
131.4115966009253
 30
0.0
 41
-1.0
  0
LINE
  5
3655
330
1F
100
AcDbEntity
  8
SPOJOVACÍ
100
AcDbLine
 10
-2186.25828079366
 20
127.7041212090407
 30
0.0
 11
-2186.824450624865
 21
129.8170957848087
 31
0.0
  0
LINE
  5
3656
330
1F
100
AcDbEntity
  8
SPOJOVACÍ
100
AcDbLine
 10
-2188.092513813039
 20
127.5519767660866
 30
0.0
 11
-2188.730911787145
 21
129.9345104409071
 31
0.0
  0
LINE
  5
3657
330
1F
100
AcDbEntity
  8
SPOJOVACÍ
100
AcDbLine
 10
-2187.794950235406
 20
126.4414543758785
 30
0.0
 11
-2189.148117981297
 21
131.4915451547094
 31
0.0
  0
LINE
  5
3658
330
1F
100
AcDbEntity
  8
SPOJOVACÍ
100
AcDbLine
 10
-2185.919950235406
 20
126.4414543758785
 30
0.0
 11
-2187.267647425432
 21
131.471128762274
 31
0.0
  0
LINE
  5
3659
330
1F
100
AcDbEntity
  8
SPOJOVACÍ
100
AcDbLine
 10
-2189.665249021822
 20
126.4239092079283
 30
0.0
 11
-2191.025908311016
 21
131.5019588069908
 31
0.0
  0
LINE
  5
365A
330
1F
100
AcDbEntity
  8
SPOJOVACÍ
100
AcDbLine
 10
-2147.226798519553
 20
133.5816422295024
 30
0.0
 11
-2142.539298519553
 21
133.5816422295024
 31
0.0
  0
LINE
  5
365B
330
1F
100
AcDbEntity
  8
SPOJOVACÍ
100
AcDbLine
 10
-2147.226798519553
 20
139.2066422295024
 30
0.0
 11
-2142.539298519553
 21
139.2066422295024
 31
0.0
  0
LINE
  5
365C
330
1F
100
AcDbEntity
  8
SPOJOVACÍ
100
AcDbLine
 10
-2147.226798519553
 20
124.2066422295024
 30
0.0
 11
-2142.539298519553
 21
124.2066422295024
 31
0.0
  0
LINE
  5
365D
330
1F
100
AcDbEntity
  8
SPOJOVACÍ
100
AcDbLine
 10
-2142.539298519553
 20
118.5816422295024
 30
0.0
 11
-2147.226798519553
 21
118.5816422295024
 31
0.0
  0
ARC
  5
365E
330
1F
100
AcDbEntity
  8
SPOJOVACÍ
100
AcDbCircle
 10
-2142.539298519553
 20
137.3316422295024
 30
0.0
 40
1.875
100
AcDbArc
 50
0.0
 51
90.0
  0
ARC
  5
365F
330
1F
100
AcDbEntity
  8
SPOJOVACÍ
100
AcDbCircle
 10
-2142.539298519553
 20
135.4566422295024
 30
0.0
 40
1.875
100
AcDbArc
 50
270.0
 51
0.0
  0
ARC
  5
3660
330
1F
100
AcDbEntity
  8
SPOJOVACÍ
100
AcDbCircle
 10
-2147.328869214295
 20
128.8941422295024
 30
0.0
 40
6.701689614562111
100
AcDbArc
 50
315.6170676673749
 51
44.38293233262505
  0
ARC
  5
3661
330
1F
100
AcDbEntity
  8
SPOJOVACÍ
100
AcDbCircle
 10
-2142.539298519553
 20
120.4566422295024
 30
0.0
 40
1.875
100
AcDbArc
 50
270.0
 51
0.0
  0
ARC
  5
3662
330
1F
100
AcDbEntity
  8
SPOJOVACÍ
100
AcDbCircle
 10
-2142.539298519553
 20
122.3316422295024
 30
0.0
 40
1.875
100
AcDbArc
 50
0.0
 51
90.0
  0
LINE
  5
3663
330
1F
100
AcDbEntity
  8
SPOJOVACÍ
100
AcDbLine
 10
-2140.664298519553
 20
137.3316422295024
 30
0.0
 11
-2140.664298519553
 21
120.4566422295024
 31
0.0
  0
LINE
  5
3664
330
1F
100
AcDbEntity
  8
NOSNÉ KONSTRUKCE
100
AcDbLine
 10
-2153.487730635458
 20
154.2875058990366
 30
0.0
 11
-2156.487730635458
 21
154.2875058990357
 31
0.0
  0
ARC
  5
3665
330
1F
100
AcDbEntity
  8
NOSNÉ KONSTRUKCE
100
AcDbCircle
 10
-2153.487730635458
 20
151.2875058990366
 30
0.0
 40
3.0
100
AcDbArc
 50
0.0
 51
90.0
  0
LINE
  5
3666
330
1F
100
AcDbEntity
  8
SPOJOVACÍ
100
AcDbLine
 10
-2150.084690014657
 20
142.9566422295024
 30
0.0
 11
-2147.226798519553
 21
142.9566422295024
 31
0.0
  0
LINE
  5
3667
330
1F
100
AcDbEntity
  8
SPOJOVACÍ
100
AcDbLine
 10
-2147.226798519553
 20
139.2066422295024
 30
0.0
 11
-2147.217423519553
 21
139.2066422295024
 31
0.0
  0
LINE
  5
3668
330
1F
100
AcDbEntity
  8
SPOJOVACÍ
100
AcDbLine
 10
-2154.571427701154
 20
128.4062950270908
 30
0.0
 11
-2154.815958237012
 21
129.318895410915
 31
0.0
  0
LINE
  5
3669
330
1F
100
AcDbEntity
  8
SPOJOVACÍ
100
AcDbLine
 10
-2152.749701532696
 20
128.6051156731205
 30
0.0
 11
-2152.905667495638
 21
129.1871885710661
 31
0.0
  0
LINE
  5
366A
330
1F
100
AcDbEntity
  8
SPOJOVACÍ
100
AcDbLine
 10
-2147.226798519553
 20
128.8941422295024
 30
0.0
 11
-2147.226798519553
 21
142.9566422295024
 31
0.0
  0
LINE
  5
366B
330
1F
100
AcDbEntity
  8
SPOJOVACÍ
100
AcDbLine
 10
-2150.084690014657
 20
142.9566422295024
 30
0.0
 11
-2150.084690014657
 21
128.8941422295024
 31
0.0
  0
LINE
  5
366C
330
1F
100
AcDbEntity
  8
SPOJOVACÍ
100
AcDbLine
 10
-2150.084690014657
 20
142.9566422295024
 30
0.0
 11
-2150.084690014657
 21
128.8941422295024
 31
0.0
  0
LINE
  5
366D
330
1F
100
AcDbEntity
  8
SPOJOVACÍ
100
AcDbLine
 10
-2147.217423519553
 20
139.2066422295024
 30
0.0
 11
-2147.217423519553
 21
118.5816422295024
 31
0.0
  0
LINE
  5
366E
330
1F
100
AcDbEntity
  8
SPOJOVACÍ
100
AcDbLine
 10
-2165.554268602533
 20
127.4092436973305
 30
0.0
 11
-2166.401914044408
 21
130.5726995532122
 31
0.0
  0
LINE
  5
366F
330
1F
100
AcDbEntity
  8
SPOJOVACÍ
100
AcDbLine
 10
-2167.393552513805
 20
127.2759494395522
 30
0.0
 11
-2168.312731152221
 21
130.7063708193536
 31
0.0
  0
LINE
  5
3670
330
1F
100
AcDbEntity
  8
SPOJOVACÍ
100
AcDbLine
 10
-2163.717513813039
 20
127.5519767660866
 30
0.0
 11
-2164.488250402319
 21
130.4284048765321
 31
0.0
  0
LINE
  5
3671
330
1F
100
AcDbEntity
  8
SPOJOVACÍ
100
AcDbLine
 10
-2161.88328079366
 20
127.7041212090407
 30
0.0
 11
-2162.571723948128
 21
130.2734260396359
 31
0.0
  0
LINE
  5
3672
330
1F
100
AcDbEntity
  8
SPOJOVACÍ
100
AcDbLine
 10
-2160.051562432208
 20
127.8656504831287
 30
0.0
 11
-2160.652317992688
 21
130.1077007577791
 31
0.0
  0
LINE
  5
3673
330
1F
100
AcDbEntity
  8
SPOJOVACÍ
100
AcDbLine
 10
-2158.222351852852
 20
128.0365389274206
 30
0.0
 11
-2158.730015425947
 21
129.931165175366
 31
0.0
  0
LINE
  5
3674
330
1F
100
AcDbEntity
  8
SPOJOVACÍ
100
AcDbLine
 10
-2156.395642413147
 20
128.2167617519662
 30
0.0
 11
-2156.804798706988
 21
129.7437538288259
 31
0.0
  0
LINE
  5
3675
330
1F
100
AcDbEntity
  8
SPOJOVACÍ
100
AcDbLine
 10
-2169.235373141226
 20
127.152122335327
 30
0.0
 11
-2170.220717601506
 21
130.8294779240513
 31
0.0
  0
LINE
  5
3676
330
1F
100
AcDbEntity
  8
SPOJOVACÍ
100
AcDbLine
 10
-2182.169950235406
 20
126.4414543758785
 30
0.0
 11
-2183.498617408521
 21
131.4001077722982
 31
0.0
  0
LINE
  5
3677
330
1F
100
AcDbEntity
  8
SPOJOVACÍ
100
AcDbLine
 10
-2178.482810247456
 20
126.6760511346128
 30
0.0
 11
-2179.718718572362
 21
131.2885237966602
 31
0.0
  0
LINE
  5
3678
330
1F
100
AcDbEntity
  8
SPOJOVACÍ
100
AcDbLine
 10
-2176.628183386364
 20
126.7520847241321
 30
0.0
 11
-2177.824660745861
 21
131.2173990198798
 31
0.0
  0
LINE
  5
3679
330
1F
100
AcDbEntity
  8
SPOJOVACÍ
100
AcDbLine
 10
-2174.776134976148
 20
126.8377412233167
 30
0.0
 11
-2175.927845909443
 21
131.1359849420109
 31
0.0
  0
LINE
  5
367A
330
1F
100
AcDbEntity
  8
SPOJOVACÍ
100
AcDbLine
 10
-2180.340024685331
 20
126.6096745131262
 30
0.0
 11
-2181.610033028661
 21
131.3494101764749
 31
0.0
  0
LINE
  5
367B
330
1F
100
AcDbEntity
  8
SPOJOVACÍ
100
AcDbLine
 10
-2171.079738325233
 20
127.0377916455545
 30
0.0
 11
-2172.125888874848
 21
130.942078649085
 31
0.0
  0
LINE
  5
367C
330
1F
100
AcDbEntity
  8
SPOJOVACÍ
100
AcDbLine
 10
-2172.926656155813
 20
126.9329875624962
 30
0.0
 11
-2174.028260070251
 21
131.0442293409955
 31
0.0
  0
LINE
  5
367D
330
1F
100
AcDbEntity
  8
SPOJOVACÍ
100
AcDbLine
 10
-2184.426562432208
 20
127.8656504831287
 30
0.0
 11
-2184.917225822894
 21
129.6968311865898
 31
0.0
  0
LINE
  5
367E
330
1F
100
AcDbEntity
  8
SPOJOVACÍ
100
AcDbLine
 10
-2184.062254145115
 20
126.5060334460818
 30
0.0
 11
-2185.384484666659
 21
131.4406649317979
 31
0.0
  0
LINE
  5
367F
330
1F
100
AcDbEntity
  8
NOSNÉ KONSTRUKCE
100
AcDbLine
 10
-2068.576185729675
 20
107.307255592088
 30
0.0
 11
-2147.487730635456
 21
107.3072555920916
 31
0.0
  0
LINE
  5
3680
102
{ACAD_REACTORS
330
35C0
102
}
330
1F
100
AcDbEntity
  8
NOSNÉ KONSTRUKCE
100
AcDbLine
 10
-2028.464789516795
 20
102.0633481494978
 30
0.0
 11
-2156.693210229267
 21
102.0633481494896
 31
0.0
  0
LINE
  5
3681
102
{ACAD_REACTORS
330
35C0
102
}
330
1F
100
AcDbEntity
  8
NOSNÉ KONSTRUKCE
100
AcDbLine
 10
-2028.464789516795
 20
103.5007785599727
 30
0.0
 11
-2156.487730635458
 21
103.5007785599646
 31
0.0
  0
LINE
  5
3682
102
{ACAD_REACTORS
330
35C0
102
}
330
1F
100
AcDbEntity
  8
NOSNÉ KONSTRUKCE
100
AcDbLine
 10
-2081.693867684721
 20
99.782291053878
 30
0.0
 11
-2028.464789516797
 21
99.782291053878
 31
0.0
  0
LINE
  5
3683
102
{ACAD_REACTORS
330
35C0
102
}
330
1F
100
AcDbEntity
  8
NOSNÉ KONSTRUKCE
100
AcDbLine
 10
-2028.464789516795
 20
98.34486064340309
 30
0.0
 11
-2082.834789486101
 21
98.34486064340309
 31
0.0
  0
LWPOLYLINE
  5
3684
330
1F
100
AcDbEntity
  8
STAVBA OBRYS
  6
DASHED
100
AcDbPolyline
 90
        4
 70
     1
 43
0.0
 10
-2014.766203484082
 20
-25.93375730351681
 10
-2014.766203484082
 20
-31.30703862837026
 10
-2064.885775503105
 20
-31.30703862837026
 10
-2064.885775503105
 20
-25.93375730351681
  0
LINE
  5
3685
330
1F
100
AcDbEntity
  8
SPOJOVACÍ
100
AcDbLine
 10
-1969.021902936404
 20
34.38330413033714
 30
0.0
 11
-1974.705843394206
 21
32.86029687484233
 31
0.0
  0
LINE
  5
3686
330
1F
100
AcDbEntity
  8
SPOJOVACÍ
100
AcDbLine
 10
-1969.021902936404
 20
35.96533538033872
 30
0.0
 11
-1974.705843394206
 21
34.44232812484233
 31
0.0
  0
LINE
  5
3687
330
1F
100
AcDbEntity
  8
SPOJOVACÍ
100
AcDbLine
 10
-1969.021902936404
 20
37.54736663033781
 30
0.0
 11
-1974.705843394206
 21
36.02435937484233
 31
0.0
  0
LINE
  5
3688
330
1F
100
AcDbEntity
  8
SPOJOVACÍ
100
AcDbLine
 10
-1969.021902936404
 20
32.80127288033714
 30
0.0
 11
-1974.705843394206
 21
31.27826562484324
 31
0.0
  0
LINE
  5
3689
330
1F
100
AcDbEntity
  8
SPOJOVACÍ
100
AcDbLine
 10
-1969.021902936404
 20
31.21924163033622
 30
0.0
 11
-1974.705843394206
 21
29.69623437484392
 31
0.0
  0
LINE
  5
368A
330
1F
100
AcDbEntity
  8
SPOJOVACÍ
100
AcDbLine
 10
-1969.021902936404
 20
29.63721038033531
 30
0.0
 11
-1974.705843394206
 21
28.11420312484392
 31
0.0
  0
LINE
  5
368B
330
1F
100
AcDbEntity
  8
SPOJOVACÍ
100
AcDbLine
 10
-1969.021902936404
 20
28.05517913033781
 30
0.0
 11
-1974.705843394206
 21
26.53217187484233
 31
0.0
  0
LINE
  5
368C
330
1F
100
AcDbEntity
  8
SPOJOVACÍ
100
AcDbLine
 10
-1969.021902936404
 20
24.89111663033714
 30
0.0
 11
-1974.705843394206
 21
23.36810937484392
 31
0.0
  0
LINE
  5
368D
330
1F
100
AcDbEntity
  8
SPOJOVACÍ
100
AcDbLine
 10
-1969.021902936404
 20
26.47314788033714
 30
0.0
 11
-1974.705843394206
 21
24.95014062484392
 31
0.0
  0
LINE
  5
368E
330
1F
100
AcDbEntity
  8
SPOJOVACÍ
100
AcDbLine
 10
-1969.021902936404
 20
23.30908538034031
 30
0.0
 11
-1974.705843394206
 21
21.78607812484392
 31
0.0
  0
LINE
  5
368F
330
1F
100
AcDbEntity
  8
SPOJOVACÍ
100
AcDbLine
 10
-1969.021902936404
 20
21.72705413033872
 30
0.0
 11
-1974.705843394206
 21
20.20404687484392
 31
0.0
  0
LINE
  5
3690
330
1F
100
AcDbEntity
  8
SPOJOVACÍ
100
AcDbLine
 10
-1969.021902936404
 20
20.14502288033872
 30
0.0
 11
-1974.705843394206
 21
18.62201562484574
 31
0.0
  0
LINE
  5
3691
102
{ACAD_REACTORS
330
359C
102
}
330
1F
100
AcDbEntity
  8
SPOJOVACÍ
100
AcDbLine
 10
-1974.705843394206
 20
14.03472193197831
 30
0.0
 11
-1974.705843394206
 21
42.80171170483913
 31
0.0
  0
LINE
  5
3692
102
{ACAD_REACTORS
330
359C
102
}
330
1F
100
AcDbEntity
  8
SPOJOVACÍ
100
AcDbLine
 10
-1969.021902936404
 20
14.03472193197831
 30
0.0
 11
-1969.021902936404
 21
42.80171170483913
 31
0.0
  0
LINE
  5
3693
330
1F
100
AcDbEntity
  8
SPOJOVACÍ
100
AcDbLine
 10
-1969.021902936404
 20
18.56299163033781
 30
0.0
 11
-1974.705843394206
 21
17.03998437484574
 31
0.0
  0
LINE
  5
3694
330
1F
100
AcDbEntity
  8
SPOJOVACÍ
100
AcDbLine
 10
-1969.021902936404
 20
16.98096038033781
 30
0.0
 11
-1974.705843394206
 21
15.45795312484642
 31
0.0
  0
LINE
  5
3695
330
1F
100
AcDbEntity
  8
SPOJOVACÍ
100
AcDbLine
 10
-1969.021902936404
 20
15.39892913033941
 30
0.0
 11
-1974.705843394206
 21
13.87592187484392
 31
0.0
  0
LINE
  5
3696
330
1F
100
AcDbEntity
  8
SPOJOVACÍ
100
AcDbLine
 10
-1969.021902936404
 20
13.81689788033872
 30
0.0
 11
-1973.02938494427
 21
12.74309631264964
 31
0.0
  0
LINE
  5
3697
330
1F
100
AcDbEntity
  8
SPOJOVACÍ
100
AcDbLine
 10
-1971.863873165305
 20
11.84512900937534
 30
0.0
 11
-1969.021902936404
 21
14.03472193197831
 31
0.0
  0
LINE
  5
3698
330
1F
100
AcDbEntity
  8
SPOJOVACÍ
100
AcDbLine
 10
-1971.863873165305
 20
11.84512900937534
 30
0.0
 11
-1974.705843394206
 21
14.03472193197831
 31
0.0
  0
ARC
  5
3699
330
1F
100
AcDbEntity
  8
SPOJOVACÍ
100
AcDbCircle
 10
-1971.863873165305
 20
45.77258008857007
 30
0.0
 40
3.392730367372068
100
AcDbArc
 50
45.61706766743011
 51
134.3829323325698
  0
LINE
  5
369A
330
1F
100
AcDbEntity
  8
SPOJOVACÍ
100
AcDbLine
 10
-1976.135357540305
 20
49.1465190027825
 30
0.0
 11
-1967.592388790305
 21
49.1465190027825
 31
0.0
  0
ARC
  5
369B
330
1F
100
AcDbEntity
  8
SPOJOVACÍ
100
AcDbCircle
 10
-1968.541607540305
 20
48.1973002527825
 30
0.0
 40
0.94921875
100
AcDbArc
 50
90.0
 51
180.0
  0
ARC
  5
369C
330
1F
100
AcDbEntity
  8
SPOJOVACÍ
100
AcDbCircle
 10
-1967.592388790305
 20
48.1973002527825
 30
0.0
 40
0.94921875
100
AcDbArc
 50
0.0
 51
90.0
  0
ARC
  5
369D
330
1F
100
AcDbEntity
  8
SPOJOVACÍ
100
AcDbCircle
 10
-1976.135357540305
 20
48.1973002527825
 30
0.0
 40
0.94921875
100
AcDbArc
 50
90.0
 51
180.0
  0
ARC
  5
369E
330
1F
100
AcDbEntity
  8
SPOJOVACÍ
100
AcDbCircle
 10
-1975.186138790305
 20
48.1973002527825
 30
0.0
 40
0.94921875
100
AcDbArc
 50
0.0
 51
90.0
  0
LINE
  5
369F
330
1F
100
AcDbEntity
  8
SPOJOVACÍ
100
AcDbLine
 10
-1969.490826290305
 20
44.48853156331574
 30
0.0
 11
-1969.490826290305
 21
48.1973002527825
 31
0.0
  0
LINE
  5
36A0
330
1F
100
AcDbEntity
  8
SPOJOVACÍ
100
AcDbLine
 10
-1966.643170040305
 20
48.1973002527825
 30
0.0
 11
-1966.643170040305
 21
44.48853156331574
 31
0.0
  0
LINE
  5
36A1
330
1F
100
AcDbEntity
  8
SPOJOVACÍ
100
AcDbLine
 10
-1977.084576290305
 20
44.48853156331574
 30
0.0
 11
-1977.084576290305
 21
48.1973002527825
 31
0.0
  0
LINE
  5
36A2
330
1F
100
AcDbEntity
  8
SPOJOVACÍ
100
AcDbLine
 10
-1974.236920040305
 20
44.48853156331574
 30
0.0
 11
-1974.236920040305
 21
48.1973002527825
 31
0.0
  0
LINE
  5
36A3
330
1F
100
AcDbEntity
  8
SPOJOVACÍ
100
AcDbLine
 10
-1971.863873165305
 20
44.48853156331574
 30
0.0
 11
-1978.983013790305
 21
44.48853156331574
 31
0.0
  0
HATCH
  5
36A4
330
1F
100
AcDbEntity
  8
SPOJOVACÍ
100
AcDbHatch
 10
0.0
 20
0.0
 30
0.0
210
0.0
220
0.0
230
1.0
  2
ANSI37
 70
     0
 71
     0
 91
        1
 92
        7
 72
     0
 73
     1
 93
        6
 10
-1978.983013790305
 20
42.80171170483913
 10
-1978.983013790305
 20
44.48853156331574
 10
-1971.863873165305
 20
44.48853156331574
 10
-1964.744732540305
 20
44.48853156331574
 10
-1964.744732540305
 20
42.80171170483913
 10
-1971.863873165305
 20
42.80171170483913
 97
        0
 75
     0
 76
     1
 52
90.0
 41
0.9
 77
     0
 78
     2
 53
225.0
 43
-1520.969942730188
 44
376.0734869187981
 45
-2.020557627240559
 46
2.020557627240559
 79
     0
 53
135.0
 43
-1520.969942730188
 44
376.0734869187981
 45
2.020557627240559
 46
2.020557627240559
 79
     0
 47
0.1350114543121608
 98
        1
 10
-1971.89123918311
 20
43.88980119718621
  0
LINE
  5
36A5
330
1F
100
AcDbEntity
  8
SPOJOVACÍ
100
AcDbLine
 10
-1978.983013790305
 20
42.80171170483913
 30
0.0
 11
-1971.863873165305
 21
42.80171170483913
 31
0.0
  0
LINE
  5
36A6
330
1F
100
AcDbEntity
  8
SPOJOVACÍ
100
AcDbLine
 10
-1978.983013790305
 20
42.80171170483913
 30
0.0
 11
-1978.983013790305
 21
44.48853156331574
 31
0.0
  0
LINE
  5
36A7
330
1F
100
AcDbEntity
  8
SPOJOVACÍ
100
AcDbLine
 10
-1969.021902936404
 20
40.71142913033532
 30
0.0
 11
-1974.705843394206
 21
39.18842187484392
 31
0.0
  0
LINE
  5
36A8
330
1F
100
AcDbEntity
  8
SPOJOVACÍ
100
AcDbLine
 10
-1975.69984134237
 20
44.48853156331574
 30
0.0
 11
-1964.744732540305
 21
44.48853156331574
 31
0.0
  0
LINE
  5
36A9
330
1F
100
AcDbEntity
  8
SPOJOVACÍ
100
AcDbLine
 10
-1964.744732540305
 20
44.48853156331574
 30
0.0
 11
-1964.744732540305
 21
42.80171170483913
 31
0.0
  0
LINE
  5
36AA
330
1F
100
AcDbEntity
  8
SPOJOVACÍ
100
AcDbLine
 10
-1977.084576290305
 20
43.67225523479328
 30
0.0
 11
-1977.084576290305
 21
43.67700132854269
 31
0.0
  0
LINE
  5
36AB
330
1F
100
AcDbEntity
  8
SPOJOVACÍ
100
AcDbLine
 10
-1971.863873165305
 20
42.80171170483913
 30
0.0
 11
-1964.744732540305
 21
42.80171170483913
 31
0.0
  0
LINE
  5
36AC
330
1F
100
AcDbEntity
  8
SPOJOVACÍ
100
AcDbLine
 10
-1969.021902936404
 20
39.12939788033714
 30
0.0
 11
-1974.705843394206
 21
37.60639062484324
 31
0.0
  0
LINE
  5
36AD
330
1F
100
AcDbEntity
  8
NOSNÉ KONSTRUKCE
100
AcDbLine
 10
-1978.831460859329
 20
27.87458801283946
 30
0.0
 11
-1967.062039364926
 21
27.87458801283946
 31
0.0
  0
LINE
  5
36AE
330
1F
100
AcDbEntity
  8
NOSNÉ KONSTRUKCE
100
AcDbLine
 10
-1967.062039364926
 20
27.87458801283946
 30
0.0
 11
-1967.062039364926
 21
25.49691222506089
 31
0.0
  0
LINE
  5
36AF
330
1F
100
AcDbEntity
  8
NOSNÉ KONSTRUKCE
100
AcDbLine
 10
-1978.831460859329
 20
25.49691222506089
 30
0.0
 11
-1978.831460859329
 21
27.87458801283946
 31
0.0
  0
LWPOLYLINE
  5
36B0
330
1F
100
AcDbEntity
  8
STAVBA OBRYS
  6
DASHED
100
AcDbPolyline
 90
        4
 70
     1
 43
0.0
 10
-2072.779198783894
 20
-5.256267656613545
 10
-2078.152480108748
 20
-5.256267656613545
 10
-2078.152480108748
 20
44.86330436240905
 10
-2072.779198783894
 20
44.86330436240905
  0
LINE
  5
36B1
330
1F
100
AcDbEntity
  8
SPOJOVACÍ
100
AcDbLine
 10
-2218.044306424998
 20
127.3720643446222
 30
0.0
 11
-2218.878366478274
 21
130.4848188400137
 31
0.0
  0
LINE
  5
36B2
330
1F
100
AcDbEntity
  8
SPOJOVACÍ
100
AcDbLine
 10
-2216.143552513805
 20
127.2759494395522
 30
0.0
 11
-2217.039543034253
 21
130.6198315849715
 31
0.0
  0
LINE
  5
36B3
330
1F
100
AcDbEntity
  8
SPOJOVACÍ
100
AcDbLine
 10
-2214.30426860253
 20
127.4092436973305
 30
0.0
 11
-2215.19818427329
 21
130.7453823982869
 31
0.0
  0
LINE
  5
36B4
330
1F
100
AcDbEntity
  8
SPOJOVACÍ
100
AcDbLine
 10
-2210.415911514394
 20
126.8928880148177
 30
0.0
 11
-2211.507829369894
 21
130.9679809292274
 31
0.0
  0
LINE
  5
36B5
330
1F
100
AcDbEntity
  8
SPOJOVACÍ
100
AcDbLine
 10
-2212.318790785383
 20
126.9969348706254
 30
0.0
 11
-2213.354282399953
 21
130.8614421870088
 31
0.0
  0
LINE
  5
36B6
330
1F
100
AcDbEntity
  8
SPOJOVACÍ
  6
DASHED
100
AcDbLine
 10
-2228.410146099889
 20
128.8941422295015
 30
0.0
 11
-2225.162550835698
 21
134.5191422295015
 31
0.0
  0
LINE
  5
36B7
330
1F
100
AcDbEntity
  8
SPOJOVACÍ
100
AcDbLine
 10
-2227.644049403014
 20
128.2108165572221
 30
0.0
 11
-2228.034709786586
 21
129.668780957214
 31
0.0
  0
LINE
  5
36B8
330
1F
100
AcDbEntity
  8
SPOJOVACÍ
100
AcDbLine
 10
-2233.438982343455
 20
128.8450149248246
 30
0.0
 11
-2233.498538559551
 21
129.0672817492068
 31
0.0
  0
LINE
  5
36B9
330
1F
100
AcDbEntity
  8
SPOJOVACÍ
100
AcDbLine
 10
-2231.50437140522
 20
128.6225438746405
 30
0.0
 11
-2231.679745799529
 21
129.2770500245564
 31
0.0
  0
LINE
  5
36BA
330
1F
100
AcDbEntity
  8
SPOJOVACÍ
100
AcDbLine
 10
-2229.572733419202
 20
128.411168033193
 30
0.0
 11
-2229.858471514676
 21
129.4775571231516
 31
0.0
  0
LINE
  5
36BB
330
1F
100
AcDbEntity
  8
SPOJOVACÍ
100
AcDbLine
 10
-2225.718300839325
 20
128.0214203391269
 30
0.0
 11
-2226.208454472212
 21
129.8506986005704
 31
0.0
  0
LINE
  5
36BC
330
1F
100
AcDbEntity
  8
SPOJOVACÍ
100
AcDbLine
 10
-2223.795469664687
 20
127.8429119651896
 30
0.0
 11
-2224.379699201233
 21
130.0232862788666
 31
0.0
  0
LINE
  5
36BD
330
1F
100
AcDbEntity
  8
SPOJOVACÍ
100
AcDbLine
 10
-2221.875538258741
 20
127.6752256753434
 30
0.0
 11
-2222.548437373333
 21
130.1865193593716
 31
0.0
  0
LINE
  5
36BE
330
1F
100
AcDbEntity
  8
SPOJOVACÍ
100
AcDbLine
 10
-2219.958489433834
 20
127.5182973243872
 30
0.0
 11
-2220.72414237788
 21
130.3757530125353
 31
0.0
  0
LINE
  5
36BF
330
1F
100
AcDbEntity
  8
SPOJOVACÍ
  6
DASHED
100
AcDbLine
 10
-2228.410146099889
 20
128.894142229501
 30
0.0
 11
-2225.162550835698
 21
123.269142229501
 31
0.0
  0
LINE
  5
36C0
330
1F
100
AcDbEntity
  8
SPOJOVACÍ
100
AcDbLine
 10
-2199.056691826686
 20
126.4852745910998
 30
0.0
 11
-2200.375054114595
 21
131.4054696323623
 31
0.0
  0
LINE
  5
36C1
330
1F
100
AcDbEntity
  8
SPOJOVACÍ
100
AcDbLine
 10
-2201.003183386364
 20
126.7520847241321
 30
0.0
 11
-2202.236997427089
 21
131.3567414112012
 31
0.0
  0
LINE
  5
36C2
330
1F
100
AcDbEntity
  8
SPOJOVACÍ
100
AcDbLine
 10
-2193.413802130185
 20
126.4185093348251
 30
0.0
 11
-2194.773494636415
 21
131.4929508507507
 31
0.0
  0
LINE
  5
36C3
330
1F
100
AcDbEntity
  8
SPOJOVACÍ
100
AcDbLine
 10
-2206.618502569582
 20
126.7159554240456
 30
0.0
 11
-2207.807236395912
 21
131.1523704605797
 31
0.0
  0
LINE
  5
36C4
330
1F
100
AcDbEntity
  8
SPOJOVACÍ
100
AcDbLine
 10
-2204.715024685331
 20
126.6096745131262
 30
0.0
 11
-2205.953079085614
 21
131.2301564375197
 31
0.0
  0
LINE
  5
36C5
330
1F
100
AcDbEntity
  8
SPOJOVACÍ
100
AcDbLine
 10
-2202.857810247456
 20
126.6760511346128
 30
0.0
 11
-2203.955243181194
 21
130.7717266012282
 31
0.0
  0
LINE
  5
36C6
330
1F
100
AcDbEntity
  8
SPOJOVACÍ
100
AcDbLine
 10
-2195.292078970312
 20
126.4307386686673
 30
0.0
 11
-2196.643313040143
 21
131.4736128701933
 31
0.0
  0
LINE
  5
36C7
330
1F
100
AcDbEntity
  8
SPOJOVACÍ
100
AcDbLine
 10
-2197.173038190997
 20
126.4529787830401
 30
0.0
 11
-2198.51049604479
 21
131.4444394463807
 31
0.0
  0
LINE
  5
36C8
330
1F
100
AcDbEntity
  8
SPOJOVACÍ
100
AcDbLine
 10
-2208.51582024907
 20
126.7992461377994
 30
0.0
 11
-2209.651900026053
 21
131.0391535869475
 31
0.0
  0
LINE
  5
36C9
330
1F
100
AcDbEntity
  8
SPOJOVACÍ
  6
DASHED
100
AcDbLine
 10
-2237.785146099889
 20
128.8941422295015
 30
0.0
 11
-2233.996284958332
 21
135.4566422295015
 31
0.0
  0
LINE
  5
36CA
330
1F
100
AcDbEntity
  8
SPOJOVACÍ
  6
DASHED
100
AcDbLine
 10
-2237.785146099889
 20
128.8941422295015
 30
0.0
 11
-2233.996284958332
 21
122.3316422295015
 31
0.0
  0
LINE
  5
36CB
330
1F
100
AcDbEntity
  8
STAVBA OBRYS
  6
DASHED
100
AcDbLine
 10
-2242.311672482929
 20
19.80351835289821
 30
0.0
 11
-2238.522811341373
 21
26.36601835289821
 31
0.0
  0
LINE
  5
36CC
330
1F
100
AcDbEntity
  8
STAVBA OBRYS
  6
DASHED
100
AcDbLine
 10
-2242.311672482929
 20
19.80351835289821
 30
0.0
 11
-2238.522811341373
 21
13.24101835289821
 31
0.0
  0
LINE
  5
36CD
330
1F
100
AcDbEntity
  8
STAVBA OBRYS
  6
DASHDOT2
100
AcDbLine
 10
-2044.394235607073
 20
19.80351835289911
 30
0.0
 11
-2257.170724673172
 21
19.80351835289821
 31
0.0
  0
LINE
  5
36CE
102
{ACAD_REACTORS
330
35C0
102
}
330
1F
100
AcDbEntity
  8
SPOJOVACÍ
  6
DASHDOT2
100
AcDbLine
 10
-2137.724088546224
 20
128.8941422295024
 30
0.0
 11
-2252.644198290131
 21
128.8941422295015
 31
0.0
  0
LINE
  5
36CF
330
1F
100
AcDbEntity
  8
SPOJOVACÍ
100
AcDbLine
 10
-2191.538195950936
 20
126.4162470430728
 30
0.0
 11
-2192.901030077661
 21
131.5024132463049
 31
0.0
  0
LINE
  5
36D0
102
{ACAD_REACTORS
330
35C0
102
}
330
1F
100
AcDbEntity
  8
SPOJOVACÍ
  6
DASHED
100
AcDbLine
 10
-2233.996284958332
 20
135.4566422295015
 30
0.0
 11
-2152.897190014658
 21
135.4566422295024
 31
0.0
  0
LINE
  5
36D1
102
{ACAD_REACTORS
330
35C0
102
}
330
1F
100
AcDbEntity
  8
SPOJOVACÍ
  6
DASHED
100
AcDbLine
 10
-2233.996284958332
 20
122.3316422295015
 30
0.0
 11
-2152.897190014658
 21
122.3316422295024
 31
0.0
  0
LINE
  5
36D2
330
1F
100
AcDbEntity
  8
STAVBA OBRYS
  6
DASHED
100
AcDbLine
 10
-2238.522811341373
 20
26.36601835289821
 30
0.0
 11
-2078.152480108748
 21
26.36601835290003
 31
0.0
  0
LINE
  5
36D3
330
1F
100
AcDbEntity
  8
STAVBA OBRYS
  6
DASHED
100
AcDbLine
 10
-2238.522811341373
 20
13.24101835289821
 30
0.0
 11
-2078.152480108748
 21
13.24101835290002
 31
0.0
  0
SOLID
  5
36D4
330
1F
100
AcDbEntity
  8
CETRIS
100
AcDbTrace
 10
-2003.232054412634
 20
364.8744249515111
 30
0.0
 11
-2015.259237894611
 21
364.8744249515111
 31
0.0
 12
-2003.258249072378
 22
48.6723332389638
 32
0.0
 13
-2015.259237894603
 23
48.6723332389638
 33
0.0
  0
LINE
  5
36D5
102
{ACAD_REACTORS
330
35C0
102
}
330
1F
100
AcDbEntity
  8
STAVBA OBRYS
100
AcDbLine
 10
-2072.940911611335
 20
357.224424951511
 30
0.0
 11
-2072.940911611335
 21
-26.33122538758675
 31
0.0
  0
LINE
  5
36D6
102
{ACAD_REACTORS
330
35C0
102
}
330
1F
100
AcDbEntity
  8
STAVBA OBRYS
  6
IZOLACE
 48
4.0
100
AcDbLine
 10
-2114.958430703812
 20
-26.33122538758698
 30
0.0
 11
-2114.393366524359
 21
357.224424951511
 31
0.0
  0
LINE
  5
36D7
330
1F
100
AcDbEntity
  8
POPIS
100
AcDbLine
 10
-2114.589092755356
 20
107.3072555920903
 30
0.0
 11
-1985.096356089809
 21
225.9839933338994
 31
0.0
  0
LINE
  5
36D8
102
{ACAD_REACTORS
330
35C0
102
}
330
1F
100
AcDbEntity
  8
POPIS
100
AcDbLine
 10
-2185.384484666657
 20
131.4406649317979
 30
0.0
 11
-1985.096356089812
 21
263.3690057264434
 31
0.0
  0
SOLID
  5
36D9
330
1F
100
AcDbEntity
  8
CETRIS
100
AcDbTrace
 10
-1671.535956478705
 20
30.49581633307957
 30
0.0
 11
-1672.251094356189
 21
42.51163896499815
 31
0.0
 12
-1996.863873165305
 22
30.51163896499429
 32
0.0
 13
-1996.863873165305
 23
42.51163896499429
 33
0.0
  0
LINE
  5
36DA
102
{ACAD_REACTORS
330
35C3
102
}
330
1F
100
AcDbEntity
  8
STAVBA OBRYS
  6
IZOLACE
 48
4.0
100
AcDbLine
 10
-1665.759908464307
 20
-68.04326208681414
 30
0.0
 11
-2156.450611715642
 21
-67.32036375549729
 31
0.0
  0
LINE
  5
36DB
102
{ACAD_REACTORS
330
35C3
330
35C2
330
35C1
102
}
330
1F
100
AcDbEntity
  8
STAVBA OBRYS
100
AcDbLine
 10
-2156.450611715642
 20
-26.33122538758675
 30
0.0
 11
-1668.242456543151
 21
-26.33122538758675
 31
0.0
  0
LWPOLYLINE
  5
36DC
330
1F
100
AcDbEntity
  8
NOSNÉ KONSTRUKCE
100
AcDbPolyline
 90
        3
 70
     0
 43
0.0
 10
-1978.831460859329
 20
25.49691222506089
 10
-1978.831460859329
 20
22.97082479305982
 10
-1947.478744615819
 20
22.97082479305982
  0
LINE
  5
36DD
330
1F
100
AcDbEntity
  8
NOSNÉ KONSTRUKCE
100
AcDbLine
 10
-1926.219289254056
 20
25.49691222506089
 30
0.0
 11
-1967.062039364926
 21
25.49691222506089
 31
0.0
  0
LINE
  5
36DF
330
1F
100
AcDbEntity
  8
POPIS
100
AcDbLine
 10
-1985.096356089812
 20
263.3690057264434
 30
0.0
 11
-1850.614081260325
 21
263.369005726443
 31
0.0
  0
LINE
  5
36E0
330
1F
100
AcDbEntity
  8
POPIS
100
AcDbLine
 10
-1985.096356089812
 20
225.9839933338994
 30
0.0
 11
-1850.614081260325
 21
225.983993333899
 31
0.0
  0
LINE
  5
36E1
330
1F
100
AcDbEntity
  8
POPIS
100
AcDbLine
 10
-1985.096356089812
 20
189.5012446397163
 30
0.0
 11
-1850.614081260323
 21
189.5012446397158
 31
0.0
  0
LINE
  5
36E2
330
1F
100
AcDbEntity
  8
POPIS
100
AcDbLine
 10
-2042.186426227829
 20
290.9869360683278
 30
0.0
 11
-1850.614081260325
 21
290.9869360683273
 31
0.0
  0
LINE
  5
36E3
330
1F
100
AcDbEntity
  8
POPIS
100
AcDbLine
 10
-2004.478933293044
 20
325.1543265489003
 30
0.0
 11
-1850.614081260325
 21
325.1527208668753
 31
0.0
  0
ARC
  5
36E4
102
{ACAD_REACTORS
330
35C3
102
}
330
1F
100
AcDbEntity
  8
NOSNÉ KONSTRUKCE
100
AcDbCircle
 10
-1896.305721999703
 20
-107.7266929007287
 30
0.0
 40
3.0
100
AcDbArc
 50
0.0
 51
90.0
  0
LINE
  5
36E5
330
1F
100
AcDbEntity
  8
SPOJOVACÍ
100
AcDbLine
 10
-1922.46982972761
 20
-101.4657607848225
 30
0.0
 11
-1900.830108637114
 21
-101.4657607848225
 31
0.0
  0
LINE
  5
36E6
330
1F
100
AcDbEntity
  8
SPOJOVACÍ
100
AcDbLine
 10
-1919.580108637114
 20
-101.4657607848225
 30
0.0
 11
-1919.580108637114
 21
-96.77826078482258
 31
0.0
  0
LINE
  5
36E7
330
1F
100
AcDbEntity
  8
SPOJOVACÍ
100
AcDbLine
 10
-1914.60358208073
 20
-106.9886637979666
 30
0.0
 11
-1915.185654978676
 21
-107.1446297609068
 31
0.0
  0
LINE
  5
36E8
330
1F
100
AcDbEntity
  8
SPOJOVACÍ
100
AcDbLine
 10
-1914.892608637114
 20
-104.3236522799275
 30
0.0
 11
-1900.830108637114
 21
-104.3236522799275
 31
0.0
  0
LINE
  5
36E9
330
1F
100
AcDbEntity
  8
SPOJOVACÍ
100
AcDbLine
 10
-1914.892608637114
 20
-104.3236522799275
 30
0.0
 11
-1900.830108637114
 21
-104.3236522799275
 31
0.0
  0
LINE
  5
36EA
330
1F
100
AcDbEntity
  8
SPOJOVACÍ
100
AcDbLine
 10
-1900.830108637114
 20
-101.4657607848225
 30
0.0
 11
-1900.830108637114
 21
-104.3236522799275
 31
0.0
  0
LINE
  5
36EB
330
1F
100
AcDbEntity
  8
SPOJOVACÍ
100
AcDbLine
 10
-1904.580108637114
 20
-96.77826078482258
 30
0.0
 11
-1904.580108637114
 21
-101.4657607848225
 31
0.0
  0
LINE
  5
36EC
330
1F
100
AcDbEntity
  8
SPOJOVACÍ
100
AcDbLine
 10
-1910.205108637114
 20
-101.4657607848225
 30
0.0
 11
-1910.205108637114
 21
-96.77826078482258
 31
0.0
  0
LINE
  5
36ED
330
1F
100
AcDbEntity
  8
SPOJOVACÍ
100
AcDbLine
 10
-1925.205108637115
 20
-101.4657607848225
 30
0.0
 11
-1925.205108637115
 21
-96.77826078482258
 31
0.0
  0
LINE
  5
36EE
330
1F
100
AcDbEntity
  8
SPOJOVACÍ
100
AcDbLine
 10
-1925.205108637115
 20
-101.4657607848225
 30
0.0
 11
-1925.205108637115
 21
-101.456385784822
 31
0.0
  0
LINE
  5
36EF
330
1F
100
AcDbEntity
  8
SPOJOVACÍ
100
AcDbLine
 10
-1928.955108637114
 20
-104.3236522799275
 30
0.0
 11
-1928.955108637114
 21
-101.4657607848225
 31
0.0
  0
ARC
  5
36F0
330
1F
100
AcDbEntity
  8
NOSNÉ KONSTRUKCE
100
AcDbCircle
 10
-1937.285972306647
 20
-101.726692900726
 30
0.0
 40
3.0
100
AcDbArc
 50
180.0
 51
270.0
  0
LINE
  5
36F1
330
1F
100
AcDbEntity
  8
SPOJOVACÍ
100
AcDbLine
 10
-1925.205108637115
 20
-101.456385784822
 30
0.0
 11
-1904.580108637114
 21
-101.456385784822
 31
0.0
  0
LINE
  5
36F2
330
1F
100
AcDbEntity
  8
SPOJOVACÍ
100
AcDbLine
 10
-1928.955108637114
 20
-104.3236522799275
 30
0.0
 11
-1914.892608637114
 21
-104.3236522799275
 31
0.0
  0
LINE
  5
36F3
330
1F
100
AcDbEntity
  8
SPOJOVACÍ
100
AcDbLine
 10
-1928.955108637114
 20
-104.3236522799275
 30
0.0
 11
-1914.892608637114
 21
-104.3236522799275
 31
0.0
  0
LINE
  5
36F4
330
1F
100
AcDbEntity
  8
SPOJOVACÍ
100
AcDbLine
 10
-1914.892608637114
 20
-101.4657607848225
 30
0.0
 11
-1928.955108637114
 21
-101.4657607848225
 31
0.0
  0
LINE
  5
36F5
330
1F
100
AcDbEntity
  8
NOSNÉ KONSTRUKCE
100
AcDbLine
 10
-1896.305721999703
 20
-104.726692900726
 30
0.0
 11
-1937.285972306647
 21
-104.7266929007287
 31
0.0
  0
LINE
  5
36F6
330
1F
100
AcDbEntity
  8
SPOJOVACÍ
100
AcDbLine
 10
-1912.439920783491
 20
-140.1589125006753
 30
0.0
 11
-1917.469595169885
 21
-141.5066096907016
 31
0.0
  0
LINE
  5
36F7
330
1F
100
AcDbEntity
  8
SPOJOVACÍ
100
AcDbLine
 10
-1912.504499853693
 20
-138.3012164103843
 30
0.0
 11
-1917.439131339408
 21
-139.6234469319274
 31
0.0
  0
LINE
  5
36F8
330
1F
100
AcDbEntity
  8
SPOJOVACÍ
100
AcDbLine
 10
-1913.86411689074
 20
-138.6655246974773
 30
0.0
 11
-1915.695297594201
 21
-139.1561880881649
 31
0.0
  0
LINE
  5
36F9
330
1F
100
AcDbEntity
  8
SPOJOVACÍ
100
AcDbLine
 10
-1913.150588742938
 20
-123.4743354064971
 30
0.0
 11
-1916.827944331661
 21
-124.4596798667757
 31
0.0
  0
LINE
  5
36FA
330
1F
100
AcDbEntity
  8
SPOJOVACÍ
100
AcDbLine
 10
-1912.931453970109
 20
-127.1656184210828
 30
0.0
 11
-1917.042695748606
 21
-128.2672223355207
 31
0.0
  0
LINE
  5
36FB
330
1F
100
AcDbEntity
  8
SPOJOVACÍ
100
AcDbLine
 10
-1913.036258053166
 20
-125.3187005905024
 30
0.0
 11
-1916.940545056696
 21
-126.3648511401174
 31
0.0
  0
LINE
  5
36FC
330
1F
100
AcDbEntity
  8
SPOJOVACÍ
100
AcDbLine
 10
-1912.608140920737
 20
-134.5789869506011
 30
0.0
 11
-1917.347876584085
 21
-135.8489952939321
 31
0.0
  0
LINE
  5
36FD
330
1F
100
AcDbEntity
  8
SPOJOVACÍ
100
AcDbLine
 10
-1912.836207630928
 20
-129.015097241418
 30
0.0
 11
-1917.134451349623
 21
-130.1668081747125
 31
0.0
  0
LINE
  5
36FE
330
1F
100
AcDbEntity
  8
SPOJOVACÍ
100
AcDbLine
 10
-1912.750551131744
 20
-130.8671456516335
 30
0.0
 11
-1917.215865427491
 21
-132.0636230111308
 31
0.0
  0
LINE
  5
36FF
330
1F
100
AcDbEntity
  8
SPOJOVACÍ
100
AcDbLine
 10
-1912.674517542224
 20
-132.7217725127252
 30
0.0
 11
-1917.286990204272
 21
-133.9576808376318
 31
0.0
  0
LINE
  5
3700
330
1F
100
AcDbEntity
  8
SPOJOVACÍ
100
AcDbLine
 10
-1912.439920783491
 20
-136.4089125006753
 30
0.0
 11
-1917.398574179909
 21
-137.737579673791
 31
0.0
  0
LINE
  5
3701
330
1F
100
AcDbEntity
  8
SPOJOVACÍ
100
AcDbLine
 10
-1913.702587616652
 20
-116.12224305893
 30
0.0
 11
-1916.271892447247
 21
-116.8106862133986
 31
0.0
  0
LINE
  5
3702
330
1F
100
AcDbEntity
  8
SPOJOVACÍ
100
AcDbLine
 10
-1913.550443173698
 20
-117.9564760783091
 30
0.0
 11
-1916.426871284143
 21
-118.7272126675893
 31
0.0
  0
LINE
  5
3703
330
1F
100
AcDbEntity
  8
SPOJOVACÍ
100
AcDbLine
 10
-1913.274415847162
 20
-121.6325147790753
 30
0.0
 11
-1916.704837226964
 21
-122.5516934174907
 31
0.0
  0
LINE
  5
3704
330
1F
100
AcDbEntity
  8
SPOJOVACÍ
100
AcDbLine
 10
-1913.407710104941
 20
-119.7932308678023
 30
0.0
 11
-1916.571165960825
 21
-120.6408763096774
 31
0.0
  0
LINE
  5
3705
330
1F
100
AcDbEntity
  8
SPOJOVACÍ
100
AcDbLine
 10
-1913.370530752233
 20
-172.2832686902679
 30
0.0
 11
-1916.483285247625
 21
-173.1173287435435
 31
0.0
  0
LINE
  5
3706
330
1F
100
AcDbEntity
  8
SPOJOVACÍ
100
AcDbLine
 10
-1913.407710104941
 20
-168.5432308678004
 30
0.0
 11
-1916.743848805898
 21
-169.4371465385597
 31
0.0
  0
LINE
  5
3707
330
1F
100
AcDbEntity
  8
SPOJOVACÍ
100
AcDbLine
 10
-1913.274415847162
 20
-170.3825147790735
 30
0.0
 11
-1916.618297992584
 21
-171.2785052995227
 31
0.0
  0
LINE
  5
3708
330
1F
100
AcDbEntity
  8
SPOJOVACÍ
100
AcDbLine
 10
-1913.516763731998
 20
-174.1974516991026
 30
0.0
 11
-1916.374219420147
 21
-174.96310464315
 31
0.0
  0
LINE
  5
3709
330
1F
100
AcDbEntity
  8
SPOJOVACÍ
100
AcDbLine
 10
-1913.673692082954
 20
-176.1145005240109
 30
0.0
 11
-1916.184985766983
 21
-176.7873996386029
 31
0.0
  0
LINE
  5
370A
330
1F
100
AcDbEntity
  8
SPOJOVACÍ
100
AcDbLine
 10
-1913.8413783728
 20
-178.034431929957
 30
0.0
 11
-1916.021752686477
 21
-178.6186614665034
 31
0.0
  0
LINE
  5
370B
330
1F
100
AcDbEntity
  8
SPOJOVACÍ
100
AcDbLine
 10
-1912.451445190651
 20
-151.4120004562669
 30
0.0
 11
-1917.442905853993
 21
-152.7494583100601
 31
0.0
  0
LINE
  5
370C
330
1F
100
AcDbEntity
  8
SPOJOVACÍ
100
AcDbLine
 10
-1912.429205076278
 20
-149.5310412355816
 30
0.0
 11
-1917.472079277803
 21
-150.8822753054114
 31
0.0
  0
LINE
  5
370D
330
1F
100
AcDbEntity
  8
SPOJOVACÍ
100
AcDbLine
 10
-1912.674517542224
 20
-157.0967725127252
 30
0.0
 11
-1916.770193008839
 21
-158.1942054464648
 31
0.0
  0
LINE
  5
370E
330
1F
100
AcDbEntity
  8
SPOJOVACÍ
100
AcDbLine
 10
-1912.608140920737
 20
-158.9539869506011
 30
0.0
 11
-1917.228622845131
 21
-160.1920413508837
 31
0.0
  0
LINE
  5
370F
330
1F
100
AcDbEntity
  8
SPOJOVACÍ
100
AcDbLine
 10
-1912.891354422429
 20
-164.6548737796642
 30
0.0
 11
-1916.96644733684
 21
-165.7467916351629
 31
0.0
  0
LINE
  5
3710
330
1F
100
AcDbEntity
  8
SPOJOVACÍ
100
AcDbLine
 10
-1912.797712545409
 20
-162.7547825143397
 30
0.0
 11
-1917.037619994559
 21
-163.8908622913227
 31
0.0
  0
LINE
  5
3711
330
1F
100
AcDbEntity
  8
SPOJOVACÍ
100
AcDbLine
 10
-1912.714421831658
 20
-160.8574648348526
 30
0.0
 11
-1917.150836868191
 21
-162.0461986611812
 31
0.0
  0
LINE
  5
3712
330
1F
100
AcDbEntity
  8
SPOJOVACÍ
100
AcDbLine
 10
-1912.422375615539
 20
-143.9042112870915
 30
0.0
 11
-1917.500425214603
 21
-145.2648705762863
 31
0.0
  0
LINE
  5
3713
330
1F
100
AcDbEntity
  8
SPOJOVACÍ
100
AcDbLine
 10
-1912.439920783491
 20
-142.0339125006753
 30
0.0
 11
-1917.490011562321
 21
-143.3870802465667
 31
0.0
  0
LINE
  5
3714
330
1F
100
AcDbEntity
  8
SPOJOVACÍ
100
AcDbLine
 10
-1913.550443173698
 20
-142.3314760783091
 30
0.0
 11
-1915.932976848519
 21
-142.9698740524159
 31
0.0
  0
LINE
  5
3715
330
1F
100
AcDbEntity
  8
SPOJOVACÍ
100
AcDbLine
 10
-1913.702587616652
 20
-140.49724305893
 30
0.0
 11
-1915.81556219242
 21
-141.0634128901351
 31
0.0
  0
LINE
  5
3716
330
1F
100
AcDbEntity
  8
SPOJOVACÍ
100
AcDbLine
 10
-1912.416975742436
 20
-147.6527643954546
 30
0.0
 11
-1917.491417258362
 21
-149.0124569016848
 31
0.0
  0
LINE
  5
3717
330
1F
100
AcDbEntity
  8
SPOJOVACÍ
100
AcDbLine
 10
-1912.414713450685
 20
-145.7771582162063
 30
0.0
 11
-1917.500879653916
 21
-147.1399923429321
 31
0.0
  0
LINE
  5
3718
330
1F
100
AcDbEntity
  8
SPOJOVACÍ
100
AcDbLine
 10
-1912.750551131744
 20
-155.2421456516335
 30
0.0
 11
-1917.355207818812
 21
-156.4759596923581
 31
0.0
  0
LINE
  5
3719
330
1F
100
AcDbEntity
  8
SPOJOVACÍ
100
AcDbLine
 10
-1912.483740998711
 20
-153.2956540919553
 30
0.0
 11
-1917.403936039973
 21
-154.614016379865
 31
0.0
  0
LINE
  5
371A
330
1F
100
AcDbEntity
  8
SPOJOVACÍ
100
AcDbLine
 10
-1912.995401278237
 20
-166.5577530506529
 30
0.0
 11
-1916.859908594619
 21
-167.5932446652218
 31
0.0
  0
LINE
  5
371B
102
{ACAD_REACTORS
330
35C3
102
}
330
1F
100
AcDbEntity
  8
NOSNÉ KONSTRUKCE
100
AcDbLine
 10
-1893.305721999703
 20
-107.7266929007287
 30
0.0
 11
-1893.305721999703
 21
-110.7266929007268
 31
0.0
  0
LINE
  5
371C
330
1F
100
AcDbEntity
  8
SPOJOVACÍ
100
AcDbLine
 10
-1914.215228159578
 20
-110.634604678416
 30
0.0
 11
-1915.742220236436
 21
-111.043760972258
 31
0.0
  0
LINE
  5
371D
330
1F
100
AcDbEntity
  8
SPOJOVACÍ
100
AcDbLine
 10
-1914.035005335031
 20
-112.4613141181212
 30
0.0
 11
-1915.929631582979
 21
-112.9689776912168
 31
0.0
  0
LINE
  5
371E
330
1F
100
AcDbEntity
  8
SPOJOVACÍ
100
AcDbLine
 10
-1913.86411689074
 20
-114.2905246974774
 30
0.0
 11
-1916.10616716539
 21
-114.8912802579593
 31
0.0
  0
LINE
  5
371F
330
1F
100
AcDbEntity
  8
SPOJOVACÍ
100
AcDbLine
 10
-1914.404761434702
 20
-108.8103899664242
 30
0.0
 11
-1915.317361818525
 21
-109.0549205022821
 31
0.0
  0
HATCH
  5
3720
330
1F
100
AcDbEntity
  8
NOSNÉ KONSTRUKCE
100
AcDbHatch
 10
0.0
 20
0.0
 30
0.0
210
0.0
220
0.0
230
1.0
  2
ANSI37
 70
     0
 71
     0
 91
        1
 92
        7
 72
     0
 73
     1
 93
        4
 10
-1944.092678983263
 20
-110.6524550610881
 10
-1944.092678983263
 20
-107.6524550610881
 10
-1893.305951644194
 20
-107.6524550610854
 10
-1893.305951644192
 20
-110.6524550610881
 97
        0
 75
     0
 76
     1
 52
90.0
 41
1.0
 77
     0
 78
     2
 53
225.0
 43
-1581.434138745597
 44
412.3150965047227
 45
-2.245064030267288
 46
2.245064030267287
 79
     0
 53
135.0
 43
-1581.434138745597
 44
412.3150965047227
 45
2.245064030267287
 46
2.245064030267288
 79
     0
 47
0.13614220447659
 98
        1
 10
-1926.229413695861
 20
-109.7396464092742
  0
HATCH
  5
3721
330
1F
100
AcDbEntity
  8
NOSNÉ KONSTRUKCE
100
AcDbHatch
 10
0.0
 20
0.0
 30
0.0
210
0.0
220
0.0
230
1.0
  2
ANSI37
 70
     0
 71
     0
 91
        1
 92
        7
 72
     0
 73
     1
 93
        4
 10
-1944.092678983263
 20
-110.6895739809085
 10
-1944.092678983263
 20
-107.6895739809085
 10
-1893.305951644194
 20
-107.6895739809058
 10
-1893.305951644192
 20
-110.6895739809085
 97
        0
 75
     0
 76
     1
 52
90.0
 41
1.0
 77
     0
 78
     2
 53
225.0
 43
-1581.434138745597
 44
412.2779775849023
 45
-2.245064030267288
 46
2.245064030267287
 79
     0
 53
135.0
 43
-1581.434138745597
 44
412.2779775849023
 45
2.245064030267287
 46
2.245064030267288
 79
     0
 47
0.13614220447659
 98
        1
 10
-1926.229413695861
 20
-109.7767653290945
  0
LINE
  5
3722
330
1F
100
AcDbEntity
  8
NOSNÉ KONSTRUKCE
100
AcDbLine
 10
-1893.305951644194
 20
-107.6524550610852
 30
0.0
 11
-1944.092678983267
 21
-107.6524550610879
 31
0.0
  0
LINE
  5
3723
102
{ACAD_REACTORS
330
35C3
102
}
330
1F
100
AcDbEntity
  8
NOSNÉ KONSTRUKCE
100
AcDbLine
 10
-1893.305951644194
 20
-107.6895739809056
 30
0.0
 11
-1944.092678983267
 21
-107.6895739809083
 31
0.0
  0
LINE
  5
3724
330
1F
100
AcDbEntity
  8
SPOJOVACÍ
100
AcDbLine
 10
-1914.019886746737
 20
-179.9572631045944
 30
0.0
 11
-1915.849165008182
 21
-180.4474167374815
 31
0.0
  0
LINE
  5
3725
330
1F
100
AcDbEntity
  8
SPOJOVACÍ
  6
DASHED
100
AcDbLine
 10
-1914.892608637113
 20
-182.6491083651585
 30
0.0
 11
-1920.517608637112
 21
-179.4015131009678
 31
0.0
  0
LINE
  5
3726
330
1F
100
AcDbEntity
  8
SPOJOVACÍ
  6
DASHED
100
AcDbLine
 10
-1914.892608637113
 20
-182.6491083651585
 30
0.0
 11
-1909.267608637113
 21
-179.4015131009678
 31
0.0
  0
LINE
  5
3727
330
1F
100
AcDbEntity
  8
SPOJOVACÍ
100
AcDbLine
 10
-1914.409634440803
 20
-183.8116956844728
 30
0.0
 11
-1915.476023530763
 21
-184.0974337799448
 31
0.0
  0
LINE
  5
3728
330
1F
100
AcDbEntity
  8
SPOJOVACÍ
100
AcDbLine
 10
-1914.209282964832
 20
-181.8830116682834
 30
0.0
 11
-1915.667247364826
 21
-182.2736720518546
 31
0.0
  0
LINE
  5
3729
330
1F
100
AcDbEntity
  8
SPOJOVACÍ
100
AcDbLine
 10
-1914.621010282252
 20
-185.7433336704884
 30
0.0
 11
-1915.275516432169
 21
-185.9187080647993
 31
0.0
  0
LINE
  5
372A
330
1F
100
AcDbEntity
  8
SPOJOVACÍ
100
AcDbLine
 10
-1914.843481332435
 20
-187.6779446087234
 30
0.0
 11
-1915.065748156818
 21
-187.7375008248204
 31
0.0
  0
LINE
  5
372B
102
{ACAD_REACTORS
330
35C3
102
}
330
1F
100
AcDbEntity
  8
SPOJOVACÍ
  6
DASHED
100
AcDbLine
 10
-1921.455108637113
 20
-188.235247223602
 30
0.0
 11
-1921.455108637115
 21
-107.1361522799284
 31
0.0
  0
LINE
  5
372C
330
1F
100
AcDbEntity
  8
SPOJOVACÍ
  6
DASHED
100
AcDbLine
 10
-1914.892608637113
 20
-192.0241083651585
 30
0.0
 11
-1921.455108637113
 21
-188.235247223602
 31
0.0
  0
LINE
  5
372D
330
1F
100
AcDbEntity
  8
SPOJOVACÍ
  6
DASHED
100
AcDbLine
 10
-1914.892608637113
 20
-192.0241083651585
 30
0.0
 11
-1908.330108637112
 21
-188.235247223602
 31
0.0
  0
LINE
  5
372E
102
{ACAD_REACTORS
330
35C3
102
}
330
1F
100
AcDbEntity
  8
SPOJOVACÍ
  6
DASHED
100
AcDbLine
 10
-1908.330108637112
 20
-188.235247223602
 30
0.0
 11
-1908.330108637114
 21
-107.1361522799284
 31
0.0
  0
LINE
  5
372F
102
{ACAD_REACTORS
330
35C3
102
}
330
1F
100
AcDbEntity
  8
STAVBA OBRYS
100
AcDbLine
 10
-1949.504769909684
 20
-110.7266929007259
 30
0.0
 11
-1663.219546555597
 21
-110.7266929007259
 31
0.0
  0
LINE
  5
3730
330
1F
100
AcDbEntity
  8
STAVBA OBRYS
100
AcDbLine
 10
-1935.518428203705
 20
-345.726692900726
 30
0.0
 11
-1649.233204849618
 21
-345.7266929007262
 31
0.0
  0
LINE
  5
3731
330
1F
100
AcDbEntity
  8
STAVBA OBRYS
  6
DASHED
100
AcDbLine
 10
-2039.825989493593
 20
-195.4662310025519
 30
0.0
 11
-2046.388489493593
 21
-191.6773698609954
 31
0.0
  0
LINE
  5
3732
330
1F
100
AcDbEntity
  8
STAVBA OBRYS
  6
DASHED
100
AcDbLine
 10
-2039.825989493593
 20
-195.4662310025519
 30
0.0
 11
-2033.263489493593
 21
-191.6773698609954
 31
0.0
  0
TEXT
  5
3733
330
1F
100
AcDbEntity
  8
POPIS
100
AcDbText
 10
-2355.667333305607
 20
-582.5330178178078
 30
0.0
 40
25.0
  1
04
 41
0.85
  7
SIMPLEX7
100
AcDbText
  0
TEXT
  5
3734
330
1F
100
AcDbEntity
  8
POPIS
100
AcDbText
 10
-2355.667333305607
 20
-513.178668354923
 30
0.0
 40
25.0
  1
02
 41
0.85
  7
SIMPLEX7
100
AcDbText
  0
TEXT
  5
3735
330
1F
100
AcDbEntity
  8
POPIS
100
AcDbText
 10
-2355.667333305607
 20
-547.1288565996451
 30
0.0
 40
25.0
  1
03
 41
0.85
  7
SIMPLEX7
100
AcDbText
  0
TEXT
  5
3736
330
1F
100
AcDbEntity
  8
POPIS
100
AcDbText
 10
-2355.667333305607
 20
-654.2587280030852
 30
0.0
 40
25.0
  1
06
 41
0.85
  7
SIMPLEX7
100
AcDbText
  0
TEXT
  5
3737
330
1F
100
AcDbEntity
  8
POPIS
100
AcDbText
 10
-2355.667333305607
 20
-618.6398393049962
 30
0.0
 40
25.0
  1
05
 41
0.85
  7
SIMPLEX7
100
AcDbText
  0
TEXT
  5
3738
330
1F
100
AcDbEntity
  8
POPIS
100
AcDbText
 10
-2301.323630145857
 20
-582.5330178178078
 30
0.0
 40
25.0
  1
Kotevní prvek
 41
0.7
  7
SIMPLEX7
100
AcDbText
  0
TEXT
  5
3739
330
1F
100
AcDbEntity
  8
POPIS
100
AcDbText
 10
-2301.323630145857
 20
-476.5836567392948
 30
0.0
 40
25.0
  1
Deska CETRIS   (BASIC,FINISH,LASUR)
 41
0.7
  7
SIMPLEX7
100
AcDbText
  0
TEXT
  5
373A
330
1F
100
AcDbEntity
  8
POPIS
100
AcDbText
 10
-2355.663688030778
 20
-474.5380035656585
 30
0.0
 40
25.0
  1
01
 41
0.85
  7
SIMPLEX7
100
AcDbText
  0
TEXT
  5
373B
330
1F
100
AcDbEntity
  8
POPIS
100
AcDbText
 10
-2301.323630145857
 20
-618.6398393049962
 30
0.0
 40
25.0
  1
Upevňovací prvek systému - kotva (np. SPIDI, EuroFox, SPEEDY...)
 41
0.7
  7
SIMPLEX7
100
AcDbText
  0
TEXT
  5
373C
330
1F
100
AcDbEntity
  8
POPIS
100
AcDbText
 10
-2301.323630145857
 20
-654.2587280030852
 30
0.0
 40
25.0
  1
Nosný profil systému - úhelník (np. SPIDI, EuroFox, SPEEDY...)
 41
0.7
  7
SIMPLEX7
100
AcDbText
  0
TEXT
  5
373D
330
1F
100
AcDbEntity
  8
POPIS
100
AcDbText
 10
-2301.323630145857
 20
-547.1288565996451
 30
0.0
 40
25.0
  1
Vzduchová mezera - min. 25 mm
 41
0.7
  7
SIMPLEX7
100
AcDbText
  0
TEXT
  5
373E
330
1F
100
AcDbEntity
  8
POPIS
100
AcDbText
 10
-2301.323630145857
 20
-513.178668354923
 30
0.0
 40
25.0
  1
Nerezový vrut s podložkou (np. SFS, EJOT)
 41
0.7
  7
SIMPLEX7
100
AcDbText
  0
LINE
  5
373F
330
1F
100
AcDbEntity
  8
STAVBA OBRYS
100
AcDbLine
 10
-2156.450611715642
 20
-110.7266929007259
 30
0.0
 11
-1949.504769909684
 21
-110.7266929007259
 31
0.0
  0
LINE
  5
3740
330
1F
100
AcDbEntity
  8
STAVBA OBRYS
100
AcDbLine
 10
-2393.04348229029
 20
-345.726692900726
 30
0.0
 11
-1935.518428203705
 21
-345.726692900726
 31
0.0
  0
LINE
  5
3741
330
1F
100
AcDbEntity
  8
STAVBA OBRYS
  6
DASHDOT2
100
AcDbLine
 10
-2039.825989493595
 20
2.451205873303933
 30
0.0
 11
-2039.825989493593
 21
-210.3252831927943
 31
0.0
  0
LINE
  5
3742
102
{ACAD_REACTORS
330
35C3
330
35C2
330
35C1
102
}
330
1F
100
AcDbEntity
  8
NOSNÉ KONSTRUKCE
100
AcDbLine
 10
-1945.52987974924
 20
17.29624821793413
 30
0.0
 11
-1945.529879749251
 21
-110.932172494538
 31
0.0
  0
LINE
  5
3743
102
{ACAD_REACTORS
330
35C3
330
35C2
102
}
330
1F
100
AcDbEntity
  8
NOSNÉ KONSTRUKCE
100
AcDbLine
 10
-1944.092449338765
 20
17.29624821793413
 30
0.0
 11
-1944.092449338776
 21
-110.7266929007287
 31
0.0
  0
LINE
  5
3744
330
1F
100
AcDbEntity
  8
NOSNÉ KONSTRUKCE
100
AcDbLine
 10
-1940.285972306651
 20
-22.81514799494425
 30
0.0
 11
-1940.285972306647
 21
-101.726692900726
 31
0.0
  0
LINE
  5
3745
102
{ACAD_REACTORS
330
35C3
102
}
330
1F
100
AcDbEntity
  8
SPOJOVACÍ
  6
DASHDOT2
100
AcDbLine
 10
-1914.892608637114
 20
-91.96305081149375
 30
0.0
 11
-1914.892608637113
 21
-206.8831605554009
 31
0.0
  0
ARC
  5
3746
330
1F
100
AcDbEntity
  8
SPOJOVACÍ
100
AcDbCircle
 10
-1914.892608637114
 20
-101.5678314795645
 30
0.0
 40
6.701689614562111
100
AcDbArc
 50
45.61706766743011
 51
134.3829323325698
  0
ARC
  5
3747
330
1F
100
AcDbEntity
  8
SPOJOVACÍ
100
AcDbCircle
 10
-1921.455108637115
 20
-96.77826078482258
 30
0.0
 40
1.875
100
AcDbArc
 50
0.0
 51
90.0
  0
ARC
  5
3748
330
1F
100
AcDbEntity
  8
SPOJOVACÍ
100
AcDbCircle
 10
-1908.330108637114
 20
-96.77826078482258
 30
0.0
 40
1.875
100
AcDbArc
 50
90.0
 51
180.0
  0
ARC
  5
3749
330
1F
100
AcDbEntity
  8
SPOJOVACÍ
100
AcDbCircle
 10
-1906.455108637115
 20
-96.77826078482258
 30
0.0
 40
1.875
100
AcDbArc
 50
0.0
 51
90.0
  0
ARC
  5
374A
330
1F
100
AcDbEntity
  8
SPOJOVACÍ
100
AcDbCircle
 10
-1923.330108637115
 20
-96.77826078482258
 30
0.0
 40
1.875
100
AcDbArc
 50
90.0
 51
180.0
  0
LINE
  5
374B
330
1F
100
AcDbEntity
  8
STAVBA OBRYS
  6
DASHED
100
AcDbLine
 10
-2046.388489493593
 20
-191.6773698609954
 30
0.0
 11
-2046.388489493595
 21
-31.30703862837026
 31
0.0
  0
LINE
  5
374C
330
1F
100
AcDbEntity
  8
STAVBA OBRYS
  6
DASHED
100
AcDbLine
 10
-2033.263489493593
 20
-191.6773698609954
 30
0.0
 11
-2033.263489493595
 21
-31.30703862837026
 31
0.0
  0
LINE
  5
374D
330
1F
100
AcDbEntity
  8
STAVBA OBRYS
100
AcDbLine
 10
-2393.04348229029
 20
-345.726692900726
 30
0.0
 11
-2393.043482290281
 21
357.224424951511
 31
0.0
  0
LINE
  5
374E
102
{ACAD_REACTORS
330
35C0
102
}
330
1F
100
AcDbEntity
  8
STAVBA OBRYS
100
AcDbLine
 10
-2156.450611715642
 20
357.224424951511
 30
0.0
 11
-2156.450611715642
 21
-110.7266929007259
 31
0.0
  0
HATCH
  5
374F
330
1F
100
AcDbEntity
  8
STAVBA OBRYS
100
AcDbHatch
 10
0.0
 20
0.0
 30
0.0
210
0.0
220
0.0
230
1.0
  2
BRICK
 70
     0
 71
     0
 91
        1
 92
        7
 72
     0
 73
     1
 93
       29
 10
-2156.450611715642
 20
13.24101835289889
 10
-2238.522811341373
 20
13.24101835289821
 10
-2242.311672482931
 20
19.80351835289911
 10
-2238.522811341377
 20
26.36601835289843
 10
-2156.450611715642
 20
26.36601835289934
 10
-2156.450611715642
 20
114.6816422295025
 10
-2233.996284958332
 20
114.6816422295014
 10
-2237.785146099889
 20
121.2441422295035
 10
-2233.996284958332
 20
127.8066422295016
 10
-2179.287594699578
 20
127.8066422295021
 10
-2156.450611715642
 20
142.8491976482093
 10
-2156.450611715642
 20
357.224424951511
 10
-2393.043482290283
 20
357.224424951511
 10
-2393.04348229029
 20
-345.7266929007257
 10
-1935.518428203705
 20
-345.726692900726
 10
-1649.23320484962
 20
-345.726692900726
 10
-1663.219546555598
 20
-110.7266929007259
 10
-1908.330108637114
 20
-110.7266929007262
 10
-1908.330108637112
 20
-188.2352472236016
 10
-1914.892608637113
 20
-192.0241083651594
 10
-1921.455108637113
 20
-188.235247223602
 10
-1921.455108637115
 20
-110.7266929007259
 10
-1949.504769909684
 20
-110.7266929007259
 10
-2033.263489493593
 20
-110.7266929007257
 10
-2033.263489493595
 20
-191.6773698609956
 10
-2039.825989493591
 20
-195.4662310025519
 10
-2046.388489493593
 20
-191.6773698609949
 10
-2046.388489493593
 20
-110.7266929007259
 10
-2156.450611715642
 20
-110.7266929007259
 97
        0
 75
     0
 76
     1
 52
0.0
 41
10.0
 77
     0
 78
     3
 53
0.0
 43
-14862.32986349309
 44
1326.262691697936
 45
0.0
 46
63.5
 79
     0
 53
90.0
 43
-14862.32986349309
 44
1326.262691697936
 45
-127.0
 46
0.0000000000000078
 79
     2
 49
63.5
 49
-63.5
 53
90.0
 43
-14798.82986349309
 44
1326.262691697936
 45
-127.0
 46
0.0000000000000078
 79
     2
 49
-63.5
 49
63.5
 47
2.343896090719463
 98
        1
 10
-2189.002467992145
 20
-82.13882177026471
  0
LINE
  5
37AE
330
1F
100
AcDbEntity
  8
POPIS
100
AcDbLine
 10
-1975.404333865497
 20
145.6748841266703
 30
0.0
 11
-2017.029338478373
 21
100.6662696888995
 31
0.0
  0
LINE
  5
37AF
330
1F
100
AcDbEntity
  8
POPIS
100
AcDbLine
 10
-1975.404333865497
 20
145.6748841266703
 30
0.0
 11
-1847.916301741208
 21
145.6734493476483
 31
0.0
  0
LINE
  5
37B0
330
1F
100
AcDbEntity
  8
PROFILY
100
AcDbLine
 10
-2017.029338478373
 20
69.25124445273741
 30
0.0
 11
-2017.029338478374
 21
133.3233620594237
 31
0.0
  0
LINE
  5
37B1
330
1F
100
AcDbEntity
  8
PROFILY
  6
DASHED
370
    40
100
AcDbLine
 10
-2017.229338478373
 20
69.2476115005121
 30
0.0
 11
-2017.229338478373
 21
133.3233620594237
 31
0.0
  0
LINE
  5
37B2
330
1F
100
AcDbEntity
  8
PROFILY
100
AcDbLine
 10
-2017.429338478373
 20
69.2439785482868
 30
0.0
 11
-2017.429338478373
 21
133.3233620594237
 31
0.0
  0
INSERT
  5
37B3
330
1F
100
AcDbEntity
  8
POPIS
100
AcDbBlockReference
  2
E_PUNKT
 10
-2017.455857343915
 20
101.8368639323566
 30
0.0
 41
-1.0
  0
TEXT
  5
37B4
330
1F
100
AcDbEntity
  8
POPIS
100
AcDbText
 10
-1837.266743424055
 20
133.3097514018932
 30
0.0
 40
25.0
  1
08
 41
0.7
  7
SIMPLEX7
100
AcDbText
  0
INSERT
  5
37B6
330
1F
100
AcDbEntity
  8
POPIS
100
AcDbBlockReference
  2
_ArchTick
 10
-1997.659789989623
 20
-21.6650432921474
 30
0.0
 41
15.0
 42
15.0
 43
15.0
 50
180.0
  0
LINE
  5
37B7
330
1F
100
AcDbEntity
  8
POPIS
100
AcDbLine
 10
-1962.851427601698
 20
-21.6650432921474
 30
0.0
 11
-2027.245712348194
 21
-21.6650432921474
 31
0.0
  0
LINE
  5
37B8
330
1F
100
AcDbEntity
  8
POPIS
100
AcDbLine
 10
-1997.659789989623
 20
-25.95020076640685
 30
0.0
 11
-1997.659789989623
 21
15.34386685649406
 31
0.0
  0
LINE
  5
37B9
330
1F
100
AcDbEntity
  8
POPIS
100
AcDbLine
 10
-1972.142643684567
 20
-28.13914299940916
 30
0.0
 11
-1972.142643684567
 21
15.34386685649406
 31
0.0
  0
INSERT
  5
37BA
330
1F
100
AcDbEntity
  8
POPIS
100
AcDbBlockReference
  2
_ArchTick
 10
-1972.142643684567
 20
-21.6650432921474
 30
0.0
 41
15.0
 42
15.0
 43
15.0
  0
LINE
  5
37BB
330
1F
100
AcDbEntity
  8
PROFILY
100
AcDbLine
 10
-1976.397154120506
 20
29.1461364852571
 30
0.0
 11
-1912.325036513819
 21
29.14613648525733
 31
0.0
  0
LINE
  5
37BC
330
1F
100
AcDbEntity
  8
PROFILY
  6
DASHED
370
    40
100
AcDbLine
 10
-1976.400787072731
 20
29.34613648525692
 30
0.0
 11
-1912.325036513819
 21
29.34613648525692
 31
0.0
  0
LINE
  5
37BD
330
1F
100
AcDbEntity
  8
PROFILY
100
AcDbLine
 10
-1976.404420024956
 20
29.54613648525674
 30
0.0
 11
-1912.325036513819
 21
29.54613648525696
 31
0.0
  0
TEXT
  5
37BE
330
1F
100
AcDbEntity
  8
POPIS
100
AcDbText
 10
-2309.169380384852
 20
-843.6901444946856
 30
0.0
 40
25.0
  1
Podkladní EPDM páska tl.1 mm
 41
0.7
  7
SIMPLEX7
100
AcDbText
  0
TEXT
  5
37BF
330
1F
100
AcDbEntity
  8
POPIS
100
AcDbText
 10
-2363.513083544595
 20
-843.6901444946856
 30
0.0
 40
25.0
  1
08
 41
0.85
  7
SIMPLEX7
100
AcDbText
  0
LINE
  5
37C0
330
1F
100
AcDbEntity
  8
POPIS
100
AcDbLine
 10
-1975.404333865497
 20
105.4447522750792
 30
0.0
 11
-1847.916301741208
 21
105.4433174960572
 31
0.0
  0
LINE
  5
37C1
330
1F
100
AcDbEntity
  8
POPIS
100
AcDbLine
 10
-1975.404333865497
 20
105.4447522750792
 30
0.0
 11
-2017.029338478373
 21
60.43613783730847
 31
0.0
  0
TEXT
  5
37CA
330
1F
100
AcDbEntity
  8
POPIS
100
AcDbText
 10
-1840.067980815175
 20
-403.7081021987413
 30
0.0
 40
15.0
  1
1
 41
0.7
  7
SIMPLEX7
100
AcDbText
  0
TEXT
  5
37CB
330
1F
100
AcDbEntity
  8
POPIS
100
AcDbText
 10
-1853.894311488613
 20
-399.4870490224497
 30
0.0
 40
25.0
  1
c
 41
0.7
  7
SIMPLEX7
100
AcDbText
  0
TEXT
  5
37CC
330
1F
100
AcDbEntity
  8
POPIS
100
AcDbText
 10
-1818.615821092017
 20
-399.4870490224497
 30
0.0
 40
25.0
  1
35 mm PZ rošt
 41
0.7
  7
SIMPLEX7
100
AcDbText
  0
TEXT
  5
37CD
330
1F
100
AcDbEntity
  8
POPIS
100
AcDbText
 10
-1818.615821092017
 20
-430.4364648157219
 30
0.0
 40
25.0
  1
50 mm AL rošt
 41
0.7
  7
SIMPLEX7
100
AcDbText
  0
TEXT
  5
37CE
330
1F
100
AcDbEntity
  8
POPIS
100
AcDbText
 10
-2026.427554108679
 20
-14.27050252364404
 30
0.0
 40
25.0
  1
c
 41
0.7
  7
SIMPLEX7
100
AcDbText
  0
TEXT
  5
37CF
330
1F
100
AcDbEntity
  8
POPIS
100
AcDbText
 10
-2012.60122343524
 20
-18.4915556999357
 30
0.0
 40
15.0
  1
1
 41
0.7
  7
SIMPLEX7
100
AcDbText
  0
ENDSEC
  0
SECTION
  2
OBJECTS
  0
DICTIONARY
  5
C
330
0
100
AcDbDictionary
281
     1
  3
ACAD_GROUP
350
D
  3
ACAD_LAYOUT
350
1A
  3
ACAD_MLINESTYLE
350
17
  3
ACAD_PLOTSETTINGS
350
19
  3
ACAD_PLOTSTYLENAME
350
E
  3
AcDbVariableDictionary
350
37D2
  0
DICTIONARY
  5
3751
330
1F
100
AcDbDictionary
280
     1
281
     1
  3
ACAD_LAYOUTSELFREF
360
378B
  0
DICTIONARY
  5
3753
330
1B
100
AcDbDictionary
280
     1
281
     1
  3
ACAD_LAYOUTSELFREF
360
378A
  0
DICTIONARY
  5
3755
330
23
100
AcDbDictionary
280
     1
281
     1
  3
ACAD_LAYOUTSELFREF
360
378C
  0
DICTIONARY
  5
D
102
{ACAD_REACTORS
330
C
102
}
330
C
100
AcDbDictionary
281
     1
  0
DICTIONARY
  5
1A
102
{ACAD_REACTORS
330
C
102
}
330
C
100
AcDbDictionary
281
     1
  3
Model
350
22
  3
Rozvržení1
350
1E
  3
Rozvržení2
350
26
  0
DICTIONARY
  5
17
102
{ACAD_REACTORS
330
C
102
}
330
C
100
AcDbDictionary
281
     1
  3
Standard
350
18
  0
DICTIONARY
  5
19
102
{ACAD_REACTORS
330
C
102
}
330
C
100
AcDbDictionary
281
     1
  0
ACDBDICTIONARYWDFLT
  5
E
102
{ACAD_REACTORS
330
C
102
}
330
C
100
AcDbDictionary
281
     1
  3
Normal
350
F
100
AcDbDictionaryWithDefault
340
F
  0
DICTIONARY
  5
37D2
102
{ACAD_REACTORS
330
C
102
}
330
C
100
AcDbDictionary
281
     1
  3
DIMASSOC
350
37D3
  0
XRECORD
  5
378B
102
{ACAD_REACTORS
330
3751
102
}
330
3751
100
AcDbXrecord
280
     1
340
1F
  0
XRECORD
  5
378A
102
{ACAD_REACTORS
330
3753
102
}
330
3753
100
AcDbXrecord
280
     1
340
1B
  0
XRECORD
  5
378C
102
{ACAD_REACTORS
330
3755
102
}
330
3755
100
AcDbXrecord
280
     1
340
23
  0
LAYOUT
  5
22
102
{ACAD_REACTORS
330
1A
102
}
330
1A
100
AcDbPlotSettings
  1

  2
HP DeskJet 690C
  4

  6

 40
0.0
 41
0.0
 42
0.0
 43
0.0
 44
0.0
 45
0.0
 46
0.0
 47
0.0
 48
0.0
 49
0.0
140
0.0
141
0.0
142
1.0
143
1.0
 70
  1712
 72
     0
 73
     0
 74
     0
  7
monochrome.ctb
 75
     0
147
1.0
148
0.0
149
0.0
100
AcDbLayout
  1
Model
 70
     1
 71
     0
 10
0.0
 20
0.0
 11
12.0
 21
9.0
 12
0.0
 22
0.0
 32
0.0
 14
0.0
 24
0.0
 34
0.0
 15
0.0
 25
0.0
 35
0.0
146
0.0
 13
0.0
 23
0.0
 33
0.0
 16
1.0
 26
0.0
 36
0.0
 17
0.0
 27
1.0
 37
0.0
 76
     0
330
1F
  0
LAYOUT
  5
1E
102
{ACAD_REACTORS
330
1A
102
}
330
1A
100
AcDbPlotSettings
  1

  2
HP DeskJet 690C
  4

  6

 40
0.0
 41
0.0
 42
0.0
 43
0.0
 44
0.0
 45
0.0
 46
0.0
 47
0.0
 48
0.0
 49
0.0
140
0.0
141
0.0
142
1.0
143
1.0
 70
   688
 72
     0
 73
     0
 74
     5
  7
monochrome.ctb
 75
    16
147
1.0
148
0.0
149
0.0
100
AcDbLayout
  1
Rozvržení1
 70
     1
 71
     1
 10
0.0
 20
0.0
 11
420.0
 21
297.0
 12
0.0
 22
0.0
 32
0.0
 14
1.000000000000000E+20
 24
1.000000000000000E+20
 34
1.000000000000000E+20
 15
-1.000000000000000E+20
 25
-1.000000000000000E+20
 35
-1.000000000000000E+20
146
0.0
 13
0.0
 23
0.0
 33
0.0
 16
1.0
 26
0.0
 36
0.0
 17
0.0
 27
1.0
 37
0.0
 76
     0
330
1B
  0
LAYOUT
  5
26
102
{ACAD_REACTORS
330
1A
102
}
330
1A
100
AcDbPlotSettings
  1

  2
HP DeskJet 690C
  4

  6

 40
0.0
 41
0.0
 42
0.0
 43
0.0
 44
0.0
 45
0.0
 46
0.0
 47
0.0
 48
0.0
 49
0.0
140
0.0
141
0.0
142
1.0
143
1.0
 70
   688
 72
     0
 73
     0
 74
     5
  7
monochrome.ctb
 75
    16
147
1.0
148
0.0
149
0.0
100
AcDbLayout
  1
Rozvržení2
 70
     1
 71
     2
 10
0.0
 20
0.0
 11
12.0
 21
9.0
 12
0.0
 22
0.0
 32
0.0
 14
0.0
 24
0.0
 34
0.0
 15
0.0
 25
0.0
 35
0.0
146
0.0
 13
0.0
 23
0.0
 33
0.0
 16
1.0
 26
0.0
 36
0.0
 17
0.0
 27
1.0
 37
0.0
 76
     0
330
23
  0
MLINESTYLE
  5
18
102
{ACAD_REACTORS
330
17
102
}
330
17
100
AcDbMlineStyle
  2
STANDARD
 70
     0
  3

 62
   256
 51
90.0
 52
90.0
 71
     2
 49
0.5
 62
   256
  6
BYLAYER
 49
-0.5
 62
   256
  6
BYLAYER
  0
ACDBPLACEHOLDER
  5
F
102
{ACAD_REACTORS
330
E
102
}
330
E
  0
DICTIONARYVAR
  5
37D3
102
{ACAD_REACTORS
330
37D2
102
}
330
37D2
100
DictionaryVariables
280
     0
  1
1
  0
ENDSEC
  0
EOF
