  0
SECTION
  2
HEADER
  9
$ACADVER
  1
AC1015
  9
$ACADMAINTVER
 70
    14
  9
$DWGCODEPAGE
  3
ANSI_1250
  9
$INSBASE
 10
0.0
 20
0.0
 30
0.0
  9
$EXTMIN
 10
-2566.402824590918
 20
-844.6902824698218
 30
0.0
  9
$EXTMAX
 10
-1562.68076785555
 20
626.8840146847228
 30
0.0
  9
$LIMMIN
 10
0.0
 20
0.0
  9
$LIMMAX
 10
420.0
 20
297.0
  9
$ORTHOMODE
 70
     1
  9
$REGENMODE
 70
     1
  9
$FILLMODE
 70
     1
  9
$QTEXTMODE
 70
     0
  9
$MIRRTEXT
 70
     1
  9
$LTSCALE
 40
1.0
  9
$ATTMODE
 70
     1
  9
$TEXTSIZE
 40
2.5
  9
$TRACEWID
 40
1.0
  9
$TEXTSTYLE
  7
Standard
  9
$CLAYER
  8
0
  9
$CELTYPE
  6
ByLayer
  9
$CECOLOR
 62
   256
  9
$CELTSCALE
 40
1.0
  9
$DISPSILH
 70
     0
  9
$DIMSCALE
 40
1.0
  9
$DIMASZ
 40
2.5
  9
$DIMEXO
 40
0.625
  9
$DIMDLI
 40
3.75
  9
$DIMRND
 40
0.0
  9
$DIMDLE
 40
0.0
  9
$DIMEXE
 40
1.25
  9
$DIMTP
 40
0.0
  9
$DIMTM
 40
0.0
  9
$DIMTXT
 40
2.5
  9
$DIMCEN
 40
2.5
  9
$DIMTSZ
 40
0.0
  9
$DIMTOL
 70
     0
  9
$DIMLIM
 70
     0
  9
$DIMTIH
 70
     0
  9
$DIMTOH
 70
     0
  9
$DIMSE1
 70
     0
  9
$DIMSE2
 70
     0
  9
$DIMTAD
 70
     1
  9
$DIMZIN
 70
     8
  9
$DIMBLK
  1

  9
$DIMASO
 70
     1
  9
$DIMSHO
 70
     1
  9
$DIMPOST
  1

  9
$DIMAPOST
  1

  9
$DIMALT
 70
     0
  9
$DIMALTD
 70
     3
  9
$DIMALTF
 40
0.03937007874016
  9
$DIMLFAC
 40
1.0
  9
$DIMTOFL
 70
     1
  9
$DIMTVP
 40
0.0
  9
$DIMTIX
 70
     0
  9
$DIMSOXD
 70
     0
  9
$DIMSAH
 70
     0
  9
$DIMBLK1
  1

  9
$DIMBLK2
  1

  9
$DIMSTYLE
  2
ISO-25
  9
$DIMCLRD
 70
     0
  9
$DIMCLRE
 70
     0
  9
$DIMCLRT
 70
     0
  9
$DIMTFAC
 40
1.0
  9
$DIMGAP
 40
0.625
  9
$DIMJUST
 70
     0
  9
$DIMSD1
 70
     0
  9
$DIMSD2
 70
     0
  9
$DIMTOLJ
 70
     0
  9
$DIMTZIN
 70
     8
  9
$DIMALTZ
 70
     0
  9
$DIMALTTZ
 70
     0
  9
$DIMUPT
 70
     0
  9
$DIMDEC
 70
     2
  9
$DIMTDEC
 70
     2
  9
$DIMALTU
 70
     2
  9
$DIMALTTD
 70
     3
  9
$DIMTXSTY
  7
Standard
  9
$DIMAUNIT
 70
     0
  9
$DIMADEC
 70
     0
  9
$DIMALTRND
 40
0.0
  9
$DIMAZIN
 70
     0
  9
$DIMDSEP
 70
    44
  9
$DIMATFIT
 70
     3
  9
$DIMFRAC
 70
     0
  9
$DIMLDRBLK
  1

  9
$DIMLUNIT
 70
     2
  9
$DIMLWD
 70
    -2
  9
$DIMLWE
 70
    -2
  9
$DIMTMOVE
 70
     0
  9
$LUNITS
 70
     2
  9
$LUPREC
 70
     4
  9
$SKETCHINC
 40
1.0
  9
$FILLETRAD
 40
10.0
  9
$AUNITS
 70
     0
  9
$AUPREC
 70
     0
  9
$MENU
  1
.
  9
$ELEVATION
 40
0.0
  9
$PELEVATION
 40
0.0
  9
$THICKNESS
 40
0.0
  9
$LIMCHECK
 70
     0
  9
$CHAMFERA
 40
10.0
  9
$CHAMFERB
 40
10.0
  9
$CHAMFERC
 40
20.0
  9
$CHAMFERD
 40
0.0
  9
$SKPOLY
 70
     0
  9
$TDCREATE
 40
2452339.371895717
  9
$TDUCREATE
 40
2452339.330229051
  9
$TDUPDATE
 40
2455610.300496979
  9
$TDUUPDATE
 40
2455610.258830312
  9
$TDINDWG
 40
0.0216154977
  9
$TDUSRTIMER
 40
0.0216154977
  9
$USRTIMER
 70
     1
  9
$ANGBASE
 50
0.0
  9
$ANGDIR
 70
     0
  9
$PDMODE
 70
     0
  9
$PDSIZE
 40
0.0
  9
$PLINEWID
 40
0.0
  9
$SPLFRAME
 70
     0
  9
$SPLINETYPE
 70
     6
  9
$SPLINESEGS
 70
     8
  9
$HANDSEED
  5
30AB
  9
$SURFTAB1
 70
     6
  9
$SURFTAB2
 70
     6
  9
$SURFTYPE
 70
     6
  9
$SURFU
 70
     6
  9
$SURFV
 70
     6
  9
$UCSBASE
  2

  9
$UCSNAME
  2

  9
$UCSORG
 10
0.0
 20
0.0
 30
0.0
  9
$UCSXDIR
 10
1.0
 20
0.0
 30
0.0
  9
$UCSYDIR
 10
0.0
 20
1.0
 30
0.0
  9
$UCSORTHOREF
  2

  9
$UCSORTHOVIEW
 70
     0
  9
$UCSORGTOP
 10
0.0
 20
0.0
 30
0.0
  9
$UCSORGBOTTOM
 10
0.0
 20
0.0
 30
0.0
  9
$UCSORGLEFT
 10
0.0
 20
0.0
 30
0.0
  9
$UCSORGRIGHT
 10
0.0
 20
0.0
 30
0.0
  9
$UCSORGFRONT
 10
0.0
 20
0.0
 30
0.0
  9
$UCSORGBACK
 10
0.0
 20
0.0
 30
0.0
  9
$PUCSBASE
  2

  9
$PUCSNAME
  2

  9
$PUCSORG
 10
0.0
 20
0.0
 30
0.0
  9
$PUCSXDIR
 10
1.0
 20
0.0
 30
0.0
  9
$PUCSYDIR
 10
0.0
 20
1.0
 30
0.0
  9
$PUCSORTHOREF
  2

  9
$PUCSORTHOVIEW
 70
     0
  9
$PUCSORGTOP
 10
0.0
 20
0.0
 30
0.0
  9
$PUCSORGBOTTOM
 10
0.0
 20
0.0
 30
0.0
  9
$PUCSORGLEFT
 10
0.0
 20
0.0
 30
0.0
  9
$PUCSORGRIGHT
 10
0.0
 20
0.0
 30
0.0
  9
$PUCSORGFRONT
 10
0.0
 20
0.0
 30
0.0
  9
$PUCSORGBACK
 10
0.0
 20
0.0
 30
0.0
  9
$USERI1
 70
     0
  9
$USERI2
 70
     0
  9
$USERI3
 70
     0
  9
$USERI4
 70
     0
  9
$USERI5
 70
     0
  9
$USERR1
 40
0.0
  9
$USERR2
 40
0.0
  9
$USERR3
 40
0.0
  9
$USERR4
 40
0.0
  9
$USERR5
 40
0.0
  9
$WORLDVIEW
 70
     1
  9
$SHADEDGE
 70
     3
  9
$SHADEDIF
 70
    70
  9
$TILEMODE
 70
     1
  9
$MAXACTVP
 70
    48
  9
$PINSBASE
 10
0.0
 20
0.0
 30
0.0
  9
$PLIMCHECK
 70
     0
  9
$PEXTMIN
 10
1.000000000000000E+20
 20
1.000000000000000E+20
 30
1.000000000000000E+20
  9
$PEXTMAX
 10
-1.000000000000000E+20
 20
-1.000000000000000E+20
 30
-1.000000000000000E+20
  9
$PLIMMIN
 10
0.0
 20
0.0
  9
$PLIMMAX
 10
420.0
 20
297.0
  9
$UNITMODE
 70
     0
  9
$VISRETAIN
 70
     1
  9
$PLINEGEN
 70
     0
  9
$PSLTSCALE
 70
     1
  9
$TREEDEPTH
 70
  3020
  9
$CMLSTYLE
  2
Standard
  9
$CMLJUST
 70
     0
  9
$CMLSCALE
 40
20.0
  9
$PROXYGRAPHICS
 70
     1
  9
$MEASUREMENT
 70
     1
  9
$CELWEIGHT
370
    -1
  9
$ENDCAPS
280
     0
  9
$JOINSTYLE
280
     0
  9
$LWDISPLAY
290
     0
  9
$INSUNITS
 70
     4
  9
$HYPERLINKBASE
  1

  9
$STYLESHEET
  1

  9
$XEDIT
290
     1
  9
$CEPSNTYPE
380
     0
  9
$PSTYLEMODE
290
     1
  9
$FINGERPRINTGUID
  2
{9FA890EF-883C-4FD4-884F-6B075534EB0B}
  9
$VERSIONGUID
  2
{F9F22C8F-A3A1-4991-A7A5-31FE37255390}
  9
$EXTNAMES
290
     1
  9
$PSVPSCALE
 40
0.0
  9
$OLESTARTUP
290
     0
  0
ENDSEC
  0
SECTION
  2
CLASSES
  0
CLASS
  1
ACDBDICTIONARYWDFLT
  2
AcDbDictionaryWithDefault
  3
AutoCAD 2000
 90
        0
280
     0
281
     0
  0
CLASS
  1
ACDBPLACEHOLDER
  2
AcDbPlaceHolder
  3
AutoCAD 2000
 90
        0
280
     0
281
     0
  0
CLASS
  1
LAYOUT
  2
AcDbLayout
  3
AutoCAD 2000
 90
        0
280
     0
281
     0
  0
CLASS
  1
LONG_TRANSACTION
  2
AcDbLongTransaction
  3
AutoCAD 2000
 90
    32768
280
     0
281
     0
  0
CLASS
  1
LWPOLYLINE
  2
AcDbPolyline
  3
AutoCAD 2000
 90
    32768
280
     0
281
     1
  0
CLASS
  1
HATCH
  2
AcDbHatch
  3
AutoCAD 2000
 90
    32768
280
     0
281
     1
  0
CLASS
  1
XRECORD
  2
AcDbXrecord
  3
AutoCAD 2000
 90
    32768
280
     0
281
     0
  0
CLASS
  1
DICTIONARYVAR
  2
AcDbDictionaryVar
  3
AutoCAD 2000
 90
        0
280
     0
281
     0
  0
ENDSEC
  0
SECTION
  2
TABLES
  0
TABLE
  2
VPORT
  5
8
330
0
100
AcDbSymbolTable
 70
     2
  0
VPORT
  5
30AA
330
8
100
AcDbSymbolTableRecord
100
AcDbViewportTableRecord
  2
*Active
 70
     0
 10
0.0
 20
0.0
 11
1.0
 21
1.0
 12
-2100.401388081055
 22
-140.4655154981388
 13
0.0
 23
0.0
 14
10.0
 24
10.0
 15
10.0
 25
10.0
 16
0.0
 26
0.0
 36
1.0
 17
0.0
 27
0.0
 37
0.0
 40
1630.122338007828
 41
2.031862745098039
 42
50.0
 43
0.0
 44
0.0
 50
0.0
 51
0.0
 71
     0
 72
   100
 73
     1
 74
     3
 75
     0
 76
     0
 77
     0
 78
     0
281
     0
 65
     1
110
0.0
120
0.0
130
0.0
111
1.0
121
0.0
131
0.0
112
0.0
122
1.0
132
0.0
 79
     0
146
0.0
  0
ENDTAB
  0
TABLE
  2
LTYPE
  5
5
330
0
100
AcDbSymbolTable
 70
     4
  0
LTYPE
  5
14
330
5
100
AcDbSymbolTableRecord
100
AcDbLinetypeTableRecord
  2
ByBlock
 70
     0
  3

 72
    65
 73
     0
 40
0.0
  0
LTYPE
  5
15
330
5
100
AcDbSymbolTableRecord
100
AcDbLinetypeTableRecord
  2
ByLayer
 70
     0
  3

 72
    65
 73
     0
 40
0.0
  0
LTYPE
  5
16
330
5
100
AcDbSymbolTableRecord
100
AcDbLinetypeTableRecord
  2
Continuous
 70
     0
  3
Solid line
 72
    65
 73
     0
 40
0.0
  0
LTYPE
  5
33
330
5
100
AcDbSymbolTableRecord
100
AcDbLinetypeTableRecord
  2
IZOLACE
 70
     0
  3
Izolace SSSSSSSSSSSSSSSSSSSSSSSSSSSSSSSSSSSSSSS
 72
    65
 73
     4
 40
10.16253999999999
 49
0.00254
 74
     0
 49
-2.54
 74
     4
 75
   134
340
3D
 46
2.54
 50
0.0
 44
-2.54
 45
0.0
 49
-5.08
 74
     4
 75
   134
340
3D
 46
2.54
 50
180.0
 44
2.54
 45
0.0
 49
-2.54
 74
     0
  0
LTYPE
  5
34
330
5
100
AcDbSymbolTableRecord
100
AcDbLinetypeTableRecord
  2
DASHED
 70
     0
  3
Dashed __ __ __ __ __ __ __ __ __ __ __ __ __ _
 72
    65
 73
     2
 40
19.04999999999999
 49
12.7
 74
     0
 49
-6.349999999999999
 74
     0
  0
LTYPE
  5
35
330
5
100
AcDbSymbolTableRecord
100
AcDbLinetypeTableRecord
  2
DASHDOT2
 70
     0
  3
Dash dot (.5x) _._._._._._._._._._._._._._._.
 72
    65
 73
     4
 40
12.7
 49
6.349999999999999
 74
     0
 49
-3.174999999999999
 74
     0
 49
0.0
 74
     0
 49
-3.174999999999999
 74
     0
  0
ENDTAB
  0
TABLE
  2
LAYER
  5
2
330
0
100
AcDbSymbolTable
 70
     7
  0
LAYER
  5
10
330
2
100
AcDbSymbolTableRecord
100
AcDbLayerTableRecord
  2
0
 70
     0
 62
     7
  6
Continuous
370
    -3
390
F
  0
LAYER
  5
36
330
2
100
AcDbSymbolTableRecord
100
AcDbLayerTableRecord
  2
POPIS
 70
     0
 62
    30
  6
Continuous
370
    -3
390
F
  0
LAYER
  5
37
330
2
100
AcDbSymbolTableRecord
100
AcDbLayerTableRecord
  2
SPOJOVACÍ
 70
     0
 62
   180
  6
Continuous
370
    -3
390
F
  0
LAYER
  5
38
330
2
100
AcDbSymbolTableRecord
100
AcDbLayerTableRecord
  2
CETRIS
 70
     0
 62
     1
  6
Continuous
370
    -3
390
F
  0
LAYER
  5
39
330
2
100
AcDbSymbolTableRecord
100
AcDbLayerTableRecord
  2
NOSNÉ KONSTRUKCE
 70
     0
 62
    33
  6
Continuous
370
    -3
390
F
  0
LAYER
  5
3A
330
2
100
AcDbSymbolTableRecord
100
AcDbLayerTableRecord
  2
PROFILY
 70
     0
 62
    73
  6
Continuous
370
    -3
390
F
  0
LAYER
  5
3B
330
2
100
AcDbSymbolTableRecord
100
AcDbLayerTableRecord
  2
STAVBA OBRYS
 70
     0
 62
     6
  6
Continuous
370
    -3
390
F
  0
ENDTAB
  0
TABLE
  2
STYLE
  5
3
330
0
100
AcDbSymbolTable
 70
     3
  0
STYLE
  5
11
330
3
100
AcDbSymbolTableRecord
100
AcDbTextStyleTableRecord
  2
Standard
 70
     0
 40
0.0
 41
1.0
 50
0.0
 71
     0
 42
2.5
  3
txt
  4

  0
STYLE
  5
3C
330
3
100
AcDbSymbolTableRecord
100
AcDbTextStyleTableRecord
  2
SIMPLEX7
 70
     0
 40
0.0
 41
0.85
 50
0.0
 71
     0
 42
102.0
  3
ARIAL.TTF
  4

1001
ACAD
1000
Arial CE
1071
    60962
  0
STYLE
  5
3D
330
3
100
AcDbSymbolTableRecord
100
AcDbTextStyleTableRecord
  2

 70
     1
 40
0.0
 41
1.0
 50
0.0
 71
     0
 42
2.5
  3
ltypeshp.shx
  4

  0
ENDTAB
  0
TABLE
  2
VIEW
  5
6
330
0
100
AcDbSymbolTable
 70
     0
  0
ENDTAB
  0
TABLE
  2
UCS
  5
7
330
0
100
AcDbSymbolTable
 70
     0
  0
ENDTAB
  0
TABLE
  2
APPID
  5
9
330
0
100
AcDbSymbolTable
 70
     1
  0
APPID
  5
12
330
9
100
AcDbSymbolTableRecord
100
AcDbRegAppTableRecord
  2
ACAD
 70
     0
  0
ENDTAB
  0
TABLE
  2
DIMSTYLE
  5
A
330
0
100
AcDbSymbolTable
 70
     1
100
AcDbDimStyleTable
 71
     0
  0
DIMSTYLE
105
27
330
A
100
AcDbSymbolTableRecord
100
AcDbDimStyleTableRecord
  2
ISO-25
 70
     0
 41
2.5
 42
0.625
 43
3.75
 44
1.25
 73
     0
 74
     0
 77
     1
 78
     8
140
2.5
141
2.5
143
0.03937007874016
147
0.625
171
     3
172
     1
271
     2
272
     2
274
     3
278
    44
283
     0
284
     8
340
11
  0
ENDTAB
  0
TABLE
  2
BLOCK_RECORD
  5
1
330
0
100
AcDbSymbolTable
 70
     3
  0
BLOCK_RECORD
  5
1F
102
{ACAD_XDICTIONARY
360
3038
102
}
330
1
100
AcDbSymbolTableRecord
100
AcDbBlockTableRecord
  2
*Model_Space
340
22
  0
BLOCK_RECORD
  5
1B
102
{ACAD_XDICTIONARY
360
303A
102
}
330
1
100
AcDbSymbolTableRecord
100
AcDbBlockTableRecord
  2
*Paper_Space
340
1E
  0
BLOCK_RECORD
  5
23
102
{ACAD_XDICTIONARY
360
303C
102
}
330
1
100
AcDbSymbolTableRecord
100
AcDbBlockTableRecord
  2
*Paper_Space0
340
26
  0
BLOCK_RECORD
  5
2B
330
1
100
AcDbSymbolTableRecord
100
AcDbBlockTableRecord
  2
E_PUNKT
340
0
102
{BLKREFS
331
2EA0
331
2EA8
331
2EAA
331
2F22
331
2F23
331
3098
102
}
  0
BLOCK_RECORD
  5
307B
330
1
100
AcDbSymbolTableRecord
100
AcDbBlockTableRecord
  2
_ArchTick
340
0
102
{BLKREFS
331
3096
331
309B
102
}
  0
ENDTAB
  0
ENDSEC
  0
SECTION
  2
BLOCKS
  0
BLOCK
  5
20
330
1F
100
AcDbEntity
  8
0
100
AcDbBlockBegin
  2
*Model_Space
 70
     0
 10
0.0
 20
0.0
 30
0.0
  3
*Model_Space
  1

  0
ENDBLK
  5
21
330
1F
100
AcDbEntity
  8
0
100
AcDbBlockEnd
  0
BLOCK
  5
1C
330
1B
100
AcDbEntity
 67
     1
  8
0
100
AcDbBlockBegin
  2
*Paper_Space
 70
     0
 10
0.0
 20
0.0
 30
0.0
  3
*Paper_Space
  1

  0
ENDBLK
  5
1D
330
1B
100
AcDbEntity
 67
     1
  8
0
100
AcDbBlockEnd
  0
BLOCK
  5
24
330
23
100
AcDbEntity
  8
0
100
AcDbBlockBegin
  2
*Paper_Space0
 70
     0
 10
0.0
 20
0.0
 30
0.0
  3
*Paper_Space0
  1

  0
ENDBLK
  5
25
330
23
100
AcDbEntity
  8
0
100
AcDbBlockEnd
  0
BLOCK
  5
2D
330
2B
100
AcDbEntity
  8
0
100
AcDbBlockBegin
  2
E_PUNKT
 70
     0
 10
0.0
 20
0.0
 30
0.0
  3
E_PUNKT
  1

  0
LWPOLYLINE
  5
2C
330
2B
100
AcDbEntity
  8
POPIS
100
AcDbPolyline
 90
        2
 70
     1
 43
2.5
 10
1.27761037562675
 20
0.0290683308725193
 42
-1.0
 10
-1.222389624373249
 20
0.0290683308725193
 42
-1.0
  0
ENDBLK
  5
2E
330
2B
100
AcDbEntity
  8
0
100
AcDbBlockEnd
  0
BLOCK
  5
307D
330
307B
100
AcDbEntity
  8
0
100
AcDbBlockBegin
  2
_ArchTick
 70
     0
 10
0.0
 20
0.0
 30
0.0
  3
_ArchTick
  1

  0
LWPOLYLINE
  5
307C
330
307B
100
AcDbEntity
  8
0
  6
ByBlock
 62
     0
100
AcDbPolyline
 90
        2
 70
     0
 43
0.15
 10
-0.5
 20
-0.5
 10
0.5
 20
0.5
  0
ENDBLK
  5
307E
330
307B
100
AcDbEntity
  8
0
100
AcDbBlockEnd
  0
ENDSEC
  0
SECTION
  2
ENTITIES
  0
INSERT
  5
2EA0
330
1F
100
AcDbEntity
  8
POPIS
100
AcDbBlockReference
  2
E_PUNKT
 10
-2114.093796233018
 20
-422.7499290989094
 30
0.0
  0
LINE
  5
2EA1
330
1F
100
AcDbEntity
  8
NOSNÉ KONSTRUKCE
100
AcDbLine
 10
-2090.149370533324
 20
-281.277185892713
 30
0.0
 11
-2090.14937053332
 21
-400.7808438011457
 31
0.0
  0
LINE
  5
2EA2
330
1F
100
AcDbEntity
  8
NOSNÉ KONSTRUKCE
100
AcDbLine
 10
-2073.769097734884
 20
-19.18962696744483
 30
0.0
 11
-2073.769097734884
 21
-28.74687572866378
 31
0.0
  0
LINE
  5
2EA3
330
1F
100
AcDbEntity
  8
NOSNÉ KONSTRUKCE
100
AcDbLine
 10
-2073.769097734884
 20
-29.57044151702439
 30
0.0
 11
-2073.769097734884
 21
-20.01319275580545
 31
0.0
  0
LINE
  5
2EA4
330
1F
100
AcDbEntity
  8
NOSNÉ KONSTRUKCE
100
AcDbLine
 10
-2090.149370533333
 20
-44.36610051695015
 30
0.0
 11
-2007.149370533336
 21
-44.36610051694652
 31
0.0
  0
LINE
  5
2EA5
330
1F
100
AcDbEntity
  8
NOSNÉ KONSTRUKCE
100
AcDbLine
 10
-2090.149370533333
 20
-4.3353960253703
 30
0.0
 11
-2007.149370533335
 21
-4.335396025373938
 31
0.0
  0
ARC
  5
2EA6
330
1F
100
AcDbEntity
  8
NOSNÉ KONSTRUKCE
100
AcDbCircle
 10
-2007.149370533342
 20
-1.631747327959601
 30
0.0
 40
2.703648697414791
100
AcDbArc
 50
90.0
 51
270.0
  0
ARC
  5
2EA7
330
1F
100
AcDbEntity
  8
NOSNÉ KONSTRUKCE
100
AcDbCircle
 10
-2007.149370533342
 20
-47.0697492143613
 30
0.0
 40
2.703648697414791
100
AcDbArc
 50
90.0
 51
270.0
  0
INSERT
  5
2EA8
330
1F
100
AcDbEntity
  8
POPIS
100
AcDbBlockReference
  2
E_PUNKT
 10
-1952.065217390309
 20
-28.64404107476639
 30
0.0
  0
LINE
  5
2EA9
330
1F
100
AcDbEntity
  8
POPIS
100
AcDbLine
 10
-1952.2659303635
 20
-28.37206428479521
 30
0.0
 11
-2019.713803398249
 21
-68.00305050692168
 31
0.0
  0
INSERT
  5
2EAA
330
1F
100
AcDbEntity
  8
POPIS
100
AcDbBlockReference
  2
E_PUNKT
 10
-2056.472326081907
 20
-13.98720913613988
 30
0.0
  0
LINE
  5
2EAB
330
1F
100
AcDbEntity
  8
POPIS
100
AcDbLine
 10
-2056.679944975502
 20
-13.74100559198996
 30
0.0
 11
-2098.914891784502
 21
20.459104392482
 31
0.0
  0
LINE
  5
2EAC
330
1F
100
AcDbEntity
  8
SPOJOVACÍ
100
AcDbLine
 10
-2010.37318372942
 20
-14.06753424223825
 30
0.0
 11
-2015.060683729421
 21
-14.06753424223825
 31
0.0
  0
LINE
  5
2EAD
330
1F
100
AcDbEntity
  8
SPOJOVACÍ
100
AcDbLine
 10
-2010.37318372942
 20
-14.06753424223825
 30
0.0
 11
-2010.38255872942
 21
-14.06753424223825
 31
0.0
  0
LINE
  5
2EAE
330
1F
100
AcDbEntity
  8
SPOJOVACÍ
100
AcDbLine
 10
-2007.515292234316
 20
-10.31753424223825
 30
0.0
 11
-2010.37318372942
 21
-10.31753424223825
 31
0.0
  0
LINE
  5
2EAF
330
1F
100
AcDbEntity
  8
SPOJOVACÍ
100
AcDbLine
 10
-1937.641492815139
 20
-25.75587914735342
 30
0.0
 11
-1936.875839871093
 21
-22.89842345920533
 31
0.0
  0
LINE
  5
2EB0
330
1F
100
AcDbEntity
  8
SPOJOVACÍ
100
AcDbLine
 10
-1935.724443990232
 20
-25.59895079639727
 30
0.0
 11
-1935.05154487564
 21
-23.08765711236901
 31
0.0
  0
LINE
  5
2EB1
330
1F
100
AcDbEntity
  8
SPOJOVACÍ
100
AcDbLine
 10
-1933.804512584286
 20
-25.43126450655108
 30
0.0
 11
-1933.220283047741
 21
-23.25089019287406
 31
0.0
  0
LINE
  5
2EB2
330
1F
100
AcDbEntity
  8
SPOJOVACÍ
100
AcDbLine
 10
-1931.881681409649
 20
-25.25275613261374
 30
0.0
 11
-1931.391527776762
 21
-23.42347787117023
 31
0.0
  0
LINE
  5
2EB3
330
1F
100
AcDbEntity
  8
SPOJOVACÍ
100
AcDbLine
 10
-1928.027248829771
 20
-24.86300843854769
 30
0.0
 11
-1927.741510734297
 21
-23.79661934858904
 31
0.0
  0
LINE
  5
2EB4
330
1F
100
AcDbEntity
  8
SPOJOVACÍ
100
AcDbLine
 10
-1926.095610843754
 20
-24.65163259710016
 30
0.0
 11
-1925.920236449444
 21
-23.9971264471842
 31
0.0
  0
LINE
  5
2EB5
330
1F
100
AcDbEntity
  8
SPOJOVACÍ
100
AcDbLine
 10
-1924.160999905518
 20
-24.42916154691602
 30
0.0
 11
-1924.101443689423
 21
-24.20689472253389
 31
0.0
  0
LINE
  5
2EB6
330
1F
100
AcDbEntity
  8
SPOJOVACÍ
100
AcDbLine
 10
-1929.955932845959
 20
-25.06335991451851
 30
0.0
 11
-1929.565272462387
 21
-23.60539551452666
 31
0.0
  0
LINE
  5
2EB7
330
1F
100
AcDbEntity
  8
SPOJOVACÍ
  6
DASHED
100
AcDbLine
 10
-1929.189836149084
 20
-24.38003424223916
 30
0.0
 11
-1932.437431413275
 21
-18.75503424223916
 31
0.0
  0
LINE
  5
2EB8
330
1F
100
AcDbEntity
  8
SPOJOVACÍ
  6
DASHED
100
AcDbLine
 10
-1929.189836149084
 20
-24.38003424223961
 30
0.0
 11
-1932.437431413275
 21
-30.00503424223961
 31
0.0
  0
LINE
  5
2EB9
330
1F
100
AcDbEntity
  8
SPOJOVACÍ
  6
DASHED
100
AcDbLine
 10
-1919.814836149084
 20
-24.38003424223916
 30
0.0
 11
-1923.603697290641
 21
-17.81753424223916
 31
0.0
  0
LINE
  5
2EBA
330
1F
100
AcDbEntity
  8
SPOJOVACÍ
  6
DASHED
100
AcDbLine
 10
-1919.814836149084
 20
-24.38003424223916
 30
0.0
 11
-1923.603697290641
 21
-30.94253424223916
 31
0.0
  0
LINE
  5
2EBB
330
1F
100
AcDbEntity
  8
SPOJOVACÍ
100
AcDbLine
 10
-2001.204339835826
 20
-25.05741471977444
 30
0.0
 11
-2000.795183541985
 21
-23.5304226429148
 31
0.0
  0
LINE
  5
2EBC
330
1F
100
AcDbEntity
  8
SPOJOVACÍ
100
AcDbLine
 10
-1999.377630396121
 20
-25.23763754432002
 30
0.0
 11
-1998.869966823026
 21
-23.3430112963747
 31
0.0
  0
LINE
  5
2EBD
330
1F
100
AcDbEntity
  8
SPOJOVACÍ
100
AcDbLine
 10
-1997.548419816766
 20
-25.40852598861192
 30
0.0
 11
-1996.947664256285
 21
-23.16647571396151
 31
0.0
  0
LINE
  5
2EBE
330
1F
100
AcDbEntity
  8
SPOJOVACÍ
100
AcDbLine
 10
-1995.716701455313
 20
-25.57005526269995
 30
0.0
 11
-1995.028258300845
 21
-23.00075043210472
 31
0.0
  0
LINE
  5
2EBF
330
1F
100
AcDbEntity
  8
SPOJOVACÍ
100
AcDbLine
 10
-1993.882468435934
 20
-25.72219970565402
 30
0.0
 11
-1993.111731846654
 21
-22.84577159520858
 31
0.0
  0
LINE
  5
2EC0
330
1F
100
AcDbEntity
  8
SPOJOVACÍ
100
AcDbLine
 10
-1990.206429735168
 20
-25.99822703218842
 30
0.0
 11
-1989.287251096753
 21
-22.56780565238705
 31
0.0
  0
LINE
  5
2EC1
330
1F
100
AcDbEntity
  8
SPOJOVACÍ
100
AcDbLine
 10
-1988.364609107747
 20
-26.12205413641368
 30
0.0
 11
-1987.379264647467
 21
-22.44469854768931
 31
0.0
  0
LINE
  5
2EC2
330
1F
100
AcDbEntity
  8
SPOJOVACÍ
100
AcDbLine
 10
-1992.04571364644
 20
-25.86493277441013
 30
0.0
 11
-1991.198068204566
 21
-22.70147691852844
 31
0.0
  0
LINE
  5
2EC3
330
1F
100
AcDbEntity
  8
SPOJOVACÍ
100
AcDbLine
 10
-1984.67332609316
 20
-26.34118890924446
 30
0.0
 11
-1983.571722178722
 21
-22.22994713074513
 31
0.0
  0
LINE
  5
2EC4
330
1F
100
AcDbEntity
  8
SPOJOVACÍ
100
AcDbLine
 10
-1982.823847272825
 20
-26.436435248424
 30
0.0
 11
-1981.672136339531
 21
-22.13819152972973
 31
0.0
  0
LINE
  5
2EC5
330
1F
100
AcDbEntity
  8
SPOJOVACÍ
100
AcDbLine
 10
-1980.971798862609
 20
-26.52209174760855
 30
0.0
 11
-1979.775321503112
 21
-22.05677745186085
 31
0.0
  0
LINE
  5
2EC6
330
1F
100
AcDbEntity
  8
SPOJOVACÍ
100
AcDbLine
 10
-1979.117172001518
 20
-26.59812533712784
 30
0.0
 11
-1977.881263676611
 21
-21.98565267508047
 31
0.0
  0
LINE
  5
2EC7
330
1F
100
AcDbEntity
  8
SPOJOVACÍ
100
AcDbLine
 10
-1986.520243923741
 20
-26.23638482618616
 30
0.0
 11
-1985.474093374125
 21
-22.33209782265566
 31
0.0
  0
LINE
  5
2EC8
330
1F
100
AcDbEntity
  8
SPOJOVACÍ
100
AcDbLine
 10
-1956.59679886261
 20
-26.52209174760855
 30
0.0
 11
-1955.362984821885
 21
-21.91743506053944
 31
0.0
  0
LINE
  5
2EC9
330
1F
100
AcDbEntity
  8
SPOJOVACÍ
100
AcDbLine
 10
-1958.543290422288
 20
-26.78890188064087
 30
0.0
 11
-1957.224928134378
 21
-21.86870683937832
 31
0.0
  0
LINE
  5
2ECA
330
1F
100
AcDbEntity
  8
SPOJOVACÍ
100
AcDbLine
 10
-1960.426944057976
 20
-26.82119768870052
 30
0.0
 11
-1959.089486204183
 21
-21.82973702535992
 31
0.0
  0
LINE
  5
2ECB
330
1F
100
AcDbEntity
  8
SPOJOVACÍ
100
AcDbLine
 10
-1962.307903278661
 20
-26.84343780307335
 30
0.0
 11
-1960.956669208831
 21
-21.8005636015473
 31
0.0
  0
LINE
  5
2ECC
330
1F
100
AcDbEntity
  8
SPOJOVACÍ
100
AcDbLine
 10
-1964.186180118788
 20
-26.8556671369156
 30
0.0
 11
-1962.826487612558
 21
-21.78122562098997
 31
0.0
  0
LINE
  5
2ECD
330
1F
100
AcDbEntity
  8
SPOJOVACÍ
100
AcDbLine
 10
-1966.061786298037
 20
-26.85792942866783
 30
0.0
 11
-1964.698952171312
 21
-21.77176322543573
 31
0.0
  0
LINE
  5
2ECE
330
1F
100
AcDbEntity
  8
SPOJOVACÍ
100
AcDbLine
 10
-1967.93473322715
 20
-26.85026726381238
 30
0.0
 11
-1966.574073937957
 21
-21.77221766474985
 31
0.0
  0
LINE
  5
2ECF
330
1F
100
AcDbEntity
  8
SPOJOVACÍ
100
AcDbLine
 10
-1977.259957563642
 20
-26.66450195861443
 30
0.0
 11
-1975.989949220312
 21
-21.92476629526572
 31
0.0
  0
LINE
  5
2ED0
330
1F
100
AcDbEntity
  8
SPOJOVACÍ
100
AcDbLine
 10
-1975.430032013567
 20
-26.8327220958622
 30
0.0
 11
-1974.101364840452
 21
-21.87406869944243
 31
0.0
  0
LINE
  5
2ED1
330
1F
100
AcDbEntity
  8
SPOJOVACÍ
100
AcDbLine
 10
-1973.537728103859
 20
-26.7681430256589
 30
0.0
 11
-1972.215497582315
 21
-21.83351153994272
 31
0.0
  0
LINE
  5
2ED2
330
1F
100
AcDbEntity
  8
SPOJOVACÍ
100
AcDbLine
 10
-1971.680032013567
 20
-26.8327220958622
 30
0.0
 11
-1970.332334823542
 21
-21.80304770946668
 31
0.0
  0
LINE
  5
2ED3
330
1F
100
AcDbEntity
  8
SPOJOVACÍ
100
AcDbLine
 10
-1969.805032013567
 20
-26.8327220958622
 30
0.0
 11
-1968.451864267676
 21
-21.78263131703124
 31
0.0
  0
LINE
  5
2ED4
330
1F
100
AcDbEntity
  8
SPOJOVACÍ
100
AcDbLine
 10
-1969.507468435934
 20
-25.72219970565402
 30
0.0
 11
-1968.869070461828
 21
-23.33966603083354
 31
0.0
  0
LINE
  5
2ED5
330
1F
100
AcDbEntity
  8
SPOJOVACÍ
100
AcDbLine
 10
-1971.341701455313
 20
-25.57005526269995
 30
0.0
 11
-1970.775531624108
 21
-23.45708068693193
 31
0.0
  0
LINE
  5
2ED6
330
1F
100
AcDbEntity
  8
SPOJOVACÍ
100
AcDbLine
 10
-1973.173419816766
 20
-25.40852598861192
 30
0.0
 11
-1972.682756426079
 21
-23.57734528515084
 31
0.0
  0
LINE
  5
2ED7
330
1F
100
AcDbEntity
  8
SPOJOVACÍ
100
AcDbLine
 10
-1952.884957563642
 20
-26.66450195861443
 30
0.0
 11
-1951.646903163359
 21
-22.04402003422092
 31
0.0
  0
LINE
  5
2ED8
330
1F
100
AcDbEntity
  8
SPOJOVACÍ
100
AcDbLine
 10
-1945.28119146359
 20
-26.27724160111529
 30
0.0
 11
-1944.24569984902
 21
-22.41273428473186
 31
0.0
  0
LINE
  5
2ED9
330
1F
100
AcDbEntity
  8
SPOJOVACÍ
100
AcDbLine
 10
-1947.184070734579
 20
-26.3812884569229
 30
0.0
 11
-1946.092152879079
 21
-22.30619554251325
 31
0.0
  0
LINE
  5
2EDA
330
1F
100
AcDbEntity
  8
SPOJOVACÍ
100
AcDbLine
 10
-1949.084161999904
 20
-26.4749303339413
 30
0.0
 11
-1947.94808222292
 21
-22.23502288479312
 31
0.0
  0
LINE
  5
2EDB
330
1F
100
AcDbEntity
  8
SPOJOVACÍ
100
AcDbLine
 10
-1950.981479679391
 20
-26.55822104769504
 30
0.0
 11
-1949.792745853062
 21
-22.12180601116096
 31
0.0
  0
LINE
  5
2EDC
330
1F
100
AcDbEntity
  8
SPOJOVACÍ
100
AcDbLine
 10
-1943.295713646443
 20
-25.86493277441013
 30
0.0
 11
-1942.401797975683
 21
-22.52879407345381
 31
0.0
  0
LINE
  5
2EDD
330
1F
100
AcDbEntity
  8
SPOJOVACÍ
100
AcDbLine
 10
-1941.456429735168
 20
-25.99822703218842
 30
0.0
 11
-1940.56043921472
 21
-22.65434488676919
 31
0.0
  0
LINE
  5
2EDE
330
1F
100
AcDbEntity
  8
SPOJOVACÍ
100
AcDbLine
 10
-1954.742172001518
 20
-26.59812533712784
 30
0.0
 11
-1953.644739067779
 21
-22.50244987051246
 31
0.0
  0
LINE
  5
2EDF
330
1F
100
AcDbEntity
  8
SPOJOVACÍ
100
AcDbLine
 10
-2004.850280716277
 20
-24.66906079862019
 30
0.0
 11
-2004.694314753336
 21
-24.08698790067456
 31
0.0
  0
LINE
  5
2EE0
330
1F
100
AcDbEntity
  8
SPOJOVACÍ
100
AcDbLine
 10
-2003.028554547819
 20
-24.86788144464981
 30
0.0
 11
-2002.784024011961
 21
-23.95528106082565
 31
0.0
  0
LINE
  5
2EE1
330
1F
100
AcDbEntity
  8
SPOJOVACÍ
100
AcDbLine
 10
-2010.37318372942
 20
-38.44253424223825
 30
0.0
 11
-2007.515292234316
 21
-38.44253424223825
 31
0.0
  0
LINE
  5
2EE2
330
1F
100
AcDbEntity
  8
SPOJOVACÍ
100
AcDbLine
 10
-2015.060683729421
 20
-34.69253424223825
 30
0.0
 11
-2010.37318372942
 21
-34.69253424223825
 31
0.0
  0
LINE
  5
2EE3
330
1F
100
AcDbEntity
  8
SPOJOVACÍ
100
AcDbLine
 10
-2010.37318372942
 20
-29.06753424223825
 30
0.0
 11
-2015.060683729421
 21
-29.06753424223825
 31
0.0
  0
ARC
  5
2EE4
330
1F
100
AcDbEntity
  8
SPOJOVACÍ
100
AcDbCircle
 10
-2015.060683729421
 20
-30.94253424223825
 30
0.0
 40
1.875
100
AcDbArc
 50
90.0
 51
180.0
  0
ARC
  5
2EE5
330
1F
100
AcDbEntity
  8
SPOJOVACÍ
100
AcDbCircle
 10
-2015.060683729421
 20
-32.81753424223825
 30
0.0
 40
1.875
100
AcDbArc
 50
180.0
 51
270.0
  0
LINE
  5
2EE6
330
1F
100
AcDbEntity
  8
SPOJOVACÍ
100
AcDbLine
 10
-2010.37318372942
 20
-19.69253424223825
 30
0.0
 11
-2015.060683729421
 21
-19.69253424223825
 31
0.0
  0
ARC
  5
2EE7
330
1F
100
AcDbEntity
  8
SPOJOVACÍ
100
AcDbCircle
 10
-2015.060683729421
 20
-17.81753424223825
 30
0.0
 40
1.875
100
AcDbArc
 50
180.0
 51
270.0
  0
LINE
  5
2EE8
330
1F
100
AcDbEntity
  8
SPOJOVACÍ
100
AcDbLine
 10
-2016.935683729421
 20
-15.94253424223825
 30
0.0
 11
-2016.935683729421
 21
-32.81753424223825
 31
0.0
  0
ARC
  5
2EE9
330
1F
100
AcDbEntity
  8
SPOJOVACÍ
100
AcDbCircle
 10
-2010.271113034678
 20
-24.38003424223825
 30
0.0
 40
6.701689614562111
100
AcDbArc
 50
135.6170676673749
 51
224.382932332625
  0
LINE
  5
2EEA
330
1F
100
AcDbEntity
  8
SPOJOVACÍ
100
AcDbLine
 10
-2007.515292234316
 20
-24.38003424223825
 30
0.0
 11
-2007.515292234316
 21
-38.44253424223825
 31
0.0
  0
LINE
  5
2EEB
330
1F
100
AcDbEntity
  8
SPOJOVACÍ
100
AcDbLine
 10
-2010.37318372942
 20
-16.80281315174124
 30
0.0
 11
-2010.37318372942
 21
-38.44253424223825
 31
0.0
  0
LINE
  5
2EEC
330
1F
100
AcDbEntity
  8
SPOJOVACÍ
100
AcDbLine
 10
-2007.515292234316
 20
-24.38003424223825
 30
0.0
 11
-2007.515292234316
 21
-38.44253424223825
 31
0.0
  0
LINE
  5
2EED
330
1F
100
AcDbEntity
  8
SPOJOVACÍ
  6
DASHED
100
AcDbLine
 10
-1923.603697290641
 20
-30.94253424223916
 30
0.0
 11
-2004.702792234315
 21
-30.94253424223825
 31
0.0
  0
LINE
  5
2EEE
330
1F
100
AcDbEntity
  8
SPOJOVACÍ
  6
DASHED
100
AcDbLine
 10
-1923.603697290641
 20
-17.81753424223916
 30
0.0
 11
-2004.702792234315
 21
-17.81753424223825
 31
0.0
  0
LINE
  5
2EEF
330
1F
100
AcDbEntity
  8
SPOJOVACÍ
  6
DASHDOT2
100
AcDbLine
 10
-2019.875893702749
 20
-24.38003424223825
 30
0.0
 11
-1904.955783958842
 21
-24.38003424223916
 31
0.0
  0
LINE
  5
2EF0
330
1F
100
AcDbEntity
  8
SPOJOVACÍ
100
AcDbLine
 10
-1939.555675823975
 20
-25.90211212711847
 30
0.0
 11
-1938.721615770699
 21
-22.78935763172694
 31
0.0
  0
LINE
  5
2EF1
330
1F
100
AcDbEntity
  8
NOSNÉ KONSTRUKCE
100
AcDbLine
 10
-2007.149370533336
 20
-44.36610051694652
 30
0.0
 11
-2007.149370533335
 21
-4.335396025373938
 31
0.0
  0
LINE
  5
2EF2
330
1F
100
AcDbEntity
  8
NOSNÉ KONSTRUKCE
100
AcDbLine
 10
-2004.149370533338
 20
-49.7733979117761
 30
0.0
 11
-2004.149370533335
 21
1.013329427298685
 31
0.0
  0
ARC
  5
2EF3
330
1F
100
AcDbEntity
  8
SPOJOVACÍ
100
AcDbCircle
 10
-2015.060683729421
 20
-15.94253424223825
 30
0.0
 40
1.875
100
AcDbArc
 50
90.0
 51
180.0
  0
LINE
  5
2EF4
330
1F
100
AcDbEntity
  8
SPOJOVACÍ
100
AcDbLine
 10
-2010.38255872942
 20
-14.06753424223825
 30
0.0
 11
-2010.38255872942
 21
-34.69253424223825
 31
0.0
  0
LINE
  5
2EF5
330
1F
100
AcDbEntity
  8
SPOJOVACÍ
100
AcDbLine
 10
-2007.515292234316
 20
-10.31753424223825
 30
0.0
 11
-2007.515292234316
 21
-24.38003424223825
 31
0.0
  0
LINE
  5
2EF6
330
1F
100
AcDbEntity
  8
SPOJOVACÍ
100
AcDbLine
 10
-2007.515292234316
 20
-10.31753424223825
 30
0.0
 11
-2007.515292234316
 21
-24.38003424223825
 31
0.0
  0
LINE
  5
2EF7
330
1F
100
AcDbEntity
  8
SPOJOVACÍ
100
AcDbLine
 10
-2010.37318372942
 20
-24.38003424223825
 30
0.0
 11
-2010.37318372942
 21
-10.31753424223825
 31
0.0
  0
LINE
  5
2EF8
330
1F
100
AcDbEntity
  8
SPOJOVACÍ
100
AcDbLine
 10
-2160.159756937134
 20
35.17948649631807
 30
0.0
 11
-2160.159756937134
 21
26.63651774631807
 31
0.0
  0
HATCH
  5
2EF9
330
1F
100
AcDbEntity
  8
NOSNÉ KONSTRUKCE
100
AcDbHatch
 10
0.0
 20
0.0
 30
0.0
210
0.0
220
0.0
230
1.0
  2
SOLID
 70
     1
 71
     0
 91
        5
 92
        7
 72
     0
 73
     1
 93
        4
 10
-2001.149370533336
 20
1.013329427294593
 10
-2004.149370533335
 20
1.013329427294593
 10
-2004.149370533335
 20
-4.634136952787685
 10
-2001.149370533334
 20
-4.63413695278723
 97
        0
 92
        7
 72
     0
 73
     1
 93
        4
 10
-2001.149370533334
 20
-4.63413695278723
 10
-2004.149370533335
 20
-4.634136952787685
 10
-2004.149370533336
 20
-17.81753424223825
 10
-2001.149370533336
 20
-17.81753424223779
 97
        0
 92
        7
 72
     0
 73
     1
 93
        4
 10
-2001.149370533336
 20
-17.81753424223825
 10
-2004.149370533338
 20
-17.81753424223825
 10
-2004.149370533338
 20
-24.38003424223825
 10
-2001.149370533336
 20
-24.38003424223825
 97
        0
 92
        7
 72
     0
 73
     1
 93
        4
 10
-2001.149370533334
 20
-24.38003424223825
 10
-2004.149370533336
 20
-24.38003424223825
 10
-2004.149370533336
 20
-30.94253424223825
 10
-2001.149370533336
 20
-30.94253424223779
 97
        0
 92
        7
 72
     0
 73
     1
 93
        4
 10
-2001.149370533334
 20
-30.94253424223779
 10
-2004.149370533338
 20
-30.94253424223916
 10
-2004.149370533338
 20
-49.77339791177564
 10
-2001.149370533334
 20
-49.7733979117761
 97
        0
 75
     0
 76
     1
 47
0.1874983414428997
 98
        5
 10
-2002.064908701923
 20
-4.030995078317118
 10
-2002.064908701923
 20
-8.718460224599311
 10
-2002.064908701923
 20
-20.53085980739115
 10
-2001.689698185558
 20
-26.9058079642723
 10
-2001.877288470063
 20
-36.09322780548746
  0
LINE
  5
2EFA
330
1F
100
AcDbEntity
  8
PROFILY
100
AcDbLine
 10
-2134.202069891574
 20
-384.3553716736846
 30
0.0
 11
-2132.033036365203
 21
-384.3553716736846
 31
0.0
  0
LINE
  5
2EFB
330
1F
100
AcDbEntity
  8
STAVBA OBRYS
  6
DASHDOT2
100
AcDbLine
 10
-2113.205746641902
 20
-130.2721449243549
 30
0.0
 11
-1900.429257575803
 21
-130.2721449243558
 31
0.0
  0
LINE
  5
2EFC
330
1F
100
AcDbEntity
  8
NOSNÉ KONSTRUKCE
100
AcDbLine
 10
-2103.649370533353
 20
-52.14824313534927
 30
0.0
 11
-2103.649370533346
 21
-49.77339791176973
 31
0.0
  0
LINE
  5
2EFD
330
1F
100
AcDbEntity
  8
NOSNÉ KONSTRUKCE
100
AcDbLine
 10
-2103.649370533344
 20
1.013329427300504
 30
0.0
 11
-2103.649370533353
 21
3.388174650880046
 31
0.0
  0
LINE
  5
2EFE
330
1F
100
AcDbEntity
  8
NOSNÉ KONSTRUKCE
100
AcDbLine
 10
-2106.214942287752
 20
10.9826363805987
 30
0.0
 11
-2103.649370533353
 21
3.388174650880046
 31
0.0
  0
ARC
  5
2EFF
330
1F
100
AcDbEntity
  8
NOSNÉ KONSTRUKCE
100
AcDbCircle
 10
-2116.35743906661
 20
-11.89251766044935
 30
0.0
 40
1.75
100
AcDbArc
 50
180.0
 51
0.0
  0
ARC
  5
2F00
330
1F
100
AcDbEntity
  8
NOSNÉ KONSTRUKCE
100
AcDbCircle
 10
-2116.35743906661
 20
-7.004268954809504
 30
0.0
 40
1.75
100
AcDbArc
 50
0.0
 51
180.0
  0
LINE
  5
2F01
330
1F
100
AcDbEntity
  8
NOSNÉ KONSTRUKCE
100
AcDbLine
 10
-2118.10743906661
 20
-7.004268954809504
 30
0.0
 11
-2118.10743906661
 21
-11.89251766044935
 31
0.0
  0
LINE
  5
2F02
330
1F
100
AcDbEntity
  8
NOSNÉ KONSTRUKCE
100
AcDbLine
 10
-2114.60743906661
 20
-11.89251766044935
 30
0.0
 11
-2114.60743906661
 21
-7.004268954809504
 31
0.0
  0
ARC
  5
2F03
330
1F
100
AcDbEntity
  8
NOSNÉ KONSTRUKCE
100
AcDbCircle
 10
-2116.357439066611
 20
4.657856203167739
 30
0.0
 40
1.3125
100
AcDbArc
 50
0.0
 51
180.0
  0
LINE
  5
2F04
330
1F
100
AcDbEntity
  8
NOSNÉ KONSTRUKCE
100
AcDbLine
 10
-2117.669939066611
 20
4.657856203167739
 30
0.0
 11
-2117.669939066611
 21
4.636043583141145
 31
0.0
  0
LINE
  5
2F05
330
1F
100
AcDbEntity
  8
NOSNÉ KONSTRUKCE
100
AcDbLine
 10
-2115.044939066611
 20
4.636043583138416
 30
0.0
 11
-2115.044939066611
 21
4.657856203167739
 31
0.0
  0
LINE
  5
2F06
330
1F
100
AcDbEntity
  8
NOSNÉ KONSTRUKCE
100
AcDbLine
 10
-2112.232439066613
 20
1.938388351276444
 30
0.0
 11
-2120.482439066613
 21
1.938388351275079
 31
0.0
  0
ARC
  5
2F07
330
1F
100
AcDbEntity
  8
NOSNÉ KONSTRUKCE
100
AcDbCircle
 10
-2116.357439066611
 20
-0.7810795006175795
 30
0.0
 40
1.3125
100
AcDbArc
 50
180.0
 51
0.0
  0
LINE
  5
2F08
330
1F
100
AcDbEntity
  8
NOSNÉ KONSTRUKCE
100
AcDbLine
 10
-2117.669939066611
 20
-0.7592668805882568
 30
0.0
 11
-2117.669939066611
 21
-0.7810795006175795
 31
0.0
  0
LINE
  5
2F09
330
1F
100
AcDbEntity
  8
NOSNÉ KONSTRUKCE
100
AcDbLine
 10
-2115.044939066611
 20
-0.7810795006175795
 30
0.0
 11
-2115.044939066611
 21
-0.7592668805859831
 31
0.0
  0
CIRCLE
  5
2F0A
330
1F
100
AcDbEntity
  8
NOSNÉ KONSTRUKCE
100
AcDbCircle
 10
-2116.357439066613
 20
1.938388351276444
 30
0.0
 40
3.0
  0
LINE
  5
2F0B
330
1F
100
AcDbEntity
  8
NOSNÉ KONSTRUKCE
100
AcDbLine
 10
-2116.357439066613
 20
-2.186611648723555
 30
0.0
 11
-2116.357439066611
 21
6.063388351276444
 31
0.0
  0
LINE
  5
2F0C
330
1F
100
AcDbEntity
  8
NOSNÉ KONSTRUKCE
100
AcDbLine
 10
-2116.475830782307
 20
-19.18962696744483
 30
0.0
 11
-2073.769097734884
 21
-19.18962696744483
 31
0.0
  0
LINE
  5
2F0D
330
1F
100
AcDbEntity
  8
NOSNÉ KONSTRUKCE
100
AcDbLine
 10
-2115.044939066611
 20
-47.97898898385165
 30
0.0
 11
-2115.044939066611
 21
-48.00080160388325
 31
0.0
  0
LINE
  5
2F0E
330
1F
100
AcDbEntity
  8
NOSNÉ KONSTRUKCE
100
AcDbLine
 10
-2117.669939066611
 20
-48.00080160388097
 30
0.0
 11
-2117.669939066611
 21
-47.97898898385165
 31
0.0
  0
ARC
  5
2F0F
330
1F
100
AcDbEntity
  8
NOSNÉ KONSTRUKCE
100
AcDbCircle
 10
-2116.357439066611
 20
-47.97898898385165
 30
0.0
 40
1.3125
100
AcDbArc
 50
0.0
 51
180.0
  0
LINE
  5
2F10
330
1F
100
AcDbEntity
  8
NOSNÉ KONSTRUKCE
100
AcDbLine
 10
-2112.232439066613
 20
-50.69845683574567
 30
0.0
 11
-2120.482439066613
 21
-50.69845683574431
 31
0.0
  0
LINE
  5
2F11
330
1F
100
AcDbEntity
  8
NOSNÉ KONSTRUKCE
100
AcDbLine
 10
-2114.60743906661
 20
-36.86755082401987
 30
0.0
 11
-2114.60743906661
 21
-41.75579952965972
 31
0.0
  0
LINE
  5
2F12
330
1F
100
AcDbEntity
  8
NOSNÉ KONSTRUKCE
100
AcDbLine
 10
-2118.10743906661
 20
-41.75579952965972
 30
0.0
 11
-2118.10743906661
 21
-36.86755082401987
 31
0.0
  0
ARC
  5
2F13
330
1F
100
AcDbEntity
  8
NOSNÉ KONSTRUKCE
100
AcDbCircle
 10
-2116.35743906661
 20
-41.75579952965972
 30
0.0
 40
1.75
100
AcDbArc
 50
180.0
 51
0.0
  0
ARC
  5
2F14
330
1F
100
AcDbEntity
  8
NOSNÉ KONSTRUKCE
100
AcDbCircle
 10
-2116.35743906661
 20
-36.86755082401987
 30
0.0
 40
1.75
100
AcDbArc
 50
0.0
 51
180.0
  0
LINE
  5
2F15
330
1F
100
AcDbEntity
  8
NOSNÉ KONSTRUKCE
100
AcDbLine
 10
-2129.172311651958
 20
-22.17965627412377
 30
0.0
 11
-2120.070761854619
 21
-22.17965627412377
 31
0.0
  0
LINE
  5
2F16
330
1F
100
AcDbEntity
  8
NOSNÉ KONSTRUKCE
100
AcDbLine
 10
-2120.070761854619
 20
-26.58041221034546
 30
0.0
 11
-2116.475830782307
 21
-29.57044151702439
 31
0.0
  0
LINE
  5
2F17
330
1F
100
AcDbEntity
  8
NOSNÉ KONSTRUKCE
100
AcDbLine
 10
-2129.172311651958
 20
-26.58041221034546
 30
0.0
 11
-2120.070761854619
 21
-26.58041221034546
 31
0.0
  0
LINE
  5
2F18
330
1F
100
AcDbEntity
  8
NOSNÉ KONSTRUKCE
100
AcDbLine
 10
-2116.475830782307
 20
-29.57044151702439
 30
0.0
 11
-2073.769097734884
 21
-29.57044151702439
 31
0.0
  0
LINE
  5
2F19
330
1F
100
AcDbEntity
  8
NOSNÉ KONSTRUKCE
100
AcDbLine
 10
-2120.070761854619
 20
-22.17965627412377
 30
0.0
 11
-2116.475830782307
 21
-19.18962696744483
 31
0.0
  0
LWPOLYLINE
  5
2F1A
330
1F
100
AcDbEntity
  8
NOSNÉ KONSTRUKCE
100
AcDbPolyline
 90
        3
 70
     0
 43
0.0
 10
-2129.172311651958
 20
-22.17965627412377
 10
-2129.172311651958
 20
10.9826363805987
 10
-2106.214942287752
 20
10.9826363805987
  0
LINE
  5
2F1B
330
1F
100
AcDbEntity
  8
NOSNÉ KONSTRUKCE
100
AcDbLine
 10
-2106.214942287752
 20
-59.74270486506793
 30
0.0
 11
-2103.649370533353
 21
-52.14824313534927
 31
0.0
  0
LINE
  5
2F1C
330
1F
100
AcDbEntity
  8
NOSNÉ KONSTRUKCE
100
AcDbLine
 10
-2116.357439066613
 20
-46.57345683574567
 30
0.0
 11
-2116.357439066611
 21
-54.82345683574568
 31
0.0
  0
CIRCLE
  5
2F1D
330
1F
100
AcDbEntity
  8
NOSNÉ KONSTRUKCE
100
AcDbCircle
 10
-2116.357439066613
 20
-50.69845683574567
 30
0.0
 40
3.0
  0
LINE
  5
2F1E
330
1F
100
AcDbEntity
  8
NOSNÉ KONSTRUKCE
100
AcDbLine
 10
-2115.044939066611
 20
-53.39611206760764
 30
0.0
 11
-2115.044939066611
 21
-53.41792468763697
 31
0.0
  0
LINE
  5
2F1F
330
1F
100
AcDbEntity
  8
NOSNÉ KONSTRUKCE
100
AcDbLine
 10
-2117.669939066611
 20
-53.41792468763697
 30
0.0
 11
-2117.669939066611
 21
-53.39611206761038
 31
0.0
  0
ARC
  5
2F20
330
1F
100
AcDbEntity
  8
NOSNÉ KONSTRUKCE
100
AcDbCircle
 10
-2116.357439066611
 20
-53.41792468763697
 30
0.0
 40
1.3125
100
AcDbArc
 50
180.0
 51
0.0
  0
LWPOLYLINE
  5
2F21
330
1F
100
AcDbEntity
  8
NOSNÉ KONSTRUKCE
100
AcDbPolyline
 90
        3
 70
     0
 43
0.0
 10
-2106.214942287752
 20
-59.74270486506793
 10
-2129.172311651958
 20
-59.74270486506793
 10
-2129.172311651958
 20
-26.58041221034546
  0
INSERT
  5
2F22
330
1F
100
AcDbEntity
  8
POPIS
100
AcDbBlockReference
  2
E_PUNKT
 10
-2160.912856580301
 20
-385.904022440487
 30
0.0
  0
INSERT
  5
2F23
330
1F
100
AcDbEntity
  8
POPIS
100
AcDbBlockReference
  2
E_PUNKT
 10
-2117.703808974119
 20
-191.4247223003226
 30
0.0
  0
LINE
  5
2F24
330
1F
100
AcDbEntity
  8
NOSNÉ KONSTRUKCE
100
AcDbLine
 10
-2140.149370533333
 20
70.28267933306278
 30
0.0
 11
-2134.943554213959
 21
70.28267933306278
 31
0.0
  0
LINE
  5
2F25
330
1F
100
AcDbEntity
  8
NOSNÉ KONSTRUKCE
100
AcDbLine
 10
-2134.94355421395
 20
-400.798146967883
 30
0.0
 11
-2134.94355421395
 21
-381.3250965678889
 31
0.0
  0
LINE
  5
2F26
330
1F
100
AcDbEntity
  8
NOSNÉ KONSTRUKCE
100
AcDbLine
 10
-2103.649370533344
 20
1.013329427300504
 30
0.0
 11
-2001.149370533336
 21
1.013329427295047
 31
0.0
  0
LINE
  5
2F27
330
1F
100
AcDbEntity
  8
NOSNÉ KONSTRUKCE
100
AcDbLine
 10
-2103.649370533346
 20
-49.77339791176973
 30
0.0
 11
-2001.149370533334
 21
-49.7733979117761
 31
0.0
  0
LINE
  5
2F28
330
1F
100
AcDbEntity
  8
NOSNÉ KONSTRUKCE
100
AcDbLine
 10
-2103.649370533344
 20
-38.98667057270131
 30
0.0
 11
-2103.649370533344
 21
1.013329427300504
 31
0.0
  0
LINE
  5
2F29
330
1F
100
AcDbEntity
  8
NOSNÉ KONSTRUKCE
100
AcDbLine
 10
-2103.649370533346
 20
-49.77339791176973
 30
0.0
 11
-2103.649370533344
 21
1.013329427300504
 31
0.0
  0
CIRCLE
  5
2F2A
330
1F
100
AcDbEntity
  8
NOSNÉ KONSTRUKCE
100
AcDbCircle
 10
-2114.113272409155
 20
-88.3683863988981
 30
0.0
 40
5.0
  0
CIRCLE
  5
2F2B
330
1F
100
AcDbEntity
  8
NOSNÉ KONSTRUKCE
100
AcDbCircle
 10
-2114.113272409155
 20
-132.4376377316739
 30
0.0
 40
5.0
  0
CIRCLE
  5
2F2C
330
1F
100
AcDbEntity
  8
NOSNÉ KONSTRUKCE
100
AcDbCircle
 10
-2114.113272409155
 20
-357.9974777522538
 30
0.0
 40
5.0
  0
CIRCLE
  5
2F2D
330
1F
100
AcDbEntity
  8
NOSNÉ KONSTRUKCE
100
AcDbCircle
 10
-2114.113272409155
 20
54.59924003268042
 30
0.0
 40
5.0
  0
CIRCLE
  5
2F2E
330
1F
100
AcDbEntity
  8
NOSNÉ KONSTRUKCE
100
AcDbCircle
 10
-2114.113272409155
 20
20.05264249526681
 30
0.0
 40
5.0
  0
LINE
  5
2F2F
330
1F
100
AcDbEntity
  8
SPOJOVACÍ
100
AcDbLine
 10
-2126.412167064692
 20
-384.3553716736846
 30
0.0
 11
-2124.889159809197
 21
-378.6714312158833
 31
0.0
  0
LINE
  5
2F30
330
1F
100
AcDbEntity
  8
SPOJOVACÍ
100
AcDbLine
 10
-2129.57622956469
 20
-384.3553716736846
 30
0.0
 11
-2128.053222309199
 21
-378.6714312158833
 31
0.0
  0
LINE
  5
2F31
330
1F
100
AcDbEntity
  8
SPOJOVACÍ
100
AcDbLine
 10
-2127.99419831469
 20
-384.3553716736846
 30
0.0
 11
-2126.471191059198
 21
-378.6714312158833
 31
0.0
  0
LINE
  5
2F32
330
1F
100
AcDbEntity
  8
SPOJOVACÍ
100
AcDbLine
 10
-2124.830135814689
 20
-384.3553716736846
 30
0.0
 11
-2123.756334247003
 21
-380.3478896658184
 31
0.0
  0
LINE
  5
2F33
330
1F
100
AcDbEntity
  8
SPOJOVACÍ
100
AcDbLine
 10
-2122.858366943727
 20
-381.5134014447839
 30
0.0
 11
-2125.04795986633
 21
-384.3553716736846
 31
0.0
  0
LINE
  5
2F34
330
1F
100
AcDbEntity
  8
SPOJOVACÍ
100
AcDbLine
 10
-2122.858366943727
 20
-381.5134014447839
 30
0.0
 11
-2125.04795986633
 21
-378.6714312158833
 31
0.0
  0
LINE
  5
2F35
330
1F
100
AcDbEntity
  8
SPOJOVACÍ
100
AcDbLine
 10
-2139.068417064689
 20
-384.3553716736846
 30
0.0
 11
-2137.545409809195
 21
-378.6714312158833
 31
0.0
  0
LINE
  5
2F36
330
1F
100
AcDbEntity
  8
SPOJOVACÍ
100
AcDbLine
 10
-2150.14263581469
 20
-384.3553716736846
 30
0.0
 11
-2148.619628559195
 21
-378.6714312158833
 31
0.0
  0
LINE
  5
2F37
330
1F
100
AcDbEntity
  8
SPOJOVACÍ
100
AcDbLine
 10
-2151.724667064688
 20
-384.3553716736846
 30
0.0
 11
-2150.201659809197
 21
-378.6714312158833
 31
0.0
  0
LINE
  5
2F38
330
1F
100
AcDbEntity
  8
SPOJOVACÍ
100
AcDbLine
 10
-2145.39654206469
 20
-384.3553716736846
 30
0.0
 11
-2143.873534809194
 21
-378.6714312158833
 31
0.0
  0
LINE
  5
2F39
330
1F
100
AcDbEntity
  8
SPOJOVACÍ
100
AcDbLine
 10
-2146.97857331469
 20
-384.3553716736846
 30
0.0
 11
-2145.455566059195
 21
-378.6714312158833
 31
0.0
  0
LINE
  5
2F3A
330
1F
100
AcDbEntity
  8
SPOJOVACÍ
100
AcDbLine
 10
-2148.56060456469
 20
-384.3553716736846
 30
0.0
 11
-2147.037597309195
 21
-378.6714312158833
 31
0.0
  0
LINE
  5
2F3B
330
1F
100
AcDbEntity
  8
SPOJOVACÍ
100
AcDbLine
 10
-2140.650448314688
 20
-384.3553716736846
 30
0.0
 11
-2139.127441059196
 21
-378.6714312158833
 31
0.0
  0
LINE
  5
2F3C
330
1F
100
AcDbEntity
  8
SPOJOVACÍ
100
AcDbLine
 10
-2142.232479564688
 20
-384.3553716736846
 30
0.0
 11
-2140.709472309196
 21
-378.6714312158833
 31
0.0
  0
LINE
  5
2F3D
330
1F
100
AcDbEntity
  8
SPOJOVACÍ
100
AcDbLine
 10
-2143.81451081469
 20
-384.3553716736846
 30
0.0
 11
-2142.291503559195
 21
-378.6714312158833
 31
0.0
  0
LINE
  5
2F3E
330
1F
100
AcDbEntity
  8
SPOJOVACÍ
100
AcDbLine
 10
-2132.74029206469
 20
-384.3553716736846
 30
0.0
 11
-2131.217284809197
 21
-378.6714312158833
 31
0.0
  0
LINE
  5
2F3F
330
1F
100
AcDbEntity
  8
SPOJOVACÍ
100
AcDbLine
 10
-2134.322323314693
 20
-384.3553716736846
 30
0.0
 11
-2132.799316059196
 21
-378.6714312158833
 31
0.0
  0
LINE
  5
2F40
330
1F
100
AcDbEntity
  8
SPOJOVACÍ
100
AcDbLine
 10
-2135.90435456469
 20
-384.3553716736846
 30
0.0
 11
-2134.381347309197
 21
-378.6714312158833
 31
0.0
  0
LINE
  5
2F41
330
1F
100
AcDbEntity
  8
SPOJOVACÍ
100
AcDbLine
 10
-2137.48638581469
 20
-384.3553716736846
 30
0.0
 11
-2135.963378559196
 21
-378.6714312158833
 31
0.0
  0
LINE
  5
2F42
330
1F
100
AcDbEntity
  8
SPOJOVACÍ
100
AcDbLine
 10
-2153.814949639191
 20
-381.5134014447839
 30
0.0
 11
-2153.814949639191
 21
-388.632542069784
 31
0.0
  0
ARC
  5
2F43
330
1F
100
AcDbEntity
  8
SPOJOVACÍ
100
AcDbCircle
 10
-2156.785818022922
 20
-381.5134014447839
 30
0.0
 40
3.392730367372068
100
AcDbArc
 50
135.6170676673749
 51
224.382932332625
  0
LINE
  5
2F44
330
1F
100
AcDbEntity
  8
SPOJOVACÍ
100
AcDbLine
 10
-2155.501769497667
 20
-377.67743326772
 30
0.0
 11
-2155.501769497667
 21
-388.632542069784
 31
0.0
  0
LINE
  5
2F45
330
1F
100
AcDbEntity
  8
SPOJOVACÍ
100
AcDbLine
 10
-2155.501769497667
 20
-383.886448319784
 30
0.0
 11
-2159.210538187134
 21
-383.886448319784
 31
0.0
  0
LINE
  5
2F46
330
1F
100
AcDbEntity
  8
SPOJOVACÍ
100
AcDbLine
 10
-2159.210538187134
 20
-386.7341045697839
 30
0.0
 11
-2155.501769497667
 21
-386.7341045697839
 31
0.0
  0
ARC
  5
2F47
330
1F
100
AcDbEntity
  8
SPOJOVACÍ
100
AcDbCircle
 10
-2159.210538187134
 20
-384.8356670697839
 30
0.0
 40
0.94921875
100
AcDbArc
 50
90.0
 51
180.0
  0
ARC
  5
2F48
330
1F
100
AcDbEntity
  8
SPOJOVACÍ
100
AcDbCircle
 10
-2159.210538187134
 20
-385.784885819784
 30
0.0
 40
0.94921875
100
AcDbArc
 50
180.0
 51
270.0
  0
LINE
  5
2F49
330
1F
100
AcDbEntity
  8
SPOJOVACÍ
100
AcDbLine
 10
-2155.501769497667
 20
-388.632542069784
 30
0.0
 11
-2153.814949639191
 21
-388.632542069784
 31
0.0
  0
LINE
  5
2F4A
330
1F
100
AcDbEntity
  8
SPOJOVACÍ
100
AcDbLine
 10
-2155.501769497667
 20
-376.2926983197839
 30
0.0
 11
-2159.210538187134
 21
-376.2926983197839
 31
0.0
  0
LINE
  5
2F4B
330
1F
100
AcDbEntity
  8
SPOJOVACÍ
100
AcDbLine
 10
-2155.501769497667
 20
-379.140354569784
 30
0.0
 11
-2159.210538187134
 21
-379.140354569784
 31
0.0
  0
ARC
  5
2F4C
330
1F
100
AcDbEntity
  8
SPOJOVACÍ
100
AcDbCircle
 10
-2159.210538187134
 20
-377.241917069784
 30
0.0
 40
0.94921875
100
AcDbArc
 50
90.0
 51
180.0
  0
ARC
  5
2F4D
330
1F
100
AcDbEntity
  8
SPOJOVACÍ
100
AcDbCircle
 10
-2159.210538187134
 20
-378.1911358197839
 30
0.0
 40
0.94921875
100
AcDbArc
 50
180.0
 51
270.0
  0
LINE
  5
2F4E
330
1F
100
AcDbEntity
  8
SPOJOVACÍ
100
AcDbLine
 10
-2153.814949639191
 20
-374.394260819784
 30
0.0
 11
-2155.501769497667
 21
-374.394260819784
 31
0.0
  0
LINE
  5
2F4F
330
1F
100
AcDbEntity
  8
SPOJOVACÍ
100
AcDbLine
 10
-2154.685493169146
 20
-376.2926983197839
 30
0.0
 11
-2154.690239262895
 21
-376.2926983197839
 31
0.0
  0
LINE
  5
2F50
330
1F
100
AcDbEntity
  8
SPOJOVACÍ
100
AcDbLine
 10
-2153.814949639191
 20
-374.394260819784
 30
0.0
 11
-2153.814949639191
 21
-381.5134014447839
 31
0.0
  0
LINE
  5
2F51
330
1F
100
AcDbEntity
  8
SPOJOVACÍ
100
AcDbLine
 10
-2155.501769497667
 20
-381.5134014447839
 30
0.0
 11
-2155.501769497667
 21
-374.394260819784
 31
0.0
  0
HATCH
  5
2F52
330
1F
100
AcDbEntity
  8
SPOJOVACÍ
100
AcDbHatch
 10
0.0
 20
0.0
 30
0.0
210
0.0
220
0.0
230
1.0
  2
ANSI37
 70
     0
 71
     0
 91
        1
 92
        7
 72
     0
 73
     1
 93
        6
 10
-2153.814949639191
 20
-374.394260819784
 10
-2155.501769497667
 20
-374.394260819784
 10
-2155.501769497667
 20
-381.5134014447839
 10
-2155.501769497667
 20
-388.632542069784
 10
-2153.814949639191
 20
-388.632542069784
 10
-2153.814949639191
 20
-381.5134014447839
 97
        0
 75
     0
 76
     1
 52
0.0
 41
0.9
 77
     0
 78
     2
 53
45.0
 43
-2487.086724853151
 44
-832.4073318799014
 45
-2.020557627240559
 46
2.020557627240559
 79
     0
 53
135.0
 43
-2487.086724853151
 44
-832.4073318799014
 45
-2.020557627240559
 46
-2.020557627240559
 79
     0
 47
0.1350114543121608
 98
        1
 10
-2154.903039131538
 20
-381.486035426979
  0
LINE
  5
2F53
330
1F
100
AcDbEntity
  8
SPOJOVACÍ
100
AcDbLine
 10
-2131.158260814689
 20
-384.3553716736846
 30
0.0
 11
-2129.635253559198
 21
-378.6714312158833
 31
0.0
  0
LINE
  5
2F54
330
1F
100
AcDbEntity
  8
SPOJOVACÍ
100
AcDbLine
 10
-2125.04795986633
 20
-384.3553716736846
 30
0.0
 11
-2153.814949639191
 21
-384.3553716736846
 31
0.0
  0
LINE
  5
2F55
330
1F
100
AcDbEntity
  8
SPOJOVACÍ
100
AcDbLine
 10
-2125.04795986633
 20
-378.6714312158833
 30
0.0
 11
-2153.814949639191
 21
-378.6714312158833
 31
0.0
  0
LINE
  5
2F56
330
1F
100
AcDbEntity
  8
SPOJOVACÍ
100
AcDbLine
 10
-2126.412167064692
 20
28.06603189241787
 30
0.0
 11
-2124.889159809197
 21
33.74997235021828
 31
0.0
  0
LINE
  5
2F57
330
1F
100
AcDbEntity
  8
SPOJOVACÍ
100
AcDbLine
 10
-2129.57622956469
 20
28.06603189241787
 30
0.0
 11
-2128.053222309199
 21
33.74997235021828
 31
0.0
  0
LINE
  5
2F58
330
1F
100
AcDbEntity
  8
SPOJOVACÍ
100
AcDbLine
 10
-2127.99419831469
 20
28.06603189241787
 30
0.0
 11
-2126.471191059198
 21
33.74997235021828
 31
0.0
  0
LINE
  5
2F59
330
1F
100
AcDbEntity
  8
SPOJOVACÍ
100
AcDbLine
 10
-2124.830135814689
 20
28.06603189241787
 30
0.0
 11
-2123.756334247003
 21
32.07351390028316
 31
0.0
  0
LINE
  5
2F5A
330
1F
100
AcDbEntity
  8
SPOJOVACÍ
100
AcDbLine
 10
-2122.858366943727
 20
30.90800212131807
 30
0.0
 11
-2125.04795986633
 21
28.06603189241787
 31
0.0
  0
LINE
  5
2F5B
330
1F
100
AcDbEntity
  8
SPOJOVACÍ
100
AcDbLine
 10
-2122.858366943727
 20
30.90800212131807
 30
0.0
 11
-2125.04795986633
 21
33.74997235021828
 31
0.0
  0
LINE
  5
2F5C
330
1F
100
AcDbEntity
  8
SPOJOVACÍ
100
AcDbLine
 10
-2139.068417064689
 20
28.06603189241787
 30
0.0
 11
-2137.545409809195
 21
33.74997235021828
 31
0.0
  0
LINE
  5
2F5D
330
1F
100
AcDbEntity
  8
SPOJOVACÍ
100
AcDbLine
 10
-2150.14263581469
 20
28.06603189241787
 30
0.0
 11
-2148.619628559195
 21
33.74997235021828
 31
0.0
  0
LINE
  5
2F5E
330
1F
100
AcDbEntity
  8
SPOJOVACÍ
100
AcDbLine
 10
-2151.724667064688
 20
28.06603189241787
 30
0.0
 11
-2150.201659809197
 21
33.74997235021828
 31
0.0
  0
LINE
  5
2F5F
330
1F
100
AcDbEntity
  8
SPOJOVACÍ
100
AcDbLine
 10
-2145.39654206469
 20
28.06603189241787
 30
0.0
 11
-2143.873534809194
 21
33.74997235021828
 31
0.0
  0
LINE
  5
2F60
330
1F
100
AcDbEntity
  8
SPOJOVACÍ
100
AcDbLine
 10
-2146.97857331469
 20
28.06603189241787
 30
0.0
 11
-2145.455566059195
 21
33.74997235021828
 31
0.0
  0
LINE
  5
2F61
330
1F
100
AcDbEntity
  8
SPOJOVACÍ
100
AcDbLine
 10
-2148.56060456469
 20
28.06603189241787
 30
0.0
 11
-2147.037597309195
 21
33.74997235021828
 31
0.0
  0
LINE
  5
2F62
330
1F
100
AcDbEntity
  8
SPOJOVACÍ
100
AcDbLine
 10
-2140.650448314688
 20
28.06603189241787
 30
0.0
 11
-2139.127441059196
 21
33.74997235021828
 31
0.0
  0
LINE
  5
2F63
330
1F
100
AcDbEntity
  8
SPOJOVACÍ
100
AcDbLine
 10
-2142.232479564688
 20
28.06603189241787
 30
0.0
 11
-2140.709472309196
 21
33.74997235021828
 31
0.0
  0
LINE
  5
2F64
330
1F
100
AcDbEntity
  8
SPOJOVACÍ
100
AcDbLine
 10
-2143.81451081469
 20
28.06603189241787
 30
0.0
 11
-2142.291503559195
 21
33.74997235021828
 31
0.0
  0
LINE
  5
2F65
330
1F
100
AcDbEntity
  8
SPOJOVACÍ
100
AcDbLine
 10
-2132.74029206469
 20
28.06603189241787
 30
0.0
 11
-2131.217284809197
 21
33.74997235021828
 31
0.0
  0
LINE
  5
2F66
330
1F
100
AcDbEntity
  8
SPOJOVACÍ
100
AcDbLine
 10
-2134.322323314693
 20
28.06603189241787
 30
0.0
 11
-2132.799316059196
 21
33.74997235021828
 31
0.0
  0
LINE
  5
2F67
330
1F
100
AcDbEntity
  8
SPOJOVACÍ
100
AcDbLine
 10
-2135.90435456469
 20
28.06603189241787
 30
0.0
 11
-2134.381347309197
 21
33.74997235021828
 31
0.0
  0
LINE
  5
2F68
330
1F
100
AcDbEntity
  8
SPOJOVACÍ
100
AcDbLine
 10
-2137.48638581469
 20
28.06603189241787
 30
0.0
 11
-2135.963378559196
 21
33.74997235021828
 31
0.0
  0
LINE
  5
2F69
330
1F
100
AcDbEntity
  8
SPOJOVACÍ
100
AcDbLine
 10
-2153.814949639191
 20
30.90800212131807
 30
0.0
 11
-2153.814949639191
 21
23.78886149631807
 31
0.0
  0
ARC
  5
2F6A
330
1F
100
AcDbEntity
  8
SPOJOVACÍ
100
AcDbCircle
 10
-2156.785818022922
 20
30.90800212131807
 30
0.0
 40
3.392730367372068
100
AcDbArc
 50
135.6170676673749
 51
224.382932332625
  0
LINE
  5
2F6B
330
1F
100
AcDbEntity
  8
SPOJOVACÍ
100
AcDbLine
 10
-2155.501769497667
 20
34.743970298382
 30
0.0
 11
-2155.501769497667
 21
23.78886149631807
 31
0.0
  0
LINE
  5
2F6C
330
1F
100
AcDbEntity
  8
SPOJOVACÍ
100
AcDbLine
 10
-2155.501769497667
 20
28.53495524631807
 30
0.0
 11
-2159.210538187134
 21
28.53495524631807
 31
0.0
  0
LINE
  5
2F6D
330
1F
100
AcDbEntity
  8
SPOJOVACÍ
100
AcDbLine
 10
-2159.210538187134
 20
25.68729899631807
 30
0.0
 11
-2155.501769497667
 21
25.68729899631807
 31
0.0
  0
ARC
  5
2F6E
330
1F
100
AcDbEntity
  8
SPOJOVACÍ
100
AcDbCircle
 10
-2159.210538187134
 20
27.58573649631808
 30
0.0
 40
0.94921875
100
AcDbArc
 50
90.0
 51
180.0
  0
ARC
  5
2F6F
330
1F
100
AcDbEntity
  8
SPOJOVACÍ
100
AcDbCircle
 10
-2159.210538187134
 20
26.63651774631807
 30
0.0
 40
0.94921875
100
AcDbArc
 50
180.0
 51
270.0
  0
LINE
  5
2F70
330
1F
100
AcDbEntity
  8
SPOJOVACÍ
100
AcDbLine
 10
-2155.501769497667
 20
23.78886149631807
 30
0.0
 11
-2153.814949639191
 21
23.78886149631807
 31
0.0
  0
LINE
  5
2F71
330
1F
100
AcDbEntity
  8
SPOJOVACÍ
100
AcDbLine
 10
-2155.501769497667
 20
36.12870524631807
 30
0.0
 11
-2159.210538187134
 21
36.12870524631807
 31
0.0
  0
LINE
  5
2F72
330
1F
100
AcDbEntity
  8
SPOJOVACÍ
100
AcDbLine
 10
-2155.501769497667
 20
33.28104899631807
 30
0.0
 11
-2159.210538187134
 21
33.28104899631807
 31
0.0
  0
ARC
  5
2F73
330
1F
100
AcDbEntity
  8
SPOJOVACÍ
100
AcDbCircle
 10
-2159.210538187134
 20
35.17948649631807
 30
0.0
 40
0.94921875
100
AcDbArc
 50
90.0
 51
180.0
  0
ARC
  5
2F74
330
1F
100
AcDbEntity
  8
SPOJOVACÍ
100
AcDbCircle
 10
-2159.210538187134
 20
34.23026774631807
 30
0.0
 40
0.94921875
100
AcDbArc
 50
180.0
 51
270.0
  0
LINE
  5
2F75
330
1F
100
AcDbEntity
  8
SPOJOVACÍ
100
AcDbLine
 10
-2153.814949639191
 20
38.02714274631807
 30
0.0
 11
-2155.501769497667
 21
38.02714274631807
 31
0.0
  0
LINE
  5
2F76
330
1F
100
AcDbEntity
  8
SPOJOVACÍ
100
AcDbLine
 10
-2154.685493169146
 20
36.12870524631807
 30
0.0
 11
-2154.690239262895
 21
36.12870524631807
 31
0.0
  0
LINE
  5
2F77
330
1F
100
AcDbEntity
  8
SPOJOVACÍ
100
AcDbLine
 10
-2153.814949639191
 20
38.02714274631807
 30
0.0
 11
-2153.814949639191
 21
30.90800212131807
 31
0.0
  0
LINE
  5
2F78
330
1F
100
AcDbEntity
  8
SPOJOVACÍ
100
AcDbLine
 10
-2155.501769497667
 20
30.90800212131807
 30
0.0
 11
-2155.501769497667
 21
38.02714274631807
 31
0.0
  0
HATCH
  5
2F79
330
1F
100
AcDbEntity
  8
SPOJOVACÍ
100
AcDbHatch
 10
0.0
 20
0.0
 30
0.0
210
0.0
220
0.0
230
1.0
  2
ANSI37
 70
     0
 71
     0
 91
        1
 92
        7
 72
     0
 73
     1
 93
        6
 10
-2153.814949639191
 20
38.02714274631807
 10
-2155.501769497667
 20
38.02714274631807
 10
-2155.501769497667
 20
30.90800212131807
 10
-2155.501769497667
 20
23.78886149631807
 10
-2153.814949639191
 20
23.78886149631807
 10
-2153.814949639191
 20
30.90800212131807
 97
        0
 75
     0
 76
     1
 52
0.0
 41
0.9
 77
     0
 78
     2
 53
45.0
 43
-2487.086724853151
 44
-419.9859283137989
 45
-2.020557627240559
 46
2.020557627240559
 79
     0
 53
135.0
 43
-2487.086724853151
 44
-419.9859283137989
 45
-2.020557627240559
 46
-2.020557627240559
 79
     0
 47
0.1350114543121608
 98
        1
 10
-2154.903039131538
 20
30.9353681391226
  0
LINE
  5
2F7A
330
1F
100
AcDbEntity
  8
SPOJOVACÍ
100
AcDbLine
 10
-2131.158260814689
 20
28.06603189241787
 30
0.0
 11
-2129.635253559198
 21
33.74997235021828
 31
0.0
  0
LINE
  5
2F7B
330
1F
100
AcDbEntity
  8
SPOJOVACÍ
100
AcDbLine
 10
-2125.04795986633
 20
28.06603189241787
 30
0.0
 11
-2153.814949639191
 21
28.06603189241787
 31
0.0
  0
LINE
  5
2F7C
330
1F
100
AcDbEntity
  8
SPOJOVACÍ
100
AcDbLine
 10
-2125.04795986633
 20
33.74997235021828
 30
0.0
 11
-2153.814949639191
 21
33.74997235021828
 31
0.0
  0
LINE
  5
2F7D
330
1F
100
AcDbEntity
  8
NOSNÉ KONSTRUKCE
100
AcDbLine
 10
-2090.149370533342
 20
64.85802787999864
 30
0.0
 11
-2134.943554213959
 21
64.85802787999864
 31
0.0
  0
SOLID
  5
2F7E
330
1F
100
AcDbEntity
  8
CETRIS
100
AcDbTrace
 10
-2153.287715666042
 20
-460.5162855751346
 30
0.0
 11
-2141.258235036873
 21
-460.8327441759479
 31
0.0
 12
-2153.25823503688
 22
73.19800212131804
 32
0.0
 13
-2141.25823503688
 23
73.19800212131804
 33
0.0
  0
LINE
  5
2F7F
330
1F
100
AcDbEntity
  8
NOSNÉ KONSTRUKCE
100
AcDbLine
 10
-2134.943554213953
 20
-207.4420409628978
 30
0.0
 11
-2134.943554213951
 21
-461.0168295940106
 31
0.0
  0
LINE
  5
2F80
330
1F
100
AcDbEntity
  8
NOSNÉ KONSTRUKCE
100
AcDbLine
 10
-2140.149370533331
 20
-207.536719236009
 30
0.0
 11
-2140.149370533331
 21
-460.3864980041485
 31
0.0
  0
LINE
  5
2F81
330
1F
100
AcDbEntity
  8
NOSNÉ KONSTRUKCE
100
AcDbLine
 10
-2140.149370533333
 20
70.28267933306278
 30
0.0
 11
-2140.149370533331
 21
-207.536719236009
 31
0.0
  0
LINE
  5
2F82
330
1F
100
AcDbEntity
  8
NOSNÉ KONSTRUKCE
100
AcDbLine
 10
-2134.943554213959
 20
70.28267933306278
 30
0.0
 11
-2134.943554213953
 21
-207.4420409628978
 31
0.0
  0
LINE
  5
2F83
330
1F
100
AcDbEntity
  8
POPIS
100
AcDbLine
 10
-2115.525600806058
 20
-271.0139821659245
 30
0.0
 11
-2112.106127018321
 21
-265.6326855184461
 31
0.0
  0
LINE
  5
2F84
330
1F
100
AcDbEntity
  8
POPIS
100
AcDbLine
 10
-2108.686653230576
 20
-271.0139821659245
 30
0.0
 11
-2112.106127018313
 21
-265.6326855184461
 31
0.0
  0
HATCH
  5
2F85
330
1F
100
AcDbEntity
  8
POPIS
100
AcDbHatch
 10
0.0
 20
0.0
 30
0.0
210
0.0
220
0.0
230
1.0
  2
SOLID
 70
     1
 71
     0
 91
        1
 92
        7
 72
     0
 73
     1
 93
        8
 10
-2110.212399178536
 20
-258.078338266841
 10
-2106.533557840936
 20
-258.078338266841
 10
-2112.106127018319
 20
-250.2774861839447
 10
-2117.678696195699
 20
-258.078338266841
 10
-2113.9998548581
 20
-258.078338266841
 10
-2115.525600806056
 20
-271.0139821659176
 10
-2112.106127018315
 20
-265.6326855184393
 10
-2108.686653230575
 20
-271.0139821659249
 97
        0
 75
     0
 76
     1
 47
0.3835833255279223
 98
        1
 10
-2111.697944271062
 20
-260.9865214473407
  0
LINE
  5
2F86
330
1F
100
AcDbEntity
  8
POPIS
100
AcDbLine
 10
-2112.106127018317
 20
-250.2774861839438
 30
0.0
 11
-2117.678696195697
 21
-258.078338266841
 31
0.0
  0
LINE
  5
2F87
330
1F
100
AcDbEntity
  8
POPIS
100
AcDbLine
 10
-2117.678696195697
 20
-258.078338266841
 30
0.0
 11
-2113.9998548581
 21
-258.078338266841
 31
0.0
  0
LINE
  5
2F88
330
1F
100
AcDbEntity
  8
POPIS
100
AcDbLine
 10
-2113.9998548581
 20
-258.078338266841
 30
0.0
 11
-2115.525600806058
 21
-271.0139821659245
 31
0.0
  0
LINE
  5
2F89
330
1F
100
AcDbEntity
  8
POPIS
100
AcDbLine
 10
-2110.212399178534
 20
-258.078338266841
 30
0.0
 11
-2108.686653230576
 21
-271.0139821659245
 31
0.0
  0
LINE
  5
2F8A
330
1F
100
AcDbEntity
  8
POPIS
100
AcDbLine
 10
-2106.533557840936
 20
-258.078338266841
 30
0.0
 11
-2110.212399178534
 21
-258.078338266841
 31
0.0
  0
LINE
  5
2F8B
330
1F
100
AcDbEntity
  8
POPIS
100
AcDbLine
 10
-2112.106127018317
 20
-250.2774861839438
 30
0.0
 11
-2106.533557840936
 21
-258.078338266841
 31
0.0
  0
HATCH
  5
2F8C
330
1F
100
AcDbEntity
  8
POPIS
100
AcDbHatch
 10
0.0
 20
0.0
 30
0.0
210
0.0
220
0.0
230
1.0
  2
SOLID
 70
     1
 71
     0
 91
        1
 92
        7
 72
     0
 73
     1
 93
        8
 10
-2110.212399178536
 20
-392.5738354401287
 10
-2106.533557840936
 20
-392.5738354401287
 10
-2112.106127018319
 20
-384.7729833572325
 10
-2117.678696195699
 20
-392.5738354401287
 10
-2113.9998548581
 20
-392.5738354401287
 10
-2115.525600806056
 20
-405.5094793392054
 10
-2112.106127018315
 20
-400.128182691727
 10
-2108.686653230575
 20
-405.5094793392127
 97
        0
 75
     0
 76
     1
 47
0.3835833255279223
 98
        1
 10
-2111.697944271062
 20
-395.4820186206284
  0
LINE
  5
2F8D
330
1F
100
AcDbEntity
  8
POPIS
100
AcDbLine
 10
-2112.106127018317
 20
-384.7729833572316
 30
0.0
 11
-2117.678696195697
 21
-392.5738354401287
 31
0.0
  0
LINE
  5
2F8E
330
1F
100
AcDbEntity
  8
POPIS
100
AcDbLine
 10
-2117.678696195697
 20
-392.5738354401287
 30
0.0
 11
-2113.9998548581
 21
-392.5738354401287
 31
0.0
  0
LINE
  5
2F8F
330
1F
100
AcDbEntity
  8
POPIS
100
AcDbLine
 10
-2113.9998548581
 20
-392.5738354401287
 30
0.0
 11
-2115.525600806058
 21
-405.5094793392122
 31
0.0
  0
LINE
  5
2F90
330
1F
100
AcDbEntity
  8
POPIS
100
AcDbLine
 10
-2110.212399178534
 20
-392.5738354401287
 30
0.0
 11
-2108.686653230576
 21
-405.5094793392122
 31
0.0
  0
LINE
  5
2F91
330
1F
100
AcDbEntity
  8
POPIS
100
AcDbLine
 10
-2106.533557840936
 20
-392.5738354401287
 30
0.0
 11
-2110.212399178534
 21
-392.5738354401287
 31
0.0
  0
LINE
  5
2F92
330
1F
100
AcDbEntity
  8
POPIS
100
AcDbLine
 10
-2112.106127018317
 20
-384.7729833572316
 30
0.0
 11
-2106.533557840936
 21
-392.5738354401287
 31
0.0
  0
LINE
  5
2F93
330
1F
100
AcDbEntity
  8
POPIS
100
AcDbLine
 10
-2115.525600806058
 20
-405.5094793392122
 30
0.0
 11
-2112.106127018321
 21
-400.1281826917338
 31
0.0
  0
LINE
  5
2F94
330
1F
100
AcDbEntity
  8
POPIS
100
AcDbLine
 10
-2108.686653230576
 20
-405.5094793392122
 30
0.0
 11
-2112.106127018313
 21
-400.1281826917338
 31
0.0
  0
LINE
  5
2F95
330
1F
100
AcDbEntity
  8
POPIS
100
AcDbLine
 10
-2115.080307542562
 20
25.04027129220821
 30
0.0
 11
-2111.660833754825
 21
30.42156793968661
 31
0.0
  0
LINE
  5
2F96
330
1F
100
AcDbEntity
  8
POPIS
100
AcDbLine
 10
-2108.241359967081
 20
25.04027129220821
 30
0.0
 11
-2111.660833754818
 21
30.42156793968661
 31
0.0
  0
HATCH
  5
2F97
330
1F
100
AcDbEntity
  8
POPIS
100
AcDbHatch
 10
0.0
 20
0.0
 30
0.0
210
0.0
220
0.0
230
1.0
  2
SOLID
 70
     1
 71
     0
 91
        1
 92
        7
 72
     0
 73
     1
 93
        8
 10
-2109.767105915037
 20
37.97591519129173
 10
-2106.088264577439
 20
37.97591519129173
 10
-2111.660833754823
 20
45.77676727418793
 10
-2117.233402932201
 20
37.97591519129173
 10
-2113.554561594603
 20
37.97591519129173
 10
-2115.080307542564
 20
25.04027129220367
 10
-2111.660833754821
 20
30.42156793969297
 10
-2108.241359967081
 20
25.0402712922064
 97
        0
 75
     0
 76
     1
 47
0.3835833255279223
 98
        1
 10
-2111.252651007566
 20
35.06773201079204
  0
LINE
  5
2F98
330
1F
100
AcDbEntity
  8
POPIS
100
AcDbLine
 10
-2111.660833754821
 20
45.77676727418884
 30
0.0
 11
-2117.233402932201
 21
37.97591519129173
 31
0.0
  0
LINE
  5
2F99
330
1F
100
AcDbEntity
  8
POPIS
100
AcDbLine
 10
-2117.233402932201
 20
37.97591519129173
 30
0.0
 11
-2113.554561594603
 21
37.97591519129173
 31
0.0
  0
LINE
  5
2F9A
330
1F
100
AcDbEntity
  8
POPIS
100
AcDbLine
 10
-2113.554561594603
 20
37.97591519129173
 30
0.0
 11
-2115.080307542562
 21
25.04027129220821
 31
0.0
  0
LINE
  5
2F9B
330
1F
100
AcDbEntity
  8
POPIS
100
AcDbLine
 10
-2109.767105915039
 20
37.97591519129173
 30
0.0
 11
-2108.241359967081
 21
25.04027129220821
 31
0.0
  0
LINE
  5
2F9C
330
1F
100
AcDbEntity
  8
POPIS
100
AcDbLine
 10
-2106.088264577441
 20
37.97591519129173
 30
0.0
 11
-2109.767105915039
 21
37.97591519129173
 31
0.0
  0
LINE
  5
2F9D
330
1F
100
AcDbEntity
  8
POPIS
100
AcDbLine
 10
-2111.660833754821
 20
45.77676727418884
 30
0.0
 11
-2106.088264577441
 21
37.97591519129173
 31
0.0
  0
HATCH
  5
2F9E
330
1F
100
AcDbEntity
  8
POPIS
100
AcDbHatch
 10
0.0
 20
0.0
 30
0.0
210
0.0
220
0.0
230
1.0
  2
SOLID
 70
     1
 71
     0
 91
        1
 92
        7
 72
     0
 73
     1
 93
        8
 10
-2109.76710591504
 20
-101.2758524625564
 10
-2106.088264577441
 20
-101.2758524625564
 10
-2111.660833754823
 20
-93.47500037966028
 10
-2117.233402932203
 20
-101.2758524625564
 10
-2113.554561594603
 20
-101.2758524625564
 10
-2115.08030754256
 20
-114.2114963616331
 10
-2111.660833754819
 20
-108.8301997141547
 10
-2108.241359967079
 20
-114.2114963616404
 97
        0
 75
     0
 76
     1
 47
0.3835833255279223
 98
        1
 10
-2111.252651007566
 20
-104.1840356430561
  0
LINE
  5
2F9F
330
1F
100
AcDbEntity
  8
POPIS
100
AcDbLine
 10
-2111.660833754821
 20
-93.47500037965938
 30
0.0
 11
-2117.233402932201
 21
-101.2758524625564
 31
0.0
  0
LINE
  5
2FA0
330
1F
100
AcDbEntity
  8
POPIS
100
AcDbLine
 10
-2117.233402932201
 20
-101.2758524625564
 30
0.0
 11
-2113.554561594603
 21
-101.2758524625564
 31
0.0
  0
LINE
  5
2FA1
330
1F
100
AcDbEntity
  8
POPIS
100
AcDbLine
 10
-2113.554561594603
 20
-101.2758524625564
 30
0.0
 11
-2115.080307542562
 21
-114.21149636164
 31
0.0
  0
LINE
  5
2FA2
330
1F
100
AcDbEntity
  8
POPIS
100
AcDbLine
 10
-2109.767105915039
 20
-101.2758524625564
 30
0.0
 11
-2108.241359967081
 21
-114.21149636164
 31
0.0
  0
LINE
  5
2FA3
330
1F
100
AcDbEntity
  8
POPIS
100
AcDbLine
 10
-2106.088264577441
 20
-101.2758524625564
 30
0.0
 11
-2109.767105915039
 21
-101.2758524625564
 31
0.0
  0
LINE
  5
2FA4
330
1F
100
AcDbEntity
  8
POPIS
100
AcDbLine
 10
-2111.660833754821
 20
-93.47500037965938
 30
0.0
 11
-2106.088264577441
 21
-101.2758524625564
 31
0.0
  0
LINE
  5
2FA5
330
1F
100
AcDbEntity
  8
POPIS
100
AcDbLine
 10
-2115.080307542562
 20
-114.21149636164
 30
0.0
 11
-2111.660833754825
 21
-108.8301997141616
 31
0.0
  0
LINE
  5
2FA6
330
1F
100
AcDbEntity
  8
POPIS
100
AcDbLine
 10
-2108.241359967081
 20
-114.21149636164
 30
0.0
 11
-2111.660833754818
 21
-108.8301997141616
 31
0.0
  0
TEXT
  5
2FA7
330
1F
100
AcDbEntity
  8
POPIS
100
AcDbText
 10
-2347.370398408279
 20
-358.08686207653
 30
0.0
 40
25.0
  1
01
 41
0.7
  7
SIMPLEX7
100
AcDbText
  0
LINE
  5
2FA8
330
1F
100
AcDbEntity
  8
POPIS
100
AcDbLine
 10
-2306.98590098865
 20
-344.6435206271594
 30
0.0
 11
-2144.149370533328
 21
-344.6435206271603
 31
0.0
  0
TEXT
  5
2FA9
330
1F
100
AcDbEntity
  8
POPIS
100
AcDbText
 10
-2347.521336283201
 20
-399.3182955589846
 30
0.0
 40
25.0
  1
02
 41
0.7
  7
SIMPLEX7
100
AcDbText
  0
TEXT
  5
2FAA
330
1F
100
AcDbEntity
  8
POPIS
100
AcDbText
 10
-2348.365511026645
 20
-78.70338151916758
 30
0.0
 40
25.0
  1
04
 41
0.7
  7
SIMPLEX7
100
AcDbText
  0
TEXT
  5
2FAB
330
1F
100
AcDbEntity
  8
POPIS
100
AcDbText
 10
-2348.365511026645
 20
7.015762943112804
 30
0.0
 40
25.0
  1
05
 41
0.7
  7
SIMPLEX7
100
AcDbText
  0
TEXT
  5
2FAC
330
1F
100
AcDbEntity
  8
POPIS
100
AcDbText
 10
-2346.963387331919
 20
-205.2040562356546
 30
0.0
 40
25.0
  1
06
 41
0.7
  7
SIMPLEX7
100
AcDbText
  0
LINE
  5
2FAD
330
1F
100
AcDbEntity
  8
POPIS
100
AcDbLine
 10
-2306.98590098865
 20
-68.00305050692123
 30
0.0
 11
-2019.713803398249
 21
-68.00305050692168
 31
0.0
  0
LINE
  5
2FAE
330
1F
100
AcDbEntity
  8
POPIS
100
AcDbLine
 10
-2306.98590098865
 20
-191.760714786284
 30
0.0
 11
-2117.676198598493
 21
-191.7607147862845
 31
0.0
  0
LINE
  5
2FAF
330
1F
100
AcDbEntity
  8
POPIS
100
AcDbLine
 10
-2306.98590098865
 20
20.45910439248245
 30
0.0
 11
-2098.914891784502
 21
20.459104392482
 31
0.0
  0
LINE
  5
2FB0
330
1F
100
AcDbEntity
  8
POPIS
100
AcDbLine
 10
-2306.98590098865
 20
-385.8749541096144
 30
0.0
 11
-2160.864735525795
 21
-385.8749541096144
 31
0.0
  0
LINE
  5
2FB1
330
1F
100
AcDbEntity
  8
POPIS
100
AcDbLine
 10
-2306.98590098865
 20
-224.9291877443797
 30
0.0
 11
-2057.599772095586
 21
-224.9291877443801
 31
0.0
  0
TEXT
  5
2FB2
330
1F
100
AcDbEntity
  8
POPIS
100
AcDbText
 10
-2346.963387331919
 20
-238.3725291937503
 30
0.0
 40
25.0
  1
07
 41
0.7
  7
SIMPLEX7
100
AcDbText
  0
LINE
  5
2FB3
330
1F
100
AcDbEntity
  8
POPIS
100
AcDbLine
 10
-2306.98590098865
 20
-422.7208607680363
 30
0.0
 11
-2114.066185857392
 21
-422.7208607680368
 31
0.0
  0
TEXT
  5
2FB4
330
1F
100
AcDbEntity
  8
POPIS
100
AcDbText
 10
-2348.365511026645
 20
-441.6857000956738
 30
0.0
 40
25.0
  1
03
 41
0.7
  7
SIMPLEX7
100
AcDbText
  0
CIRCLE
  5
2FB5
330
1F
100
AcDbEntity
  8
POPIS
100
AcDbCircle
 10
-2130.77474865
 20
-558.0154853694316
 30
0.0
 40
11.13656048292026
  0
TEXT
  5
2FB6
330
1F
100
AcDbEntity
  8
POPIS
100
AcDbText
 10
-2135.157032160322
 20
-564.1256467373773
 30
0.0
 40
12.0
  1
R
 41
0.85
  7
SIMPLEX7
100
AcDbText
  0
TEXT
  5
2FB7
330
1F
100
AcDbEntity
  8
POPIS
100
AcDbText
 10
-2357.503666103973
 20
-766.2112124864893
 30
0.0
 40
25.0
  1
06
 41
0.85
  7
SIMPLEX7
100
AcDbText
  0
TEXT
  5
2FB8
330
1F
100
AcDbEntity
  8
POPIS
100
AcDbText
 10
-2303.159962944227
 20
-766.2112124864893
 30
0.0
 40
25.0
  1
Nosný profil systému - úhelník (np. SPIDI, EuroFox, SPEEDY...)
 41
0.7
  7
SIMPLEX7
100
AcDbText
  0
TEXT
  5
2FB9
330
1F
100
AcDbEntity
  8
POPIS
100
AcDbText
 10
-2357.503666103973
 20
-730.5923237884003
 30
0.0
 40
25.0
  1
05
 41
0.85
  7
SIMPLEX7
100
AcDbText
  0
TEXT
  5
2FBA
330
1F
100
AcDbEntity
  8
POPIS
100
AcDbText
 10
-2303.159962944227
 20
-730.5923237884003
 30
0.0
 40
25.0
  1
Upevňovací prvek systému - kotva (np. SPIDI, EuroFox, SPEEDY...)
 41
0.7
  7
SIMPLEX7
100
AcDbText
  0
TEXT
  5
2FBB
330
1F
100
AcDbEntity
  8
POPIS
100
AcDbText
 10
-2303.159962944227
 20
-694.4855023012118
 30
0.0
 40
25.0
  1
Kotevní prvek
 41
0.7
  7
SIMPLEX7
100
AcDbText
  0
TEXT
  5
2FBC
330
1F
100
AcDbEntity
  8
POPIS
100
AcDbText
 10
-2357.503666103973
 20
-694.4855023012118
 30
0.0
 40
25.0
  1
04
 41
0.85
  7
SIMPLEX7
100
AcDbText
  0
TEXT
  5
2FBD
330
1F
100
AcDbEntity
  8
POPIS
100
AcDbText
 10
-2303.159962944227
 20
-659.0813410830492
 30
0.0
 40
25.0
  1
Vzduchová mezera - min. 25 mm
 41
0.7
  7
SIMPLEX7
100
AcDbText
  0
TEXT
  5
2FBE
330
1F
100
AcDbEntity
  8
POPIS
100
AcDbText
 10
-2357.503666103973
 20
-659.0813410830492
 30
0.0
 40
25.0
  1
03
 41
0.85
  7
SIMPLEX7
100
AcDbText
  0
TEXT
  5
2FBF
330
1F
100
AcDbEntity
  8
POPIS
100
AcDbText
 10
-2303.159962944227
 20
-625.1311528383271
 30
0.0
 40
25.0
  1
Nerezový vrut s podložkou (np. SFS, EJOT)
 41
0.7
  7
SIMPLEX7
100
AcDbText
  0
TEXT
  5
2FC0
330
1F
100
AcDbEntity
  8
POPIS
100
AcDbText
 10
-2357.503666103973
 20
-625.1311528383271
 30
0.0
 40
25.0
  1
02
 41
0.85
  7
SIMPLEX7
100
AcDbText
  0
TEXT
  5
2FC1
330
1F
100
AcDbEntity
  8
POPIS
100
AcDbText
 10
-2303.159962944227
 20
-588.5361412226989
 30
0.0
 40
25.0
  1
Deska CETRIS   (BASIC,FINISH,DOLOMIT)
 41
0.7
  7
SIMPLEX7
100
AcDbText
  0
TEXT
  5
2FC2
330
1F
100
AcDbEntity
  8
POPIS
100
AcDbText
 10
-2357.503666103973
 20
-588.5361412226989
 30
0.0
 40
25.0
  1
01
 41
0.85
  7
SIMPLEX7
100
AcDbText
  0
TEXT
  5
2FC3
330
1F
100
AcDbEntity
  8
POPIS
100
AcDbText
 10
-2357.503666103973
 20
-803.3784141275514
 30
0.0
 40
25.0
  1
07
 41
0.85
  7
SIMPLEX7
100
AcDbText
  0
TEXT
  5
2FC4
330
1F
100
AcDbEntity
  8
POPIS
100
AcDbText
 10
-2303.159962944227
 20
-803.3784141275514
 30
0.0
 40
25.0
  1
Tepelná izolace (np. ORSIL, ROCKWOOL, ISOVER, NOBASIL)
 41
0.7
  7
SIMPLEX7
100
AcDbText
  0
LWPOLYLINE
  5
2FC5
330
1F
100
AcDbEntity
  8
STAVBA OBRYS
  6
DASHED
100
AcDbPolyline
 90
        4
 70
     1
 43
0.0
 10
-2089.223203402082
 20
146.279338032537
 10
-2083.849922077225
 20
146.279338032537
 10
-2083.849922077225
 20
196.3989100515595
 10
-2089.223203402082
 20
196.3989100515595
  0
LINE
  5
2FC6
330
1F
100
AcDbEntity
  8
STAVBA OBRYS
  6
DASHED
100
AcDbLine
 10
-1923.4795908446
 20
177.9016240420483
 30
0.0
 11
-2083.849922077225
 21
177.9016240420519
 31
0.0
  0
LINE
  5
2FC7
330
1F
100
AcDbEntity
  8
STAVBA OBRYS
  6
DASHED
100
AcDbLine
 10
-1919.690729703045
 20
171.3391240420483
 30
0.0
 11
-1923.4795908446
 21
177.9016240420483
 31
0.0
  0
LINE
  5
2FC8
330
1F
100
AcDbEntity
  8
STAVBA OBRYS
  6
DASHED
100
AcDbLine
 10
-1919.690729703045
 20
171.3391240420483
 30
0.0
 11
-1923.4795908446
 21
164.7766240420482
 31
0.0
  0
LINE
  5
2FC9
330
1F
100
AcDbEntity
  8
STAVBA OBRYS
  6
DASHDOT2
100
AcDbLine
 10
-2117.6081665789
 20
171.3391240420501
 30
0.0
 11
-1904.831677512801
 21
171.3391240420483
 31
0.0
  0
LINE
  5
2FCA
330
1F
100
AcDbEntity
  8
STAVBA OBRYS
  6
DASHED
100
AcDbLine
 10
-1923.4795908446
 20
164.7766240420482
 30
0.0
 11
-2083.849922077225
 21
164.7766240420519
 31
0.0
  0
LINE
  5
2FCB
330
1F
100
AcDbEntity
  8
STAVBA OBRYS
100
AcDbLine
 10
-1769.151520536915
 20
-192.2297650934574
 30
0.0
 11
-1619.817290343923
 21
-192.2297650934574
 31
0.0
  0
LINE
  5
2FCC
330
1F
100
AcDbEntity
  8
STAVBA OBRYS
100
AcDbLine
 10
-1769.151520536915
 20
-204.7762969584851
 30
0.0
 11
-1623.029076811196
 21
-204.7762969584851
 31
0.0
  0
HATCH
  5
2FCD
330
1F
100
AcDbEntity
  8
STAVBA OBRYS
100
AcDbHatch
 10
0.0
 20
0.0
 30
0.0
210
0.0
220
0.0
230
1.0
  2
AR-SAND
 70
     0
 71
     0
 91
        1
 92
        7
 72
     0
 73
     1
 93
        4
 10
-1623.029076811196
 20
-204.7762969584851
 10
-1769.151520536915
 20
-204.7762969584851
 10
-1769.230629146351
 20
-249.1704196808182
 10
-1634.393527491273
 20
-249.1704196808182
 97
        0
 75
     0
 76
     1
 52
0.0
 41
0.35
 77
     0
 78
     4
 53
37.5
 43
-3026.894823971274
 44
-446.6835710980462
 45
-0.560010953594416
 46
17.12946330652698
 79
     6
 49
0.0
 49
-13.5128
 49
0.0
 49
-15.113
 49
0.0
 49
-14.44625
 53
7.499999999999999
 43
-3026.894823971274
 44
-446.6835710980462
 45
15.73331490983009
 46
25.08887851989239
 79
     6
 49
0.0
 49
-7.2898
 49
0.0
 49
-12.17929999999999
 49
0.0
 49
-4.66725
 53
327.4999999999999
 43
-3037.829523971272
 44
-446.6835710980462
 45
27.68473295845102
 46
0.0503014637490992
 79
     6
 49
0.0
 49
-4.444999999999999
 49
0.0
 49
-16.002
 49
0.0
 49
-20.89149999999999
 53
317.5
 43
-3037.829523971272
 44
-446.6835710980462
 45
26.7244758365304
 46
7.802526314002567
 79
     6
 49
0.0
 49
-2.222499999999999
 49
0.0
 49
-10.49019999999999
 49
0.0
 49
-12.00149999999999
 47
4.017849295243367
 98
        1
 10
-1682.535211082392
 20
-215.8316925596131
  0
HATCH
  5
2FCE
330
1F
100
AcDbEntity
  8
STAVBA OBRYS
100
AcDbHatch
 10
0.0
 20
0.0
 30
0.0
210
0.0
220
0.0
230
1.0
  2
ANSI32
 70
     0
 71
     0
 91
        1
 92
        7
 72
     0
 73
     1
 93
       29
 10
-1926.355906914058
 20
368.0529458592777
 10
-2004.559063961952
 20
434.9268655935397
 10
-2347.804515014036
 20
187.0383031470632
 10
-2347.804515014036
 20
174.2483113246039
 10
-2326.037226520592
 20
174.2483113246039
 10
-2324.820786008034
 20
172.6694389752142
 10
-2326.037226520592
 20
171.0905666258245
 10
-2347.804515014036
 20
171.0905666258245
 10
-2347.804515014036
 20
135.2026265065092
 10
-2346.723552720822
 20
133.7995973753118
 10
-2347.804515014036
 20
132.3965682441144
 10
-2347.804515014036
 20
121.9001881417011
 10
-2335.829252780015
 20
121.9001881417011
 10
-2335.829252780015
 20
131.4156572850793
 10
-2334.250380430629
 20
132.6320977976379
 10
-2332.67150808124
 20
131.4156572850793
 10
-2332.67150808124
 20
121.9001881416993
 10
-2326.037226520592
 20
121.9001881417011
 10
-2324.820786008034
 20
120.3213157923114
 10
-2326.037226520592
 20
118.7424434429217
 10
-2332.67150808124
 20
118.7424434429217
 10
-2332.67150808124
 20
109.5355173983539
 10
-2293.80510994999
 20
109.5355173983539
 10
-2293.805109949987
 20
131.4156572850793
 10
-2292.226237600601
 20
132.6320977976379
 10
-2290.647365251211
 20
131.4156572850793
 10
-2290.647365251211
 20
109.5355173983539
 10
-2284.318898272537
 20
109.5355173983539
 10
-2243.046841725991
 20
139.3417995651675
 97
        0
 75
     0
 76
     1
 52
340.0
 41
2.0
 77
     0
 78
     2
 53
24.99999999999999
 43
-4006.134893042858
 44
-1629.594304393742
 45
-8.050877886160327
 46
17.26516334304817
 79
     0
 53
24.99999999999999
 43
-3997.696208988121
 44
-1632.665734206043
 45
-8.050877886160327
 46
17.26516334304817
 79
     0
 47
1.234959447673127
 98
        1
 10
-2228.197359080605
 20
223.8472133922791
  0
LINE
  5
2FCF
330
1F
100
AcDbEntity
  8
SPOJOVACÍ
  6
DASHED
 48
0.5
100
AcDbLine
 10
-2324.820786008034
 20
120.3213157923114
 30
0.0
 11
-2326.037226520592
 21
118.7424434429217
 31
0.0
  0
LINE
  5
2FD0
330
1F
100
AcDbEntity
  8
SPOJOVACÍ
  6
DASHED
 48
0.5
100
AcDbLine
 10
-2324.820786008034
 20
120.3213157923114
 30
0.0
 11
-2326.037226520592
 21
121.9001881417011
 31
0.0
  0
LINE
  5
2FD1
330
1F
100
AcDbEntity
  8
SPOJOVACÍ
  6
DASHED
 48
0.5
100
AcDbLine
 10
-2364.650258318889
 20
121.9001881417011
 30
0.0
 11
-2364.650258318889
 21
118.7424434429217
 31
0.0
  0
LINE
  5
2FD2
330
1F
100
AcDbEntity
  8
SPOJOVACÍ
  6
DASHED
 48
0.5
100
AcDbLine
 10
-2365.969784846297
 20
126.2539329798114
 30
0.0
 11
-2364.650258318889
 21
121.9001881417011
 31
0.0
  0
LINE
  5
2FD3
330
1F
100
AcDbEntity
  8
SPOJOVACÍ
  6
DASHED
 48
0.5
100
AcDbLine
 10
-2365.969784846297
 20
114.3886986048114
 30
0.0
 11
-2364.650258318889
 21
118.7424434429217
 31
0.0
  0
LINE
  5
2FD4
330
1F
100
AcDbEntity
  8
SPOJOVACÍ
  6
DASHED
 48
0.5
100
AcDbLine
 10
-2366.266774889599
 20
114.3886986048114
 30
0.0
 11
-2365.969784846297
 21
114.3886986048114
 31
0.0
  0
LINE
  5
2FD5
330
1F
100
AcDbEntity
  8
SPOJOVACÍ
  6
DASHED
 48
0.5
100
AcDbLine
 10
-2366.266774889599
 20
126.2539329798114
 30
0.0
 11
-2366.266774889599
 21
114.3886986048114
 31
0.0
  0
LINE
  5
2FD6
330
1F
100
AcDbEntity
  8
SPOJOVACÍ
  6
DASHED
 48
0.5
100
AcDbLine
 10
-2326.037226520592
 20
121.9001881417011
 30
0.0
 11
-2364.650258318889
 21
121.9001881417011
 31
0.0
  0
LINE
  5
2FD7
330
1F
100
AcDbEntity
  8
SPOJOVACÍ
  6
DASHED
 48
0.5
100
AcDbLine
 10
-2326.037226520592
 20
118.7424434429217
 30
0.0
 11
-2364.650258318889
 21
118.7424434429217
 31
0.0
  0
LINE
  5
2FD8
330
1F
100
AcDbEntity
  8
SPOJOVACÍ
  6
DASHED
 48
0.5
100
AcDbLine
 10
-2324.820786008034
 20
172.6694389752142
 30
0.0
 11
-2326.037226520592
 21
174.2483113246039
 31
0.0
  0
LINE
  5
2FD9
330
1F
100
AcDbEntity
  8
SPOJOVACÍ
  6
DASHED
 48
0.5
100
AcDbLine
 10
-2324.820786008034
 20
172.6694389752142
 30
0.0
 11
-2326.037226520592
 21
171.0905666258245
 31
0.0
  0
LINE
  5
2FDA
330
1F
100
AcDbEntity
  8
SPOJOVACÍ
  6
DASHED
 48
0.5
100
AcDbLine
 10
-2366.266774889599
 20
178.6020561627142
 30
0.0
 11
-2366.266774889599
 21
166.7368217877142
 31
0.0
  0
LINE
  5
2FDB
330
1F
100
AcDbEntity
  8
SPOJOVACÍ
  6
DASHED
 48
0.5
100
AcDbLine
 10
-2366.266774889599
 20
166.7368217877142
 30
0.0
 11
-2365.969784846297
 21
166.7368217877142
 31
0.0
  0
LINE
  5
2FDC
330
1F
100
AcDbEntity
  8
SPOJOVACÍ
  6
DASHED
 48
0.5
100
AcDbLine
 10
-2365.969784846297
 20
166.7368217877142
 30
0.0
 11
-2364.650258318889
 21
171.0905666258245
 31
0.0
  0
LINE
  5
2FDD
330
1F
100
AcDbEntity
  8
SPOJOVACÍ
  6
DASHED
 48
0.5
100
AcDbLine
 10
-2365.969784846297
 20
178.6020561627142
 30
0.0
 11
-2364.650258318889
 21
174.2483113246039
 31
0.0
  0
LINE
  5
2FDE
330
1F
100
AcDbEntity
  8
SPOJOVACÍ
  6
DASHED
 48
0.5
100
AcDbLine
 10
-2366.266774889599
 20
178.6020561627142
 30
0.0
 11
-2365.969784846297
 21
178.6020561627142
 31
0.0
  0
LINE
  5
2FDF
330
1F
100
AcDbEntity
  8
SPOJOVACÍ
  6
DASHED
 48
0.5
100
AcDbLine
 10
-2364.650258318889
 20
174.2483113246039
 30
0.0
 11
-2364.650258318889
 21
171.0905666258245
 31
0.0
  0
LINE
  5
2FE0
330
1F
100
AcDbEntity
  8
SPOJOVACÍ
  6
DASHED
 48
0.5
100
AcDbLine
 10
-2326.037226520592
 20
171.0905666258245
 30
0.0
 11
-2364.650258318889
 21
171.0905666258245
 31
0.0
  0
LINE
  5
2FE1
330
1F
100
AcDbEntity
  8
SPOJOVACÍ
  6
DASHED
 48
0.5
100
AcDbLine
 10
-2326.037226520592
 20
174.2483113246039
 30
0.0
 11
-2364.650258318889
 21
174.2483113246039
 31
0.0
  0
LINE
  5
2FE2
330
1F
100
AcDbEntity
  8
SPOJOVACÍ
  6
DASHED
 48
0.5
100
AcDbLine
 10
-2298.174602081981
 20
132.6320977976379
 30
0.0
 11
-2299.753474431367
 21
131.4156572850793
 31
0.0
  0
LINE
  5
2FE3
330
1F
100
AcDbEntity
  8
SPOJOVACÍ
  6
DASHED
 48
0.5
100
AcDbLine
 10
-2298.174602081981
 20
132.6320977976379
 30
0.0
 11
-2296.595729732592
 21
131.4156572850793
 31
0.0
  0
LINE
  5
2FE4
330
1F
100
AcDbEntity
  8
SPOJOVACÍ
  6
DASHED
 48
0.5
100
AcDbLine
 10
-2304.107219269482
 20
91.1861089160725
 30
0.0
 11
-2292.241984894482
 21
91.1861089160725
 31
0.0
  0
LINE
  5
2FE5
330
1F
100
AcDbEntity
  8
SPOJOVACÍ
  6
DASHED
 48
0.5
100
AcDbLine
 10
-2292.241984894482
 20
91.1861089160725
 30
0.0
 11
-2292.241984894482
 21
91.48309895937428
 31
0.0
  0
LINE
  5
2FE6
330
1F
100
AcDbEntity
  8
SPOJOVACÍ
  6
DASHED
 48
0.5
100
AcDbLine
 10
-2292.241984894482
 20
91.48309895937428
 30
0.0
 11
-2296.595729732592
 21
92.80262548678228
 31
0.0
  0
LINE
  5
2FE7
330
1F
100
AcDbEntity
  8
SPOJOVACÍ
  6
DASHED
 48
0.5
100
AcDbLine
 10
-2304.107219269482
 20
91.48309895937428
 30
0.0
 11
-2299.753474431367
 21
92.80262548678228
 31
0.0
  0
LINE
  5
2FE8
330
1F
100
AcDbEntity
  8
SPOJOVACÍ
  6
DASHED
 48
0.5
100
AcDbLine
 10
-2304.107219269482
 20
91.1861089160725
 30
0.0
 11
-2304.107219269482
 21
91.48309895937428
 31
0.0
  0
LINE
  5
2FE9
330
1F
100
AcDbEntity
  8
SPOJOVACÍ
  6
DASHED
 48
0.5
100
AcDbLine
 10
-2299.753474431367
 20
92.80262548678228
 30
0.0
 11
-2296.595729732592
 21
92.80262548678228
 31
0.0
  0
LINE
  5
2FEA
330
1F
100
AcDbEntity
  8
SPOJOVACÍ
  6
DASHED
 48
0.5
100
AcDbLine
 10
-2296.595729732592
 20
131.4156572850793
 30
0.0
 11
-2296.595729732592
 21
92.80262548678228
 31
0.0
  0
LINE
  5
2FEB
330
1F
100
AcDbEntity
  8
SPOJOVACÍ
  6
DASHED
 48
0.5
100
AcDbLine
 10
-2299.753474431367
 20
131.4156572850793
 30
0.0
 11
-2299.753474431367
 21
92.80262548678228
 31
0.0
  0
LINE
  5
2FEC
330
1F
100
AcDbEntity
  8
SPOJOVACÍ
  6
DASHED
 48
0.5
100
AcDbLine
 10
-2116.63680337981
 20
132.6320977976379
 30
0.0
 11
-2118.215675729197
 21
131.4156572850793
 31
0.0
  0
LINE
  5
2FED
330
1F
100
AcDbEntity
  8
SPOJOVACÍ
  6
DASHED
 48
0.5
100
AcDbLine
 10
-2116.63680337981
 20
132.6320977976379
 30
0.0
 11
-2115.05793103042
 21
131.4156572850793
 31
0.0
  0
LINE
  5
2FEE
330
1F
100
AcDbEntity
  8
SPOJOVACÍ
  6
DASHED
 48
0.5
100
AcDbLine
 10
-2122.56942056731
 20
91.1861089160725
 30
0.0
 11
-2110.704186192311
 21
91.1861089160725
 31
0.0
  0
LINE
  5
2FEF
330
1F
100
AcDbEntity
  8
SPOJOVACÍ
  6
DASHED
 48
0.5
100
AcDbLine
 10
-2110.704186192311
 20
91.1861089160725
 30
0.0
 11
-2110.704186192311
 21
91.48309895937428
 31
0.0
  0
LINE
  5
2FF0
330
1F
100
AcDbEntity
  8
SPOJOVACÍ
  6
DASHED
 48
0.5
100
AcDbLine
 10
-2110.704186192311
 20
91.48309895937428
 30
0.0
 11
-2115.05793103042
 21
92.80262548678228
 31
0.0
  0
LINE
  5
2FF1
330
1F
100
AcDbEntity
  8
SPOJOVACÍ
  6
DASHED
 48
0.5
100
AcDbLine
 10
-2122.56942056731
 20
91.48309895937428
 30
0.0
 11
-2118.215675729197
 21
92.80262548678228
 31
0.0
  0
LINE
  5
2FF2
330
1F
100
AcDbEntity
  8
SPOJOVACÍ
  6
DASHED
 48
0.5
100
AcDbLine
 10
-2122.56942056731
 20
91.1861089160725
 30
0.0
 11
-2122.56942056731
 21
91.48309895937428
 31
0.0
  0
LINE
  5
2FF3
330
1F
100
AcDbEntity
  8
SPOJOVACÍ
  6
DASHED
 48
0.5
100
AcDbLine
 10
-2118.215675729197
 20
92.80262548678228
 30
0.0
 11
-2115.05793103042
 21
92.80262548678228
 31
0.0
  0
LINE
  5
2FF4
330
1F
100
AcDbEntity
  8
SPOJOVACÍ
  6
DASHED
 48
0.5
100
AcDbLine
 10
-2115.05793103042
 20
131.4156572850793
 30
0.0
 11
-2115.05793103042
 21
92.80262548678228
 31
0.0
  0
LINE
  5
2FF5
330
1F
100
AcDbEntity
  8
SPOJOVACÍ
  6
DASHED
 48
0.5
100
AcDbLine
 10
-2118.215675729197
 20
131.4156572850793
 30
0.0
 11
-2118.215675729197
 21
92.80262548678228
 31
0.0
  0
LWPOLYLINE
  5
2FF6
330
1F
100
AcDbEntity
  8
STAVBA OBRYS
100
AcDbPolyline
 90
        4
 70
     1
 43
0.0
 10
-2347.63396442977
 20
108.8536160838834
 10
-2347.63396442977
 20
91.19693402534403
 10
-2094.551790470338
 20
91.19693402534949
 10
-2094.551790470338
 20
108.8536160838889
  0
LWPOLYLINE
  5
2FF7
330
1F
100
AcDbEntity
  8
STAVBA OBRYS
100
AcDbPolyline
 90
        4
 70
     1
 43
0.0
 10
-2348.61009283106
 20
187.0449577455315
 10
-2366.266774889599
 20
187.0449577455315
 10
-2366.266774889599
 20
87.95913198623612
 10
-2348.61009283106
 20
87.95913198623612
  0
LINE
  5
2FF8
330
1F
100
AcDbEntity
  8
STAVBA OBRYS
100
AcDbLine
 10
-1769.230629146351
 20
-145.055773908874
 30
0.0
 11
-1769.230629146351
 21
216.4379992821527
 31
0.0
  0
LINE
  5
2FF9
330
1F
100
AcDbEntity
  8
STAVBA OBRYS
100
AcDbLine
 10
-1769.230629146351
 20
-204.7762969584851
 30
0.0
 11
-1769.230629146351
 21
-249.1704196808182
 31
0.0
  0
LINE
  5
2FFA
330
1F
100
AcDbEntity
  8
STAVBA OBRYS
100
AcDbLine
 10
-2005.551790470334
 20
261.0148375706344
 30
0.0
 11
-2005.551790470327
 21
-459.3621647979448
 31
0.0
  0
LINE
  5
2FFB
330
1F
100
AcDbEntity
  8
STAVBA OBRYS
100
AcDbLine
 10
-1769.230629146351
 20
-145.055773908874
 30
0.0
 11
-1769.230629146351
 21
-204.7762969584851
 31
0.0
  0
LINE
  5
2FFC
330
1F
100
AcDbEntity
  8
STAVBA OBRYS
100
AcDbLine
 10
-2089.223203402075
 20
221.835855021613
 30
0.0
 11
-2089.223203402072
 21
-463.8086081164324
 31
0.0
  0
LINE
  5
2FFD
330
1F
100
AcDbEntity
  8
STAVBA OBRYS
100
AcDbLine
 10
-1900.805891643868
 20
-249.1704196808182
 30
0.0
 11
-1603.355819187568
 21
-249.1704196808182
 31
0.0
  0
HATCH
  5
2FFE
330
1F
100
AcDbEntity
  8
STAVBA OBRYS
100
AcDbHatch
 10
0.0
 20
0.0
 30
0.0
210
0.0
220
0.0
230
1.0
  2
ANSI32
 70
     0
 71
     0
 91
        2
 92
        7
 72
     0
 73
     1
 93
        4
 10
-2134.798636217842
 20
384.0421201035228
 10
-2114.307060632484
 20
355.6679182640059
 10
-2073.772486576032
 20
384.9415976716595
 10
-2094.264062161391
 20
413.3157995111764
 97
        0
 92
        7
 72
     0
 73
     1
 93
        6
 10
-2345.948371458264
 20
249.4114382198299
 10
-2355.011136179423
 20
243.5094943628414
 10
-2374.627812161911
 20
229.3425196968351
 10
-2352.404881263014
 20
198.5709509531648
 10
-2332.893434239057
 20
203.6546621571801
 10
-2319.755483640959
 20
213.1427636812463
 97
        0
 75
     0
 76
     1
 52
20.0
 41
1.0
 77
     0
 78
     2
 53
65.0
 43
-4006.134893042858
 44
-1863.226855937153
 45
-8.632581671524091
 46
4.025438943080162
 79
     0
 53
65.0
 43
-4001.915551015489
 44
-1861.691141031001
 45
-8.632581671524091
 46
4.025438943080162
 79
     0
 47
2.264304472722329
 98
        2
 10
-2099.493100124077
 20
393.2380313083763
 10
-2337.389066218599
 20
221.1508899585191
  0
LINE
  5
2FFF
330
1F
100
AcDbEntity
  8
STAVBA OBRYS
100
AcDbLine
 10
-2561.402824590918
 20
171.9303646333305
 30
0.0
 11
-2566.402824590918
 21
171.9303646333305
 31
0.0
  0
ARC
  5
3000
330
1F
100
AcDbEntity
  8
STAVBA OBRYS
100
AcDbCircle
 10
-2481.402824590918
 20
171.9303646333305
 30
0.0
 40
80.0
100
AcDbArc
 50
180.0
 51
9.767481047646784
  0
LINE
  5
3001
330
1F
100
AcDbEntity
  8
STAVBA OBRYS
100
AcDbLine
 10
-2402.562477043507
 20
185.5023799075302
 30
0.0
 11
-2332.893434239057
 21
203.6546621571801
 31
0.0
  0
LINE
  5
3002
330
1F
100
AcDbEntity
  8
STAVBA OBRYS
100
AcDbLine
 10
-2332.893434239057
 20
203.6546621571801
 30
0.0
 11
-2178.874113641858
 21
314.8859337000308
 31
0.0
  0
LINE
  5
3003
330
1F
100
AcDbEntity
  8
STAVBA OBRYS
100
AcDbLine
 10
-2176.181789487994
 20
310.9825843703024
 30
0.0
 11
-2178.874113641858
 21
314.8859337000308
 31
0.0
  0
LINE
  5
3004
330
1F
100
AcDbEntity
  8
STAVBA OBRYS
100
AcDbLine
 10
-2331.167031834499
 20
199.0537334330624
 30
0.0
 11
-2176.181789487994
 21
310.9825843703024
 31
0.0
  0
LINE
  5
3005
330
1F
100
AcDbEntity
  8
STAVBA OBRYS
100
AcDbLine
 10
-2397.223976137528
 20
183.7168600013724
 30
0.0
 11
-2327.742332418184
 21
201.8203153840354
 31
0.0
  0
LINE
  5
3006
330
1F
100
AcDbEntity
  8
STAVBA OBRYS
100
AcDbLine
 10
-2401.961498548397
 20
181.3683578843215
 30
0.0
 11
-2411.176241220816
 21
181.9625018343963
 31
0.0
  0
LINE
  5
3007
330
1F
100
AcDbEntity
  8
STAVBA OBRYS
100
AcDbLine
 10
-2411.176241220816
 20
181.9625018343963
 30
0.0
 11
-2416.766621346004
 21
148.0680521367744
 31
0.0
  0
LINE
  5
3008
330
1F
100
AcDbEntity
  8
STAVBA OBRYS
100
AcDbLine
 10
-2551.629407961021
 20
181.9625018343963
 30
0.0
 11
-2546.039027835833
 21
148.0680521367744
 31
0.0
  0
LINE
  5
3009
330
1F
100
AcDbEntity
  8
STAVBA OBRYS
100
AcDbLine
 10
-2563.182831438208
 20
181.2175654964362
 30
0.0
 11
-2551.629407961021
 21
181.9625018343963
 31
0.0
  0
LINE
  5
300A
330
1F
100
AcDbEntity
  8
STAVBA OBRYS
100
AcDbLine
 10
-2566.402824590918
 20
171.9303646333305
 30
0.0
 11
-2563.182831438208
 21
181.2175654964362
 31
0.0
  0
ARC
  5
300B
330
1F
100
AcDbEntity
  8
STAVBA OBRYS
100
AcDbCircle
 10
-2481.402824590918
 20
171.9303646333305
 30
0.0
 40
85.0
100
AcDbArc
 50
180.0
 51
7.970582748507584
  0
LINE
  5
300C
330
1F
100
AcDbEntity
  8
STAVBA OBRYS
100
AcDbLine
 10
-2556.402824590918
 20
171.9303646333305
 30
0.0
 11
-2406.402824590918
 21
171.9303646333305
 31
0.0
  0
ARC
  5
300D
330
1F
100
AcDbEntity
  8
STAVBA OBRYS
100
AcDbCircle
 10
-2481.402824590918
 20
171.9303646333305
 30
0.0
 40
75.0
100
AcDbArc
 50
180.0
 51
0.0
  0
LINE
  5
300E
330
1F
100
AcDbEntity
  8
STAVBA OBRYS
100
AcDbLine
 10
-2145.468828357877
 20
394.2788862897346
 30
0.0
 11
-2151.187257501916
 21
403.4462512013474
 31
0.0
  0
LINE
  5
300F
330
1F
100
AcDbEntity
  8
STAVBA OBRYS
100
AcDbLine
 10
-2038.492956420411
 20
463.9447785039906
 30
0.0
 11
-2145.468828357877
 21
394.2788862897346
 31
0.0
  0
LINE
  5
3010
330
1F
100
AcDbEntity
  8
STAVBA OBRYS
100
AcDbLine
 10
-2047.050918486381
 20
471.2629545200566
 30
0.0
 11
-2151.187257501916
 21
403.4462512013474
 31
0.0
  0
LINE
  5
3011
330
1F
100
AcDbEntity
  8
STAVBA OBRYS
100
AcDbLine
 10
-2062.312978119212
 20
424.8255108734179
 30
0.0
 11
-2072.747436102302
 21
440.2194481834817
 31
0.0
  0
LINE
  5
3012
330
1F
100
AcDbEntity
  8
STAVBA OBRYS
100
AcDbLine
 10
-2089.837708142343
 20
407.1867314057786
 30
0.0
 11
-2062.312978119212
 21
424.8255108734179
 31
0.0
  0
LINE
  5
3013
330
1F
100
AcDbEntity
  8
STAVBA OBRYS
100
AcDbLine
 10
-2072.747436102302
 20
440.2194481834817
 30
0.0
 11
-2424.846603658386
 21
210.9219233170356
 31
0.0
  0
LINE
  5
3014
330
1F
100
AcDbEntity
  8
STAVBA OBRYS
100
AcDbLine
 10
-2419.128174514347
 20
201.7545584054228
 30
0.0
 11
-2424.846603658386
 21
210.9219233170356
 31
0.0
  0
LINE
  5
3015
330
1F
100
AcDbEntity
  8
STAVBA OBRYS
100
AcDbLine
 10
-2094.264062161391
 20
413.3157995111746
 30
0.0
 11
-2419.128174514347
 21
201.7545584054228
 31
0.0
  0
LINE
  5
3016
330
1F
100
AcDbEntity
  8
STAVBA OBRYS
100
AcDbLine
 10
-2284.318898272537
 20
109.5355173983539
 30
0.0
 11
-2347.804515014036
 21
109.5355173983539
 31
0.0
  0
LWPOLYLINE
  5
3017
330
1F
100
AcDbEntity
  8
STAVBA OBRYS
100
AcDbPolyline
 90
        4
 70
     1
 43
0.0
 10
-2316.979930914739
 20
209.2995212257396
 10
-2346.253610322394
 20
249.8340952821913
 10
-2374.627812161911
 20
229.3425196968351
 10
-2345.354132754256
 20
188.8079456403834
  0
LWPOLYLINE
  5
3018
330
1F
100
AcDbEntity
  8
STAVBA OBRYS
100
AcDbPolyline
 90
        4
 70
     1
 43
0.0
 10
-2114.307060632484
 20
355.6679182640059
 10
-2073.772486576032
 20
384.9415976716595
 10
-2094.264062161391
 20
413.3157995111746
 10
-2134.798636217842
 20
384.0421201035228
  0
LINE
  5
3019
330
1F
100
AcDbEntity
  8
STAVBA OBRYS
100
AcDbLine
 10
-2243.046841725991
 20
139.3417995651675
 30
0.0
 11
-2284.318898272537
 21
109.5355173983539
 31
0.0
  0
LINE
  5
301A
330
1F
100
AcDbEntity
  8
STAVBA OBRYS
100
AcDbLine
 10
-2004.559063961952
 20
434.9268655935397
 30
0.0
 11
-2347.804515014036
 21
187.0383031470632
 31
0.0
  0
LINE
  5
301B
330
1F
100
AcDbEntity
  8
STAVBA OBRYS
100
AcDbLine
 10
-2347.804515014036
 20
109.5355173983539
 30
0.0
 11
-2347.804515014036
 21
187.0383031470632
 31
0.0
  0
LINE
  5
301C
330
1F
100
AcDbEntity
  8
STAVBA OBRYS
100
AcDbLine
 10
-1926.355906914058
 20
368.0529458592777
 30
0.0
 11
-2243.046841725991
 21
139.3417995651675
 31
0.0
  0
LINE
  5
301D
330
1F
100
AcDbEntity
  8
STAVBA OBRYS
100
AcDbLine
 10
-1900.805891643868
 20
-249.1704196808182
 30
0.0
 11
-1900.805891643868
 21
-355.0109393262623
 31
0.0
  0
LINE
  5
301E
330
1F
100
AcDbEntity
  8
STAVBA OBRYS
100
AcDbLine
 10
-1900.805891643868
 20
-355.0109393262623
 30
0.0
 11
-1607.074695837812
 21
-355.0109393262623
 31
0.0
  0
LINE
  5
301F
330
1F
100
AcDbEntity
  8
STAVBA OBRYS
100
AcDbLine
 10
-1769.230629146351
 20
-355.0109393262623
 30
0.0
 11
-1769.230629146351
 21
-454.2359924015049
 31
0.0
  0
LINE
  5
3020
330
1F
100
AcDbEntity
  8
STAVBA OBRYS
100
AcDbLine
 10
-2089.223203402075
 20
221.835855021613
 30
0.0
 11
-2005.551790470334
 21
221.835855021613
 31
0.0
  0
LINE
  5
3021
330
1F
100
AcDbEntity
  8
STAVBA OBRYS
  6
DASHED
100
AcDbLine
 10
-1923.4795908446
 20
-215.8413110722154
 30
0.0
 11
-2083.849922077225
 21
-215.8413110722117
 31
0.0
  0
LINE
  5
3022
330
1F
100
AcDbEntity
  8
STAVBA OBRYS
  6
DASHED
100
AcDbLine
 10
-1919.690729703045
 20
-209.2788110722153
 30
0.0
 11
-1923.4795908446
 21
-215.8413110722154
 31
0.0
  0
LINE
  5
3023
330
1F
100
AcDbEntity
  8
STAVBA OBRYS
  6
DASHED
100
AcDbLine
 10
-1919.690729703045
 20
-209.2788110722153
 30
0.0
 11
-1923.4795908446
 21
-202.7163110722153
 31
0.0
  0
LINE
  5
3024
330
1F
100
AcDbEntity
  8
STAVBA OBRYS
  6
DASHED
100
AcDbLine
 10
-1923.4795908446
 20
-202.7163110722153
 30
0.0
 11
-2083.849922077225
 21
-202.7163110722117
 31
0.0
  0
LWPOLYLINE
  5
3025
330
1F
100
AcDbEntity
  8
STAVBA OBRYS
  6
DASHED
100
AcDbPolyline
 90
        4
 70
     1
 43
0.0
 10
-2089.223203402082
 20
-234.3385970817266
 10
-2083.849922077225
 20
-234.3385970817266
 10
-2083.849922077225
 20
-184.219025062704
 10
-2089.223203402082
 20
-184.219025062704
  0
TEXT
  5
3026
330
1F
100
AcDbEntity
  8
POPIS
100
AcDbText
 10
-2543.163075872767
 20
563.6507268266054
 30
0.0
 40
50.0
  1
HORNÍ ZAKONČENÍ
 41
0.85
  7
SIMPLEX7
100
AcDbText
  0
TEXT
  5
3027
330
1F
100
AcDbEntity
  8
POPIS
100
AcDbText
 10
-2543.163075872767
 20
509.0259838008046
 30
0.0
 40
35.0
  1
ŘEZ-UKONČENÍ FASÁDY
 41
0.85
  7
SIMPLEX7
100
AcDbText
  0
HATCH
  5
3028
330
1F
100
AcDbEntity
  8
STAVBA OBRYS
100
AcDbHatch
 10
0.0
 20
0.0
 30
0.0
210
0.0
220
0.0
230
1.0
  2
BRICK
 70
     0
 71
     0
 91
        1
 92
        7
 72
     0
 73
     1
 93
       25
 10
-1769.230629146351
 20
216.4379992821527
 10
-2005.551790470334
 20
261.0148375706344
 10
-2005.551790470334
 20
177.9016240420501
 10
-1923.479590844604
 20
177.9016240420501
 10
-1919.690729703045
 20
171.3391240420483
 10
-1923.479590844604
 20
164.7766240420501
 10
-2005.551790470334
 20
164.7766240420501
 10
-2005.551790470334
 20
-45.70780549507936
 10
-1928.006117227637
 20
-45.70780549507936
 10
-1924.217256086082
 20
-52.27030549507936
 10
-1928.006117227637
 20
-58.83280549508118
 10
-2005.551790470327
 20
-99.46685912387103
 10
-2005.551790470327
 20
-202.7163110722153
 10
-1923.4795908446
 20
-202.7163110722153
 10
-1919.690729703045
 20
-209.2788110722153
 10
-1923.4795908446
 20
-215.8413110722154
 10
-2005.551790470327
 20
-215.8413110722135
 10
-2005.551790470327
 20
-459.3621647979448
 10
-1769.230629146351
 20
-454.2359924015049
 10
-1769.230629146351
 20
-355.0109393262623
 10
-1900.805891643868
 20
-355.0109393262623
 10
-1900.805891643868
 20
-249.1704196808182
 10
-1769.230629146351
 20
-249.1704196808182
 10
-1769.230629146351
 20
-204.7762969584851
 10
-1769.230629146351
 20
-145.055773908874
 97
        0
 75
     0
 76
     1
 52
0.0
 41
10.0
 77
     0
 78
     3
 53
0.0
 43
-16212.06682616888
 44
3416.816314478388
 45
0.0
 46
63.5
 79
     0
 53
90.0
 43
-16212.06682616888
 44
3416.816314478388
 45
-127.0
 46
0.0000000000000078
 79
     2
 49
63.5
 49
-63.5
 53
90.0
 43
-16148.56682616888
 44
3416.816314478388
 45
-127.0
 46
0.0000000000000078
 79
     2
 49
-63.5
 49
63.5
 47
3.990467405356866
 98
        1
 10
-1829.455491273239
 20
-101.2843350456728
  0
LINE
  5
3029
330
1F
100
AcDbEntity
  8
STAVBA OBRYS
100
AcDbLine
 10
-1759.230629146351
 20
-365.0109393262623
 30
0.0
 11
-1607.074695837812
 21
-365.0109393262623
 31
0.0
  0
LINE
  5
302A
330
1F
100
AcDbEntity
  8
STAVBA OBRYS
100
AcDbLine
 10
-1759.230629146351
 20
-365.0109393262623
 30
0.0
 11
-1759.230629146351
 21
-454.2359924015049
 31
0.0
  0
LINE
  5
302B
330
1F
100
AcDbEntity
  8
STAVBA OBRYS
100
AcDbLine
 10
-1759.230629146351
 20
-192.2297650934574
 30
0.0
 11
-1759.230629146351
 21
216.4379992821527
 31
0.0
  0
HATCH
  5
302C
330
1F
100
AcDbEntity
  8
STAVBA OBRYS
100
AcDbHatch
 10
0.0
 20
0.0
 30
0.0
210
0.0
220
0.0
230
1.0
  2
AR-SAND
 70
     0
 71
     0
 91
        2
 92
        7
 72
     0
 73
     1
 93
        5
 10
-1759.230629146351
 20
216.4379992821527
 10
-1769.230629146351
 20
216.4379992821527
 10
-1769.230629146351
 20
-145.055773908874
 10
-1769.230629146351
 20
-192.2297650934574
 10
-1759.230629146351
 20
-192.2297650934574
 97
        0
 92
        7
 72
     0
 73
     1
 93
        6
 10
-1759.230629146351
 20
-365.0109393262623
 10
-1607.074695837812
 20
-365.0109393262623
 10
-1607.074695837812
 20
-355.0109393262623
 10
-1769.230629146351
 20
-355.0109393262623
 10
-1769.230629146351
 20
-454.2359924015049
 10
-1759.230629146351
 20
-454.2359924015049
 97
        0
 75
     0
 76
     1
 52
0.0
 41
0.1
 77
     0
 78
     4
 53
37.5
 43
-16212.06682616888
 44
3416.816314478388
 45
-0.1600031295984046
 46
4.894132373293423
 79
     6
 49
0.0
 49
-3.8608
 49
0.0
 49
-4.318
 49
0.0
 49
-4.1275
 53
7.499999999999999
 43
-16212.06682616888
 44
3416.816314478388
 45
4.495232831380026
 46
7.168251005683543
 79
     6
 49
0.0
 49
-2.0828
 49
0.0
 49
-3.4798
 49
0.0
 49
-1.3335
 53
327.4999999999999
 43
-16215.19102616888
 44
3416.816314478388
 45
7.909923702414579
 46
0.0143718467854569
 79
     6
 49
0.0
 49
-1.27
 49
0.0
 49
-4.572
 49
0.0
 49
-5.969
 53
317.5
 43
-16215.19102616888
 44
3416.816314478388
 45
7.635564524722972
 46
2.229293232572162
 79
     6
 49
0.0
 49
-0.635
 49
0.0
 49
-2.997199999999999
 49
0.0
 49
-3.429
 47
1.515623993621287
 98
        2
 10
-1765.163512930191
 20
2.781653545133394
 10
-1763.647063581255
 20
-394.3118530618317
  0
LINE
  5
302D
330
1F
100
AcDbEntity
  8
STAVBA OBRYS
  6
IZOLACE
 48
4.0
100
AcDbLine
 10
-2047.003797563996
 20
221.8358550216125
 30
0.0
 11
-2048.010680335629
 21
-461.6185034987861
 31
0.0
  0
LINE
  5
302E
330
1F
100
AcDbEntity
  8
STAVBA OBRYS
100
AcDbLine
 10
-2096.174045424367
 20
297.161705327197
 30
0.0
 11
-2096.174045424363
 21
108.8536160838889
 31
0.0
  0
LINE
  5
302F
330
1F
100
AcDbEntity
  8
STAVBA OBRYS
100
AcDbLine
 10
-2096.174045424367
 20
297.161705327197
 30
0.0
 11
-2136.174045424367
 21
297.161705327197
 31
0.0
  0
LINE
  5
3030
330
1F
100
AcDbEntity
  8
STAVBA OBRYS
100
AcDbLine
 10
-2136.174045424367
 20
297.161705327197
 30
0.0
 11
-2136.174045424363
 21
108.8536160838889
 31
0.0
  0
LINE
  5
3031
330
1F
100
AcDbEntity
  8
STAVBA OBRYS
100
AcDbLine
 10
-2096.174045424363
 20
108.8536160838889
 30
0.0
 11
-2096.174045424363
 21
148.8536160838889
 31
0.0
  0
LINE
  5
3032
330
1F
100
AcDbEntity
  8
STAVBA OBRYS
100
AcDbLine
 10
-2136.174045424363
 20
148.8536160838889
 30
0.0
 11
-2315.150544995919
 21
148.8536160838889
 31
0.0
  0
LINE
  5
3033
330
1F
100
AcDbEntity
  8
STAVBA OBRYS
100
AcDbLine
 10
-2315.150544995919
 20
148.8536160838889
 30
0.0
 11
-2315.150544995919
 21
108.8536160838834
 31
0.0
  0
LINE
  5
3034
330
1F
100
AcDbEntity
  8
STAVBA OBRYS
  6
DASHED
100
AcDbLine
 10
-2136.174045424363
 20
148.8536160838889
 30
0.0
 11
-2096.174045424367
 21
148.8536160838889
 31
0.0
  0
HATCH
  5
3035
330
1F
100
AcDbEntity
  8
STAVBA OBRYS
100
AcDbHatch
 10
0.0
 20
0.0
 30
0.0
210
0.0
220
0.0
230
1.0
  2
ANSI32
 70
     0
 71
     0
 91
        3
 92
        7
 72
     0
 73
     1
 93
        6
 10
-2348.610092831056
 20
187.0449577455315
 10
-2366.266774889599
 20
187.0449577455315
 10
-2366.266774889603
 20
178.6020561627142
 10
-2365.96978484629
 20
178.6020561627142
 10
-2364.650258318893
 20
174.2483113246039
 10
-2348.61009283106
 20
174.2483113246039
 97
        0
 92
        7
 72
     0
 73
     1
 93
       16
 10
-2348.610092831063
 20
171.0905666258245
 10
-2364.650258318885
 20
171.0905666258245
 10
-2365.969784846301
 20
166.7368217877142
 10
-2366.266774889599
 20
166.7368217877142
 10
-2366.266774889599
 20
136.6415676042129
 10
-2352.193965885785
 20
136.6415676042111
 10
-2352.234942796412
 20
136.4886396918141
 10
-2350.163173020319
 20
133.7995973753136
 10
-2352.018791027237
 20
131.3911080723778
 10
-2352.13494189128
 20
130.9576271464125
 10
-2366.266774889595
 20
130.9576271464125
 10
-2366.266774889595
 20
114.3886986048114
 10
-2365.969784846301
 20
114.3886986048096
 10
-2364.650258318889
 20
118.7424434429308
 10
-2364.650258318893
 20
121.9001881417011
 10
-2348.61009283106
 20
121.9001881417011
 97
        0
 92
        7
 72
     0
 73
     1
 93
        6
 10
-2348.61009283106
 20
118.7424434429217
 10
-2364.650258318893
 20
118.7424434429199
 10
-2365.969784846301
 20
114.3886986048114
 10
-2366.266774889599
 20
114.3886986048114
 10
-2366.266774889599
 20
87.95913198623612
 10
-2348.610092831063
 20
87.95913198623612
 97
        0
 75
     0
 76
     1
 52
20.0
 41
1.0
 77
     0
 78
     2
 53
65.0
 43
-27858.91228971721
 44
-8104.149877887955
 45
-8.632581671524091
 46
4.025438943080162
 79
     0
 53
65.0
 43
-27854.69294768984
 44
-8102.614162981806
 45
-8.632581671524091
 46
4.025438943080162
 79
     0
 47
0.5779805388417864
 98
        3
 10
-2355.471685984256
 20
179.3087351783747
 10
-2357.206561129261
 20
148.6757722773604
 10
-2357.784874203932
 20
100.7033762382911
  0
HATCH
  5
3036
330
1F
100
AcDbEntity
  8
STAVBA OBRYS
100
AcDbHatch
 10
0.0
 20
0.0
 30
0.0
210
0.0
220
0.0
230
1.0
  2
ANSI32
 70
     0
 71
     0
 91
        3
 92
        7
 72
     0
 73
     1
 93
        6
 10
-2299.753474431364
 20
108.8536160838853
 10
-2347.63396442977
 20
108.8536160838834
 10
-2347.63396442977
 20
91.19693402534403
 10
-2304.107219269482
 20
91.19693402534585
 10
-2304.107219269482
 20
91.48309895937428
 10
-2299.753474431367
 20
92.80262548678228
 97
        0
 92
        7
 72
     0
 73
     1
 93
        8
 10
-2118.215675729193
 20
108.8536160838889
 10
-2296.595729732595
 20
108.8536160838834
 10
-2296.595729732595
 20
92.80262548678228
 10
-2292.241984894485
 20
91.48309895937609
 10
-2292.241984894482
 20
91.19693402534585
 10
-2122.56942056731
 20
91.19693402535132
 10
-2122.569420567307
 20
91.48309895937428
 10
-2118.2156757292
 20
92.80262548678228
 97
        0
 92
        7
 72
     0
 73
     1
 93
        6
 10
-2094.551790470335
 20
108.8536160838907
 10
-2115.05793103042
 20
108.8536160838889
 10
-2115.057931030424
 20
92.80262548678228
 10
-2110.704186192311
 20
91.48309895937428
 10
-2110.704186192311
 20
91.19693402534768
 10
-2094.551790470342
 20
91.19693402534949
 97
        0
 75
     0
 76
     1
 52
20.0
 41
1.0
 77
     0
 78
     2
 53
65.0
 43
-27858.91228971721
 44
-8104.149877887955
 45
-8.632581671524091
 46
4.025438943080162
 79
     0
 53
65.0
 43
-27854.69294768984
 44
-8102.614162981806
 45
-8.632581671524091
 46
4.025438943080162
 79
     0
 47
0.5779805388417864
 98
        3
 10
-2315.569237254077
 20
100.1253674114473
 10
-2263.522598429856
 20
97.23548169003926
 10
-2110.85243224719
 20
100.7033762382911
  0
LINE
  5
308F
330
1F
100
AcDbEntity
  8
PROFILY
100
AcDbLine
 10
-2140.896869794722
 20
-460.8917093560739
 30
0.0
 11
-2140.896869794722
 21
70.29531830619271
 31
0.0
  0
LINE
  5
3090
330
1F
100
AcDbEntity
  8
PROFILY
  6
DASHED
370
    40
100
AcDbLine
 10
-2140.696869794722
 20
-460.8917093560738
 30
0.0
 11
-2140.696869794722
 21
70.29531830619271
 31
0.0
  0
LINE
  5
3091
330
1F
100
AcDbEntity
  8
PROFILY
100
AcDbLine
 10
-2140.496869794723
 20
-460.891709356074
 30
0.0
 11
-2140.496869794722
 21
70.29531830619271
 31
0.0
  0
TEXT
  5
3092
330
1F
100
AcDbEntity
  8
POPIS
100
AcDbText
 10
-2213.483132595292
 20
38.13595481295078
 30
0.0
 40
25.0
  1
70
 50
90.0
 41
0.7
  7
SIMPLEX7
100
AcDbText
  0
LINE
  5
3093
330
1F
100
AcDbEntity
  8
POPIS
100
AcDbLine
 10
-2207.873222203
 20
82.30941900159223
 30
0.0
 11
-2207.873222203
 21
17.91513425509538
 31
0.0
  0
LINE
  5
3095
330
1F
100
AcDbEntity
  8
POPIS
100
AcDbLine
 10
-2176.890212347097
 20
73.01820291872264
 30
0.0
 11
-2220.373222203
 21
73.01820291872264
 31
0.0
  0
INSERT
  5
3096
330
1F
100
AcDbEntity
  8
POPIS
100
AcDbBlockReference
  2
_ArchTick
 10
-2207.873222203
 20
73.01820291872264
 30
0.0
 41
15.0
 42
15.0
 43
15.0
 50
90.0
  0
LINE
  5
3097
330
1F
100
AcDbEntity
  8
POPIS
100
AcDbLine
 10
-2308.497708735975
 20
-263.8349613217387
 30
0.0
 11
-2140.696869794722
 21
-263.8349613217406
 31
0.0
  0
INSERT
  5
3098
330
1F
100
AcDbEntity
  8
POPIS
100
AcDbBlockReference
  2
E_PUNKT
 10
-2140.636553132578
 20
-263.4142182555279
 30
0.0
  0
TEXT
  5
3099
330
1F
100
AcDbEntity
  8
POPIS
100
AcDbText
 10
-2304.162426600224
 20
-837.2891910646377
 30
0.0
 40
25.0
  1
Podkladní EPDM páska tl.1 mm
 41
0.7
  7
SIMPLEX7
100
AcDbText
  0
TEXT
  5
309A
330
1F
100
AcDbEntity
  8
POPIS
100
AcDbText
 10
-2358.506129759966
 20
-837.2891910646377
 30
0.0
 40
25.0
  1
08
 41
0.85
  7
SIMPLEX7
100
AcDbText
  0
INSERT
  5
309B
330
1F
100
AcDbEntity
  8
POPIS
100
AcDbBlockReference
  2
_ArchTick
 10
-2207.873222203
 20
29.09600165654956
 30
0.0
 41
15.0
 42
15.0
 43
15.0
 50
90.0
  0
LINE
  5
309C
330
1F
100
AcDbEntity
  8
POPIS
100
AcDbLine
 10
-2176.890212347097
 20
29.09600165654956
 30
0.0
 11
-2220.373222203
 21
29.09600165654956
 31
0.0
  0
TEXT
  5
309E
330
1F
100
AcDbEntity
  8
POPIS
100
AcDbText
 10
-2346.963387331919
 20
-274.0791278583051
 30
0.0
 40
25.0
  1
08
 41
0.7
  7
SIMPLEX7
100
AcDbText
  0
ENDSEC
  0
SECTION
  2
OBJECTS
  0
DICTIONARY
  5
C
330
0
100
AcDbDictionary
281
     1
  3
ACAD_GROUP
350
D
  3
ACAD_LAYOUT
350
1A
  3
ACAD_MLINESTYLE
350
17
  3
ACAD_PLOTSETTINGS
350
19
  3
ACAD_PLOTSTYLENAME
350
E
  3
AcDbVariableDictionary
350
30A0
  0
DICTIONARY
  5
3038
330
1F
100
AcDbDictionary
280
     1
281
     1
  3
ACAD_LAYOUTSELFREF
360
3072
  0
DICTIONARY
  5
303A
330
1B
100
AcDbDictionary
280
     1
281
     1
  3
ACAD_LAYOUTSELFREF
360
3071
  0
DICTIONARY
  5
303C
330
23
100
AcDbDictionary
280
     1
281
     1
  3
ACAD_LAYOUTSELFREF
360
3073
  0
DICTIONARY
  5
D
102
{ACAD_REACTORS
330
C
102
}
330
C
100
AcDbDictionary
281
     1
  0
DICTIONARY
  5
1A
102
{ACAD_REACTORS
330
C
102
}
330
C
100
AcDbDictionary
281
     1
  3
Model
350
22
  3
Rozvržení1
350
1E
  3
Rozvržení2
350
26
  0
DICTIONARY
  5
17
102
{ACAD_REACTORS
330
C
102
}
330
C
100
AcDbDictionary
281
     1
  3
Standard
350
18
  0
DICTIONARY
  5
19
102
{ACAD_REACTORS
330
C
102
}
330
C
100
AcDbDictionary
281
     1
  0
ACDBDICTIONARYWDFLT
  5
E
102
{ACAD_REACTORS
330
C
102
}
330
C
100
AcDbDictionary
281
     1
  3
Normal
350
F
100
AcDbDictionaryWithDefault
340
F
  0
DICTIONARY
  5
30A0
102
{ACAD_REACTORS
330
C
102
}
330
C
100
AcDbDictionary
281
     1
  3
DIMASSOC
350
30A1
  0
XRECORD
  5
3072
102
{ACAD_REACTORS
330
3038
102
}
330
3038
100
AcDbXrecord
280
     1
340
1F
  0
XRECORD
  5
3071
102
{ACAD_REACTORS
330
303A
102
}
330
303A
100
AcDbXrecord
280
     1
340
1B
  0
XRECORD
  5
3073
102
{ACAD_REACTORS
330
303C
102
}
330
303C
100
AcDbXrecord
280
     1
340
23
  0
LAYOUT
  5
22
102
{ACAD_REACTORS
330
1A
102
}
330
1A
100
AcDbPlotSettings
  1

  2
HP DeskJet 690C
  4

  6

 40
0.0
 41
0.0
 42
0.0
 43
0.0
 44
0.0
 45
0.0
 46
0.0
 47
0.0
 48
0.0
 49
0.0
140
0.0
141
0.0
142
1.0
143
1.0
 70
  1712
 72
     0
 73
     0
 74
     0
  7
monochrome.ctb
 75
     0
147
1.0
148
0.0
149
0.0
100
AcDbLayout
  1
Model
 70
     1
 71
     0
 10
0.0
 20
0.0
 11
12.0
 21
9.0
 12
0.0
 22
0.0
 32
0.0
 14
0.0
 24
0.0
 34
0.0
 15
0.0
 25
0.0
 35
0.0
146
0.0
 13
0.0
 23
0.0
 33
0.0
 16
1.0
 26
0.0
 36
0.0
 17
0.0
 27
1.0
 37
0.0
 76
     0
330
1F
  0
LAYOUT
  5
1E
102
{ACAD_REACTORS
330
1A
102
}
330
1A
100
AcDbPlotSettings
  1

  2
HP DeskJet 690C
  4

  6

 40
0.0
 41
0.0
 42
0.0
 43
0.0
 44
0.0
 45
0.0
 46
0.0
 47
0.0
 48
0.0
 49
0.0
140
0.0
141
0.0
142
1.0
143
1.0
 70
   688
 72
     0
 73
     0
 74
     5
  7
monochrome.ctb
 75
    16
147
1.0
148
0.0
149
0.0
100
AcDbLayout
  1
Rozvržení1
 70
     1
 71
     1
 10
0.0
 20
0.0
 11
420.0
 21
297.0
 12
0.0
 22
0.0
 32
0.0
 14
1.000000000000000E+20
 24
1.000000000000000E+20
 34
1.000000000000000E+20
 15
-1.000000000000000E+20
 25
-1.000000000000000E+20
 35
-1.000000000000000E+20
146
0.0
 13
0.0
 23
0.0
 33
0.0
 16
1.0
 26
0.0
 36
0.0
 17
0.0
 27
1.0
 37
0.0
 76
     0
330
1B
  0
LAYOUT
  5
26
102
{ACAD_REACTORS
330
1A
102
}
330
1A
100
AcDbPlotSettings
  1

  2
HP DeskJet 690C
  4

  6

 40
0.0
 41
0.0
 42
0.0
 43
0.0
 44
0.0
 45
0.0
 46
0.0
 47
0.0
 48
0.0
 49
0.0
140
0.0
141
0.0
142
1.0
143
1.0
 70
   688
 72
     0
 73
     0
 74
     5
  7
monochrome.ctb
 75
    16
147
1.0
148
0.0
149
0.0
100
AcDbLayout
  1
Rozvržení2
 70
     1
 71
     2
 10
0.0
 20
0.0
 11
12.0
 21
9.0
 12
0.0
 22
0.0
 32
0.0
 14
0.0
 24
0.0
 34
0.0
 15
0.0
 25
0.0
 35
0.0
146
0.0
 13
0.0
 23
0.0
 33
0.0
 16
1.0
 26
0.0
 36
0.0
 17
0.0
 27
1.0
 37
0.0
 76
     0
330
23
  0
MLINESTYLE
  5
18
102
{ACAD_REACTORS
330
17
102
}
330
17
100
AcDbMlineStyle
  2
STANDARD
 70
     0
  3

 62
   256
 51
90.0
 52
90.0
 71
     2
 49
0.5
 62
   256
  6
BYLAYER
 49
-0.5
 62
   256
  6
BYLAYER
  0
ACDBPLACEHOLDER
  5
F
102
{ACAD_REACTORS
330
E
102
}
330
E
  0
DICTIONARYVAR
  5
30A1
102
{ACAD_REACTORS
330
30A0
102
}
330
30A0
100
DictionaryVariables
280
     0
  1
1
  0
ENDSEC
  0
EOF
