  0
SECTION
  2
HEADER
  9
$ACADVER
  1
AC1015
  9
$ACADMAINTVER
 70
    14
  9
$DWGCODEPAGE
  3
ANSI_1250
  9
$INSBASE
 10
0.0
 20
0.0
 30
0.0
  9
$EXTMIN
 10
-2354.99447623387
 20
-864.1652175022619
 30
0.0
  9
$EXTMAX
 10
-1526.819252458952
 20
461.0393586489721
 30
0.0
  9
$LIMMIN
 10
0.0
 20
0.0
  9
$LIMMAX
 10
420.0
 20
297.0
  9
$ORTHOMODE
 70
     1
  9
$REGENMODE
 70
     1
  9
$FILLMODE
 70
     1
  9
$QTEXTMODE
 70
     0
  9
$MIRRTEXT
 70
     1
  9
$LTSCALE
 40
1.0
  9
$ATTMODE
 70
     1
  9
$TEXTSIZE
 40
2.5
  9
$TRACEWID
 40
1.0
  9
$TEXTSTYLE
  7
Standard
  9
$CLAYER
  8
0
  9
$CELTYPE
  6
ByLayer
  9
$CECOLOR
 62
   256
  9
$CELTSCALE
 40
1.0
  9
$DISPSILH
 70
     0
  9
$DIMSCALE
 40
1.0
  9
$DIMASZ
 40
2.5
  9
$DIMEXO
 40
0.625
  9
$DIMDLI
 40
3.75
  9
$DIMRND
 40
0.0
  9
$DIMDLE
 40
0.0
  9
$DIMEXE
 40
1.25
  9
$DIMTP
 40
0.0
  9
$DIMTM
 40
0.0
  9
$DIMTXT
 40
2.5
  9
$DIMCEN
 40
2.5
  9
$DIMTSZ
 40
0.0
  9
$DIMTOL
 70
     0
  9
$DIMLIM
 70
     0
  9
$DIMTIH
 70
     0
  9
$DIMTOH
 70
     0
  9
$DIMSE1
 70
     0
  9
$DIMSE2
 70
     0
  9
$DIMTAD
 70
     1
  9
$DIMZIN
 70
     8
  9
$DIMBLK
  1

  9
$DIMASO
 70
     1
  9
$DIMSHO
 70
     1
  9
$DIMPOST
  1

  9
$DIMAPOST
  1

  9
$DIMALT
 70
     0
  9
$DIMALTD
 70
     3
  9
$DIMALTF
 40
0.03937007874016
  9
$DIMLFAC
 40
1.0
  9
$DIMTOFL
 70
     1
  9
$DIMTVP
 40
0.0
  9
$DIMTIX
 70
     0
  9
$DIMSOXD
 70
     0
  9
$DIMSAH
 70
     0
  9
$DIMBLK1
  1

  9
$DIMBLK2
  1

  9
$DIMSTYLE
  2
ISO-25
  9
$DIMCLRD
 70
     0
  9
$DIMCLRE
 70
     0
  9
$DIMCLRT
 70
     0
  9
$DIMTFAC
 40
1.0
  9
$DIMGAP
 40
0.625
  9
$DIMJUST
 70
     0
  9
$DIMSD1
 70
     0
  9
$DIMSD2
 70
     0
  9
$DIMTOLJ
 70
     0
  9
$DIMTZIN
 70
     8
  9
$DIMALTZ
 70
     0
  9
$DIMALTTZ
 70
     0
  9
$DIMUPT
 70
     0
  9
$DIMDEC
 70
     2
  9
$DIMTDEC
 70
     2
  9
$DIMALTU
 70
     2
  9
$DIMALTTD
 70
     3
  9
$DIMTXSTY
  7
Standard
  9
$DIMAUNIT
 70
     0
  9
$DIMADEC
 70
     0
  9
$DIMALTRND
 40
0.0
  9
$DIMAZIN
 70
     0
  9
$DIMDSEP
 70
    44
  9
$DIMATFIT
 70
     3
  9
$DIMFRAC
 70
     0
  9
$DIMLDRBLK
  1

  9
$DIMLUNIT
 70
     2
  9
$DIMLWD
 70
    -2
  9
$DIMLWE
 70
    -2
  9
$DIMTMOVE
 70
     0
  9
$LUNITS
 70
     2
  9
$LUPREC
 70
     4
  9
$SKETCHINC
 40
1.0
  9
$FILLETRAD
 40
10.0
  9
$AUNITS
 70
     0
  9
$AUPREC
 70
     0
  9
$MENU
  1
.
  9
$ELEVATION
 40
0.0
  9
$PELEVATION
 40
0.0
  9
$THICKNESS
 40
0.0
  9
$LIMCHECK
 70
     0
  9
$CHAMFERA
 40
10.0
  9
$CHAMFERB
 40
10.0
  9
$CHAMFERC
 40
20.0
  9
$CHAMFERD
 40
0.0
  9
$SKPOLY
 70
     0
  9
$TDCREATE
 40
2452339.371895717
  9
$TDUCREATE
 40
2452339.330229051
  9
$TDUPDATE
 40
2455610.298217846
  9
$TDUUPDATE
 40
2455610.256551180
  9
$TDINDWG
 40
0.0190819097
  9
$TDUSRTIMER
 40
0.0190819097
  9
$USRTIMER
 70
     1
  9
$ANGBASE
 50
0.0
  9
$ANGDIR
 70
     0
  9
$PDMODE
 70
     0
  9
$PDSIZE
 40
0.0
  9
$PLINEWID
 40
0.0
  9
$SPLFRAME
 70
     0
  9
$SPLINETYPE
 70
     6
  9
$SPLINESEGS
 70
     8
  9
$HANDSEED
  5
2544
  9
$SURFTAB1
 70
     6
  9
$SURFTAB2
 70
     6
  9
$SURFTYPE
 70
     6
  9
$SURFU
 70
     6
  9
$SURFV
 70
     6
  9
$UCSBASE
  2

  9
$UCSNAME
  2

  9
$UCSORG
 10
0.0
 20
0.0
 30
0.0
  9
$UCSXDIR
 10
1.0
 20
0.0
 30
0.0
  9
$UCSYDIR
 10
0.0
 20
1.0
 30
0.0
  9
$UCSORTHOREF
  2

  9
$UCSORTHOVIEW
 70
     0
  9
$UCSORGTOP
 10
0.0
 20
0.0
 30
0.0
  9
$UCSORGBOTTOM
 10
0.0
 20
0.0
 30
0.0
  9
$UCSORGLEFT
 10
0.0
 20
0.0
 30
0.0
  9
$UCSORGRIGHT
 10
0.0
 20
0.0
 30
0.0
  9
$UCSORGFRONT
 10
0.0
 20
0.0
 30
0.0
  9
$UCSORGBACK
 10
0.0
 20
0.0
 30
0.0
  9
$PUCSBASE
  2

  9
$PUCSNAME
  2

  9
$PUCSORG
 10
0.0
 20
0.0
 30
0.0
  9
$PUCSXDIR
 10
1.0
 20
0.0
 30
0.0
  9
$PUCSYDIR
 10
0.0
 20
1.0
 30
0.0
  9
$PUCSORTHOREF
  2

  9
$PUCSORTHOVIEW
 70
     0
  9
$PUCSORGTOP
 10
0.0
 20
0.0
 30
0.0
  9
$PUCSORGBOTTOM
 10
0.0
 20
0.0
 30
0.0
  9
$PUCSORGLEFT
 10
0.0
 20
0.0
 30
0.0
  9
$PUCSORGRIGHT
 10
0.0
 20
0.0
 30
0.0
  9
$PUCSORGFRONT
 10
0.0
 20
0.0
 30
0.0
  9
$PUCSORGBACK
 10
0.0
 20
0.0
 30
0.0
  9
$USERI1
 70
     0
  9
$USERI2
 70
     0
  9
$USERI3
 70
     0
  9
$USERI4
 70
     0
  9
$USERI5
 70
     0
  9
$USERR1
 40
0.0
  9
$USERR2
 40
0.0
  9
$USERR3
 40
0.0
  9
$USERR4
 40
0.0
  9
$USERR5
 40
0.0
  9
$WORLDVIEW
 70
     1
  9
$SHADEDGE
 70
     3
  9
$SHADEDIF
 70
    70
  9
$TILEMODE
 70
     1
  9
$MAXACTVP
 70
    48
  9
$PINSBASE
 10
0.0
 20
0.0
 30
0.0
  9
$PLIMCHECK
 70
     0
  9
$PEXTMIN
 10
1.000000000000000E+20
 20
1.000000000000000E+20
 30
1.000000000000000E+20
  9
$PEXTMAX
 10
-1.000000000000000E+20
 20
-1.000000000000000E+20
 30
-1.000000000000000E+20
  9
$PLIMMIN
 10
0.0
 20
0.0
  9
$PLIMMAX
 10
420.0
 20
297.0
  9
$UNITMODE
 70
     0
  9
$VISRETAIN
 70
     1
  9
$PLINEGEN
 70
     0
  9
$PSLTSCALE
 70
     1
  9
$TREEDEPTH
 70
  3020
  9
$CMLSTYLE
  2
Standard
  9
$CMLJUST
 70
     0
  9
$CMLSCALE
 40
20.0
  9
$PROXYGRAPHICS
 70
     1
  9
$MEASUREMENT
 70
     1
  9
$CELWEIGHT
370
    -1
  9
$ENDCAPS
280
     0
  9
$JOINSTYLE
280
     0
  9
$LWDISPLAY
290
     0
  9
$INSUNITS
 70
     4
  9
$HYPERLINKBASE
  1

  9
$STYLESHEET
  1

  9
$XEDIT
290
     1
  9
$CEPSNTYPE
380
     0
  9
$PSTYLEMODE
290
     1
  9
$FINGERPRINTGUID
  2
{9FA890EF-883C-4FD4-884F-6B075534EB0B}
  9
$VERSIONGUID
  2
{A8863B1E-5BB9-4838-A161-2C98DA2E9C5F}
  9
$EXTNAMES
290
     1
  9
$PSVPSCALE
 40
0.0
  9
$OLESTARTUP
290
     0
  0
ENDSEC
  0
SECTION
  2
CLASSES
  0
CLASS
  1
ACDBDICTIONARYWDFLT
  2
AcDbDictionaryWithDefault
  3
AutoCAD 2000
 90
        0
280
     0
281
     0
  0
CLASS
  1
ACDBPLACEHOLDER
  2
AcDbPlaceHolder
  3
AutoCAD 2000
 90
        0
280
     0
281
     0
  0
CLASS
  1
LAYOUT
  2
AcDbLayout
  3
AutoCAD 2000
 90
        0
280
     0
281
     0
  0
CLASS
  1
LONG_TRANSACTION
  2
AcDbLongTransaction
  3
AutoCAD 2000
 90
    32768
280
     0
281
     0
  0
CLASS
  1
LWPOLYLINE
  2
AcDbPolyline
  3
AutoCAD 2000
 90
    32768
280
     0
281
     1
  0
CLASS
  1
HATCH
  2
AcDbHatch
  3
AutoCAD 2000
 90
    32768
280
     0
281
     1
  0
CLASS
  1
XRECORD
  2
AcDbXrecord
  3
AutoCAD 2000
 90
    32768
280
     0
281
     0
  0
CLASS
  1
DICTIONARYVAR
  2
AcDbDictionaryVar
  3
AutoCAD 2000
 90
        0
280
     0
281
     0
  0
ENDSEC
  0
SECTION
  2
TABLES
  0
TABLE
  2
VPORT
  5
8
330
0
100
AcDbSymbolTable
 70
     2
  0
VPORT
  5
2543
330
8
100
AcDbSymbolTableRecord
100
AcDbViewportTableRecord
  2
*Active
 70
     0
 10
0.0
 20
0.0
 11
1.0
 21
1.0
 12
-2027.373928997124
 22
-235.4791421673337
 13
0.0
 23
0.0
 14
10.0
 24
10.0
 15
10.0
 25
10.0
 16
0.0
 26
0.0
 36
1.0
 17
0.0
 27
0.0
 37
0.0
 40
1467.982730352925
 41
2.031862745098039
 42
50.0
 43
0.0
 44
0.0
 50
0.0
 51
0.0
 71
     0
 72
   100
 73
     1
 74
     3
 75
     0
 76
     0
 77
     0
 78
     0
281
     0
 65
     1
110
0.0
120
0.0
130
0.0
111
1.0
121
0.0
131
0.0
112
0.0
122
1.0
132
0.0
 79
     0
146
0.0
  0
ENDTAB
  0
TABLE
  2
LTYPE
  5
5
330
0
100
AcDbSymbolTable
 70
     4
  0
LTYPE
  5
14
330
5
100
AcDbSymbolTableRecord
100
AcDbLinetypeTableRecord
  2
ByBlock
 70
     0
  3

 72
    65
 73
     0
 40
0.0
  0
LTYPE
  5
15
330
5
100
AcDbSymbolTableRecord
100
AcDbLinetypeTableRecord
  2
ByLayer
 70
     0
  3

 72
    65
 73
     0
 40
0.0
  0
LTYPE
  5
16
330
5
100
AcDbSymbolTableRecord
100
AcDbLinetypeTableRecord
  2
Continuous
 70
     0
  3
Solid line
 72
    65
 73
     0
 40
0.0
  0
LTYPE
  5
33
330
5
100
AcDbSymbolTableRecord
100
AcDbLinetypeTableRecord
  2
IZOLACE
 70
     0
  3
Izolace SSSSSSSSSSSSSSSSSSSSSSSSSSSSSSSSSSSSSSS
 72
    65
 73
     4
 40
10.16253999999999
 49
0.00254
 74
     0
 49
-2.54
 74
     4
 75
   134
340
3D
 46
2.54
 50
0.0
 44
-2.54
 45
0.0
 49
-5.08
 74
     4
 75
   134
340
3D
 46
2.54
 50
180.0
 44
2.54
 45
0.0
 49
-2.54
 74
     0
  0
LTYPE
  5
34
330
5
100
AcDbSymbolTableRecord
100
AcDbLinetypeTableRecord
  2
DASHED
 70
     0
  3
Dashed __ __ __ __ __ __ __ __ __ __ __ __ __ _
 72
    65
 73
     2
 40
19.04999999999999
 49
12.7
 74
     0
 49
-6.349999999999999
 74
     0
  0
LTYPE
  5
35
330
5
100
AcDbSymbolTableRecord
100
AcDbLinetypeTableRecord
  2
DASHDOT2
 70
     0
  3
Dash dot (.5x) _._._._._._._._._._._._._._._.
 72
    65
 73
     4
 40
12.7
 49
6.349999999999999
 74
     0
 49
-3.174999999999999
 74
     0
 49
0.0
 74
     0
 49
-3.174999999999999
 74
     0
  0
ENDTAB
  0
TABLE
  2
LAYER
  5
2
330
0
100
AcDbSymbolTable
 70
     7
  0
LAYER
  5
10
330
2
100
AcDbSymbolTableRecord
100
AcDbLayerTableRecord
  2
0
 70
     0
 62
     7
  6
Continuous
370
    -3
390
F
  0
LAYER
  5
36
330
2
100
AcDbSymbolTableRecord
100
AcDbLayerTableRecord
  2
POPIS
 70
     0
 62
    30
  6
Continuous
370
    -3
390
F
  0
LAYER
  5
37
330
2
100
AcDbSymbolTableRecord
100
AcDbLayerTableRecord
  2
SPOJOVACÍ
 70
     0
 62
   180
  6
Continuous
370
    -3
390
F
  0
LAYER
  5
38
330
2
100
AcDbSymbolTableRecord
100
AcDbLayerTableRecord
  2
CETRIS
 70
     0
 62
     1
  6
Continuous
370
    -3
390
F
  0
LAYER
  5
39
330
2
100
AcDbSymbolTableRecord
100
AcDbLayerTableRecord
  2
NOSNÉ KONSTRUKCE
 70
     0
 62
    33
  6
Continuous
370
    -3
390
F
  0
LAYER
  5
3A
330
2
100
AcDbSymbolTableRecord
100
AcDbLayerTableRecord
  2
PROFILY
 70
     0
 62
    73
  6
Continuous
370
    -3
390
F
  0
LAYER
  5
3B
330
2
100
AcDbSymbolTableRecord
100
AcDbLayerTableRecord
  2
STAVBA OBRYS
 70
     0
 62
     6
  6
Continuous
370
    -3
390
F
  0
ENDTAB
  0
TABLE
  2
STYLE
  5
3
330
0
100
AcDbSymbolTable
 70
     3
  0
STYLE
  5
11
330
3
100
AcDbSymbolTableRecord
100
AcDbTextStyleTableRecord
  2
Standard
 70
     0
 40
0.0
 41
1.0
 50
0.0
 71
     0
 42
2.5
  3
txt
  4

  0
STYLE
  5
3C
330
3
100
AcDbSymbolTableRecord
100
AcDbTextStyleTableRecord
  2
SIMPLEX7
 70
     0
 40
0.0
 41
0.85
 50
0.0
 71
     0
 42
102.0
  3
ARIAL.TTF
  4

1001
ACAD
1000
Arial CE
1071
    60962
  0
STYLE
  5
3D
330
3
100
AcDbSymbolTableRecord
100
AcDbTextStyleTableRecord
  2

 70
     1
 40
0.0
 41
1.0
 50
0.0
 71
     0
 42
2.5
  3
ltypeshp.shx
  4

  0
ENDTAB
  0
TABLE
  2
VIEW
  5
6
330
0
100
AcDbSymbolTable
 70
     0
  0
ENDTAB
  0
TABLE
  2
UCS
  5
7
330
0
100
AcDbSymbolTable
 70
     0
  0
ENDTAB
  0
TABLE
  2
APPID
  5
9
330
0
100
AcDbSymbolTable
 70
     1
  0
APPID
  5
12
330
9
100
AcDbSymbolTableRecord
100
AcDbRegAppTableRecord
  2
ACAD
 70
     0
  0
ENDTAB
  0
TABLE
  2
DIMSTYLE
  5
A
330
0
100
AcDbSymbolTable
 70
     1
100
AcDbDimStyleTable
 71
     0
  0
DIMSTYLE
105
27
330
A
100
AcDbSymbolTableRecord
100
AcDbDimStyleTableRecord
  2
ISO-25
 70
     0
 41
2.5
 42
0.625
 43
3.75
 44
1.25
 73
     0
 74
     0
 77
     1
 78
     8
140
2.5
141
2.5
143
0.03937007874016
147
0.625
171
     3
172
     1
271
     2
272
     2
274
     3
278
    44
283
     0
284
     8
340
11
  0
ENDTAB
  0
TABLE
  2
BLOCK_RECORD
  5
1
330
0
100
AcDbSymbolTable
 70
     3
  0
BLOCK_RECORD
  5
1F
102
{ACAD_XDICTIONARY
360
24C9
102
}
330
1
100
AcDbSymbolTableRecord
100
AcDbBlockTableRecord
  2
*Model_Space
340
22
  0
BLOCK_RECORD
  5
1B
102
{ACAD_XDICTIONARY
360
24CB
102
}
330
1
100
AcDbSymbolTableRecord
100
AcDbBlockTableRecord
  2
*Paper_Space
340
1E
  0
BLOCK_RECORD
  5
23
102
{ACAD_XDICTIONARY
360
24CD
102
}
330
1
100
AcDbSymbolTableRecord
100
AcDbBlockTableRecord
  2
*Paper_Space0
340
26
  0
BLOCK_RECORD
  5
2B
330
1
100
AcDbSymbolTableRecord
100
AcDbBlockTableRecord
  2
E_PUNKT
340
0
102
{BLKREFS
331
2305
331
2306
331
2307
331
2309
331
230B
331
230C
331
2464
331
2530
102
}
  0
BLOCK_RECORD
  5
250C
330
1
100
AcDbSymbolTableRecord
100
AcDbBlockTableRecord
  2
_ArchTick
340
0
102
{BLKREFS
331
252B
331
252D
102
}
  0
ENDTAB
  0
ENDSEC
  0
SECTION
  2
BLOCKS
  0
BLOCK
  5
20
330
1F
100
AcDbEntity
  8
0
100
AcDbBlockBegin
  2
*Model_Space
 70
     0
 10
0.0
 20
0.0
 30
0.0
  3
*Model_Space
  1

  0
ENDBLK
  5
21
330
1F
100
AcDbEntity
  8
0
100
AcDbBlockEnd
  0
BLOCK
  5
1C
330
1B
100
AcDbEntity
 67
     1
  8
0
100
AcDbBlockBegin
  2
*Paper_Space
 70
     0
 10
0.0
 20
0.0
 30
0.0
  3
*Paper_Space
  1

  0
ENDBLK
  5
1D
330
1B
100
AcDbEntity
 67
     1
  8
0
100
AcDbBlockEnd
  0
BLOCK
  5
24
330
23
100
AcDbEntity
  8
0
100
AcDbBlockBegin
  2
*Paper_Space0
 70
     0
 10
0.0
 20
0.0
 30
0.0
  3
*Paper_Space0
  1

  0
ENDBLK
  5
25
330
23
100
AcDbEntity
  8
0
100
AcDbBlockEnd
  0
BLOCK
  5
2D
330
2B
100
AcDbEntity
  8
0
100
AcDbBlockBegin
  2
E_PUNKT
 70
     0
 10
0.0
 20
0.0
 30
0.0
  3
E_PUNKT
  1

  0
LWPOLYLINE
  5
2C
330
2B
100
AcDbEntity
  8
POPIS
100
AcDbPolyline
 90
        2
 70
     1
 43
2.5
 10
1.27761037562675
 20
0.0290683308725193
 42
-1.0
 10
-1.222389624373249
 20
0.0290683308725193
 42
-1.0
  0
ENDBLK
  5
2E
330
2B
100
AcDbEntity
  8
0
100
AcDbBlockEnd
  0
BLOCK
  5
250E
330
250C
100
AcDbEntity
  8
0
100
AcDbBlockBegin
  2
_ArchTick
 70
     0
 10
0.0
 20
0.0
 30
0.0
  3
_ArchTick
  1

  0
LWPOLYLINE
  5
250D
330
250C
100
AcDbEntity
  8
0
  6
ByBlock
 62
     0
100
AcDbPolyline
 90
        2
 70
     0
 43
0.15
 10
-0.5
 20
-0.5
 10
0.5
 20
0.5
  0
ENDBLK
  5
250F
330
250C
100
AcDbEntity
  8
0
100
AcDbBlockEnd
  0
ENDSEC
  0
SECTION
  2
ENTITIES
  0
LINE
  5
22C9
102
{ACAD_REACTORS
330
22CB
102
}
330
1F
100
AcDbEntity
  8
POPIS
100
AcDbLine
 10
-2090.852465799492
 20
-125.5281577452465
 30
0.0
 11
-2087.432992011755
 21
-120.1468610977681
 31
0.0
  0
LINE
  5
22CA
102
{ACAD_REACTORS
330
22CB
102
}
330
1F
100
AcDbEntity
  8
POPIS
100
AcDbLine
 10
-2084.013518224011
 20
-125.5281577452465
 30
0.0
 11
-2087.432992011748
 21
-120.1468610977681
 31
0.0
  0
HATCH
  5
22CB
330
1F
100
AcDbEntity
  8
POPIS
100
AcDbHatch
 10
0.0
 20
0.0
 30
0.0
210
0.0
220
0.0
230
1.0
  2
SOLID
 70
     1
 71
     1
 91
        1
 92
        7
 72
     0
 73
     1
 93
        8
 10
-2085.539264171969
 20
-112.592513846163
 10
-2081.860422834371
 20
-112.592513846163
 10
-2087.432992011752
 20
-104.7916617632658
 10
-2093.00556118913
 20
-112.592513846163
 10
-2089.326719851532
 20
-112.592513846163
 10
-2090.852465799496
 20
-125.5281577452451
 10
-2087.432992011752
 20
-120.1468610977617
 10
-2084.013518224013
 20
-125.528157745246
 97
        8
330
22D0
330
22D1
330
22CC
330
22CD
330
22CE
330
22C9
330
22CA
330
22CF
 75
     0
 76
     1
 47
0.3835833255279223
 98
        1
 10
-2087.024809264497
 20
-115.5006970266627
  0
LINE
  5
22CC
102
{ACAD_REACTORS
330
22CB
102
}
330
1F
100
AcDbEntity
  8
POPIS
100
AcDbLine
 10
-2087.432992011752
 20
-104.7916617632658
 30
0.0
 11
-2093.005561189132
 21
-112.592513846163
 31
0.0
  0
LINE
  5
22CD
102
{ACAD_REACTORS
330
22CB
102
}
330
1F
100
AcDbEntity
  8
POPIS
100
AcDbLine
 10
-2093.005561189132
 20
-112.592513846163
 30
0.0
 11
-2089.326719851534
 21
-112.592513846163
 31
0.0
  0
LINE
  5
22CE
102
{ACAD_REACTORS
330
22CB
102
}
330
1F
100
AcDbEntity
  8
POPIS
100
AcDbLine
 10
-2089.326719851534
 20
-112.592513846163
 30
0.0
 11
-2090.852465799492
 21
-125.5281577452465
 31
0.0
  0
LINE
  5
22CF
102
{ACAD_REACTORS
330
22CB
102
}
330
1F
100
AcDbEntity
  8
POPIS
100
AcDbLine
 10
-2085.539264171969
 20
-112.592513846163
 30
0.0
 11
-2084.013518224011
 21
-125.5281577452465
 31
0.0
  0
LINE
  5
22D0
102
{ACAD_REACTORS
330
22CB
102
}
330
1F
100
AcDbEntity
  8
POPIS
100
AcDbLine
 10
-2081.860422834371
 20
-112.592513846163
 30
0.0
 11
-2085.539264171969
 21
-112.592513846163
 31
0.0
  0
LINE
  5
22D1
102
{ACAD_REACTORS
330
22CB
102
}
330
1F
100
AcDbEntity
  8
POPIS
100
AcDbLine
 10
-2087.432992011752
 20
-104.7916617632658
 30
0.0
 11
-2081.860422834371
 21
-112.592513846163
 31
0.0
  0
LINE
  5
22D2
102
{ACAD_REACTORS
330
22D4
102
}
330
1F
100
AcDbEntity
  8
POPIS
100
AcDbLine
 10
-2090.852465799492
 20
47.21630505548228
 30
0.0
 11
-2087.432992011755
 21
52.59760170296067
 31
0.0
  0
LINE
  5
22D3
102
{ACAD_REACTORS
330
22D4
102
}
330
1F
100
AcDbEntity
  8
POPIS
100
AcDbLine
 10
-2084.013518224011
 20
47.21630505548228
 30
0.0
 11
-2087.432992011748
 21
52.59760170296067
 31
0.0
  0
HATCH
  5
22D4
330
1F
100
AcDbEntity
  8
POPIS
100
AcDbHatch
 10
0.0
 20
0.0
 30
0.0
210
0.0
220
0.0
230
1.0
  2
SOLID
 70
     1
 71
     1
 91
        1
 92
        7
 72
     0
 73
     1
 93
        8
 10
-2085.539264171969
 20
60.1519489545658
 10
-2081.860422834371
 20
60.1519489545658
 10
-2087.432992011752
 20
67.9528010374629
 10
-2093.00556118913
 20
60.1519489545658
 10
-2089.326719851532
 20
60.1519489545658
 10
-2090.852465799496
 20
47.21630505548364
 10
-2087.432992011752
 20
52.59760170296704
 10
-2084.013518224013
 20
47.21630505548273
 97
        8
330
22D9
330
22DA
330
22D5
330
22D6
330
22D7
330
22D2
330
22D3
330
22D8
 75
     0
 76
     1
 47
0.3835833255279223
 98
        1
 10
-2087.024809264497
 20
57.2437657740661
  0
LINE
  5
22D5
102
{ACAD_REACTORS
330
22D4
102
}
330
1F
100
AcDbEntity
  8
POPIS
100
AcDbLine
 10
-2087.432992011752
 20
67.9528010374629
 30
0.0
 11
-2093.005561189132
 21
60.1519489545658
 31
0.0
  0
LINE
  5
22D6
102
{ACAD_REACTORS
330
22D4
102
}
330
1F
100
AcDbEntity
  8
POPIS
100
AcDbLine
 10
-2093.005561189132
 20
60.1519489545658
 30
0.0
 11
-2089.326719851534
 21
60.1519489545658
 31
0.0
  0
LINE
  5
22D7
102
{ACAD_REACTORS
330
22D4
102
}
330
1F
100
AcDbEntity
  8
POPIS
100
AcDbLine
 10
-2089.326719851534
 20
60.1519489545658
 30
0.0
 11
-2090.852465799492
 21
47.21630505548228
 31
0.0
  0
LINE
  5
22D8
102
{ACAD_REACTORS
330
22D4
102
}
330
1F
100
AcDbEntity
  8
POPIS
100
AcDbLine
 10
-2085.539264171969
 20
60.1519489545658
 30
0.0
 11
-2084.013518224011
 21
47.21630505548228
 31
0.0
  0
LINE
  5
22D9
102
{ACAD_REACTORS
330
22D4
102
}
330
1F
100
AcDbEntity
  8
POPIS
100
AcDbLine
 10
-2081.860422834371
 20
60.1519489545658
 30
0.0
 11
-2085.539264171969
 21
60.1519489545658
 31
0.0
  0
LINE
  5
22DA
102
{ACAD_REACTORS
330
22D4
102
}
330
1F
100
AcDbEntity
  8
POPIS
100
AcDbLine
 10
-2087.432992011752
 20
67.9528010374629
 30
0.0
 11
-2081.860422834371
 21
60.1519489545658
 31
0.0
  0
LINE
  5
22DB
102
{ACAD_REACTORS
330
22E3
102
}
330
1F
100
AcDbEntity
  8
POPIS
100
AcDbLine
 10
-2084.013518224011
 20
-323.560535221803
 30
0.0
 11
-2087.432992011748
 21
-318.1792385743246
 31
0.0
  0
LINE
  5
22DC
102
{ACAD_REACTORS
330
22E3
102
}
330
1F
100
AcDbEntity
  8
POPIS
100
AcDbLine
 10
-2090.852465799492
 20
-323.560535221803
 30
0.0
 11
-2087.432992011755
 21
-318.1792385743246
 31
0.0
  0
LINE
  5
22DD
102
{ACAD_REACTORS
330
22E3
102
}
330
1F
100
AcDbEntity
  8
POPIS
100
AcDbLine
 10
-2087.432992011752
 20
-302.8240392398224
 30
0.0
 11
-2081.860422834371
 21
-310.6248913227195
 31
0.0
  0
LINE
  5
22DE
102
{ACAD_REACTORS
330
22E3
102
}
330
1F
100
AcDbEntity
  8
POPIS
100
AcDbLine
 10
-2081.860422834371
 20
-310.6248913227195
 30
0.0
 11
-2085.539264171969
 21
-310.6248913227195
 31
0.0
  0
LINE
  5
22DF
102
{ACAD_REACTORS
330
22E3
102
}
330
1F
100
AcDbEntity
  8
POPIS
100
AcDbLine
 10
-2085.539264171969
 20
-310.6248913227195
 30
0.0
 11
-2084.013518224011
 21
-323.560535221803
 31
0.0
  0
LINE
  5
22E0
102
{ACAD_REACTORS
330
22E3
102
}
330
1F
100
AcDbEntity
  8
POPIS
100
AcDbLine
 10
-2089.326719851534
 20
-310.6248913227195
 30
0.0
 11
-2090.852465799492
 21
-323.560535221803
 31
0.0
  0
LINE
  5
22E1
102
{ACAD_REACTORS
330
22E3
102
}
330
1F
100
AcDbEntity
  8
POPIS
100
AcDbLine
 10
-2093.005561189132
 20
-310.6248913227195
 30
0.0
 11
-2089.326719851534
 21
-310.6248913227195
 31
0.0
  0
LINE
  5
22E2
102
{ACAD_REACTORS
330
22E3
102
}
330
1F
100
AcDbEntity
  8
POPIS
100
AcDbLine
 10
-2087.432992011752
 20
-302.8240392398224
 30
0.0
 11
-2093.005561189132
 21
-310.6248913227195
 31
0.0
  0
HATCH
  5
22E3
330
1F
100
AcDbEntity
  8
POPIS
100
AcDbHatch
 10
0.0
 20
0.0
 30
0.0
210
0.0
220
0.0
230
1.0
  2
SOLID
 70
     1
 71
     1
 91
        1
 92
        7
 72
     0
 73
     1
 93
        8
 10
-2085.539264171971
 20
-310.6248913227195
 10
-2081.860422834371
 20
-310.6248913227195
 10
-2087.432992011753
 20
-302.8240392398233
 10
-2093.005561189134
 20
-310.6248913227195
 10
-2089.326719851534
 20
-310.6248913227195
 10
-2090.85246579949
 20
-323.5605352217962
 10
-2087.43299201175
 20
-318.1792385743178
 10
-2084.013518224009
 20
-323.5605352218035
 97
        8
330
22DE
330
22DD
330
22E2
330
22E1
330
22E0
330
22DC
330
22DB
330
22DF
 75
     0
 76
     1
 47
0.3835833255279223
 98
        1
 10
-2087.024809264497
 20
-313.5330745032192
  0
LINE
  5
22E4
102
{ACAD_REACTORS
330
22EA
102
}
330
1F
100
AcDbEntity
  8
POPIS
100
AcDbLine
 10
-2087.432992011752
 20
231.3115513349471
 30
0.0
 11
-2081.860422834371
 21
223.51069925205
 31
0.0
  0
LINE
  5
22E5
102
{ACAD_REACTORS
330
22EA
102
}
330
1F
100
AcDbEntity
  8
POPIS
100
AcDbLine
 10
-2081.860422834371
 20
223.51069925205
 30
0.0
 11
-2085.539264171969
 21
223.51069925205
 31
0.0
  0
LINE
  5
22E6
102
{ACAD_REACTORS
330
22EA
102
}
330
1F
100
AcDbEntity
  8
POPIS
100
AcDbLine
 10
-2085.539264171969
 20
223.51069925205
 30
0.0
 11
-2084.013518224011
 21
210.5750553529665
 31
0.0
  0
LINE
  5
22E7
102
{ACAD_REACTORS
330
22EA
102
}
330
1F
100
AcDbEntity
  8
POPIS
100
AcDbLine
 10
-2089.326719851534
 20
223.51069925205
 30
0.0
 11
-2090.852465799492
 21
210.5750553529665
 31
0.0
  0
LINE
  5
22E8
102
{ACAD_REACTORS
330
22EA
102
}
330
1F
100
AcDbEntity
  8
POPIS
100
AcDbLine
 10
-2093.005561189132
 20
223.51069925205
 30
0.0
 11
-2089.326719851534
 21
223.51069925205
 31
0.0
  0
LINE
  5
22E9
102
{ACAD_REACTORS
330
22EA
102
}
330
1F
100
AcDbEntity
  8
POPIS
100
AcDbLine
 10
-2087.432992011752
 20
231.3115513349471
 30
0.0
 11
-2093.005561189132
 21
223.51069925205
 31
0.0
  0
HATCH
  5
22EA
330
1F
100
AcDbEntity
  8
POPIS
100
AcDbHatch
 10
0.0
 20
0.0
 30
0.0
210
0.0
220
0.0
230
1.0
  2
SOLID
 70
     1
 71
     1
 91
        1
 92
        7
 72
     0
 73
     1
 93
        8
 10
-2085.539264171969
 20
223.51069925205
 10
-2081.860422834371
 20
223.51069925205
 10
-2087.432992011752
 20
231.3115513349471
 10
-2093.00556118913
 20
223.51069925205
 10
-2089.326719851532
 20
223.51069925205
 10
-2090.852465799496
 20
210.5750553529678
 10
-2087.432992011752
 20
215.9563520004512
 10
-2084.013518224013
 20
210.5750553529669
 97
        8
330
22E5
330
22E4
330
22E9
330
22E8
330
22E7
330
22EC
330
22EB
330
22E6
 75
     0
 76
     1
 47
0.3835833255279223
 98
        1
 10
-2087.024809264497
 20
220.6025160715503
  0
LINE
  5
22EB
102
{ACAD_REACTORS
330
22EA
102
}
330
1F
100
AcDbEntity
  8
POPIS
100
AcDbLine
 10
-2084.013518224011
 20
210.5750553529665
 30
0.0
 11
-2087.432992011748
 21
215.9563520004449
 31
0.0
  0
LINE
  5
22EC
102
{ACAD_REACTORS
330
22EA
102
}
330
1F
100
AcDbEntity
  8
POPIS
100
AcDbLine
 10
-2090.852465799492
 20
210.5750553529665
 30
0.0
 11
-2087.432992011755
 21
215.9563520004449
 31
0.0
  0
HATCH
  5
22ED
330
1F
100
AcDbEntity
  8
PROFILY
100
AcDbHatch
 10
0.0
 20
0.0
 30
0.0
210
0.0
220
0.0
230
1.0
  2
SOLID
 70
     1
 71
     1
 91
        1
 92
        7
 72
     0
 73
     1
 93
        4
 10
-2256.794725765764
 20
-757.0103436309154
 10
-2258.29430839874
 20
-757.0103436309154
 10
-2258.29430839874
 20
-761.4489116722693
 10
-2256.794725765764
 20
-761.4489116722693
 97
        1
330
22EE
 75
     0
 76
     1
 47
0.0099002372419542
 98
        1
 10
-2257.26029497505
 20
-758.2412213557695
  0
LWPOLYLINE
  5
22EE
102
{ACAD_REACTORS
330
22ED
102
}
330
1F
100
AcDbEntity
  8
PROFILY
100
AcDbPolyline
 90
        4
 70
     1
 43
0.0
 10
-2258.29430839874
 20
-757.010343630915
 10
-2256.794725765764
 20
-757.010343630915
 10
-2256.794725765764
 20
-761.4489116722693
 10
-2258.29430839874
 20
-761.4489116722693
  0
LINE
  5
22EF
330
1F
100
AcDbEntity
  8
PROFILY
100
AcDbLine
 10
-2140.388698804842
 20
-775.0790755404836
 30
0.0
 11
-2140.388698804842
 21
-773.4363770216064
 31
0.0
  0
LINE
  5
22F0
330
1F
100
AcDbEntity
  8
PROFILY
100
AcDbLine
 10
-2126.129309877505
 20
-775.0790755404836
 30
0.0
 11
-2126.129309877505
 21
-773.4363770216064
 31
0.0
  0
LINE
  5
22F1
330
1F
100
AcDbEntity
  8
PROFILY
100
AcDbLine
 10
-2183.166865586853
 20
-775.0790755404836
 30
0.0
 11
-2183.166865586853
 21
-773.4363770216064
 31
0.0
  0
LINE
  5
22F2
330
1F
100
AcDbEntity
  8
PROFILY
100
AcDbLine
 10
-2168.907476659517
 20
-775.0790755404836
 30
0.0
 11
-2168.907476659517
 21
-773.4363770216064
 31
0.0
  0
LINE
  5
22F3
330
1F
100
AcDbEntity
  8
PROFILY
100
AcDbLine
 10
-2154.64808773218
 20
-775.0790755404836
 30
0.0
 11
-2154.64808773218
 21
-773.4363770216064
 31
0.0
  0
LINE
  5
22F4
330
1F
100
AcDbEntity
  8
PROFILY
100
AcDbLine
 10
-2197.426254514191
 20
-775.0790755404836
 30
0.0
 11
-2197.426254514191
 21
-773.4363770216064
 31
0.0
  0
LINE
  5
22F5
330
1F
100
AcDbEntity
  8
PROFILY
100
AcDbLine
 10
-2225.945032368864
 20
-775.0790755404836
 30
0.0
 11
-2225.945032368864
 21
-773.4363770216064
 31
0.0
  0
HATCH
  5
22F6
330
1F
100
AcDbEntity
  8
PROFILY
100
AcDbHatch
 10
0.0
 20
0.0
 30
0.0
210
0.0
220
0.0
230
1.0
  2
SOLID
 70
     1
 71
     0
 91
        5
 92
        7
 72
     0
 73
     1
 93
        4
 10
-2126.129309877505
 20
-773.4363770216055
 10
-2140.388698804842
 20
-773.4363770216064
 10
-2140.388698804842
 20
-775.0790755404836
 10
-2126.129309877505
 20
-775.0790755404836
 97
        0
 92
        7
 72
     0
 73
     1
 93
        4
 10
-2154.64808773218
 20
-773.4363770216064
 10
-2168.907476659517
 20
-773.4363770216064
 10
-2168.907476659517
 20
-775.0790755404836
 10
-2154.64808773218
 20
-775.0790755404836
 97
        0
 92
        7
 72
     0
 73
     1
 93
        4
 10
-2183.166865586853
 20
-773.4363770216064
 10
-2197.426254514191
 20
-773.4363770216064
 10
-2197.426254514191
 20
-775.0790755404846
 10
-2183.166865586855
 20
-775.0790755404836
 97
        0
 92
        7
 72
     0
 73
     1
 93
        4
 10
-2211.685643441528
 20
-773.4363770216064
 10
-2225.945032368864
 20
-773.4363770216073
 10
-2225.945032368864
 20
-775.0790755404836
 10
-2211.685643441528
 20
-775.0790755404836
 97
        0
 92
        7
 72
     0
 73
     1
 93
        4
 10
-2240.204421296201
 20
-773.4363770216073
 10
-2254.463810223539
 20
-773.4363770216073
 10
-2254.463810223539
 20
-775.0790755404836
 10
-2240.204421296201
 20
-775.0790755404836
 97
        0
 75
     0
 76
     1
 47
0.2346926121939802
 98
        5
 10
-2133.335238476381
 20
-773.9852807842839
 10
-2162.689605407245
 20
-774.2199666374185
 10
-2187.582087151163
 20
-774.2199666374185
 10
-2219.340200970672
 20
-774.2150830406504
 10
-2246.111368184722
 20
-774.2150830406504
  0
LINE
  5
22F7
330
1F
100
AcDbEntity
  8
PROFILY
100
AcDbLine
 10
-2126.129309877505
 20
-775.0790755404836
 30
0.0
 11
-2258.293529938365
 21
-775.0790755404836
 31
0.0
  0
LINE
  5
22F8
330
1F
100
AcDbEntity
  8
PROFILY
100
AcDbLine
 10
-2126.129309877505
 20
-773.4363770216064
 30
0.0
 11
-2256.799250558547
 21
-773.4363770216073
 31
0.0
  0
HATCH
  5
22F9
330
1F
100
AcDbEntity
  8
PROFILY
100
AcDbHatch
 10
0.0
 20
0.0
 30
0.0
210
0.0
220
0.0
230
1.0
  2
SOLID
 70
     1
 71
     0
 91
        2
 92
        7
 72
     0
 73
     1
 93
        4
 10
-2256.799250558547
 20
-751.4276797827173
 10
-2258.293529938374
 20
-751.4276797827173
 10
-2258.293529938374
 20
-757.0124810669008
 10
-2256.799250558547
 20
-757.0124810669008
 97
        0
 92
        7
 72
     0
 73
     1
 93
        7
 10
-2256.799250558547
 20
-761.4333236451907
 10
-2258.293529938374
 20
-761.4333236451907
 10
-2258.293529938374
 20
-769.8230027532758
 10
-2258.293529938374
 20
-775.0790755404846
 10
-2254.463810223539
 20
-775.0790755404846
 10
-2254.463810223539
 20
-773.4363770216073
 10
-2256.799250558547
 20
-773.4363770216073
 97
        0
 75
     0
 76
     1
 47
0.169069331426656
 98
        2
 10
-2257.419601823384
 20
-754.2460217000048
 10
-2257.588750864472
 20
-768.4478455398462
  0
LINE
  5
22FA
330
1F
100
AcDbEntity
  8
PROFILY
100
AcDbLine
 10
-2256.799250558547
 20
-757.0124810669008
 30
0.0
 11
-2256.799250558547
 21
-751.4276797827173
 31
0.0
  0
LINE
  5
22FB
330
1F
100
AcDbEntity
  8
PROFILY
100
AcDbLine
 10
-2258.293529938365
 20
-751.4276797827173
 30
0.0
 11
-2256.799250558547
 21
-751.4276797827173
 31
0.0
  0
HATCH
  5
22FC
330
1F
100
AcDbEntity
  8
STAVBA OBRYS
100
AcDbHatch
 10
0.0
 20
0.0
 30
0.0
210
0.0
220
0.0
230
1.0
  2
AR-SAND
 70
     0
 71
     0
 91
        1
 92
        7
 72
     0
 73
     1
 93
        4
 10
-1729.948138151675
 20
260.1283680301753
 10
-1739.948122274779
 20
260.1461876150628
 10
-1740.691607641613
 20
-157.08249144429
 10
-1730.691591764692
 20
-157.08249144429
 97
        0
 75
     0
 76
     1
 52
0.0
 41
0.1
 77
     0
 78
     4
 53
37.5
 43
-13465.66179601343
 44
3334.568850636634
 45
-0.1600031295984046
 46
4.894132373293423
 79
     6
 49
0.0
 49
-3.8608
 49
0.0
 49
-4.318
 49
0.0
 49
-4.1275
 53
7.499999999999999
 43
-13465.66179601343
 44
3334.568850636634
 45
4.495232831380026
 46
7.168251005683543
 79
     6
 49
0.0
 49
-2.0828
 49
0.0
 49
-3.4798
 49
0.0
 49
-1.3335
 53
327.4999999999999
 43
-13468.78599601343
 44
3334.568850636634
 45
7.909923702414579
 46
0.0143718467854569
 79
     6
 49
0.0
 49
-1.27
 49
0.0
 49
-4.572
 49
0.0
 49
-5.969
 53
317.5
 43
-13468.78599601343
 44
3334.568850636634
 45
7.635564524722972
 46
2.229293232572162
 79
     6
 49
0.0
 49
-0.635
 49
0.0
 49
-2.997199999999999
 49
0.0
 49
-3.429
 47
0.6630861309027388
 98
        1
 10
-1736.056761406012
 20
139.8211478637817
  0
LINE
  5
22FD
330
1F
100
AcDbEntity
  8
STAVBA OBRYS
100
AcDbLine
 10
-1730.691591764694
 20
-157.08249144429
 30
0.0
 11
-1729.948138151673
 21
260.1283680301753
 31
0.0
  0
LINE
  5
22FE
330
1F
100
AcDbEntity
  8
NOSNÉ KONSTRUKCE
100
AcDbLine
 10
-1980.501969154386
 20
-188.954149681625
 30
0.0
 11
-1980.501969154382
 21
-138.1674223425502
 31
0.0
  0
HATCH
  5
22FF
330
1F
100
AcDbEntity
  8
NOSNÉ KONSTRUKCE
100
AcDbHatch
 10
0.0
 20
0.0
 30
0.0
210
0.0
220
0.0
230
1.0
  2
SOLID
 70
     1
 71
     0
 91
        5
 92
        7
 72
     0
 73
     1
 93
        4
 10
-1977.501969154385
 20
-137.3438565541969
 10
-1980.501969154382
 20
-137.3438565541969
 10
-1980.501969154382
 20
-142.9913229342792
 10
-1977.501969154382
 20
-142.9913229342787
 97
        0
 92
        7
 72
     0
 73
     1
 93
        4
 10
-1977.501969154382
 20
-142.9913229342787
 10
-1980.501969154382
 20
-142.9913229342792
 10
-1980.501969154384
 20
-156.1747202237297
 10
-1977.501969154385
 20
-156.1747202237293
 97
        0
 92
        7
 72
     0
 73
     1
 93
        4
 10
-1977.501969154385
 20
-156.1747202237297
 10
-1980.501969154386
 20
-156.1747202237297
 10
-1980.501969154386
 20
-162.7372202237297
 10
-1977.501969154385
 20
-162.7372202237297
 97
        0
 92
        7
 72
     0
 73
     1
 93
        4
 10
-1977.501969154382
 20
-162.7372202237297
 10
-1980.501969154384
 20
-162.7372202237297
 10
-1980.501969154384
 20
-169.2997202237297
 10
-1977.501969154385
 20
-169.2997202237293
 97
        0
 92
        7
 72
     0
 73
     1
 93
        4
 10
-1977.501969154382
 20
-169.2997202237293
 10
-1980.501969154386
 20
-169.2997202237306
 10
-1980.501969154386
 20
-188.1305838932671
 10
-1977.501969154382
 20
-188.1305838932676
 97
        0
 75
     0
 76
     1
 47
0.1874983414428997
 98
        5
 10
-1978.417507322971
 20
-142.3881810598086
 10
-1978.417507322971
 20
-147.0756462060908
 10
-1978.417507322971
 20
-158.8880457888826
 10
-1978.042296806606
 20
-165.2629939457638
 10
-1978.229887091111
 20
-174.4504137869789
  0
LINE
  5
2300
330
1F
100
AcDbEntity
  8
NOSNÉ KONSTRUKCE
100
AcDbLine
 10
-1980.501969154381
 20
120.8983939083718
 30
0.0
 11
-1980.501969154377
 21
171.6851212474466
 31
0.0
  0
HATCH
  5
2301
330
1F
100
AcDbEntity
  8
NOSNÉ KONSTRUKCE
100
AcDbHatch
 10
0.0
 20
0.0
 30
0.0
210
0.0
220
0.0
230
1.0
  2
SOLID
 70
     1
 71
     0
 91
        5
 92
        7
 72
     0
 73
     1
 93
        4
 10
-1977.501969154379
 20
171.6851212474425
 10
-1980.501969154377
 20
171.6851212474425
 10
-1980.501969154377
 20
166.0376548673602
 10
-1977.501969154377
 20
166.0376548673607
 97
        0
 92
        7
 72
     0
 73
     1
 93
        4
 10
-1977.501969154377
 20
166.0376548673607
 10
-1980.501969154377
 20
166.0376548673602
 10
-1980.501969154379
 20
152.8542575779097
 10
-1977.501969154379
 20
152.8542575779101
 97
        0
 92
        7
 72
     0
 73
     1
 93
        4
 10
-1977.501969154379
 20
152.8542575779097
 10
-1980.501969154381
 20
152.8542575779097
 10
-1980.501969154381
 20
146.2917575779097
 10
-1977.501969154379
 20
146.2917575779097
 97
        0
 92
        7
 72
     0
 73
     1
 93
        4
 10
-1977.501969154377
 20
146.2917575779097
 10
-1980.501969154379
 20
146.2917575779097
 10
-1980.501969154379
 20
139.7292575779097
 10
-1977.501969154379
 20
139.7292575779101
 97
        0
 92
        7
 72
     0
 73
     1
 93
        4
 10
-1977.501969154377
 20
139.7292575779101
 10
-1980.501969154381
 20
139.7292575779088
 10
-1980.501969154381
 20
120.8983939083723
 10
-1977.501969154377
 20
120.8983939083718
 97
        0
 75
     0
 76
     1
 47
0.1874983414428997
 98
        5
 10
-1978.417507322966
 20
166.6407967418308
 10
-1978.417507322966
 20
161.9533315955486
 10
-1978.417507322966
 20
150.1409320127568
 10
-1978.0422968066
 20
143.7659838558756
 10
-1978.229887091106
 20
134.5785640146605
  0
HATCH
  5
2302
330
1F
100
AcDbEntity
  8
STAVBA OBRYS
100
AcDbHatch
 10
0.0
 20
0.0
 30
0.0
210
0.0
220
0.0
230
1.0
  2
BRICK
 70
     0
 71
     0
 91
        1
 92
        7
 72
     0
 73
     1
 93
       28
 10
-1740.111799454903
 20
168.293924341317
 10
-1739.948464566539
 20
259.9541005278779
 10
-1977.501969154333
 20
260.096153520215
 10
-1977.501969154333
 20
160.8020272343892
 10
-1977.501969154332
 20
152.8542575779129
 10
-1899.956295911644
 20
152.854257577912
 10
-1896.167434770085
 20
146.2917575779119
 10
-1899.95629591164
 20
139.7292575779115
 10
-1977.501969154332
 20
139.7292575779133
 10
-1977.501969154337
 20
-73.42030788606507
 10
-1895.429769528607
 20
-73.42030788606507
 10
-1891.640908387054
 20
-79.98280788606781
 10
-1895.429769528608
 20
-86.54530788606644
 10
-1977.501969154333
 20
-86.54530788606507
 10
-1977.501969154333
 20
-88.13211607100402
 10
-1932.903063148466
 20
-156.174720223692
 10
-1899.956295911644
 20
-156.1747202236929
 10
-1896.167434770089
 20
-162.7372202236924
 10
-1899.956295911645
 20
-169.2997202236933
 10
-1977.501969154337
 20
-169.2997202236915
 10
-1977.501969154343
 20
-328.4835988554718
 10
-1974.172721306596
 20
-385.165418112469
 10
-1740.909098579689
 20
-367.6000269667806
 10
-1740.824034230409
 20
-319.8636656770945
 10
-1903.248401319745
 20
-319.8636656770936
 10
-1903.248401319745
 20
-214.0231460316504
 10
-1740.635430518527
 20
-214.0231460316504
 10
-1739.954156788501
 20
168.2936434281837
 97
        0
 75
     0
 76
     1
 52
0.0
 41
10.0
 77
     0
 78
     3
 53
0.0
 43
-14225.99389117451
 44
3928.959506487423
 45
0.0
 46
63.5
 79
     0
 53
90.0
 43
-14225.99389117451
 44
3928.959506487423
 45
-127.0
 46
0.0000000000000078
 79
     2
 49
63.5
 49
-63.5
 53
90.0
 43
-14162.49389117451
 44
3928.959506487423
 45
-127.0
 46
0.0000000000000078
 79
     2
 49
-63.5
 49
63.5
 47
4.665898073608155
 98
        1
 10
-1806.100344157955
 20
-36.36278844022717
  0
TEXT
  5
2303
330
1F
100
AcDbEntity
  8
POPIS
100
AcDbText
 10
-2354.99447623387
 20
343.1813277650539
 30
0.0
 40
35.0
  1
ŘEZ-ŘEŠENÍ PŘESAHEM
 41
0.85
  7
SIMPLEX7
100
AcDbText
  0
TEXT
  5
2304
330
1F
100
AcDbEntity
  8
POPIS
100
AcDbText
 10
-2354.99447623387
 20
397.8060707908548
 30
0.0
 40
50.0
  1
SPODNÍ ZAKONČENÍ
 41
0.85
  7
SIMPLEX7
100
AcDbText
  0
INSERT
  5
2305
330
1F
100
AcDbEntity
  8
POPIS
100
AcDbBlockReference
  2
E_PUNKT
 10
-2135.241674263356
 20
210.879269388764
 30
0.0
  0
INSERT
  5
2306
330
1F
100
AcDbEntity
  8
POPIS
100
AcDbBlockReference
  2
E_PUNKT
 10
-2077.733686907099
 20
9.542619764313712
 30
0.0
  0
INSERT
  5
2307
330
1F
100
AcDbEntity
  8
POPIS
100
AcDbBlockReference
  2
E_PUNKT
 10
-1928.417816011312
 20
-162.9834237678765
 30
0.0
  0
LINE
  5
2308
330
1F
100
AcDbEntity
  8
POPIS
100
AcDbLine
 10
-1928.618528984502
 20
-162.7114469779053
 30
0.0
 11
-1996.066402019251
 21
-59.80917118575189
 31
0.0
  0
INSERT
  5
2309
330
1F
100
AcDbEntity
  8
POPIS
100
AcDbBlockReference
  2
E_PUNKT
 10
-2032.824924702909
 20
-148.3265918292499
 30
0.0
  0
LINE
  5
230A
330
1F
100
AcDbEntity
  8
POPIS
100
AcDbLine
 10
-2033.032543596505
 20
-148.0803882851
 30
0.0
 11
-2075.267490405504
 21
-113.8802783006281
 31
0.0
  0
INSERT
  5
230B
330
1F
100
AcDbEntity
  8
POPIS
100
AcDbBlockReference
  2
E_PUNKT
 10
-2015.094139000247
 20
112.7479703984795
 30
0.0
  0
INSERT
  5
230C
330
1F
100
AcDbEntity
  8
POPIS
100
AcDbBlockReference
  2
E_PUNKT
 10
-2094.056407595121
 20
-208.7149201048782
 30
0.0
  0
LINE
  5
230D
330
1F
100
AcDbEntity
  8
POPIS
100
AcDbLine
 10
-2283.338499609653
 20
-59.80917118575144
 30
0.0
 11
-1996.066402019251
 21
-59.80917118575189
 31
0.0
  0
TEXT
  5
230E
330
1F
100
AcDbEntity
  8
POPIS
100
AcDbText
 10
-2324.718109647647
 20
-70.50950219799779
 30
0.0
 40
25.0
  1
04
 41
0.7
  7
SIMPLEX7
100
AcDbText
  0
TEXT
  5
230F
330
1F
100
AcDbEntity
  8
POPIS
100
AcDbText
 10
-2323.315985952921
 20
-222.4942540402103
 30
0.0
 40
25.0
  1
06
 41
0.7
  7
SIMPLEX7
100
AcDbText
  0
LINE
  5
2310
330
1F
100
AcDbEntity
  8
POPIS
100
AcDbLine
 10
-2283.338499609653
 20
-209.0509125908397
 30
0.0
 11
-2094.028797219495
 21
-209.0509125908406
 31
0.0
  0
TEXT
  5
2311
330
1F
100
AcDbEntity
  8
POPIS
100
AcDbText
 10
-2321.850153966256
 20
197.4649962702665
 30
0.0
 40
25.0
  1
02
 41
0.7
  7
SIMPLEX7
100
AcDbText
  0
LINE
  5
2312
330
1F
100
AcDbEntity
  8
POPIS
100
AcDbLine
 10
-2281.314718671706
 20
210.9083377196366
 30
0.0
 11
-2135.193553208851
 21
210.9083377196366
 31
0.0
  0
TEXT
  5
2313
330
1F
100
AcDbEntity
  8
POPIS
100
AcDbText
 10
-2319.618369769427
 20
241.4046427591292
 30
0.0
 40
25.0
  1
01
 41
0.7
  7
SIMPLEX7
100
AcDbText
  0
LINE
  5
2314
330
1F
100
AcDbEntity
  8
POPIS
100
AcDbLine
 10
-2281.314718671706
 20
254.8479842084998
 30
0.0
 11
-2118.478188216383
 21
254.8479842084989
 31
0.0
  0
TEXT
  5
2315
330
1F
100
AcDbEntity
  8
POPIS
100
AcDbText
 10
-2324.718109647647
 20
-127.3236197499973
 30
0.0
 40
25.0
  1
05
 41
0.7
  7
SIMPLEX7
100
AcDbText
  0
LINE
  5
2316
330
1F
100
AcDbEntity
  8
POPIS
100
AcDbLine
 10
-2283.338499609653
 20
-113.8802783006276
 30
0.0
 11
-2075.267490405504
 21
-113.8802783006281
 31
0.0
  0
LINE
  5
2317
330
1F
100
AcDbEntity
  8
POPIS
100
AcDbLine
 10
-2283.338499609653
 20
9.5716880951868
 30
0.0
 11
-2076.456076531473
 21
9.571688095186345
 31
0.0
  0
TEXT
  5
2318
330
1F
100
AcDbEntity
  8
POPIS
100
AcDbText
 10
-2323.315985952921
 20
-3.871653354183763
 30
0.0
 40
25.0
  1
03
 41
0.7
  7
SIMPLEX7
100
AcDbText
  0
LINE
  5
2319
330
1F
100
AcDbEntity
  8
POPIS
100
AcDbLine
 10
-2283.338499609653
 20
112.411977912518
 30
0.0
 11
-2015.066528624621
 21
112.411977912518
 31
0.0
  0
TEXT
  5
231A
330
1F
100
AcDbEntity
  8
POPIS
100
AcDbText
 10
-2323.904965408713
 20
98.9686364631475
 30
0.0
 40
25.0
  1
08
 41
0.7
  7
SIMPLEX7
100
AcDbText
  0
CIRCLE
  5
231B
330
1F
100
AcDbEntity
  8
POPIS
100
AcDbCircle
 10
-2094.913233253401
 20
-484.0318800245081
 30
0.0
 40
11.13656048292026
  0
TEXT
  5
231C
330
1F
100
AcDbEntity
  8
POPIS
100
AcDbText
 10
-2099.672262308585
 20
-489.5772257694956
 30
0.0
 40
12.0
  1
R
 41
0.85
  7
SIMPLEX7
100
AcDbText
  0
TEXT
  5
231D
330
1F
100
AcDbEntity
  8
POPIS
100
AcDbText
 10
-2321.642150707374
 20
-692.2276071415658
 30
0.0
 40
25.0
  1
06
 41
0.85
  7
SIMPLEX7
100
AcDbText
  0
TEXT
  5
231E
330
1F
100
AcDbEntity
  8
POPIS
100
AcDbText
 10
-2267.298447547628
 20
-692.2276071415658
 30
0.0
 40
25.0
  1
Nosný profil systému - úhelník (np. SPIDI, EuroFox, SPEEDY...)
 41
0.7
  7
SIMPLEX7
100
AcDbText
  0
TEXT
  5
231F
330
1F
100
AcDbEntity
  8
POPIS
100
AcDbText
 10
-2321.642150707374
 20
-656.6087184434768
 30
0.0
 40
25.0
  1
05
 41
0.85
  7
SIMPLEX7
100
AcDbText
  0
TEXT
  5
2320
330
1F
100
AcDbEntity
  8
POPIS
100
AcDbText
 10
-2267.298447547628
 20
-656.6087184434768
 30
0.0
 40
25.0
  1
Upevňovací prvek systému - kotva (np. SPIDI, EuroFox, SPEEDY...)
 41
0.7
  7
SIMPLEX7
100
AcDbText
  0
TEXT
  5
2321
330
1F
100
AcDbEntity
  8
POPIS
100
AcDbText
 10
-2267.298447547628
 20
-820.6171988050632
 30
0.0
 40
25.0
  1
Tepelná izolace (np. ORSIL, ROCKWOOL, ISOVER, NOBASIL)
 41
0.7
  7
SIMPLEX7
100
AcDbText
  0
TEXT
  5
2322
330
1F
100
AcDbEntity
  8
POPIS
100
AcDbText
 10
-2321.642150707374
 20
-820.6171988050632
 30
0.0
 40
25.0
  1
08
 41
0.85
  7
SIMPLEX7
100
AcDbText
  0
TEXT
  5
2323
330
1F
100
AcDbEntity
  8
POPIS
100
AcDbText
 10
-2267.298447547628
 20
-730.4109469840918
 30
0.0
 40
25.0
  1
Perforovaný odvětrávací profil (PROTECTOR 3613)
 41
0.7
  7
SIMPLEX7
100
AcDbText
  0
TEXT
  5
2324
330
1F
100
AcDbEntity
  8
POPIS
100
AcDbText
 10
-2321.642150707374
 20
-730.4109469840918
 30
0.0
 40
25.0
  1
07
 41
0.85
  7
SIMPLEX7
100
AcDbText
  0
TEXT
  5
2325
330
1F
100
AcDbEntity
  8
POPIS
100
AcDbText
 10
-2267.298447547628
 20
-620.5018969562884
 30
0.0
 40
25.0
  1
Kotevní prvek
 41
0.7
  7
SIMPLEX7
100
AcDbText
  0
TEXT
  5
2326
330
1F
100
AcDbEntity
  8
POPIS
100
AcDbText
 10
-2321.642150707374
 20
-620.5018969562884
 30
0.0
 40
25.0
  1
04
 41
0.85
  7
SIMPLEX7
100
AcDbText
  0
TEXT
  5
2327
330
1F
100
AcDbEntity
  8
POPIS
100
AcDbText
 10
-2267.298447547628
 20
-585.0977357381257
 30
0.0
 40
25.0
  1
Vzduchová mezera - min. 25 mm
 41
0.7
  7
SIMPLEX7
100
AcDbText
  0
TEXT
  5
2328
330
1F
100
AcDbEntity
  8
POPIS
100
AcDbText
 10
-2321.642150707374
 20
-585.0977357381257
 30
0.0
 40
25.0
  1
03
 41
0.85
  7
SIMPLEX7
100
AcDbText
  0
TEXT
  5
2329
330
1F
100
AcDbEntity
  8
POPIS
100
AcDbText
 10
-2267.298447547628
 20
-551.1475474934036
 30
0.0
 40
25.0
  1
Nerezový vrut s podložkou (np. SFS, EJOT)
 41
0.7
  7
SIMPLEX7
100
AcDbText
  0
TEXT
  5
232A
330
1F
100
AcDbEntity
  8
POPIS
100
AcDbText
 10
-2321.642150707374
 20
-551.1475474934036
 30
0.0
 40
25.0
  1
02
 41
0.85
  7
SIMPLEX7
100
AcDbText
  0
TEXT
  5
232B
330
1F
100
AcDbEntity
  8
POPIS
100
AcDbText
 10
-2267.298447547628
 20
-514.5525358777763
 30
0.0
 40
25.0
  1
Deska CETRIS   (BASIC,FINISH,LASUR)
 41
0.7
  7
SIMPLEX7
100
AcDbText
  0
TEXT
  5
232C
330
1F
100
AcDbEntity
  8
POPIS
100
AcDbText
 10
-2321.642150707374
 20
-514.5525358777763
 30
0.0
 40
25.0
  1
01
 41
0.85
  7
SIMPLEX7
100
AcDbText
  0
LINE
  5
232D
330
1F
100
AcDbEntity
  8
STAVBA OBRYS
100
AcDbLine
 10
-1903.248401319748
 20
-214.0231460316504
 30
0.0
 11
-1605.798328863448
 21
-214.0231460316504
 31
0.0
  0
LINE
  5
232E
330
1F
100
AcDbEntity
  8
STAVBA OBRYS
100
AcDbLine
 10
-1903.248401319745
 20
-319.8636656770945
 30
0.0
 11
-1632.892441590657
 21
-319.8636656770945
 31
0.0
  0
HATCH
  5
232F
330
1F
100
AcDbEntity
  8
STAVBA OBRYS
100
AcDbHatch
 10
0.0
 20
0.0
 30
0.0
210
0.0
220
0.0
230
1.0
  2
AR-CONC
 70
     0
 71
     0
 91
        1
 92
        7
 72
     0
 73
     1
 93
        5
 10
-1605.798328863448
 20
-214.0231460316504
 10
-1903.248401319748
 20
-214.0231460316504
 10
-1903.248401319748
 20
-319.8636656770945
 10
-1847.743782706852
 20
-319.8636656770945
 10
-1632.892441590657
 20
-319.8636656770945
 97
        0
 75
     0
 76
     1
 52
0.0
 41
0.35
 77
     0
 78
    13
 53
50.0
 43
-2998.299625343449
 44
-1863.531011355375
 45
63.7646341486014
 46
-5.57867993861608
 79
     2
 49
6.667499999999999
 49
-73.3425
 53
355.0
 43
-2998.299625343449
 44
-1863.531011355375
 45
-12.33498909148344
 46
66.86982500876299
 79
     2
 49
5.333999999999999
 49
-58.67399999999999
 53
100.451
 43
-2992.98592534345
 44
-1863.995898855375
 45
51.42987558308573
 46
61.29084073710215
 79
     2
 49
5.6665
 49
-62.3315
 53
46.1842
 43
-2998.299625343449
 44
-1845.751011355376
 45
94.87766431224546
 46
-14.7148147764545
 79
     2
 49
10.00124999999999
 49
-110.0137499999999
 53
96.63559999999998
 43
-2990.393160343449
 44
-1846.977236355375
 45
83.09148206318299
 46
86.59894456151723
 79
     2
 49
8.499749999999981
 49
-93.49724999999985
 53
351.184
 43
-2998.299625343449
 44
-1845.751011355376
 45
83.09161203487688
 46
86.59879125120918
 79
     2
 49
8.000999999999999
 49
-88.01099999999999
 53
21.0
 43
-2989.40962534345
 44
-1850.196011355375
 45
53.06520794238414
 46
-35.79293148086687
 79
     2
 49
6.667499999999999
 49
-73.3425
 53
326.0
 43
-2989.40962534345
 44
-1850.196011355375
 45
21.63070992167647
 46
64.46578814281174
 79
     2
 49
5.333999999999999
 49
-58.67399999999999
 53
71.45140000000001
 43
-2984.987550343449
 44
-1853.178746355376
 45
74.69577176954356
 46
28.6730002006201
 79
     2
 49
5.6665
 49
-62.3315
 53
37.5
 43
-2998.299625343449
 44
-1863.531011355375
 45
1.081011137707135
 46
29.59426360560359
 79
     6
 49
0.0
 49
-57.96279999999999
 49
0.0
 49
-59.56299999999999
 49
0.0
 49
-58.89624999999999
 53
7.499999999999999
 43
-2998.299625343449
 44
-1863.531011355375
 45
23.38688187860701
 46
35.06320118634183
 79
     6
 49
0.0
 49
-33.95979999999999
 49
0.0
 49
-56.62929999999999
 49
0.0
 49
-22.44725
 53
327.4999999999999
 43
-3018.12432534345
 44
-1863.531011355375
 45
47.45670830840498
 46
-2.005060397435712
 79
     6
 49
0.0
 49
-22.22499999999999
 49
0.0
 49
-69.342
 49
0.0
 49
-92.01149999999998
 53
317.5
 43
-3027.014325343449
 44
-1863.531011355375
 45
51.84521348510632
 46
8.899271861666553
 79
     6
 49
0.0
 49
-28.8925
 49
0.0
 49
-46.05019999999999
 49
0.0
 49
-65.3415
 47
1.943322863705773
 98
        1
 10
-1788.661654455408
 20
-256.4083775821823
  0
LINE
  5
2330
330
1F
100
AcDbEntity
  8
STAVBA OBRYS
100
AcDbLine
 10
-1977.501969154333
 20
160.8020272343892
 30
0.0
 11
-1977.501969154332
 21
260.1461876150628
 31
0.0
  0
LINE
  5
2331
330
1F
100
AcDbEntity
  8
STAVBA OBRYS
  6
IZOLACE
 48
4.0
100
AcDbLine
 10
-2020.41976980948
 20
-295.7012805869912
 30
0.0
 11
-2020.419769809471
 21
260.1461876150628
 31
0.0
  0
SOLID
  5
2332
330
1F
100
AcDbEntity
  8
CETRIS
100
AcDbTrace
 10
-2129.610833657883
 20
262.1461876150628
 30
0.0
 11
-2117.610833657875
 21
262.1461876150628
 31
0.0
 12
-2129.610833657883
 22
155.8899792528359
 32
0.0
 13
-2117.610833657882
 23
156.3802721214533
 33
0.0
  0
LINE
  5
2333
330
1F
100
AcDbEntity
  8
CETRIS
100
AcDbLine
 10
-2129.610833657883
 20
155.8899792528359
 30
0.0
 11
-2129.610833657883
 21
262.1461876150628
 31
0.0
  0
LINE
  5
2334
330
1F
100
AcDbEntity
  8
NOSNÉ KONSTRUKCE
100
AcDbLine
 10
-2111.296152834954
 20
156.509945520002
 30
0.0
 11
-2111.296152834952
 21
260.1461876150628
 31
0.0
  0
LINE
  5
2335
330
1F
100
AcDbEntity
  8
NOSNÉ KONSTRUKCE
100
AcDbLine
 10
-2066.501969154326
 20
157.9932384654152
 30
0.0
 11
-2066.501969154324
 21
259.8966178421974
 31
0.0
  0
LINE
  5
2336
330
1F
100
AcDbEntity
  8
STAVBA OBRYS
100
AcDbLine
 10
-2061.173382086081
 20
158.161405605997
 30
0.0
 11
-2061.173382086079
 21
260.1461876150628
 31
0.0
  0
LINE
  5
2337
330
1F
100
AcDbEntity
  8
NOSNÉ KONSTRUKCE
100
AcDbLine
 10
-2116.501969154334
 20
156.4152672468903
 30
0.0
 11
-2116.501969154334
 21
260.1461876150628
 31
0.0
  0
LINE
  5
2338
330
1F
100
AcDbEntity
  8
STAVBA OBRYS
100
AcDbLine
 10
-2345.423264617758
 20
-328.4835988554573
 30
0.0
 11
-1977.501969154341
 21
-328.4835988554573
 31
0.0
  0
LINE
  5
2339
330
1F
100
AcDbEntity
  8
NOSNÉ KONSTRUKCE
100
AcDbLine
 10
-2080.001969154346
 20
-137.3438565541532
 30
0.0
 11
-1977.501969154339
 21
-137.3438565541587
 31
0.0
  0
LINE
  5
233A
330
1F
100
AcDbEntity
  8
NOSNÉ KONSTRUKCE
100
AcDbLine
 10
-2080.001969154348
 20
-188.1305838932235
 30
0.0
 11
-1977.501969154337
 21
-188.1305838932298
 31
0.0
  0
SOLID
  5
233B
330
1F
100
AcDbEntity
  8
CETRIS
100
AcDbTrace
 10
-2129.610833657883
 20
155.8899792528359
 30
0.0
 11
-2117.610833657884
 21
156.3802721214533
 31
0.0
 12
-2129.610833657883
 22
-298.4835988554573
 32
0.0
 13
-2117.610833657882
 23
-298.4835988554573
 33
0.0
  0
LINE
  5
233C
330
1F
100
AcDbEntity
  8
CETRIS
100
AcDbLine
 10
-2129.610833657883
 20
-298.4835988554573
 30
0.0
 11
-2129.610833657883
 21
155.8899792528359
 31
0.0
  0
LINE
  5
233D
330
1F
100
AcDbEntity
  8
STAVBA OBRYS
100
AcDbLine
 10
-2061.173382086085
 20
-295.7012805869912
 30
0.0
 11
-2061.173382086079
 21
158.161405605997
 31
0.0
  0
LINE
  5
233E
330
1F
100
AcDbEntity
  8
NOSNÉ KONSTRUKCE
100
AcDbLine
 10
-2066.501969154333
 20
-137.3438565541541
 30
0.0
 11
-2066.501969154324
 21
141.1013503031267
 31
0.0
  0
LINE
  5
233F
330
1F
100
AcDbEntity
  8
NOSNÉ KONSTRUKCE
100
AcDbLine
 10
-2116.501969154337
 20
-293.3737195560447
 30
0.0
 11
-2116.501969154334
 21
156.4152672468903
 31
0.0
  0
LINE
  5
2340
330
1F
100
AcDbEntity
  8
NOSNÉ KONSTRUKCE
100
AcDbLine
 10
-2111.296152834961
 20
-293.3737195560447
 30
0.0
 11
-2111.296152834952
 21
156.5795598133085
 31
0.0
  0
LINE
  5
2341
330
1F
100
AcDbEntity
  8
NOSNÉ KONSTRUKCE
100
AcDbLine
 10
-2066.501969154335
 20
-266.2451345964896
 30
0.0
 11
-2066.501969154328
 21
-188.1305838932244
 31
0.0
  0
CIRCLE
  5
2342
330
1F
100
AcDbEntity
  8
NOSNÉ KONSTRUKCE
100
AcDbCircle
 10
-2090.465871030158
 20
-213.2204229023031
 30
0.0
 40
5.0
  0
LINE
  5
2343
330
1F
100
AcDbEntity
  8
NOSNÉ KONSTRUKCE
100
AcDbLine
 10
-2111.296152834961
 20
-266.2451345964896
 30
0.0
 11
-2066.501969154335
 21
-266.2451345964896
 31
0.0
  0
LINE
  5
2344
330
1F
100
AcDbEntity
  8
SPOJOVACÍ
100
AcDbLine
 10
-2101.400558487333
 20
-251.3782923531402
 30
0.0
 11
-2130.167548260194
 21
-251.3782923531402
 31
0.0
  0
LINE
  5
2345
330
1F
100
AcDbEntity
  8
SPOJOVACÍ
100
AcDbLine
 10
-2101.400558487333
 20
-245.694351895338
 30
0.0
 11
-2130.167548260194
 21
-245.694351895338
 31
0.0
  0
LINE
  5
2346
330
1F
100
AcDbEntity
  8
SPOJOVACÍ
100
AcDbLine
 10
-2107.510859435692
 20
-251.3782923531402
 30
0.0
 11
-2105.987852180201
 21
-245.694351895338
 31
0.0
  0
LINE
  5
2347
330
1F
100
AcDbEntity
  8
NOSNÉ KONSTRUKCE
100
AcDbLine
 10
-2116.501969154337
 20
-293.3737195560447
 30
0.0
 11
-2111.296152834961
 21
-293.3737195560447
 31
0.0
  0
ARC
  5
2348
330
1F
100
AcDbEntity
  8
SPOJOVACÍ
100
AcDbCircle
 10
-2135.563136808137
 20
-245.2140564992391
 30
0.0
 40
0.94921875
100
AcDbArc
 50
180.0
 51
270.0
  0
LINE
  5
2349
330
1F
100
AcDbEntity
  8
SPOJOVACÍ
100
AcDbLine
 10
-2131.85436811867
 20
-244.7003539471747
 30
0.0
 11
-2131.85436811867
 21
-255.6554627492392
 31
0.0
  0
LINE
  5
234A
330
1F
100
AcDbEntity
  8
SPOJOVACÍ
100
AcDbLine
 10
-2136.512355558136
 20
-244.2648377492391
 30
0.0
 11
-2136.512355558136
 21
-252.8078064992391
 31
0.0
  0
LINE
  5
234B
330
1F
100
AcDbEntity
  8
SPOJOVACÍ
100
AcDbLine
 10
-2131.85436811867
 20
-248.5363221242391
 30
0.0
 11
-2131.85436811867
 21
-241.4171814992391
 31
0.0
  0
LINE
  5
234C
330
1F
100
AcDbEntity
  8
SPOJOVACÍ
100
AcDbLine
 10
-2130.167548260194
 20
-241.4171814992391
 30
0.0
 11
-2130.167548260194
 21
-248.5363221242391
 31
0.0
  0
LINE
  5
234D
330
1F
100
AcDbEntity
  8
SPOJOVACÍ
100
AcDbLine
 10
-2115.421015685692
 20
-251.3782923531402
 30
0.0
 11
-2113.898008430197
 21
-245.694351895338
 31
0.0
  0
LINE
  5
234E
330
1F
100
AcDbEntity
  8
SPOJOVACÍ
100
AcDbLine
 10
-2126.495234435692
 20
-251.3782923531402
 30
0.0
 11
-2124.972227180197
 21
-245.694351895338
 31
0.0
  0
LINE
  5
234F
330
1F
100
AcDbEntity
  8
SPOJOVACÍ
100
AcDbLine
 10
-2131.85436811867
 20
-246.1632752492391
 30
0.0
 11
-2135.563136808137
 21
-246.1632752492391
 31
0.0
  0
LINE
  5
2350
330
1F
100
AcDbEntity
  8
SPOJOVACÍ
100
AcDbLine
 10
-2135.563136808137
 20
-253.7570252492391
 30
0.0
 11
-2131.85436811867
 21
-253.7570252492391
 31
0.0
  0
LINE
  5
2351
330
1F
100
AcDbEntity
  8
SPOJOVACÍ
100
AcDbLine
 10
-2131.85436811867
 20
-250.9093689992391
 30
0.0
 11
-2135.563136808137
 21
-250.9093689992391
 31
0.0
  0
ARC
  5
2352
330
1F
100
AcDbEntity
  8
SPOJOVACÍ
100
AcDbCircle
 10
-2135.563136808137
 20
-252.8078064992391
 30
0.0
 40
0.94921875
100
AcDbArc
 50
180.0
 51
270.0
  0
ARC
  5
2353
330
1F
100
AcDbEntity
  8
SPOJOVACÍ
100
AcDbCircle
 10
-2135.563136808137
 20
-251.8585877492391
 30
0.0
 40
0.94921875
100
AcDbArc
 50
90.0
 51
180.0
  0
ARC
  5
2354
330
1F
100
AcDbEntity
  8
SPOJOVACÍ
100
AcDbCircle
 10
-2133.138416643924
 20
-248.5363221242391
 30
0.0
 40
3.392730367372068
100
AcDbArc
 50
135.6170676673749
 51
224.382932332625
  0
LINE
  5
2355
330
1F
100
AcDbEntity
  8
SPOJOVACÍ
100
AcDbLine
 10
-2128.07726568569
 20
-251.3782923531402
 30
0.0
 11
-2126.554258430199
 21
-245.694351895338
 31
0.0
  0
LINE
  5
2356
330
1F
100
AcDbEntity
  8
SPOJOVACÍ
100
AcDbLine
 10
-2131.85436811867
 20
-255.6554627492392
 30
0.0
 11
-2130.167548260194
 21
-255.6554627492392
 31
0.0
  0
LINE
  5
2357
330
1F
100
AcDbEntity
  8
SPOJOVACÍ
100
AcDbLine
 10
-2130.167548260194
 20
-248.5363221242391
 30
0.0
 11
-2130.167548260194
 21
-255.6554627492392
 31
0.0
  0
LINE
  5
2358
330
1F
100
AcDbEntity
  8
SPOJOVACÍ
100
AcDbLine
 10
-2121.749140685692
 20
-251.3782923531402
 30
0.0
 11
-2120.226133430197
 21
-245.694351895338
 31
0.0
  0
LINE
  5
2359
330
1F
100
AcDbEntity
  8
SPOJOVACÍ
100
AcDbLine
 10
-2123.331171935692
 20
-251.3782923531402
 30
0.0
 11
-2121.808164680197
 21
-245.694351895338
 31
0.0
  0
LINE
  5
235A
330
1F
100
AcDbEntity
  8
SPOJOVACÍ
100
AcDbLine
 10
-2124.913203185692
 20
-251.3782923531402
 30
0.0
 11
-2123.390195930197
 21
-245.694351895338
 31
0.0
  0
LINE
  5
235B
330
1F
100
AcDbEntity
  8
SPOJOVACÍ
100
AcDbLine
 10
-2117.00304693569
 20
-251.3782923531402
 30
0.0
 11
-2115.480039680199
 21
-245.694351895338
 31
0.0
  0
LINE
  5
235C
330
1F
100
AcDbEntity
  8
SPOJOVACÍ
100
AcDbLine
 10
-2118.58507818569
 20
-251.3782923531402
 30
0.0
 11
-2117.062070930199
 21
-245.694351895338
 31
0.0
  0
LINE
  5
235D
330
1F
100
AcDbEntity
  8
SPOJOVACÍ
100
AcDbLine
 10
-2120.167109435692
 20
-251.3782923531402
 30
0.0
 11
-2118.644102180197
 21
-245.694351895338
 31
0.0
  0
LINE
  5
235E
330
1F
100
AcDbEntity
  8
SPOJOVACÍ
100
AcDbLine
 10
-2109.092890685692
 20
-251.3782923531402
 30
0.0
 11
-2107.569883430199
 21
-245.694351895338
 31
0.0
  0
LINE
  5
235F
330
1F
100
AcDbEntity
  8
SPOJOVACÍ
100
AcDbLine
 10
-2110.674921935696
 20
-251.3782923531402
 30
0.0
 11
-2109.151914680199
 21
-245.694351895338
 31
0.0
  0
LINE
  5
2360
330
1F
100
AcDbEntity
  8
SPOJOVACÍ
100
AcDbLine
 10
-2112.256953185692
 20
-251.3782923531402
 30
0.0
 11
-2110.733945930199
 21
-245.694351895338
 31
0.0
  0
LINE
  5
2361
330
1F
100
AcDbEntity
  8
SPOJOVACÍ
100
AcDbLine
 10
-2113.838984435692
 20
-251.3782923531402
 30
0.0
 11
-2112.315977180199
 21
-245.694351895338
 31
0.0
  0
LINE
  5
2362
330
1F
100
AcDbEntity
  8
SPOJOVACÍ
100
AcDbLine
 10
-2131.85436811867
 20
-243.3156189992391
 30
0.0
 11
-2135.563136808137
 21
-243.3156189992391
 31
0.0
  0
ARC
  5
2363
330
1F
100
AcDbEntity
  8
SPOJOVACÍ
100
AcDbCircle
 10
-2135.563136808137
 20
-244.2648377492391
 30
0.0
 40
0.94921875
100
AcDbArc
 50
90.0
 51
180.0
  0
LINE
  5
2364
330
1F
100
AcDbEntity
  8
SPOJOVACÍ
100
AcDbLine
 10
-2131.038091790148
 20
-243.3156189992391
 30
0.0
 11
-2131.042837883897
 21
-243.3156189992391
 31
0.0
  0
LINE
  5
2365
330
1F
100
AcDbEntity
  8
SPOJOVACÍ
100
AcDbLine
 10
-2130.167548260194
 20
-241.4171814992391
 30
0.0
 11
-2131.85436811867
 21
-241.4171814992391
 31
0.0
  0
HATCH
  5
2366
330
1F
100
AcDbEntity
  8
SPOJOVACÍ
100
AcDbHatch
 10
0.0
 20
0.0
 30
0.0
210
0.0
220
0.0
230
1.0
  2
ANSI37
 70
     0
 71
     0
 91
        1
 92
        7
 72
     0
 73
     1
 93
        6
 10
-2130.167548260194
 20
-248.5363221242391
 10
-2130.167548260194
 20
-241.4171814992391
 10
-2131.85436811867
 20
-241.4171814992391
 10
-2131.85436811867
 20
-248.5363221242391
 10
-2131.85436811867
 20
-255.6554627492392
 10
-2130.167548260194
 20
-255.6554627492392
 97
        0
 75
     0
 76
     1
 52
0.0
 41
0.9
 77
     0
 78
     2
 53
45.0
 43
-2463.439323474153
 44
-461.3873549587992
 45
-2.020557627240559
 46
2.020557627240559
 79
     0
 53
135.0
 43
-2463.439323474153
 44
-461.3873549587992
 45
-2.020557627240559
 46
-2.020557627240559
 79
     0
 47
0.1475606038556041
 98
        1
 10
-2131.611210353311
 20
-251.8186475780071
  0
LINE
  5
2367
330
1F
100
AcDbEntity
  8
CETRIS
100
AcDbLine
 10
-2129.610833657883
 20
-298.4835988554573
 30
0.0
 11
-2125.610833657882
 21
-298.4835988554573
 31
0.0
  0
CIRCLE
  5
2368
330
1F
100
AcDbEntity
  8
NOSNÉ KONSTRUKCE
100
AcDbCircle
 10
-2090.465871030158
 20
-247.7670204397168
 30
0.0
 40
5.0
  0
LINE
  5
2369
330
1F
100
AcDbEntity
  8
SPOJOVACÍ
100
AcDbLine
 10
-2102.764765685694
 20
-251.3782923531402
 30
0.0
 11
-2101.241758430199
 21
-245.694351895338
 31
0.0
  0
LINE
  5
236A
330
1F
100
AcDbEntity
  8
SPOJOVACÍ
100
AcDbLine
 10
-2105.928828185692
 20
-251.3782923531402
 30
0.0
 11
-2104.405820930201
 21
-245.694351895338
 31
0.0
  0
LINE
  5
236B
330
1F
100
AcDbEntity
  8
SPOJOVACÍ
100
AcDbLine
 10
-2104.346796935692
 20
-251.3782923531402
 30
0.0
 11
-2102.823789680201
 21
-245.694351895338
 31
0.0
  0
LINE
  5
236C
330
1F
100
AcDbEntity
  8
SPOJOVACÍ
100
AcDbLine
 10
-2101.182734435692
 20
-251.3782923531402
 30
0.0
 11
-2100.108932868005
 21
-247.370810345274
 31
0.0
  0
LINE
  5
236D
330
1F
100
AcDbEntity
  8
SPOJOVACÍ
100
AcDbLine
 10
-2099.21096556473
 20
-248.5363221242391
 30
0.0
 11
-2101.400558487333
 21
-251.3782923531402
 31
0.0
  0
LINE
  5
236E
330
1F
100
AcDbEntity
  8
SPOJOVACÍ
100
AcDbLine
 10
-2099.21096556473
 20
-248.5363221242391
 30
0.0
 11
-2101.400558487333
 21
-245.694351895338
 31
0.0
  0
CIRCLE
  5
236F
330
1F
100
AcDbEntity
  8
NOSNÉ KONSTRUKCE
100
AcDbCircle
 10
-2090.465871030158
 20
-100.3071115317543
 30
0.0
 40
5.0
  0
LINE
  5
2370
330
1F
100
AcDbEntity
  8
NOSNÉ KONSTRUKCE
  6
DASHED
100
AcDbLine
 10
-2066.501969154328
 20
-188.1305838932244
 30
0.0
 11
-2066.501969154333
 21
-137.343856554155
 31
0.0
  0
LINE
  5
2371
330
1F
100
AcDbEntity
  8
NOSNÉ KONSTRUKCE
100
AcDbLine
 10
-2080.001969154346
 20
-177.343856554155
 30
0.0
 11
-2080.001969154346
 21
-167.9276274985127
 31
0.0
  0
LINE
  5
2372
330
1F
100
AcDbEntity
  8
NOSNÉ KONSTRUKCE
100
AcDbLine
 10
-2080.001969154348
 20
-188.1305838932235
 30
0.0
 11
-2080.001969154348
 21
-167.9276274985127
 31
0.0
  0
LWPOLYLINE
  5
2373
330
1F
100
AcDbEntity
  8
NOSNÉ KONSTRUKCE
100
AcDbPolyline
 90
        2
 70
     0
 43
0.0
 10
-2080.001969154348
 20
-134.9690113305737
 10
-2080.001969154348
 20
-157.5468129489331
  0
CIRCLE
  5
2374
330
1F
100
AcDbEntity
  8
NOSNÉ KONSTRUKCE
100
AcDbCircle
 10
-2090.465871030158
 20
21.21868233345412
 30
0.0
 40
5.0
  0
CIRCLE
  5
2375
330
1F
100
AcDbEntity
  8
NOSNÉ KONSTRUKCE
100
AcDbCircle
 10
-2090.465871030158
 20
-13.32791520395949
 30
0.0
 40
5.0
  0
LINE
  5
2376
330
1F
100
AcDbEntity
  8
SPOJOVACÍ
100
AcDbLine
 10
-2107.510859435692
 20
207.7004271274254
 30
0.0
 11
-2105.987852180201
 21
213.3843675852263
 31
0.0
  0
LINE
  5
2377
330
1F
100
AcDbEntity
  8
SPOJOVACÍ
100
AcDbLine
 10
-2101.400558487333
 20
207.7004271274254
 30
0.0
 11
-2130.167548260194
 21
207.7004271274254
 31
0.0
  0
LINE
  5
2378
330
1F
100
AcDbEntity
  8
SPOJOVACÍ
100
AcDbLine
 10
-2101.400558487333
 20
213.3843675852263
 30
0.0
 11
-2130.167548260194
 21
213.3843675852263
 31
0.0
  0
LINE
  5
2379
330
1F
100
AcDbEntity
  8
SPOJOVACÍ
100
AcDbLine
 10
-2115.421015685692
 20
207.7004271274254
 30
0.0
 11
-2113.898008430197
 21
213.3843675852263
 31
0.0
  0
LINE
  5
237A
330
1F
100
AcDbEntity
  8
SPOJOVACÍ
100
AcDbLine
 10
-2126.495234435692
 20
207.7004271274254
 30
0.0
 11
-2124.972227180197
 21
213.3843675852263
 31
0.0
  0
LINE
  5
237B
330
1F
100
AcDbEntity
  8
SPOJOVACÍ
100
AcDbLine
 10
-2128.07726568569
 20
207.7004271274254
 30
0.0
 11
-2126.554258430199
 21
213.3843675852263
 31
0.0
  0
LINE
  5
237C
330
1F
100
AcDbEntity
  8
SPOJOVACÍ
100
AcDbLine
 10
-2121.749140685692
 20
207.7004271274254
 30
0.0
 11
-2120.226133430197
 21
213.3843675852263
 31
0.0
  0
LINE
  5
237D
330
1F
100
AcDbEntity
  8
SPOJOVACÍ
100
AcDbLine
 10
-2123.331171935692
 20
207.7004271274254
 30
0.0
 11
-2121.808164680197
 21
213.3843675852263
 31
0.0
  0
LINE
  5
237E
330
1F
100
AcDbEntity
  8
SPOJOVACÍ
100
AcDbLine
 10
-2124.913203185692
 20
207.7004271274254
 30
0.0
 11
-2123.390195930197
 21
213.3843675852263
 31
0.0
  0
LINE
  5
237F
330
1F
100
AcDbEntity
  8
SPOJOVACÍ
100
AcDbLine
 10
-2117.00304693569
 20
207.7004271274254
 30
0.0
 11
-2115.480039680199
 21
213.3843675852263
 31
0.0
  0
LINE
  5
2380
330
1F
100
AcDbEntity
  8
SPOJOVACÍ
100
AcDbLine
 10
-2118.58507818569
 20
207.7004271274254
 30
0.0
 11
-2117.062070930199
 21
213.3843675852263
 31
0.0
  0
LINE
  5
2381
330
1F
100
AcDbEntity
  8
SPOJOVACÍ
100
AcDbLine
 10
-2120.167109435692
 20
207.7004271274254
 30
0.0
 11
-2118.644102180197
 21
213.3843675852263
 31
0.0
  0
LINE
  5
2382
330
1F
100
AcDbEntity
  8
SPOJOVACÍ
100
AcDbLine
 10
-2109.092890685692
 20
207.7004271274254
 30
0.0
 11
-2107.569883430199
 21
213.3843675852263
 31
0.0
  0
LINE
  5
2383
330
1F
100
AcDbEntity
  8
SPOJOVACÍ
100
AcDbLine
 10
-2110.674921935696
 20
207.7004271274254
 30
0.0
 11
-2109.151914680199
 21
213.3843675852263
 31
0.0
  0
LINE
  5
2384
330
1F
100
AcDbEntity
  8
SPOJOVACÍ
100
AcDbLine
 10
-2112.256953185692
 20
207.7004271274254
 30
0.0
 11
-2110.733945930199
 21
213.3843675852263
 31
0.0
  0
LINE
  5
2385
330
1F
100
AcDbEntity
  8
SPOJOVACÍ
100
AcDbLine
 10
-2113.838984435692
 20
207.7004271274254
 30
0.0
 11
-2112.315977180199
 21
213.3843675852263
 31
0.0
  0
LINE
  5
2386
330
1F
100
AcDbEntity
  8
SPOJOVACÍ
100
AcDbLine
 10
-2130.167548260194
 20
210.5423973563261
 30
0.0
 11
-2130.167548260194
 21
203.4232567313261
 31
0.0
  0
ARC
  5
2387
330
1F
100
AcDbEntity
  8
SPOJOVACÍ
100
AcDbCircle
 10
-2133.138416643924
 20
210.5423973563261
 30
0.0
 40
3.392730367372068
100
AcDbArc
 50
135.6170676673749
 51
224.382932332625
  0
LINE
  5
2388
330
1F
100
AcDbEntity
  8
SPOJOVACÍ
100
AcDbLine
 10
-2136.512355558136
 20
214.813881731326
 30
0.0
 11
-2136.512355558136
 21
206.270912981326
 31
0.0
  0
LINE
  5
2389
330
1F
100
AcDbEntity
  8
SPOJOVACÍ
100
AcDbLine
 10
-2131.85436811867
 20
214.3783655333895
 30
0.0
 11
-2131.85436811867
 21
203.4232567313261
 31
0.0
  0
LINE
  5
238A
330
1F
100
AcDbEntity
  8
SPOJOVACÍ
100
AcDbLine
 10
-2131.85436811867
 20
208.169350481326
 30
0.0
 11
-2135.563136808137
 21
208.169350481326
 31
0.0
  0
LINE
  5
238B
330
1F
100
AcDbEntity
  8
SPOJOVACÍ
100
AcDbLine
 10
-2135.563136808137
 20
205.3216942313261
 30
0.0
 11
-2131.85436811867
 21
205.3216942313261
 31
0.0
  0
ARC
  5
238C
330
1F
100
AcDbEntity
  8
SPOJOVACÍ
100
AcDbCircle
 10
-2135.563136808137
 20
207.220131731326
 30
0.0
 40
0.94921875
100
AcDbArc
 50
90.0
 51
180.0
  0
ARC
  5
238D
330
1F
100
AcDbEntity
  8
SPOJOVACÍ
100
AcDbCircle
 10
-2135.563136808137
 20
206.270912981326
 30
0.0
 40
0.94921875
100
AcDbArc
 50
180.0
 51
270.0
  0
LINE
  5
238E
330
1F
100
AcDbEntity
  8
SPOJOVACÍ
100
AcDbLine
 10
-2131.85436811867
 20
203.4232567313261
 30
0.0
 11
-2130.167548260194
 21
203.4232567313261
 31
0.0
  0
LINE
  5
238F
330
1F
100
AcDbEntity
  8
SPOJOVACÍ
100
AcDbLine
 10
-2131.85436811867
 20
215.763100481326
 30
0.0
 11
-2135.563136808137
 21
215.763100481326
 31
0.0
  0
LINE
  5
2390
330
1F
100
AcDbEntity
  8
SPOJOVACÍ
100
AcDbLine
 10
-2131.85436811867
 20
212.915444231326
 30
0.0
 11
-2135.563136808137
 21
212.915444231326
 31
0.0
  0
ARC
  5
2391
330
1F
100
AcDbEntity
  8
SPOJOVACÍ
100
AcDbCircle
 10
-2135.563136808137
 20
214.813881731326
 30
0.0
 40
0.94921875
100
AcDbArc
 50
90.0
 51
180.0
  0
ARC
  5
2392
330
1F
100
AcDbEntity
  8
SPOJOVACÍ
100
AcDbCircle
 10
-2135.563136808137
 20
213.8646629813261
 30
0.0
 40
0.94921875
100
AcDbArc
 50
180.0
 51
270.0
  0
LINE
  5
2393
330
1F
100
AcDbEntity
  8
SPOJOVACÍ
100
AcDbLine
 10
-2130.167548260194
 20
217.661537981326
 30
0.0
 11
-2131.85436811867
 21
217.661537981326
 31
0.0
  0
LINE
  5
2394
330
1F
100
AcDbEntity
  8
SPOJOVACÍ
100
AcDbLine
 10
-2131.038091790148
 20
215.763100481326
 30
0.0
 11
-2131.042837883897
 21
215.763100481326
 31
0.0
  0
LINE
  5
2395
330
1F
100
AcDbEntity
  8
SPOJOVACÍ
100
AcDbLine
 10
-2130.167548260194
 20
217.661537981326
 30
0.0
 11
-2130.167548260194
 21
210.5423973563261
 31
0.0
  0
LINE
  5
2396
330
1F
100
AcDbEntity
  8
SPOJOVACÍ
100
AcDbLine
 10
-2131.85436811867
 20
210.5423973563261
 30
0.0
 11
-2131.85436811867
 21
217.661537981326
 31
0.0
  0
HATCH
  5
2397
330
1F
100
AcDbEntity
  8
SPOJOVACÍ
100
AcDbHatch
 10
0.0
 20
0.0
 30
0.0
210
0.0
220
0.0
230
1.0
  2
ANSI37
 70
     0
 71
     0
 91
        1
 92
        7
 72
     0
 73
     1
 93
        6
 10
-2130.167548260194
 20
217.661537981326
 10
-2131.85436811867
 20
217.661537981326
 10
-2131.85436811867
 20
210.5423973563261
 10
-2131.85436811867
 20
203.4232567313261
 10
-2130.167548260194
 20
203.4232567313261
 10
-2130.167548260194
 20
210.5423973563261
 97
        0
 75
     0
 76
     1
 52
0.0
 41
0.9
 77
     0
 78
     2
 53
45.0
 43
-2463.439323474153
 44
-240.3515330787909
 45
-2.020557627240559
 46
2.020557627240559
 79
     0
 53
135.0
 43
-2463.439323474153
 44
-240.3515330787909
 45
-2.020557627240559
 46
-2.020557627240559
 79
     0
 47
0.1350114543121608
 98
        1
 10
-2131.25563775254
 20
210.5697633741306
  0
CIRCLE
  5
2398
330
1F
100
AcDbEntity
  8
NOSNÉ KONSTRUKCE
100
AcDbCircle
 10
-2090.465871030158
 20
202.8145520739217
 30
0.0
 40
5.0
  0
LINE
  5
2399
330
1F
100
AcDbEntity
  8
SPOJOVACÍ
100
AcDbLine
 10
-2102.764765685694
 20
207.7004271274254
 30
0.0
 11
-2101.241758430199
 21
213.3843675852263
 31
0.0
  0
LINE
  5
239A
330
1F
100
AcDbEntity
  8
SPOJOVACÍ
100
AcDbLine
 10
-2105.928828185692
 20
207.7004271274254
 30
0.0
 11
-2104.405820930201
 21
213.3843675852263
 31
0.0
  0
LINE
  5
239B
330
1F
100
AcDbEntity
  8
SPOJOVACÍ
100
AcDbLine
 10
-2104.346796935692
 20
207.7004271274254
 30
0.0
 11
-2102.823789680201
 21
213.3843675852263
 31
0.0
  0
LINE
  5
239C
330
1F
100
AcDbEntity
  8
SPOJOVACÍ
100
AcDbLine
 10
-2101.182734435692
 20
207.7004271274254
 30
0.0
 11
-2100.108932868005
 21
211.7079091352911
 31
0.0
  0
LINE
  5
239D
330
1F
100
AcDbEntity
  8
SPOJOVACÍ
100
AcDbLine
 10
-2099.21096556473
 20
210.5423973563261
 30
0.0
 11
-2101.400558487333
 21
207.7004271274254
 31
0.0
  0
LINE
  5
239E
330
1F
100
AcDbEntity
  8
SPOJOVACÍ
100
AcDbLine
 10
-2099.21096556473
 20
210.5423973563261
 30
0.0
 11
-2101.400558487333
 21
213.3843675852263
 31
0.0
  0
LINE
  5
239F
330
1F
100
AcDbEntity
  8
STAVBA OBRYS
100
AcDbLine
 10
-1977.501969154341
 20
-328.4835988554573
 30
0.0
 11
-1977.501969154332
 21
160.8020272343892
 31
0.0
  0
LINE
  5
23A0
330
1F
100
AcDbEntity
  8
SPOJOVACÍ
  6
DASHED
100
AcDbLine
 10
-1899.956295911644
 20
-156.1747202236929
 30
0.0
 11
-1981.055390855318
 21
-156.174720223692
 31
0.0
  0
LINE
  5
23A1
330
1F
100
AcDbEntity
  8
SPOJOVACÍ
  6
DASHED
100
AcDbLine
 10
-1899.956295911644
 20
-169.2997202236933
 30
0.0
 11
-1981.055390855318
 21
-169.2997202236915
 31
0.0
  0
LINE
  5
23A2
330
1F
100
AcDbEntity
  8
SPOJOVACÍ
  6
DASHDOT2
100
AcDbLine
 10
-1996.228492323752
 20
-162.737220223692
 30
0.0
 11
-1881.308382579845
 21
-162.7372202236929
 31
0.0
  0
LINE
  5
23A3
330
1F
100
AcDbEntity
  8
SPOJOVACÍ
100
AcDbLine
 10
-1915.908274444977
 20
-164.2592981085722
 30
0.0
 11
-1915.074214391702
 21
-161.1465436131807
 31
0.0
  0
LINE
  5
23A4
330
1F
100
AcDbEntity
  8
SPOJOVACÍ
100
AcDbLine
 10
-1986.725782350423
 20
-152.424720223692
 30
0.0
 11
-1991.413282350423
 21
-152.424720223692
 31
0.0
  0
LINE
  5
23A5
330
1F
100
AcDbEntity
  8
SPOJOVACÍ
100
AcDbLine
 10
-1986.725782350423
 20
-152.424720223692
 30
0.0
 11
-1986.735157350423
 21
-152.424720223692
 31
0.0
  0
LINE
  5
23A6
330
1F
100
AcDbEntity
  8
SPOJOVACÍ
100
AcDbLine
 10
-1983.867890855318
 20
-148.674720223692
 30
0.0
 11
-1986.725782350423
 21
-148.674720223692
 31
0.0
  0
LINE
  5
23A7
330
1F
100
AcDbEntity
  8
SPOJOVACÍ
100
AcDbLine
 10
-1981.20287933728
 20
-163.0262467800739
 30
0.0
 11
-1981.046913374338
 21
-162.4441738821283
 31
0.0
  0
LINE
  5
23A8
330
1F
100
AcDbEntity
  8
SPOJOVACÍ
100
AcDbLine
 10
-1979.381153168821
 20
-163.2250674261035
 30
0.0
 11
-1979.136622632964
 21
-162.3124670422794
 31
0.0
  0
LINE
  5
23A9
330
1F
100
AcDbEntity
  8
SPOJOVACÍ
100
AcDbLine
 10
-1986.725782350423
 20
-176.7997202236915
 30
0.0
 11
-1983.867890855318
 21
-176.7997202236915
 31
0.0
  0
LINE
  5
23AA
330
1F
100
AcDbEntity
  8
SPOJOVACÍ
100
AcDbLine
 10
-1991.413282350423
 20
-173.0497202236915
 30
0.0
 11
-1986.725782350423
 21
-173.0497202236915
 31
0.0
  0
LINE
  5
23AB
330
1F
100
AcDbEntity
  8
SPOJOVACÍ
100
AcDbLine
 10
-1986.725782350423
 20
-167.4247202236915
 30
0.0
 11
-1991.413282350423
 21
-167.4247202236915
 31
0.0
  0
ARC
  5
23AC
330
1F
100
AcDbEntity
  8
SPOJOVACÍ
100
AcDbCircle
 10
-1991.413282350423
 20
-169.2997202236915
 30
0.0
 40
1.875
100
AcDbArc
 50
90.0
 51
180.0
  0
ARC
  5
23AD
330
1F
100
AcDbEntity
  8
SPOJOVACÍ
100
AcDbCircle
 10
-1991.413282350423
 20
-171.1747202236915
 30
0.0
 40
1.875
100
AcDbArc
 50
180.0
 51
270.0
  0
LINE
  5
23AE
330
1F
100
AcDbEntity
  8
SPOJOVACÍ
100
AcDbLine
 10
-1986.725782350423
 20
-158.049720223692
 30
0.0
 11
-1991.413282350423
 21
-158.049720223692
 31
0.0
  0
ARC
  5
23AF
330
1F
100
AcDbEntity
  8
SPOJOVACÍ
100
AcDbCircle
 10
-1991.413282350423
 20
-156.174720223692
 30
0.0
 40
1.875
100
AcDbArc
 50
180.0
 51
270.0
  0
LINE
  5
23B0
330
1F
100
AcDbEntity
  8
SPOJOVACÍ
100
AcDbLine
 10
-1993.288282350423
 20
-154.299720223692
 30
0.0
 11
-1993.288282350423
 21
-171.1747202236915
 31
0.0
  0
ARC
  5
23B1
330
1F
100
AcDbEntity
  8
SPOJOVACÍ
100
AcDbCircle
 10
-1986.623711655681
 20
-162.737220223692
 30
0.0
 40
6.701689614562111
100
AcDbArc
 50
135.6170676673749
 51
224.382932332625
  0
LINE
  5
23B2
330
1F
100
AcDbEntity
  8
SPOJOVACÍ
100
AcDbLine
 10
-1983.867890855318
 20
-162.737220223692
 30
0.0
 11
-1983.867890855318
 21
-176.7997202236915
 31
0.0
  0
LINE
  5
23B3
330
1F
100
AcDbEntity
  8
SPOJOVACÍ
100
AcDbLine
 10
-1986.725782350423
 20
-155.159999133195
 30
0.0
 11
-1986.725782350423
 21
-176.7997202236915
 31
0.0
  0
LINE
  5
23B4
330
1F
100
AcDbEntity
  8
SPOJOVACÍ
100
AcDbLine
 10
-1983.867890855318
 20
-162.737220223692
 30
0.0
 11
-1983.867890855318
 21
-176.7997202236915
 31
0.0
  0
LINE
  5
23B5
330
1F
100
AcDbEntity
  8
NOSNÉ KONSTRUKCE
100
AcDbLine
 10
-1983.501969154339
 20
-182.7232864984348
 30
0.0
 11
-1983.501969154337
 21
-142.6925820068622
 31
0.0
  0
ARC
  5
23B6
330
1F
100
AcDbEntity
  8
SPOJOVACÍ
100
AcDbCircle
 10
-1991.413282350423
 20
-154.299720223692
 30
0.0
 40
1.875
100
AcDbArc
 50
90.0
 51
180.0
  0
LINE
  5
23B7
330
1F
100
AcDbEntity
  8
SPOJOVACÍ
100
AcDbLine
 10
-1986.735157350423
 20
-152.424720223692
 30
0.0
 11
-1986.735157350423
 21
-173.0497202236915
 31
0.0
  0
LINE
  5
23B8
330
1F
100
AcDbEntity
  8
SPOJOVACÍ
100
AcDbLine
 10
-1983.867890855318
 20
-148.674720223692
 30
0.0
 11
-1983.867890855318
 21
-162.737220223692
 31
0.0
  0
LINE
  5
23B9
330
1F
100
AcDbEntity
  8
SPOJOVACÍ
100
AcDbLine
 10
-1983.867890855318
 20
-148.674720223692
 30
0.0
 11
-1983.867890855318
 21
-162.737220223692
 31
0.0
  0
LINE
  5
23BA
330
1F
100
AcDbEntity
  8
SPOJOVACÍ
100
AcDbLine
 10
-1986.725782350423
 20
-162.737220223692
 30
0.0
 11
-1986.725782350423
 21
-148.674720223692
 31
0.0
  0
LINE
  5
23BB
330
1F
100
AcDbEntity
  8
SPOJOVACÍ
100
AcDbLine
 10
-1977.556938456828
 20
-163.4146007012282
 30
0.0
 11
-1977.147782162988
 21
-161.8876086243685
 31
0.0
  0
LINE
  5
23BC
330
1F
100
AcDbEntity
  8
SPOJOVACÍ
100
AcDbLine
 10
-1975.730229017123
 20
-163.5948235257737
 30
0.0
 11
-1975.222565444029
 21
-161.7001972778284
 31
0.0
  0
LINE
  5
23BD
330
1F
100
AcDbEntity
  8
SPOJOVACÍ
100
AcDbLine
 10
-1973.901018437768
 20
-163.7657119700657
 30
0.0
 11
-1973.300262877287
 21
-161.5236616954152
 31
0.0
  0
LINE
  5
23BE
330
1F
100
AcDbEntity
  8
SPOJOVACÍ
100
AcDbLine
 10
-1972.069300076316
 20
-163.9272412441537
 30
0.0
 11
-1971.380856921848
 21
-161.3579364135584
 31
0.0
  0
LINE
  5
23BF
330
1F
100
AcDbEntity
  8
SPOJOVACÍ
100
AcDbLine
 10
-1970.235067056936
 20
-164.0793856871077
 30
0.0
 11
-1969.464330467656
 21
-161.2029575766623
 31
0.0
  0
LINE
  5
23C0
330
1F
100
AcDbEntity
  8
SPOJOVACÍ
100
AcDbLine
 10
-1966.559028356171
 20
-164.3554130136422
 30
0.0
 11
-1965.639849717755
 21
-160.9249916338408
 31
0.0
  0
LINE
  5
23C1
330
1F
100
AcDbEntity
  8
SPOJOVACÍ
100
AcDbLine
 10
-1964.717207728749
 20
-164.4792401178674
 30
0.0
 11
-1963.73186326847
 21
-160.801884529143
 31
0.0
  0
LINE
  5
23C2
330
1F
100
AcDbEntity
  8
SPOJOVACÍ
100
AcDbLine
 10
-1968.398312267442
 20
-164.2221187558638
 30
0.0
 11
-1967.550666825568
 21
-161.0586628999822
 31
0.0
  0
LINE
  5
23C3
330
1F
100
AcDbEntity
  8
SPOJOVACÍ
100
AcDbLine
 10
-1961.025924714163
 20
-164.6983748906982
 30
0.0
 11
-1959.924320799725
 21
-160.5871331121988
 31
0.0
  0
LINE
  5
23C4
330
1F
100
AcDbEntity
  8
SPOJOVACÍ
100
AcDbLine
 10
-1959.176445893827
 20
-164.7936212298777
 30
0.0
 11
-1958.024734960533
 21
-160.4953775111835
 31
0.0
  0
LINE
  5
23C5
330
1F
100
AcDbEntity
  8
SPOJOVACÍ
100
AcDbLine
 10
-1957.324397483612
 20
-164.8792777290623
 30
0.0
 11
-1956.127920124115
 21
-160.4139634333146
 31
0.0
  0
LINE
  5
23C6
330
1F
100
AcDbEntity
  8
SPOJOVACÍ
100
AcDbLine
 10
-1955.46977062252
 20
-164.9553113185816
 30
0.0
 11
-1954.233862297614
 21
-160.3428386565342
 31
0.0
  0
LINE
  5
23C7
330
1F
100
AcDbEntity
  8
SPOJOVACÍ
100
AcDbLine
 10
-1962.872842544743
 20
-164.5935708076399
 30
0.0
 11
-1961.826691995128
 21
-160.6892838041094
 31
0.0
  0
LINE
  5
23C8
330
1F
100
AcDbEntity
  8
SPOJOVACÍ
100
AcDbLine
 10
-1932.949397483612
 20
-164.8792777290623
 30
0.0
 11
-1931.715583442887
 21
-160.2746210419932
 31
0.0
  0
LINE
  5
23C9
330
1F
100
AcDbEntity
  8
SPOJOVACÍ
100
AcDbLine
 10
-1934.89588904329
 20
-165.1460878620946
 30
0.0
 11
-1933.577526755381
 21
-160.225892820832
 31
0.0
  0
LINE
  5
23CA
330
1F
100
AcDbEntity
  8
SPOJOVACÍ
100
AcDbLine
 10
-1936.779542678979
 20
-165.1783836701542
 30
0.0
 11
-1935.442084825186
 21
-160.1869230068136
 31
0.0
  0
LINE
  5
23CB
330
1F
100
AcDbEntity
  8
SPOJOVACÍ
100
AcDbLine
 10
-1938.660501899664
 20
-165.2006237845271
 30
0.0
 11
-1937.309267829833
 21
-160.157749583001
 31
0.0
  0
LINE
  5
23CC
330
1F
100
AcDbEntity
  8
SPOJOVACÍ
100
AcDbLine
 10
-1940.538778739791
 20
-165.2128531183693
 30
0.0
 11
-1939.179086233561
 21
-160.1384116024437
 31
0.0
  0
LINE
  5
23CD
330
1F
100
AcDbEntity
  8
SPOJOVACÍ
100
AcDbLine
 10
-1942.414384919039
 20
-165.2151154101215
 30
0.0
 11
-1941.051550792314
 21
-160.1289492068895
 31
0.0
  0
LINE
  5
23CE
330
1F
100
AcDbEntity
  8
SPOJOVACÍ
100
AcDbLine
 10
-1944.287331848153
 20
-165.2074532452661
 30
0.0
 11
-1942.926672558959
 21
-160.1294036462036
 31
0.0
  0
LINE
  5
23CF
330
1F
100
AcDbEntity
  8
SPOJOVACÍ
100
AcDbLine
 10
-1953.612556184644
 20
-165.0216879400682
 30
0.0
 11
-1952.342547841314
 21
-160.2819522767195
 31
0.0
  0
LINE
  5
23D0
330
1F
100
AcDbEntity
  8
SPOJOVACÍ
100
AcDbLine
 10
-1951.782630634569
 20
-165.1899080773159
 30
0.0
 11
-1950.453963461455
 21
-160.2312546808962
 31
0.0
  0
LINE
  5
23D1
330
1F
100
AcDbEntity
  8
SPOJOVACÍ
100
AcDbLine
 10
-1949.890326724861
 20
-165.1253290071126
 30
0.0
 11
-1948.568096203317
 21
-160.1906975213965
 31
0.0
  0
LINE
  5
23D2
330
1F
100
AcDbEntity
  8
SPOJOVACÍ
100
AcDbLine
 10
-1948.032630634569
 20
-165.1899080773159
 30
0.0
 11
-1946.684933444544
 21
-160.1602336909204
 31
0.0
  0
LINE
  5
23D3
330
1F
100
AcDbEntity
  8
SPOJOVACÍ
100
AcDbLine
 10
-1946.157630634569
 20
-165.1899080773159
 30
0.0
 11
-1944.804462888679
 21
-160.139817298485
 31
0.0
  0
LINE
  5
23D4
330
1F
100
AcDbEntity
  8
SPOJOVACÍ
100
AcDbLine
 10
-1945.860067056936
 20
-164.0793856871077
 30
0.0
 11
-1945.221669082831
 21
-161.6968520122873
 31
0.0
  0
LINE
  5
23D5
330
1F
100
AcDbEntity
  8
SPOJOVACÍ
100
AcDbLine
 10
-1947.694300076315
 20
-163.9272412441537
 30
0.0
 11
-1947.12813024511
 21
-161.8142666683857
 31
0.0
  0
LINE
  5
23D6
330
1F
100
AcDbEntity
  8
SPOJOVACÍ
100
AcDbLine
 10
-1949.526018437768
 20
-163.7657119700657
 30
0.0
 11
-1949.035355047081
 21
-161.9345312666046
 31
0.0
  0
LINE
  5
23D7
330
1F
100
AcDbEntity
  8
SPOJOVACÍ
100
AcDbLine
 10
-1929.237556184644
 20
-165.0216879400682
 30
0.0
 11
-1927.999501784362
 21
-160.4012060156746
 31
0.0
  0
LINE
  5
23D8
330
1F
100
AcDbEntity
  8
SPOJOVACÍ
100
AcDbLine
 10
-1921.633790084593
 20
-164.634427582569
 30
0.0
 11
-1920.598298470023
 21
-160.7699202661856
 31
0.0
  0
LINE
  5
23D9
330
1F
100
AcDbEntity
  8
SPOJOVACÍ
100
AcDbLine
 10
-1923.536669355581
 20
-164.7384744383766
 30
0.0
 11
-1922.444751500082
 21
-160.663381523967
 31
0.0
  0
LINE
  5
23DA
330
1F
100
AcDbEntity
  8
SPOJOVACÍ
100
AcDbLine
 10
-1925.436760620906
 20
-164.832116315395
 30
0.0
 11
-1924.300680843923
 21
-160.5922088662468
 31
0.0
  0
LINE
  5
23DB
330
1F
100
AcDbEntity
  8
SPOJOVACÍ
100
AcDbLine
 10
-1927.334078300394
 20
-164.9154070291488
 30
0.0
 11
-1926.145344474064
 21
-160.4789919926147
 31
0.0
  0
LINE
  5
23DC
330
1F
100
AcDbEntity
  8
SPOJOVACÍ
100
AcDbLine
 10
-1919.648312267446
 20
-164.2221187558638
 30
0.0
 11
-1918.754396596686
 21
-160.8859800549075
 31
0.0
  0
LINE
  5
23DD
330
1F
100
AcDbEntity
  8
SPOJOVACÍ
100
AcDbLine
 10
-1917.809028356171
 20
-164.3554130136422
 30
0.0
 11
-1916.913037835723
 21
-161.0115308682229
 31
0.0
  0
LINE
  5
23DE
330
1F
100
AcDbEntity
  8
SPOJOVACÍ
100
AcDbLine
 10
-1931.09477062252
 20
-164.9553113185816
 30
0.0
 11
-1929.997337688782
 21
-160.8596358519662
 31
0.0
  0
LINE
  5
23DF
330
1F
100
AcDbEntity
  8
STAVBA OBRYS
100
AcDbLine
 10
-1903.248401319745
 20
-319.8636656770945
 30
0.0
 11
-1903.248401319745
 21
-214.0231460316504
 31
0.0
  0
LINE
  5
23E0
330
1F
100
AcDbEntity
  8
SPOJOVACÍ
  6
DASHED
100
AcDbLine
 10
-1896.167434770087
 20
-162.7372202236929
 30
0.0
 11
-1899.956295911644
 21
-156.1747202236929
 31
0.0
  0
LINE
  5
23E1
330
1F
100
AcDbEntity
  8
SPOJOVACÍ
  6
DASHED
100
AcDbLine
 10
-1896.167434770087
 20
-162.7372202236929
 30
0.0
 11
-1899.956295911644
 21
-169.2997202236933
 31
0.0
  0
LINE
  5
23E2
330
1F
100
AcDbEntity
  8
SPOJOVACÍ
100
AcDbLine
 10
-1913.994091436142
 20
-164.1130651288071
 30
0.0
 11
-1913.228438492095
 21
-161.2556094406591
 31
0.0
  0
LINE
  5
23E3
330
1F
100
AcDbEntity
  8
SPOJOVACÍ
100
AcDbLine
 10
-1912.077042611235
 20
-163.956136777851
 30
0.0
 11
-1911.404143496643
 21
-161.4448430938227
 31
0.0
  0
LINE
  5
23E4
330
1F
100
AcDbEntity
  8
SPOJOVACÍ
100
AcDbLine
 10
-1910.157111205288
 20
-163.7884504880048
 30
0.0
 11
-1909.572881668743
 21
-161.6080761743278
 31
0.0
  0
LINE
  5
23E5
330
1F
100
AcDbEntity
  8
SPOJOVACÍ
100
AcDbLine
 10
-1908.234280030651
 20
-163.6099421140675
 30
0.0
 11
-1907.744126397764
 21
-161.7806638526239
 31
0.0
  0
LINE
  5
23E6
330
1F
100
AcDbEntity
  8
SPOJOVACÍ
100
AcDbLine
 10
-1904.379847450774
 20
-163.2201944200014
 30
0.0
 11
-1904.0941093553
 21
-162.1538053300428
 31
0.0
  0
LINE
  5
23E7
330
1F
100
AcDbEntity
  8
SPOJOVACÍ
100
AcDbLine
 10
-1902.448209464756
 20
-163.0088185785539
 30
0.0
 11
-1902.272835070446
 21
-162.3543124286379
 31
0.0
  0
LINE
  5
23E8
330
1F
100
AcDbEntity
  8
SPOJOVACÍ
100
AcDbLine
 10
-1900.513598526521
 20
-162.7863475283698
 30
0.0
 11
-1900.454042310425
 21
-162.5640807039876
 31
0.0
  0
LINE
  5
23E9
330
1F
100
AcDbEntity
  8
SPOJOVACÍ
100
AcDbLine
 10
-1906.308531466961
 20
-163.4205458959722
 30
0.0
 11
-1905.91787108339
 21
-161.9625814959804
 31
0.0
  0
LINE
  5
23EA
330
1F
100
AcDbEntity
  8
SPOJOVACÍ
  6
DASHED
100
AcDbLine
 10
-1905.542434770087
 20
-162.7372202236929
 30
0.0
 11
-1908.790030034278
 21
-157.1122202236929
 31
0.0
  0
LINE
  5
23EB
330
1F
100
AcDbEntity
  8
SPOJOVACÍ
  6
DASHED
100
AcDbLine
 10
-1905.542434770087
 20
-162.7372202236933
 30
0.0
 11
-1908.790030034278
 21
-168.3622202236933
 31
0.0
  0
CIRCLE
  5
23EC
330
1F
100
AcDbEntity
  8
NOSNÉ KONSTRUKCE
100
AcDbCircle
 10
-2090.465871030158
 20
237.3611496113353
 30
0.0
 40
5.0
  0
LINE
  5
23ED
330
1F
100
AcDbEntity
  8
STAVBA OBRYS
100
AcDbLine
 10
-1740.793073685507
 20
-214.0231460316504
 30
0.0
 11
-1739.948122274781
 21
260.1461876150628
 31
0.0
  0
LINE
  5
23EE
330
1F
100
AcDbEntity
  8
STAVBA OBRYS
100
AcDbLine
 10
-1740.909098579689
 20
-367.6000269667815
 30
0.0
 11
-1740.824034230409
 21
-319.8636656770945
 31
0.0
  0
HATCH
  5
23EF
330
1F
100
AcDbEntity
  8
STAVBA OBRYS
100
AcDbHatch
 10
0.0
 20
0.0
 30
0.0
210
0.0
220
0.0
230
1.0
  2
AR-SAND
 70
     0
 71
     0
 91
        1
 92
        7
 72
     0
 73
     1
 93
        4
 10
-1594.433878183373
 20
-169.6290233093172
 10
-1740.556321909092
 20
-169.6290233093172
 10
-1740.635430518527
 20
-214.0231460316504
 10
-1605.798328863448
 20
-214.0231460316504
 97
        0
 75
     0
 76
     1
 52
0.0
 41
0.35
 77
     0
 78
     4
 53
37.5
 43
-2998.299625343449
 44
-411.5362974488784
 45
-0.560010953594416
 46
17.12946330652698
 79
     6
 49
0.0
 49
-13.5128
 49
0.0
 49
-15.113
 49
0.0
 49
-14.44625
 53
7.499999999999999
 43
-2998.299625343449
 44
-411.5362974488784
 45
15.73331490983009
 46
25.08887851989239
 79
     6
 49
0.0
 49
-7.2898
 49
0.0
 49
-12.17929999999999
 49
0.0
 49
-4.66725
 53
327.4999999999999
 43
-3009.234325343449
 44
-411.5362974488784
 45
27.68473295845102
 46
0.0503014637490992
 79
     6
 49
0.0
 49
-4.444999999999999
 49
0.0
 49
-16.002
 49
0.0
 49
-20.89149999999999
 53
317.5
 43
-3009.234325343449
 44
-411.5362974488784
 45
26.7244758365304
 46
7.802526314002567
 79
     6
 49
0.0
 49
-2.222499999999999
 49
0.0
 49
-10.49019999999999
 49
0.0
 49
-12.00149999999999
 47
4.017849295243367
 98
        1
 10
-1653.940012454571
 20
-180.6844189104453
  0
LINE
  5
23F0
330
1F
100
AcDbEntity
  8
STAVBA OBRYS
100
AcDbLine
 10
-1740.55632190909
 20
-169.6290233093172
 30
0.0
 11
-1594.433878183373
 21
-169.6290233093172
 31
0.0
  0
LINE
  5
23F1
330
1F
100
AcDbEntity
  8
STAVBA OBRYS
100
AcDbLine
 10
-1740.691607641612
 20
-157.08249144429
 30
0.0
 11
-1591.222091716098
 21
-157.0824914442896
 31
0.0
  0
LINE
  5
23F2
330
1F
100
AcDbEntity
  8
STAVBA OBRYS
100
AcDbLine
 10
-2061.173382086087
 20
-295.7012805869912
 30
0.0
 11
-1979.131932774092
 21
-295.7012805869912
 31
0.0
  0
LINE
  5
23F3
330
1F
100
AcDbEntity
  8
PROFILY
100
AcDbLine
 10
-1979.131932774092
 20
-296.9870938243752
 30
0.0
 11
-2109.801873455134
 21
-296.9870938243762
 31
0.0
  0
LINE
  5
23F4
330
1F
100
AcDbEntity
  8
PROFILY
100
AcDbLine
 10
-1979.131932774092
 20
-298.6297923432525
 30
0.0
 11
-2111.296152834952
 21
-298.6297923432525
 31
0.0
  0
ARC
  5
23F5
330
1F
100
AcDbEntity
  8
SPOJOVACÍ
100
AcDbCircle
 10
-2113.560731520986
 20
-282.7736191588151
 30
0.0
 40
7.016998426235272
100
AcDbArc
 50
307.8985698078477
 51
52.10143019215225
  0
LINE
  5
23F6
330
1F
100
AcDbEntity
  8
SPOJOVACÍ
100
AcDbLine
 10
-2110.709456902907
 20
-284.9840404479596
 30
0.0
 11
-2111.894018101625
 21
-280.5631978696697
 31
0.0
  0
LINE
  5
23F7
330
1F
100
AcDbEntity
  8
SPOJOVACÍ
100
AcDbLine
 10
-2109.478988152905
 20
-284.9840404479596
 30
0.0
 11
-2110.663549351625
 21
-280.5631978696697
 31
0.0
  0
LINE
  5
23F8
330
1F
100
AcDbEntity
  8
SPOJOVACÍ
100
AcDbLine
 10
-2109.250431452189
 20
-282.7736191588151
 30
0.0
 11
-2109.250431452189
 21
-288.3107285338151
 31
0.0
  0
LINE
  5
23F9
330
1F
100
AcDbEntity
  8
SPOJOVACÍ
100
AcDbLine
 10
-2109.250431452189
 20
-277.2365097838151
 30
0.0
 11
-2109.250431452189
 21
-282.7736191588151
 31
0.0
  0
LINE
  5
23FA
330
1F
100
AcDbEntity
  8
SPOJOVACÍ
100
AcDbLine
 10
-2115.848047035519
 20
-284.9840404479596
 30
0.0
 11
-2109.250431452189
 21
-284.9840404479596
 31
0.0
  0
LINE
  5
23FB
330
1F
100
AcDbEntity
  8
SPOJOVACÍ
100
AcDbLine
 10
-2115.848047035519
 20
-280.5631978696697
 30
0.0
 11
-2109.250431452189
 21
-280.5631978696697
 31
0.0
  0
LINE
  5
23FC
330
1F
100
AcDbEntity
  8
PROFILY
100
AcDbLine
 10
-2111.296152834952
 20
-274.9783965854863
 30
0.0
 11
-2109.801873455134
 21
-274.9783965854863
 31
0.0
  0
LINE
  5
23FD
330
1F
100
AcDbEntity
  8
PROFILY
100
AcDbLine
 10
-2109.801873455134
 20
-280.5631978696697
 30
0.0
 11
-2109.801873455134
 21
-274.9783965854863
 31
0.0
  0
LINE
  5
23FE
330
1F
100
AcDbEntity
  8
PROFILY
100
AcDbLine
 10
-2109.801873455134
 20
-296.9870938243762
 30
0.0
 11
-2109.801873455134
 21
-284.9840404479596
 31
0.0
  0
LINE
  5
23FF
330
1F
100
AcDbEntity
  8
SPOJOVACÍ
100
AcDbLine
 10
-2113.170394402907
 20
-284.9840404479596
 30
0.0
 11
-2114.354955601625
 21
-280.5631978696697
 31
0.0
  0
LINE
  5
2400
330
1F
100
AcDbEntity
  8
SPOJOVACÍ
100
AcDbLine
 10
-2114.400863152909
 20
-284.9840404479596
 30
0.0
 11
-2115.585424351625
 21
-280.5631978696697
 31
0.0
  0
LINE
  5
2401
330
1F
100
AcDbEntity
  8
SPOJOVACÍ
100
AcDbLine
 10
-2117.551063753099
 20
-282.7736191588151
 30
0.0
 11
-2115.848047035519
 21
-284.9840404479596
 31
0.0
  0
LINE
  5
2402
330
1F
100
AcDbEntity
  8
SPOJOVACÍ
100
AcDbLine
 10
-2117.551063753099
 20
-282.7736191588151
 30
0.0
 11
-2115.848047035519
 21
-280.5631978696697
 31
0.0
  0
LINE
  5
2403
330
1F
100
AcDbEntity
  8
SPOJOVACÍ
100
AcDbLine
 10
-2115.631331902907
 20
-284.9840404479596
 30
0.0
 11
-2116.566149225792
 21
-281.4952547031575
 31
0.0
  0
LINE
  5
2404
330
1F
100
AcDbEntity
  8
SPOJOVACÍ
100
AcDbLine
 10
-2111.939925652908
 20
-284.9840404479596
 30
0.0
 11
-2113.124486851627
 21
-280.5631978696697
 31
0.0
  0
LINE
  5
2405
330
1F
100
AcDbEntity
  8
PROFILY
100
AcDbLine
 10
-2111.296152834961
 20
-293.3737195560447
 30
0.0
 11
-2111.296152834961
 21
-298.6297923432525
 31
0.0
  0
LINE
  5
2406
330
1F
100
AcDbEntity
  8
PROFILY
100
AcDbLine
 10
-1979.131932774092
 20
-298.6297923432525
 30
0.0
 11
-1979.131932774092
 21
-296.9870938243752
 31
0.0
  0
LINE
  5
2407
330
1F
100
AcDbEntity
  8
PROFILY
100
AcDbLine
 10
-1993.391321701429
 20
-298.6297923432525
 30
0.0
 11
-1993.391321701429
 21
-296.9870938243752
 31
0.0
  0
LINE
  5
2408
330
1F
100
AcDbEntity
  8
PROFILY
100
AcDbLine
 10
-2007.650710628767
 20
-298.6297923432525
 30
0.0
 11
-2007.650710628767
 21
-296.9870938243752
 31
0.0
  0
LINE
  5
2409
330
1F
100
AcDbEntity
  8
PROFILY
100
AcDbLine
 10
-2021.910099556105
 20
-298.6297923432525
 30
0.0
 11
-2021.910099556105
 21
-296.9870938243752
 31
0.0
  0
LINE
  5
240A
330
1F
100
AcDbEntity
  8
PROFILY
100
AcDbLine
 10
-2036.16948848344
 20
-298.6297923432525
 30
0.0
 11
-2036.16948848344
 21
-296.9870938243752
 31
0.0
  0
LINE
  5
240B
330
1F
100
AcDbEntity
  8
PROFILY
100
AcDbLine
 10
-2050.428877410778
 20
-298.6297923432525
 30
0.0
 11
-2050.428877410778
 21
-296.9870938243752
 31
0.0
  0
LINE
  5
240C
330
1F
100
AcDbEntity
  8
NOSNÉ KONSTRUKCE
100
AcDbLine
 10
-2064.688266338115
 20
-298.6297923432525
 30
0.0
 11
-2064.688266338115
 21
-296.9870938243752
 31
0.0
  0
LINE
  5
240D
330
1F
100
AcDbEntity
  8
PROFILY
100
AcDbLine
 10
-2107.466433120126
 20
-298.6297923432525
 30
0.0
 11
-2107.466433120126
 21
-296.9870938243752
 31
0.0
  0
LINE
  5
240E
330
1F
100
AcDbEntity
  8
PROFILY
100
AcDbLine
 10
-2093.207044192789
 20
-298.6297923432525
 30
0.0
 11
-2093.207044192789
 21
-296.9870938243752
 31
0.0
  0
LINE
  5
240F
330
1F
100
AcDbEntity
  8
PROFILY
100
AcDbLine
 10
-2078.947655265451
 20
-298.6297923432525
 30
0.0
 11
-2078.947655265451
 21
-296.9870938243752
 31
0.0
  0
HATCH
  5
2410
330
1F
100
AcDbEntity
  8
PROFILY
100
AcDbHatch
 10
0.0
 20
0.0
 30
0.0
210
0.0
220
0.0
230
1.0
  2
SOLID
 70
     1
 71
     0
 91
        5
 92
        7
 72
     0
 73
     1
 93
        4
 10
-1979.131932774092
 20
-296.9870938243743
 10
-1993.391321701429
 20
-296.9870938243752
 10
-1993.391321701429
 20
-298.6297923432525
 10
-1979.131932774092
 20
-298.6297923432525
 97
        0
 92
        7
 72
     0
 73
     1
 93
        4
 10
-2007.650710628767
 20
-296.9870938243752
 10
-2021.910099556105
 20
-296.9870938243752
 10
-2021.910099556105
 20
-298.6297923432525
 10
-2007.650710628767
 20
-298.6297923432525
 97
        0
 92
        7
 72
     0
 73
     1
 93
        4
 10
-2036.16948848344
 20
-296.9870938243752
 10
-2050.428877410778
 20
-296.9870938243752
 10
-2050.428877410778
 20
-298.6297923432534
 10
-2036.169488483442
 20
-298.6297923432525
 97
        0
 92
        7
 72
     0
 73
     1
 93
        4
 10
-2064.688266338115
 20
-296.9870938243752
 10
-2078.947655265451
 20
-296.9870938243762
 10
-2078.947655265451
 20
-298.6297923432525
 10
-2064.688266338115
 20
-298.6297923432525
 97
        0
 92
        7
 72
     0
 73
     1
 93
        4
 10
-2093.207044192789
 20
-296.9870938243762
 10
-2107.466433120126
 20
-296.9870938243762
 10
-2107.466433120126
 20
-298.6297923432525
 10
-2093.207044192789
 20
-298.6297923432525
 97
        0
 75
     0
 76
     1
 47
0.2346926121939802
 98
        5
 10
-1986.337861372968
 20
-297.5359975870528
 10
-2015.692228303831
 20
-297.7706834401874
 10
-2040.58471004775
 20
-297.7706834401874
 10
-2072.342823867259
 20
-297.7657998434192
 10
-2099.113991081309
 20
-297.7657998434192
  0
HATCH
  5
2411
330
1F
100
AcDbEntity
  8
PROFILY
100
AcDbHatch
 10
0.0
 20
0.0
 30
0.0
210
0.0
220
0.0
230
1.0
  2
SOLID
 70
     1
 71
     0
 91
        2
 92
        7
 72
     0
 73
     1
 93
        4
 10
-2109.801873455134
 20
-274.9783965854863
 10
-2111.296152834961
 20
-274.9783965854863
 10
-2111.296152834961
 20
-280.5631978696697
 10
-2109.801873455134
 20
-280.5631978696697
 97
        0
 92
        7
 72
     0
 73
     1
 93
        7
 10
-2109.801873455134
 20
-284.9840404479596
 10
-2111.296152834961
 20
-284.9840404479596
 10
-2111.296152834961
 20
-293.3737195560447
 10
-2111.296152834961
 20
-298.6297923432534
 10
-2107.466433120126
 20
-298.6297923432534
 10
-2107.466433120126
 20
-296.9870938243762
 10
-2109.801873455134
 20
-296.9870938243762
 97
        0
 75
     0
 76
     1
 47
0.169069331426656
 98
        2
 10
-2110.422224719971
 20
-277.7967385027736
 10
-2110.59137376106
 20
-291.998562342615
  0
TEXT
  5
2412
330
1F
100
AcDbEntity
  8
POPIS
100
AcDbText
 10
-2347.617725333332
 20
-362.4150416787311
 30
0.0
 40
25.0
  1
TERÉN
 41
0.7
  7
SIMPLEX7
100
AcDbText
  0
LINE
  5
2413
330
1F
100
AcDbEntity
  8
SPOJOVACÍ
  6
DASHDOT2
100
AcDbLine
 10
-1996.228492323752
 20
146.2917575779129
 30
0.0
 11
-1881.308382579845
 21
146.2917575779119
 31
0.0
  0
LINE
  5
2414
330
1F
100
AcDbEntity
  8
SPOJOVACÍ
  6
DASHED
100
AcDbLine
 10
-1899.956295911644
 20
139.7292575779119
 30
0.0
 11
-1981.055390855318
 21
139.7292575779129
 31
0.0
  0
LINE
  5
2415
330
1F
100
AcDbEntity
  8
SPOJOVACÍ
  6
DASHED
100
AcDbLine
 10
-1899.956295911644
 20
152.854257577912
 30
0.0
 11
-1981.055390855318
 21
152.8542575779129
 31
0.0
  0
LINE
  5
2416
330
1F
100
AcDbEntity
  8
SPOJOVACÍ
  6
DASHED
100
AcDbLine
 10
-1905.542434770087
 20
146.2917575779115
 30
0.0
 11
-1908.790030034278
 21
140.6667575779115
 31
0.0
  0
LINE
  5
2417
330
1F
100
AcDbEntity
  8
SPOJOVACÍ
  6
DASHED
100
AcDbLine
 10
-1905.542434770087
 20
146.2917575779119
 30
0.0
 11
-1908.790030034278
 21
151.9167575779119
 31
0.0
  0
LINE
  5
2418
330
1F
100
AcDbEntity
  8
SPOJOVACÍ
100
AcDbLine
 10
-1906.308531466961
 20
145.6084319056326
 30
0.0
 11
-1905.91787108339
 21
147.0663963056245
 31
0.0
  0
LINE
  5
2419
330
1F
100
AcDbEntity
  8
SPOJOVACÍ
100
AcDbLine
 10
-1900.513598526521
 20
146.2426302732351
 30
0.0
 11
-1900.454042310425
 21
146.4648970976172
 31
0.0
  0
LINE
  5
241A
330
1F
100
AcDbEntity
  8
SPOJOVACÍ
100
AcDbLine
 10
-1902.448209464756
 20
146.020159223051
 30
0.0
 11
-1902.272835070446
 21
146.6746653729669
 31
0.0
  0
LINE
  5
241B
330
1F
100
AcDbEntity
  8
SPOJOVACÍ
100
AcDbLine
 10
-1904.379847450774
 20
145.8087833816034
 30
0.0
 11
-1904.0941093553
 21
146.8751724715621
 31
0.0
  0
LINE
  5
241C
330
1F
100
AcDbEntity
  8
SPOJOVACÍ
100
AcDbLine
 10
-1908.234280030651
 20
145.4190356875374
 30
0.0
 11
-1907.744126397764
 21
147.2483139489809
 31
0.0
  0
LINE
  5
241D
330
1F
100
AcDbEntity
  8
SPOJOVACÍ
100
AcDbLine
 10
-1910.157111205288
 20
145.2405273136
 30
0.0
 11
-1909.572881668743
 21
147.420901627277
 31
0.0
  0
LINE
  5
241E
330
1F
100
AcDbEntity
  8
SPOJOVACÍ
100
AcDbLine
 10
-1912.077042611235
 20
145.0728410237538
 30
0.0
 11
-1911.404143496643
 21
147.5841347077821
 31
0.0
  0
LINE
  5
241F
330
1F
100
AcDbEntity
  8
SPOJOVACÍ
  6
DASHED
100
AcDbLine
 10
-1896.167434770087
 20
146.2917575779119
 30
0.0
 11
-1899.956295911644
 21
139.7292575779119
 31
0.0
  0
LINE
  5
2420
330
1F
100
AcDbEntity
  8
SPOJOVACÍ
  6
DASHED
100
AcDbLine
 10
-1896.167434770087
 20
146.2917575779119
 30
0.0
 11
-1899.956295911644
 21
152.854257577912
 31
0.0
  0
ARC
  5
2421
330
1F
100
AcDbEntity
  8
SPOJOVACÍ
100
AcDbCircle
 10
-1991.413282350423
 20
154.7292575779129
 30
0.0
 40
1.875
100
AcDbArc
 50
90.0
 51
180.0
  0
ARC
  5
2422
330
1F
100
AcDbEntity
  8
SPOJOVACÍ
100
AcDbCircle
 10
-1986.623711655681
 20
146.2917575779129
 30
0.0
 40
6.701689614562111
100
AcDbArc
 50
135.6170676673749
 51
224.382932332625
  0
ARC
  5
2423
330
1F
100
AcDbEntity
  8
SPOJOVACÍ
100
AcDbCircle
 10
-1991.413282350423
 20
152.8542575779129
 30
0.0
 40
1.875
100
AcDbArc
 50
180.0
 51
270.0
  0
ARC
  5
2424
330
1F
100
AcDbEntity
  8
SPOJOVACÍ
100
AcDbCircle
 10
-1991.413282350423
 20
137.8542575779128
 30
0.0
 40
1.875
100
AcDbArc
 50
180.0
 51
270.0
  0
ARC
  5
2425
330
1F
100
AcDbEntity
  8
SPOJOVACÍ
100
AcDbCircle
 10
-1991.413282350423
 20
139.7292575779129
 30
0.0
 40
1.875
100
AcDbArc
 50
90.0
 51
180.0
  0
LINE
  5
2426
330
1F
100
AcDbEntity
  8
SPOJOVACÍ
100
AcDbLine
 10
-1993.288282350423
 20
154.7292575779129
 30
0.0
 11
-1993.288282350423
 21
137.8542575779128
 31
0.0
  0
LINE
  5
2427
330
1F
100
AcDbEntity
  8
SPOJOVACÍ
100
AcDbLine
 10
-1983.867890855318
 20
160.3542575779129
 30
0.0
 11
-1986.725782350423
 21
160.3542575779129
 31
0.0
  0
LINE
  5
2428
330
1F
100
AcDbEntity
  8
SPOJOVACÍ
100
AcDbLine
 10
-1986.725782350423
 20
156.6042575779128
 30
0.0
 11
-1986.735157350423
 21
156.6042575779128
 31
0.0
  0
LINE
  5
2429
330
1F
100
AcDbEntity
  8
SPOJOVACÍ
100
AcDbLine
 10
-1986.725782350423
 20
156.6042575779128
 30
0.0
 11
-1991.413282350423
 21
156.6042575779128
 31
0.0
  0
LINE
  5
242A
330
1F
100
AcDbEntity
  8
SPOJOVACÍ
100
AcDbLine
 10
-1968.398312267442
 20
144.806859045741
 30
0.0
 11
-1967.550666825568
 21
147.9703149016227
 31
0.0
  0
LINE
  5
242B
330
1F
100
AcDbEntity
  8
SPOJOVACÍ
100
AcDbLine
 10
-1964.717207728749
 20
144.5497376837374
 30
0.0
 11
-1963.73186326847
 21
148.2270932724618
 31
0.0
  0
LINE
  5
242C
330
1F
100
AcDbEntity
  8
SPOJOVACÍ
100
AcDbLine
 10
-1966.559028356171
 20
144.6735647879627
 30
0.0
 11
-1965.639849717755
 21
148.1039861677641
 31
0.0
  0
LINE
  5
242D
330
1F
100
AcDbEntity
  8
SPOJOVACÍ
100
AcDbLine
 10
-1970.235067056936
 20
144.9495921144971
 30
0.0
 11
-1969.464330467656
 21
147.8260202249425
 31
0.0
  0
LINE
  5
242E
330
1F
100
AcDbEntity
  8
SPOJOVACÍ
100
AcDbLine
 10
-1972.069300076316
 20
145.1017365574512
 30
0.0
 11
-1971.380856921848
 21
147.6710413880464
 31
0.0
  0
LINE
  5
242F
330
1F
100
AcDbEntity
  8
SPOJOVACÍ
100
AcDbLine
 10
-1973.901018437768
 20
145.2632658315392
 30
0.0
 11
-1973.300262877287
 21
147.5053161061896
 31
0.0
  0
LINE
  5
2430
330
1F
100
AcDbEntity
  8
SPOJOVACÍ
100
AcDbLine
 10
-1975.730229017123
 20
145.4341542758311
 30
0.0
 11
-1975.222565444029
 21
147.3287805237764
 31
0.0
  0
LINE
  5
2431
330
1F
100
AcDbEntity
  8
SPOJOVACÍ
100
AcDbLine
 10
-1977.556938456828
 20
145.6143771003767
 30
0.0
 11
-1977.147782162988
 21
147.1413691772363
 31
0.0
  0
LINE
  5
2432
330
1F
100
AcDbEntity
  8
SPOJOVACÍ
100
AcDbLine
 10
-1983.867890855318
 20
146.2917575779129
 30
0.0
 11
-1983.867890855318
 21
132.2292575779129
 31
0.0
  0
LINE
  5
2433
330
1F
100
AcDbEntity
  8
SPOJOVACÍ
100
AcDbLine
 10
-1983.867890855318
 20
146.2917575779129
 30
0.0
 11
-1983.867890855318
 21
132.2292575779129
 31
0.0
  0
LINE
  5
2434
330
1F
100
AcDbEntity
  8
SPOJOVACÍ
100
AcDbLine
 10
-1986.725782350423
 20
150.9792575779129
 30
0.0
 11
-1991.413282350423
 21
150.9792575779129
 31
0.0
  0
LINE
  5
2435
330
1F
100
AcDbEntity
  8
SPOJOVACÍ
100
AcDbLine
 10
-1986.725782350423
 20
141.6042575779129
 30
0.0
 11
-1991.413282350423
 21
141.6042575779129
 31
0.0
  0
LINE
  5
2436
330
1F
100
AcDbEntity
  8
SPOJOVACÍ
100
AcDbLine
 10
-1991.413282350423
 20
135.9792575779129
 30
0.0
 11
-1986.725782350423
 21
135.9792575779129
 31
0.0
  0
LINE
  5
2437
330
1F
100
AcDbEntity
  8
SPOJOVACÍ
100
AcDbLine
 10
-1986.725782350423
 20
132.2292575779129
 30
0.0
 11
-1983.867890855318
 21
132.2292575779129
 31
0.0
  0
LINE
  5
2438
330
1F
100
AcDbEntity
  8
SPOJOVACÍ
100
AcDbLine
 10
-1979.381153168821
 20
145.8039103755013
 30
0.0
 11
-1979.136622632964
 21
146.7165107593254
 31
0.0
  0
LINE
  5
2439
330
1F
100
AcDbEntity
  8
SPOJOVACÍ
100
AcDbLine
 10
-1981.20287933728
 20
146.0027310215309
 30
0.0
 11
-1981.046913374338
 21
146.5848039194765
 31
0.0
  0
LINE
  5
243A
330
1F
100
AcDbEntity
  8
SPOJOVACÍ
100
AcDbLine
 10
-1986.725782350423
 20
146.2917575779129
 30
0.0
 11
-1986.725782350423
 21
160.3542575779129
 31
0.0
  0
LINE
  5
243B
330
1F
100
AcDbEntity
  8
SPOJOVACÍ
100
AcDbLine
 10
-1983.867890855318
 20
160.3542575779129
 30
0.0
 11
-1983.867890855318
 21
146.2917575779129
 31
0.0
  0
LINE
  5
243C
330
1F
100
AcDbEntity
  8
SPOJOVACÍ
100
AcDbLine
 10
-1983.867890855318
 20
160.3542575779129
 30
0.0
 11
-1983.867890855318
 21
146.2917575779129
 31
0.0
  0
LINE
  5
243D
330
1F
100
AcDbEntity
  8
SPOJOVACÍ
100
AcDbLine
 10
-1986.735157350423
 20
156.6042575779128
 30
0.0
 11
-1986.735157350423
 21
135.9792575779129
 31
0.0
  0
LINE
  5
243E
330
1F
100
AcDbEntity
  8
SPOJOVACÍ
100
AcDbLine
 10
-1986.725782350423
 20
153.8689786684099
 30
0.0
 11
-1986.725782350423
 21
132.2292575779129
 31
0.0
  0
LWPOLYLINE
  5
243F
330
1F
100
AcDbEntity
  8
NOSNÉ KONSTRUKCE
100
AcDbPolyline
 90
        2
 70
     0
 43
0.0
 10
-2080.001969154348
 20
174.0599664710312
 10
-2080.001969154348
 20
151.4821648527063
  0
LINE
  5
2440
330
1F
100
AcDbEntity
  8
NOSNÉ KONSTRUKCE
100
AcDbLine
 10
-2080.001969154348
 20
120.8983939083814
 30
0.0
 11
-2080.001969154346
 21
141.1013503031267
 31
0.0
  0
LINE
  5
2441
330
1F
100
AcDbEntity
  8
NOSNÉ KONSTRUKCE
100
AcDbLine
 10
-2080.001969154346
 20
131.6851212474498
 30
0.0
 11
-2080.001969154346
 21
141.1013503031267
 31
0.0
  0
LINE
  5
2442
330
1F
100
AcDbEntity
  8
NOSNÉ KONSTRUKCE
100
AcDbLine
 10
-2080.001969154348
 20
120.8983939083814
 30
0.0
 11
-1977.501969154337
 21
120.898393908375
 31
0.0
  0
LINE
  5
2443
330
1F
100
AcDbEntity
  8
NOSNÉ KONSTRUKCE
100
AcDbLine
 10
-2080.001969154346
 20
171.6851212474516
 30
0.0
 11
-1977.501969154339
 21
171.6851212474462
 31
0.0
  0
LINE
  5
2444
330
1F
100
AcDbEntity
  8
SPOJOVACÍ
100
AcDbLine
 10
-1953.612556184644
 20
144.0072898615367
 30
0.0
 11
-1952.342547841314
 21
148.7470255248854
 31
0.0
  0
LINE
  5
2445
330
1F
100
AcDbEntity
  8
SPOJOVACÍ
100
AcDbLine
 10
-1962.872842544743
 20
144.435406993965
 30
0.0
 11
-1961.826691995128
 21
148.3396939974954
 31
0.0
  0
LINE
  5
2446
330
1F
100
AcDbEntity
  8
SPOJOVACÍ
100
AcDbLine
 10
-1955.46977062252
 20
144.0736664830233
 30
0.0
 11
-1954.233862297614
 21
148.6861391450706
 31
0.0
  0
LINE
  5
2447
330
1F
100
AcDbEntity
  8
SPOJOVACÍ
100
AcDbLine
 10
-1957.324397483612
 20
144.1497000725425
 30
0.0
 11
-1956.127920124115
 21
148.6150143682903
 31
0.0
  0
LINE
  5
2448
330
1F
100
AcDbEntity
  8
SPOJOVACÍ
100
AcDbLine
 10
-1959.176445893827
 20
144.2353565717271
 30
0.0
 11
-1958.024734960533
 21
148.5336002904214
 31
0.0
  0
LINE
  5
2449
330
1F
100
AcDbEntity
  8
SPOJOVACÍ
100
AcDbLine
 10
-1961.025924714163
 20
144.3306029109066
 30
0.0
 11
-1959.924320799725
 21
148.441844689406
 31
0.0
  0
LINE
  5
244A
330
1F
100
AcDbEntity
  8
SPOJOVACÍ
100
AcDbLine
 10
-1931.09477062252
 20
144.0736664830233
 30
0.0
 11
-1929.997337688782
 21
148.1693419496386
 31
0.0
  0
LINE
  5
244B
330
1F
100
AcDbEntity
  8
SPOJOVACÍ
100
AcDbLine
 10
-1949.526018437768
 20
145.2632658315392
 30
0.0
 11
-1949.035355047081
 21
147.0944465350003
 31
0.0
  0
LINE
  5
244C
330
1F
100
AcDbEntity
  8
SPOJOVACÍ
100
AcDbLine
 10
-1947.694300076315
 20
145.1017365574512
 30
0.0
 11
-1947.12813024511
 21
147.2147111332192
 31
0.0
  0
LINE
  5
244D
330
1F
100
AcDbEntity
  8
SPOJOVACÍ
100
AcDbLine
 10
-1945.860067056936
 20
144.9495921144971
 30
0.0
 11
-1945.221669082831
 21
147.3321257893176
 31
0.0
  0
LINE
  5
244E
330
1F
100
AcDbEntity
  8
SPOJOVACÍ
100
AcDbLine
 10
-1946.157630634569
 20
143.8390697242889
 30
0.0
 11
-1944.804462888679
 21
148.8891605031199
 31
0.0
  0
LINE
  5
244F
330
1F
100
AcDbEntity
  8
SPOJOVACÍ
100
AcDbLine
 10
-1948.032630634569
 20
143.8390697242889
 30
0.0
 11
-1946.684933444544
 21
148.8687441106844
 31
0.0
  0
LINE
  5
2450
330
1F
100
AcDbEntity
  8
SPOJOVACÍ
100
AcDbLine
 10
-1949.890326724861
 20
143.9036487944922
 30
0.0
 11
-1948.568096203317
 21
148.8382802802084
 31
0.0
  0
LINE
  5
2451
330
1F
100
AcDbEntity
  8
SPOJOVACÍ
100
AcDbLine
 10
-1951.782630634569
 20
143.8390697242889
 30
0.0
 11
-1950.453963461455
 21
148.7977231207087
 31
0.0
  0
LINE
  5
2452
330
1F
100
AcDbEntity
  8
SPOJOVACÍ
100
AcDbLine
 10
-1944.287331848153
 20
143.8215245563387
 30
0.0
 11
-1942.926672558959
 21
148.8995741554012
 31
0.0
  0
LINE
  5
2453
330
1F
100
AcDbEntity
  8
SPOJOVACÍ
100
AcDbLine
 10
-1942.414384919039
 20
143.8138623914833
 30
0.0
 11
-1941.051550792314
 21
148.9000285947154
 31
0.0
  0
LINE
  5
2454
330
1F
100
AcDbEntity
  8
SPOJOVACÍ
100
AcDbLine
 10
-1940.538778739791
 20
143.8161246832355
 30
0.0
 11
-1939.179086233561
 21
148.8905661991611
 31
0.0
  0
LINE
  5
2455
330
1F
100
AcDbEntity
  8
SPOJOVACÍ
100
AcDbLine
 10
-1938.660501899664
 20
143.8283540170778
 30
0.0
 11
-1937.309267829833
 21
148.8712282186038
 31
0.0
  0
LINE
  5
2456
330
1F
100
AcDbEntity
  8
SPOJOVACÍ
100
AcDbLine
 10
-1936.779542678979
 20
143.8505941314506
 30
0.0
 11
-1935.442084825186
 21
148.8420547947912
 31
0.0
  0
LINE
  5
2457
330
1F
100
AcDbEntity
  8
SPOJOVACÍ
100
AcDbLine
 10
-1934.89588904329
 20
143.8828899395102
 30
0.0
 11
-1933.577526755381
 21
148.8030849807728
 31
0.0
  0
LINE
  5
2458
330
1F
100
AcDbEntity
  8
SPOJOVACÍ
100
AcDbLine
 10
-1932.949397483612
 20
144.1497000725425
 30
0.0
 11
-1931.715583442887
 21
148.7543567596117
 31
0.0
  0
LINE
  5
2459
330
1F
100
AcDbEntity
  8
SPOJOVACÍ
100
AcDbLine
 10
-1929.237556184644
 20
144.0072898615367
 30
0.0
 11
-1927.999501784362
 21
148.6277717859302
 31
0.0
  0
LINE
  5
245A
330
1F
100
AcDbEntity
  8
SPOJOVACÍ
100
AcDbLine
 10
-1913.994091436142
 20
144.9159126727977
 30
0.0
 11
-1913.228438492095
 21
147.7733683609458
 31
0.0
  0
LINE
  5
245B
330
1F
100
AcDbEntity
  8
SPOJOVACÍ
100
AcDbLine
 10
-1917.809028356171
 20
144.6735647879627
 30
0.0
 11
-1916.913037835723
 21
148.0174469333819
 31
0.0
  0
LINE
  5
245C
330
1F
100
AcDbEntity
  8
SPOJOVACÍ
100
AcDbLine
 10
-1919.648312267446
 20
144.806859045741
 30
0.0
 11
-1918.754396596686
 21
148.1429977466973
 31
0.0
  0
LINE
  5
245D
330
1F
100
AcDbEntity
  8
SPOJOVACÍ
100
AcDbLine
 10
-1927.334078300394
 20
144.1135707724561
 30
0.0
 11
-1926.145344474064
 21
148.5499858089901
 31
0.0
  0
LINE
  5
245E
330
1F
100
AcDbEntity
  8
SPOJOVACÍ
100
AcDbLine
 10
-1925.436760620906
 20
144.1968614862098
 30
0.0
 11
-1924.300680843923
 21
148.436768935358
 31
0.0
  0
LINE
  5
245F
330
1F
100
AcDbEntity
  8
SPOJOVACÍ
100
AcDbLine
 10
-1923.536669355581
 20
144.2905033632282
 30
0.0
 11
-1922.444751500082
 21
148.3655962776379
 31
0.0
  0
LINE
  5
2460
330
1F
100
AcDbEntity
  8
SPOJOVACÍ
100
AcDbLine
 10
-1921.633790084593
 20
144.3945502190358
 30
0.0
 11
-1920.598298470023
 21
148.2590575354192
 31
0.0
  0
LINE
  5
2461
330
1F
100
AcDbEntity
  8
SPOJOVACÍ
100
AcDbLine
 10
-1915.908274444977
 20
144.7696796930326
 30
0.0
 11
-1915.074214391702
 21
147.8824341884242
 31
0.0
  0
LINE
  5
2462
330
1F
100
AcDbEntity
  8
POPIS
100
AcDbLine
 10
-2283.338499609653
 20
-395.8235090515504
 30
0.0
 11
-2137.217334146797
 21
-395.8235090515504
 31
0.0
  0
TEXT
  5
2463
330
1F
100
AcDbEntity
  8
POPIS
100
AcDbText
 10
-2323.873934904203
 20
-409.266850500921
 30
0.0
 40
25.0
  1
07
 41
0.7
  7
SIMPLEX7
100
AcDbText
  0
INSERT
  5
2464
330
1F
100
AcDbEntity
  8
POPIS
100
AcDbBlockReference
  2
E_PUNKT
 10
-2065.232237186668
 20
-298.4449514923185
 30
0.0
  0
LINE
  5
2465
330
1F
100
AcDbEntity
  8
POPIS
100
AcDbLine
 10
-2065.002925729829
 20
-298.2268390582762
 30
0.0
 11
-2137.217334146797
 21
-395.8235090515504
 31
0.0
  0
ARC
  5
2466
330
1F
100
AcDbEntity
  8
NOSNÉ KONSTRUKCE
100
AcDbCircle
 10
-1983.50196915439
 20
-139.9889333094474
 30
0.0
 40
2.703648697414791
100
AcDbArc
 50
90.0
 51
270.0
  0
LINE
  5
2467
330
1F
100
AcDbEntity
  8
NOSNÉ KONSTRUKCE
100
AcDbLine
 10
-2066.501969154381
 20
-142.6925820068586
 30
0.0
 11
-1983.501969154337
 21
-142.6925820068622
 31
0.0
  0
ARC
  5
2468
330
1F
100
AcDbEntity
  8
NOSNÉ KONSTRUKCE
100
AcDbCircle
 10
-1983.50196915439
 20
-185.4269351958487
 30
0.0
 40
2.703648697414791
100
AcDbArc
 50
90.0
 51
270.0
  0
LINE
  5
2469
330
1F
100
AcDbEntity
  8
NOSNÉ KONSTRUKCE
100
AcDbLine
 10
-2066.501969154381
 20
-182.7232864984384
 30
0.0
 11
-1983.501969154339
 21
-182.7232864984348
 31
0.0
  0
LINE
  5
246A
330
1F
100
AcDbEntity
  8
NOSNÉ KONSTRUKCE
100
AcDbLine
 10
-2092.828429403355
 20
-157.5468129489331
 30
0.0
 11
-2050.121696355931
 21
-157.5468129489331
 31
0.0
  0
LINE
  5
246B
330
1F
100
AcDbEntity
  8
NOSNÉ KONSTRUKCE
100
AcDbLine
 10
-2092.828429403355
 20
-167.9276274985127
 30
0.0
 11
-2050.121696355931
 21
-167.9276274985127
 31
0.0
  0
LINE
  5
246C
330
1F
100
AcDbEntity
  8
NOSNÉ KONSTRUKCE
100
AcDbLine
 10
-2050.121696355931
 20
-157.5468129489331
 30
0.0
 11
-2050.121696355931
 21
-167.1040617101521
 31
0.0
  0
LINE
  5
246D
330
1F
100
AcDbEntity
  8
NOSNÉ KONSTRUKCE
100
AcDbLine
 10
-2050.121696355931
 20
-167.9276274985127
 30
0.0
 11
-2050.121696355931
 21
-158.3703787372937
 31
0.0
  0
LWPOLYLINE
  5
246E
330
1F
100
AcDbEntity
  8
NOSNÉ KONSTRUKCE
100
AcDbPolyline
 90
        3
 70
     0
 43
0.0
 10
-2105.524910273004
 20
-160.5368422556116
 10
-2105.524910273004
 20
-127.3745496008891
 10
-2082.5675409088
 20
-127.3745496008891
  0
LINE
  5
246F
330
1F
100
AcDbEntity
  8
NOSNÉ KONSTRUKCE
100
AcDbLine
 10
-2105.524910273004
 20
-160.5368422556116
 30
0.0
 11
-2096.423360475667
 21
-160.5368422556116
 31
0.0
  0
LINE
  5
2470
330
1F
100
AcDbEntity
  8
NOSNÉ KONSTRUKCE
100
AcDbLine
 10
-2096.423360475667
 20
-164.9375981918333
 30
0.0
 11
-2092.828429403355
 21
-167.9276274985127
 31
0.0
  0
LINE
  5
2471
330
1F
100
AcDbEntity
  8
NOSNÉ KONSTRUKCE
100
AcDbLine
 10
-2105.524910273004
 20
-164.9375981918333
 30
0.0
 11
-2096.423360475667
 21
-164.9375981918333
 31
0.0
  0
LINE
  5
2472
330
1F
100
AcDbEntity
  8
NOSNÉ KONSTRUKCE
100
AcDbLine
 10
-2096.423360475667
 20
-160.5368422556116
 30
0.0
 11
-2092.828429403355
 21
-157.5468129489331
 31
0.0
  0
LWPOLYLINE
  5
2473
330
1F
100
AcDbEntity
  8
NOSNÉ KONSTRUKCE
100
AcDbPolyline
 90
        3
 70
     0
 43
0.0
 10
-2082.5675409088
 20
-198.0998908465558
 10
-2105.524910273004
 20
-198.0998908465558
 10
-2105.524910273004
 20
-164.9375981918333
  0
LINE
  5
2474
330
1F
100
AcDbEntity
  8
NOSNÉ KONSTRUKCE
100
AcDbLine
 10
-2094.460037687658
 20
-145.3614549362978
 30
0.0
 11
-2094.460037687658
 21
-150.2497036419372
 31
0.0
  0
LINE
  5
2475
330
1F
100
AcDbEntity
  8
NOSNÉ KONSTRUKCE
100
AcDbLine
 10
-2090.960037687657
 20
-150.2497036419372
 30
0.0
 11
-2090.960037687657
 21
-145.3614549362978
 31
0.0
  0
ARC
  5
2476
330
1F
100
AcDbEntity
  8
NOSNÉ KONSTRUKCE
100
AcDbCircle
 10
-2092.710037687657
 20
-150.2497036419372
 30
0.0
 40
1.75
100
AcDbArc
 50
180.0
 51
0.0
  0
LINE
  5
2477
330
1F
100
AcDbEntity
  8
NOSNÉ KONSTRUKCE
100
AcDbLine
 10
-2091.397537687659
 20
-186.3361749653399
 30
0.0
 11
-2091.397537687659
 21
-186.3579875853715
 31
0.0
  0
LINE
  5
2478
330
1F
100
AcDbEntity
  8
NOSNÉ KONSTRUKCE
100
AcDbLine
 10
-2094.022537687658
 20
-186.3579875853688
 30
0.0
 11
-2094.022537687658
 21
-186.3361749653399
 31
0.0
  0
ARC
  5
2479
330
1F
100
AcDbEntity
  8
NOSNÉ KONSTRUKCE
100
AcDbCircle
 10
-2092.710037687657
 20
-186.3361749653399
 30
0.0
 40
1.3125
100
AcDbArc
 50
0.0
 51
180.0
  0
LINE
  5
247A
330
1F
100
AcDbEntity
  8
NOSNÉ KONSTRUKCE
100
AcDbLine
 10
-2088.585037687661
 20
-189.0556428172335
 30
0.0
 11
-2096.835037687661
 21
-189.0556428172326
 31
0.0
  0
LINE
  5
247B
330
1F
100
AcDbEntity
  8
NOSNÉ KONSTRUKCE
100
AcDbLine
 10
-2090.960037687657
 20
-175.2247368055082
 30
0.0
 11
-2090.960037687657
 21
-180.1129855111471
 31
0.0
  0
LINE
  5
247C
330
1F
100
AcDbEntity
  8
NOSNÉ KONSTRUKCE
100
AcDbLine
 10
-2094.460037687658
 20
-180.1129855111471
 30
0.0
 11
-2094.460037687658
 21
-175.2247368055082
 31
0.0
  0
ARC
  5
247D
330
1F
100
AcDbEntity
  8
NOSNÉ KONSTRUKCE
100
AcDbCircle
 10
-2092.710037687657
 20
-180.1129855111471
 30
0.0
 40
1.75
100
AcDbArc
 50
180.0
 51
0.0
  0
ARC
  5
247E
330
1F
100
AcDbEntity
  8
NOSNÉ KONSTRUKCE
100
AcDbCircle
 10
-2092.710037687657
 20
-175.2247368055082
 30
0.0
 40
1.75
100
AcDbArc
 50
0.0
 51
180.0
  0
LINE
  5
247F
330
1F
100
AcDbEntity
  8
NOSNÉ KONSTRUKCE
100
AcDbLine
 10
-2092.710037687661
 20
-184.9306428172335
 30
0.0
 11
-2092.710037687661
 21
-193.1806428172335
 31
0.0
  0
CIRCLE
  5
2480
330
1F
100
AcDbEntity
  8
NOSNÉ KONSTRUKCE
100
AcDbCircle
 10
-2092.710037687661
 20
-189.0556428172335
 30
0.0
 40
3.0
  0
LINE
  5
2481
330
1F
100
AcDbEntity
  8
NOSNÉ KONSTRUKCE
100
AcDbLine
 10
-2091.397537687658
 20
-191.7532980490955
 30
0.0
 11
-2091.397537687658
 21
-191.7751106691252
 31
0.0
  0
LINE
  5
2482
330
1F
100
AcDbEntity
  8
NOSNÉ KONSTRUKCE
100
AcDbLine
 10
-2094.022537687658
 20
-191.7751106691252
 30
0.0
 11
-2094.022537687658
 21
-191.7532980490982
 31
0.0
  0
ARC
  5
2483
330
1F
100
AcDbEntity
  8
NOSNÉ KONSTRUKCE
100
AcDbCircle
 10
-2092.710037687657
 20
-191.7751106691252
 30
0.0
 40
1.3125
100
AcDbArc
 50
180.0
 51
0.0
  0
ARC
  5
2484
330
1F
100
AcDbEntity
  8
NOSNÉ KONSTRUKCE
100
AcDbCircle
 10
-2092.710037687657
 20
-145.3614549362978
 30
0.0
 40
1.75
100
AcDbArc
 50
0.0
 51
180.0
  0
ARC
  5
2485
330
1F
100
AcDbEntity
  8
NOSNÉ KONSTRUKCE
100
AcDbCircle
 10
-2092.710037687657
 20
-133.6993297783205
 30
0.0
 40
1.3125
100
AcDbArc
 50
0.0
 51
180.0
  0
LINE
  5
2486
330
1F
100
AcDbEntity
  8
NOSNÉ KONSTRUKCE
100
AcDbLine
 10
-2094.022537687658
 20
-133.6993297783205
 30
0.0
 11
-2094.022537687658
 21
-133.7211423983467
 31
0.0
  0
LINE
  5
2487
330
1F
100
AcDbEntity
  8
NOSNÉ KONSTRUKCE
100
AcDbLine
 10
-2091.397537687658
 20
-133.7211423983494
 30
0.0
 11
-2091.397537687658
 21
-133.6993297783205
 31
0.0
  0
LINE
  5
2488
330
1F
100
AcDbEntity
  8
NOSNÉ KONSTRUKCE
100
AcDbLine
 10
-2088.585037687661
 20
-136.4187976302114
 30
0.0
 11
-2096.835037687661
 21
-136.4187976302132
 31
0.0
  0
ARC
  5
2489
330
1F
100
AcDbEntity
  8
NOSNÉ KONSTRUKCE
100
AcDbCircle
 10
-2092.710037687657
 20
-139.1382654821059
 30
0.0
 40
1.3125
100
AcDbArc
 50
180.0
 51
0.0
  0
LINE
  5
248A
330
1F
100
AcDbEntity
  8
NOSNÉ KONSTRUKCE
100
AcDbLine
 10
-2094.022537687658
 20
-139.1164528620761
 30
0.0
 11
-2094.022537687658
 21
-139.1382654821059
 31
0.0
  0
LINE
  5
248B
330
1F
100
AcDbEntity
  8
NOSNÉ KONSTRUKCE
100
AcDbLine
 10
-2091.397537687659
 20
-139.1382654821059
 30
0.0
 11
-2091.397537687659
 21
-139.1164528620738
 31
0.0
  0
CIRCLE
  5
248C
330
1F
100
AcDbEntity
  8
NOSNÉ KONSTRUKCE
100
AcDbCircle
 10
-2092.710037687661
 20
-136.4187976302114
 30
0.0
 40
3.0
  0
LINE
  5
248D
330
1F
100
AcDbEntity
  8
NOSNÉ KONSTRUKCE
100
AcDbLine
 10
-2092.710037687661
 20
-140.5437976302114
 30
0.0
 11
-2092.710037687661
 21
-132.2937976302114
 31
0.0
  0
LINE
  5
248E
330
1F
100
AcDbEntity
  8
NOSNÉ KONSTRUKCE
100
AcDbLine
 10
-2082.5675409088
 20
-127.3745496008891
 30
0.0
 11
-2080.001969154399
 21
-134.9690113306082
 31
0.0
  0
LINE
  5
248F
330
1F
100
AcDbEntity
  8
NOSNÉ KONSTRUKCE
100
AcDbLine
 10
-2082.5675409088
 20
-198.0998908465558
 30
0.0
 11
-2080.001969154399
 21
-190.5054291168376
 31
0.0
  0
ARC
  5
2490
330
1F
100
AcDbEntity
  8
NOSNÉ KONSTRUKCE
100
AcDbCircle
 10
-1983.501969154384
 20
169.0400444921915
 30
0.0
 40
2.703648697414791
100
AcDbArc
 50
90.0
 51
270.0
  0
LINE
  5
2491
330
1F
100
AcDbEntity
  8
NOSNÉ KONSTRUKCE
100
AcDbLine
 10
-2066.501969154376
 20
166.3363957947808
 30
0.0
 11
-1983.501969154332
 21
166.3363957947767
 31
0.0
  0
ARC
  5
2492
330
1F
100
AcDbEntity
  8
NOSNÉ KONSTRUKCE
100
AcDbCircle
 10
-1983.501969154384
 20
123.6020426057898
 30
0.0
 40
2.703648697414791
100
AcDbArc
 50
90.0
 51
270.0
  0
LINE
  5
2493
330
1F
100
AcDbEntity
  8
NOSNÉ KONSTRUKCE
100
AcDbLine
 10
-2066.501969154376
 20
126.3056913032009
 30
0.0
 11
-1983.501969154334
 21
126.3056913032046
 31
0.0
  0
LINE
  5
2494
330
1F
100
AcDbEntity
  8
NOSNÉ KONSTRUKCE
100
AcDbLine
 10
-2092.82842940335
 20
151.4821648527063
 30
0.0
 11
-2050.121696355926
 21
151.4821648527063
 31
0.0
  0
LINE
  5
2495
330
1F
100
AcDbEntity
  8
NOSNÉ KONSTRUKCE
100
AcDbLine
 10
-2092.82842940335
 20
141.1013503031267
 30
0.0
 11
-2050.121696355926
 21
141.1013503031267
 31
0.0
  0
LINE
  5
2496
330
1F
100
AcDbEntity
  8
NOSNÉ KONSTRUKCE
100
AcDbLine
 10
-2050.121696355926
 20
151.4821648527063
 30
0.0
 11
-2050.121696355926
 21
141.9249160914873
 31
0.0
  0
LINE
  5
2497
330
1F
100
AcDbEntity
  8
NOSNÉ KONSTRUKCE
100
AcDbLine
 10
-2050.121696355926
 20
141.1013503031267
 30
0.0
 11
-2050.121696355926
 21
150.6585990643457
 31
0.0
  0
LWPOLYLINE
  5
2498
330
1F
100
AcDbEntity
  8
NOSNÉ KONSTRUKCE
100
AcDbPolyline
 90
        3
 70
     0
 43
0.0
 10
-2105.524910272998
 20
148.4921355460273
 10
-2105.524910272998
 20
181.6544282007498
 10
-2082.567540908795
 20
181.6544282007498
  0
LINE
  5
2499
330
1F
100
AcDbEntity
  8
NOSNÉ KONSTRUKCE
100
AcDbLine
 10
-2105.524910272998
 20
148.4921355460273
 30
0.0
 11
-2096.423360475661
 21
148.4921355460273
 31
0.0
  0
LINE
  5
249A
330
1F
100
AcDbEntity
  8
NOSNÉ KONSTRUKCE
100
AcDbLine
 10
-2096.423360475661
 20
144.0913796098056
 30
0.0
 11
-2092.82842940335
 21
141.1013503031267
 31
0.0
  0
LINE
  5
249B
330
1F
100
AcDbEntity
  8
NOSNÉ KONSTRUKCE
100
AcDbLine
 10
-2105.524910272998
 20
144.0913796098056
 30
0.0
 11
-2096.423360475661
 21
144.0913796098056
 31
0.0
  0
LINE
  5
249C
330
1F
100
AcDbEntity
  8
NOSNÉ KONSTRUKCE
100
AcDbLine
 10
-2096.423360475661
 20
148.4921355460273
 30
0.0
 11
-2092.82842940335
 21
151.4821648527063
 31
0.0
  0
LWPOLYLINE
  5
249D
330
1F
100
AcDbEntity
  8
NOSNÉ KONSTRUKCE
100
AcDbPolyline
 90
        3
 70
     0
 43
0.0
 10
-2082.567540908795
 20
110.9290869550832
 10
-2105.524910272998
 20
110.9290869550832
 10
-2105.524910272998
 20
144.0913796098056
  0
LINE
  5
249E
330
1F
100
AcDbEntity
  8
NOSNÉ KONSTRUKCE
100
AcDbLine
 10
-2094.460037687652
 20
163.6675228653416
 30
0.0
 11
-2094.460037687652
 21
158.7792741597018
 31
0.0
  0
LINE
  5
249F
330
1F
100
AcDbEntity
  8
NOSNÉ KONSTRUKCE
100
AcDbLine
 10
-2090.960037687652
 20
158.7792741597018
 30
0.0
 11
-2090.960037687652
 21
163.6675228653416
 31
0.0
  0
ARC
  5
24A0
330
1F
100
AcDbEntity
  8
NOSNÉ KONSTRUKCE
100
AcDbCircle
 10
-2092.710037687652
 20
158.7792741597018
 30
0.0
 40
1.75
100
AcDbArc
 50
180.0
 51
0.0
  0
LINE
  5
24A1
330
1F
100
AcDbEntity
  8
NOSNÉ KONSTRUKCE
100
AcDbLine
 10
-2091.397537687654
 20
122.6928028362995
 30
0.0
 11
-2091.397537687654
 21
122.6709902162679
 31
0.0
  0
LINE
  5
24A2
330
1F
100
AcDbEntity
  8
NOSNÉ KONSTRUKCE
100
AcDbLine
 10
-2094.022537687654
 20
122.6709902162701
 30
0.0
 11
-2094.022537687654
 21
122.6928028362995
 31
0.0
  0
ARC
  5
24A3
330
1F
100
AcDbEntity
  8
NOSNÉ KONSTRUKCE
100
AcDbCircle
 10
-2092.710037687654
 20
122.6928028362995
 30
0.0
 40
1.3125
100
AcDbArc
 50
0.0
 51
180.0
  0
LINE
  5
24A4
330
1F
100
AcDbEntity
  8
NOSNÉ KONSTRUKCE
100
AcDbLine
 10
-2088.585037687656
 20
119.9733349844054
 30
0.0
 11
-2096.835037687656
 21
119.9733349844068
 31
0.0
  0
LINE
  5
24A5
330
1F
100
AcDbEntity
  8
NOSNÉ KONSTRUKCE
100
AcDbLine
 10
-2090.960037687652
 20
133.8042409961312
 30
0.0
 11
-2090.960037687652
 21
128.9159922904914
 31
0.0
  0
LINE
  5
24A6
330
1F
100
AcDbEntity
  8
NOSNÉ KONSTRUKCE
100
AcDbLine
 10
-2094.460037687652
 20
128.9159922904914
 30
0.0
 11
-2094.460037687652
 21
133.8042409961312
 31
0.0
  0
ARC
  5
24A7
330
1F
100
AcDbEntity
  8
NOSNÉ KONSTRUKCE
100
AcDbCircle
 10
-2092.710037687652
 20
128.9159922904914
 30
0.0
 40
1.75
100
AcDbArc
 50
180.0
 51
0.0
  0
ARC
  5
24A8
330
1F
100
AcDbEntity
  8
NOSNÉ KONSTRUKCE
100
AcDbCircle
 10
-2092.710037687652
 20
133.8042409961312
 30
0.0
 40
1.75
100
AcDbArc
 50
0.0
 51
180.0
  0
LINE
  5
24A9
330
1F
100
AcDbEntity
  8
NOSNÉ KONSTRUKCE
100
AcDbLine
 10
-2092.710037687655
 20
124.0983349844054
 30
0.0
 11
-2092.710037687654
 21
115.8483349844054
 31
0.0
  0
CIRCLE
  5
24AA
330
1F
100
AcDbEntity
  8
NOSNÉ KONSTRUKCE
100
AcDbCircle
 10
-2092.710037687655
 20
119.9733349844054
 30
0.0
 40
3.0
  0
LINE
  5
24AB
330
1F
100
AcDbEntity
  8
NOSNÉ KONSTRUKCE
100
AcDbLine
 10
-2091.397537687654
 20
117.2756797525435
 30
0.0
 11
-2091.397537687654
 21
117.2538671325142
 31
0.0
  0
LINE
  5
24AC
330
1F
100
AcDbEntity
  8
NOSNÉ KONSTRUKCE
100
AcDbLine
 10
-2094.022537687654
 20
117.2538671325142
 30
0.0
 11
-2094.022537687654
 21
117.2756797525407
 31
0.0
  0
ARC
  5
24AD
330
1F
100
AcDbEntity
  8
NOSNÉ KONSTRUKCE
100
AcDbCircle
 10
-2092.710037687654
 20
117.2538671325142
 30
0.0
 40
1.3125
100
AcDbArc
 50
180.0
 51
0.0
  0
ARC
  5
24AE
330
1F
100
AcDbEntity
  8
NOSNÉ KONSTRUKCE
100
AcDbCircle
 10
-2092.710037687652
 20
163.6675228653416
 30
0.0
 40
1.75
100
AcDbArc
 50
0.0
 51
180.0
  0
ARC
  5
24AF
330
1F
100
AcDbEntity
  8
NOSNÉ KONSTRUKCE
100
AcDbCircle
 10
-2092.710037687654
 20
175.3296480233188
 30
0.0
 40
1.3125
100
AcDbArc
 50
0.0
 51
180.0
  0
LINE
  5
24B0
330
1F
100
AcDbEntity
  8
NOSNÉ KONSTRUKCE
100
AcDbLine
 10
-2094.022537687654
 20
175.3296480233188
 30
0.0
 11
-2094.022537687654
 21
175.3078354032923
 31
0.0
  0
LINE
  5
24B1
330
1F
100
AcDbEntity
  8
NOSNÉ KONSTRUKCE
100
AcDbLine
 10
-2091.397537687654
 20
175.3078354032895
 30
0.0
 11
-2091.397537687654
 21
175.3296480233188
 31
0.0
  0
LINE
  5
24B2
330
1F
100
AcDbEntity
  8
NOSNÉ KONSTRUKCE
100
AcDbLine
 10
-2088.585037687656
 20
172.6101801714276
 30
0.0
 11
-2096.835037687656
 21
172.6101801714262
 31
0.0
  0
ARC
  5
24B3
330
1F
100
AcDbEntity
  8
NOSNÉ KONSTRUKCE
100
AcDbCircle
 10
-2092.710037687654
 20
169.8907123195335
 30
0.0
 40
1.3125
100
AcDbArc
 50
180.0
 51
0.0
  0
LINE
  5
24B4
330
1F
100
AcDbEntity
  8
NOSNÉ KONSTRUKCE
100
AcDbLine
 10
-2094.022537687654
 20
169.9125249395629
 30
0.0
 11
-2094.022537687654
 21
169.8907123195335
 31
0.0
  0
LINE
  5
24B5
330
1F
100
AcDbEntity
  8
NOSNÉ KONSTRUKCE
100
AcDbLine
 10
-2091.397537687654
 20
169.8907123195335
 30
0.0
 11
-2091.397537687654
 21
169.9125249395651
 31
0.0
  0
CIRCLE
  5
24B6
330
1F
100
AcDbEntity
  8
NOSNÉ KONSTRUKCE
100
AcDbCircle
 10
-2092.710037687655
 20
172.6101801714276
 30
0.0
 40
3.0
  0
LINE
  5
24B7
330
1F
100
AcDbEntity
  8
NOSNÉ KONSTRUKCE
100
AcDbLine
 10
-2092.710037687655
 20
168.4851801714275
 30
0.0
 11
-2092.710037687654
 21
176.7351801714275
 31
0.0
  0
LINE
  5
24B8
330
1F
100
AcDbEntity
  8
NOSNÉ KONSTRUKCE
100
AcDbLine
 10
-2082.567540908795
 20
181.6544282007498
 30
0.0
 11
-2080.001969154394
 21
174.0599664710312
 31
0.0
  0
LINE
  5
24B9
330
1F
100
AcDbEntity
  8
NOSNÉ KONSTRUKCE
100
AcDbLine
 10
-2082.567540908795
 20
110.9290869550832
 30
0.0
 11
-2080.001969154394
 21
118.5235486848018
 31
0.0
  0
LWPOLYLINE
  5
24BA
330
1F
100
AcDbEntity
  8
NOSNÉ KONSTRUKCE
100
AcDbPolyline
 90
        2
 70
     0
 43
0.0
 10
-2080.001969154348
 20
141.1013503031267
 10
-2080.001969154348
 20
118.5235486848018
  0
LINE
  5
24BB
330
1F
100
AcDbEntity
  8
NOSNÉ KONSTRUKCE
100
AcDbLine
 10
-2080.001969154346
 20
151.4821648527063
 30
0.0
 11
-2080.001969154346
 21
171.6851212474516
 31
0.0
  0
LINE
  5
24BC
330
1F
100
AcDbEntity
  8
NOSNÉ KONSTRUKCE
100
AcDbLine
 10
-2080.001969154346
 20
151.4821648527063
 30
0.0
 11
-2080.001969154346
 21
171.6851212474516
 31
0.0
  0
LINE
  5
24BD
330
1F
100
AcDbEntity
  8
NOSNÉ KONSTRUKCE
100
AcDbLine
 10
-1983.501969154332
 20
166.3363957947767
 30
0.0
 11
-1983.50196915433
 21
126.3056913032046
 31
0.0
  0
LINE
  5
24BE
330
1F
100
AcDbEntity
  8
NOSNÉ KONSTRUKCE
100
AcDbLine
 10
-2080.001969154346
 20
-157.5468129489331
 30
0.0
 11
-2080.001969154346
 21
-137.3438565541532
 31
0.0
  0
LINE
  5
24BF
330
1F
100
AcDbEntity
  8
NOSNÉ KONSTRUKCE
100
AcDbLine
 10
-2080.001969154346
 20
-157.5468129489327
 30
0.0
 11
-2080.001969154346
 21
-137.3438565541532
 31
0.0
  0
LWPOLYLINE
  5
24C0
330
1F
100
AcDbEntity
  8
NOSNÉ KONSTRUKCE
100
AcDbPolyline
 90
        2
 70
     0
 43
0.0
 10
-2080.001969154348
 20
-167.9276274985127
 10
-2080.001969154348
 20
-190.505429116803
  0
LINE
  5
24C1
330
1F
100
AcDbEntity
  8
NOSNÉ KONSTRUKCE
100
AcDbLine
 10
-2066.501969154324
 20
151.4821648527063
 30
0.0
 11
-2066.501969154324
 21
157.9932384654152
 31
0.0
  0
LINE
  5
24C2
330
1F
100
AcDbEntity
  8
STAVBA OBRYS
  6
DASHED
100
AcDbLine
 10
-1895.429769528608
 20
-86.54530788606598
 30
0.0
 11
-2055.800100761234
 21
-86.54530788606416
 31
0.0
  0
LINE
  5
24C3
330
1F
100
AcDbEntity
  8
STAVBA OBRYS
  6
DASHDOT2
100
AcDbLine
 10
-2089.558345262907
 20
-79.98280788606507
 30
0.0
 11
-1876.781856196809
 21
-79.98280788606598
 31
0.0
  0
LINE
  5
24C4
330
1F
100
AcDbEntity
  8
STAVBA OBRYS
  6
DASHED
100
AcDbLine
 10
-1891.640908387052
 20
-79.98280788606598
 30
0.0
 11
-1895.429769528608
 21
-86.54530788606598
 31
0.0
  0
LINE
  5
24C5
330
1F
100
AcDbEntity
  8
STAVBA OBRYS
  6
DASHED
100
AcDbLine
 10
-1891.640908387052
 20
-79.98280788606598
 30
0.0
 11
-1895.429769528608
 21
-73.42030788606598
 31
0.0
  0
LINE
  5
24C6
330
1F
100
AcDbEntity
  8
STAVBA OBRYS
  6
DASHED
100
AcDbLine
 10
-1895.429769528608
 20
-73.42030788606598
 30
0.0
 11
-2055.800100761234
 21
-73.42030788606416
 31
0.0
  0
LWPOLYLINE
  5
24C7
330
1F
100
AcDbEntity
  8
STAVBA OBRYS
  6
DASHED
100
AcDbPolyline
 90
        4
 70
     1
 43
0.0
 10
-2061.173382086087
 20
-105.0425938955777
 10
-2055.800100761234
 20
-105.0425938955777
 10
-2055.800100761234
 20
-54.92302187655514
 10
-2061.173382086087
 20
-54.92302187655514
  0
LINE
  5
2523
330
1F
100
AcDbEntity
  8
PROFILY
100
AcDbLine
 10
-2117.335754938265
 20
-293.3884117588338
 30
0.0
 11
-2117.335754938265
 21
262.118389082756
 31
0.0
  0
LINE
  5
2524
330
1F
100
AcDbEntity
  8
PROFILY
  6
DASHED
370
    40
100
AcDbLine
 10
-2117.135754938265
 20
-293.3847788066085
 30
0.0
 11
-2117.135754938265
 21
262.118389082756
 31
0.0
  0
LINE
  5
2525
330
1F
100
AcDbEntity
  8
PROFILY
100
AcDbLine
 10
-2116.935754938265
 20
-293.3811458543832
 30
0.0
 11
-2116.935754938265
 21
262.118389082756
 31
0.0
  0
TEXT
  5
2526
330
1F
100
AcDbEntity
  8
POPIS
100
AcDbText
 10
-2266.152913013264
 20
-856.7641260970777
 30
0.0
 40
25.0
  1
Podkladní EPDM páska tl.1 mm
 41
0.7
  7
SIMPLEX7
100
AcDbText
  0
TEXT
  5
2527
330
1F
100
AcDbEntity
  8
POPIS
100
AcDbText
 10
-2320.496616173007
 20
-856.7641260970777
 30
0.0
 40
25.0
  1
09
 41
0.85
  7
SIMPLEX7
100
AcDbText
  0
LINE
  5
2528
330
1F
100
AcDbEntity
  8
POPIS
100
AcDbLine
 10
-2184.740987232126
 20
-239.7313249765106
 30
0.0
 11
-2184.740987232126
 21
-304.1256097230075
 31
0.0
  0
LINE
  5
2529
330
1F
100
AcDbEntity
  8
POPIS
100
AcDbLine
 10
-2153.757977376223
 20
-249.0225410593802
 30
0.0
 11
-2197.240987232127
 21
-249.0225410593802
 31
0.0
  0
LINE
  5
252A
330
1F
100
AcDbEntity
  8
POPIS
100
AcDbLine
 10
-2155.946919609225
 20
-299.9854083944214
 30
0.0
 11
-2197.240987232127
 21
-299.9854083944214
 31
0.0
  0
INSERT
  5
252B
330
1F
100
AcDbEntity
  8
POPIS
100
AcDbBlockReference
  2
_ArchTick
 10
-2184.740987232126
 20
-299.9854083944214
 30
0.0
 41
15.0
 42
15.0
 43
15.0
 50
270.0
  0
TEXT
  5
252C
330
1F
100
AcDbEntity
  8
POPIS
100
AcDbText
 10
-2190.350897624419
 20
-283.9047891651521
 30
0.0
 40
25.0
  1
70
 50
90.0
 41
0.7
  7
SIMPLEX7
100
AcDbText
  0
INSERT
  5
252D
330
1F
100
AcDbEntity
  8
POPIS
100
AcDbBlockReference
  2
_ArchTick
 10
-2184.740987232126
 20
-249.0225410593802
 30
0.0
 41
15.0
 42
15.0
 43
15.0
 50
90.0
  0
LINE
  5
252E
330
1F
100
AcDbEntity
  8
POPIS
100
AcDbLine
 10
-2284.936593879518
 20
81.26617046876345
 30
0.0
 11
-2117.135754938265
 21
81.26617046876162
 31
0.0
  0
TEXT
  5
252F
330
1F
100
AcDbEntity
  8
POPIS
100
AcDbText
 10
-2321.831108510195
 20
67.82282901939288
 30
0.0
 40
25.0
  1
09
 41
0.7
  7
SIMPLEX7
100
AcDbText
  0
INSERT
  5
2530
330
1F
100
AcDbEntity
  8
POPIS
100
AcDbBlockReference
  2
E_PUNKT
 10
-2117.075438276121
 20
81.68691353497434
 30
0.0
  0
LINE
  5
2531
330
1F
100
AcDbEntity
  8
NOSNÉ KONSTRUKCE
100
AcDbLine
 10
-2116.409427616904
 20
87.68809119933962
 30
0.0
 11
-2114.6594340906
 21
106.9275016171525
 31
0.0
  0
ENDSEC
  0
SECTION
  2
OBJECTS
  0
DICTIONARY
  5
C
330
0
100
AcDbDictionary
281
     1
  3
ACAD_GROUP
350
D
  3
ACAD_LAYOUT
350
1A
  3
ACAD_MLINESTYLE
350
17
  3
ACAD_PLOTSETTINGS
350
19
  3
ACAD_PLOTSTYLENAME
350
E
  3
AcDbVariableDictionary
350
2534
  0
DICTIONARY
  5
24C9
330
1F
100
AcDbDictionary
280
     1
281
     1
  3
ACAD_LAYOUTSELFREF
360
2503
  0
DICTIONARY
  5
24CB
330
1B
100
AcDbDictionary
280
     1
281
     1
  3
ACAD_LAYOUTSELFREF
360
2502
  0
DICTIONARY
  5
24CD
330
23
100
AcDbDictionary
280
     1
281
     1
  3
ACAD_LAYOUTSELFREF
360
2504
  0
DICTIONARY
  5
D
102
{ACAD_REACTORS
330
C
102
}
330
C
100
AcDbDictionary
281
     1
  0
DICTIONARY
  5
1A
102
{ACAD_REACTORS
330
C
102
}
330
C
100
AcDbDictionary
281
     1
  3
Model
350
22
  3
Rozvržení1
350
1E
  3
Rozvržení2
350
26
  0
DICTIONARY
  5
17
102
{ACAD_REACTORS
330
C
102
}
330
C
100
AcDbDictionary
281
     1
  3
Standard
350
18
  0
DICTIONARY
  5
19
102
{ACAD_REACTORS
330
C
102
}
330
C
100
AcDbDictionary
281
     1
  0
ACDBDICTIONARYWDFLT
  5
E
102
{ACAD_REACTORS
330
C
102
}
330
C
100
AcDbDictionary
281
     1
  3
Normal
350
F
100
AcDbDictionaryWithDefault
340
F
  0
DICTIONARY
  5
2534
102
{ACAD_REACTORS
330
C
102
}
330
C
100
AcDbDictionary
281
     1
  3
DIMASSOC
350
2535
  0
XRECORD
  5
2503
102
{ACAD_REACTORS
330
24C9
102
}
330
24C9
100
AcDbXrecord
280
     1
340
1F
  0
XRECORD
  5
2502
102
{ACAD_REACTORS
330
24CB
102
}
330
24CB
100
AcDbXrecord
280
     1
340
1B
  0
XRECORD
  5
2504
102
{ACAD_REACTORS
330
24CD
102
}
330
24CD
100
AcDbXrecord
280
     1
340
23
  0
LAYOUT
  5
22
102
{ACAD_REACTORS
330
1A
102
}
330
1A
100
AcDbPlotSettings
  1

  2
HP DeskJet 690C
  4

  6

 40
0.0
 41
0.0
 42
0.0
 43
0.0
 44
0.0
 45
0.0
 46
0.0
 47
0.0
 48
0.0
 49
0.0
140
0.0
141
0.0
142
1.0
143
1.0
 70
  1712
 72
     0
 73
     0
 74
     0
  7
monochrome.ctb
 75
     0
147
1.0
148
0.0
149
0.0
100
AcDbLayout
  1
Model
 70
     1
 71
     0
 10
0.0
 20
0.0
 11
12.0
 21
9.0
 12
0.0
 22
0.0
 32
0.0
 14
0.0
 24
0.0
 34
0.0
 15
0.0
 25
0.0
 35
0.0
146
0.0
 13
0.0
 23
0.0
 33
0.0
 16
1.0
 26
0.0
 36
0.0
 17
0.0
 27
1.0
 37
0.0
 76
     0
330
1F
  0
LAYOUT
  5
1E
102
{ACAD_REACTORS
330
1A
102
}
330
1A
100
AcDbPlotSettings
  1

  2
HP DeskJet 690C
  4

  6

 40
0.0
 41
0.0
 42
0.0
 43
0.0
 44
0.0
 45
0.0
 46
0.0
 47
0.0
 48
0.0
 49
0.0
140
0.0
141
0.0
142
1.0
143
1.0
 70
   688
 72
     0
 73
     0
 74
     5
  7
monochrome.ctb
 75
    16
147
1.0
148
0.0
149
0.0
100
AcDbLayout
  1
Rozvržení1
 70
     1
 71
     1
 10
0.0
 20
0.0
 11
420.0
 21
297.0
 12
0.0
 22
0.0
 32
0.0
 14
1.000000000000000E+20
 24
1.000000000000000E+20
 34
1.000000000000000E+20
 15
-1.000000000000000E+20
 25
-1.000000000000000E+20
 35
-1.000000000000000E+20
146
0.0
 13
0.0
 23
0.0
 33
0.0
 16
1.0
 26
0.0
 36
0.0
 17
0.0
 27
1.0
 37
0.0
 76
     0
330
1B
  0
LAYOUT
  5
26
102
{ACAD_REACTORS
330
1A
102
}
330
1A
100
AcDbPlotSettings
  1

  2
HP DeskJet 690C
  4

  6

 40
0.0
 41
0.0
 42
0.0
 43
0.0
 44
0.0
 45
0.0
 46
0.0
 47
0.0
 48
0.0
 49
0.0
140
0.0
141
0.0
142
1.0
143
1.0
 70
   688
 72
     0
 73
     0
 74
     5
  7
monochrome.ctb
 75
    16
147
1.0
148
0.0
149
0.0
100
AcDbLayout
  1
Rozvržení2
 70
     1
 71
     2
 10
0.0
 20
0.0
 11
12.0
 21
9.0
 12
0.0
 22
0.0
 32
0.0
 14
0.0
 24
0.0
 34
0.0
 15
0.0
 25
0.0
 35
0.0
146
0.0
 13
0.0
 23
0.0
 33
0.0
 16
1.0
 26
0.0
 36
0.0
 17
0.0
 27
1.0
 37
0.0
 76
     0
330
23
  0
MLINESTYLE
  5
18
102
{ACAD_REACTORS
330
17
102
}
330
17
100
AcDbMlineStyle
  2
STANDARD
 70
     0
  3

 62
   256
 51
90.0
 52
90.0
 71
     2
 49
0.5
 62
   256
  6
BYLAYER
 49
-0.5
 62
   256
  6
BYLAYER
  0
ACDBPLACEHOLDER
  5
F
102
{ACAD_REACTORS
330
E
102
}
330
E
  0
DICTIONARYVAR
  5
2535
102
{ACAD_REACTORS
330
2534
102
}
330
2534
100
DictionaryVariables
280
     0
  1
1
  0
ENDSEC
  0
EOF
