  0
SECTION
  2
HEADER
  9
$ACADVER
  1
AC1015
  9
$ACADMAINTVER
 70
    14
  9
$DWGCODEPAGE
  3
ANSI_1250
  9
$INSBASE
 10
0.0
 20
0.0
 30
0.0
  9
$EXTMIN
 10
-2445.639877768859
 20
-840.9458102823927
 30
-0.0000000349181948
  9
$EXTMAX
 10
-1581.13344035978
 20
490.3354825160199
 30
0.0000000814935746
  9
$LIMMIN
 10
0.0
 20
0.0
  9
$LIMMAX
 10
420.0
 20
297.0
  9
$ORTHOMODE
 70
     1
  9
$REGENMODE
 70
     1
  9
$FILLMODE
 70
     1
  9
$QTEXTMODE
 70
     0
  9
$MIRRTEXT
 70
     1
  9
$LTSCALE
 40
1.0
  9
$ATTMODE
 70
     1
  9
$TEXTSIZE
 40
2.5
  9
$TRACEWID
 40
1.0
  9
$TEXTSTYLE
  7
Standard
  9
$CLAYER
  8
0
  9
$CELTYPE
  6
ByLayer
  9
$CECOLOR
 62
   256
  9
$CELTSCALE
 40
1.0
  9
$DISPSILH
 70
     0
  9
$DIMSCALE
 40
1.0
  9
$DIMASZ
 40
2.5
  9
$DIMEXO
 40
0.625
  9
$DIMDLI
 40
3.75
  9
$DIMRND
 40
0.0
  9
$DIMDLE
 40
0.0
  9
$DIMEXE
 40
1.25
  9
$DIMTP
 40
0.0
  9
$DIMTM
 40
0.0
  9
$DIMTXT
 40
2.5
  9
$DIMCEN
 40
2.5
  9
$DIMTSZ
 40
0.0
  9
$DIMTOL
 70
     0
  9
$DIMLIM
 70
     0
  9
$DIMTIH
 70
     0
  9
$DIMTOH
 70
     0
  9
$DIMSE1
 70
     0
  9
$DIMSE2
 70
     0
  9
$DIMTAD
 70
     1
  9
$DIMZIN
 70
     8
  9
$DIMBLK
  1

  9
$DIMASO
 70
     1
  9
$DIMSHO
 70
     1
  9
$DIMPOST
  1

  9
$DIMAPOST
  1

  9
$DIMALT
 70
     0
  9
$DIMALTD
 70
     3
  9
$DIMALTF
 40
0.03937007874016
  9
$DIMLFAC
 40
1.0
  9
$DIMTOFL
 70
     1
  9
$DIMTVP
 40
0.0
  9
$DIMTIX
 70
     0
  9
$DIMSOXD
 70
     0
  9
$DIMSAH
 70
     0
  9
$DIMBLK1
  1

  9
$DIMBLK2
  1

  9
$DIMSTYLE
  2
ISO-25
  9
$DIMCLRD
 70
     0
  9
$DIMCLRE
 70
     0
  9
$DIMCLRT
 70
     0
  9
$DIMTFAC
 40
1.0
  9
$DIMGAP
 40
0.625
  9
$DIMJUST
 70
     0
  9
$DIMSD1
 70
     0
  9
$DIMSD2
 70
     0
  9
$DIMTOLJ
 70
     0
  9
$DIMTZIN
 70
     8
  9
$DIMALTZ
 70
     0
  9
$DIMALTTZ
 70
     0
  9
$DIMUPT
 70
     0
  9
$DIMDEC
 70
     2
  9
$DIMTDEC
 70
     2
  9
$DIMALTU
 70
     2
  9
$DIMALTTD
 70
     3
  9
$DIMTXSTY
  7
Standard
  9
$DIMAUNIT
 70
     0
  9
$DIMADEC
 70
     0
  9
$DIMALTRND
 40
0.0
  9
$DIMAZIN
 70
     0
  9
$DIMDSEP
 70
    44
  9
$DIMATFIT
 70
     3
  9
$DIMFRAC
 70
     0
  9
$DIMLDRBLK
  1

  9
$DIMLUNIT
 70
     2
  9
$DIMLWD
 70
    -2
  9
$DIMLWE
 70
    -2
  9
$DIMTMOVE
 70
     0
  9
$LUNITS
 70
     2
  9
$LUPREC
 70
     4
  9
$SKETCHINC
 40
1.0
  9
$FILLETRAD
 40
10.0
  9
$AUNITS
 70
     0
  9
$AUPREC
 70
     0
  9
$MENU
  1
.
  9
$ELEVATION
 40
0.0
  9
$PELEVATION
 40
0.0
  9
$THICKNESS
 40
0.0
  9
$LIMCHECK
 70
     0
  9
$CHAMFERA
 40
10.0
  9
$CHAMFERB
 40
10.0
  9
$CHAMFERC
 40
20.0
  9
$CHAMFERD
 40
0.0
  9
$SKPOLY
 70
     0
  9
$TDCREATE
 40
2452339.371895717
  9
$TDUCREATE
 40
2452339.330229051
  9
$TDUPDATE
 40
2455610.274719641
  9
$TDUUPDATE
 40
2455610.233052974
  9
$TDINDWG
 40
0.0248562731
  9
$TDUSRTIMER
 40
0.0248562731
  9
$USRTIMER
 70
     1
  9
$ANGBASE
 50
0.0
  9
$ANGDIR
 70
     0
  9
$PDMODE
 70
     0
  9
$PDSIZE
 40
0.0
  9
$PLINEWID
 40
0.0
  9
$SPLFRAME
 70
     0
  9
$SPLINETYPE
 70
     6
  9
$SPLINESEGS
 70
     8
  9
$HANDSEED
  5
20F2
  9
$SURFTAB1
 70
     6
  9
$SURFTAB2
 70
     6
  9
$SURFTYPE
 70
     6
  9
$SURFU
 70
     6
  9
$SURFV
 70
     6
  9
$UCSBASE
  2

  9
$UCSNAME
  2

  9
$UCSORG
 10
0.0
 20
0.0
 30
0.0
  9
$UCSXDIR
 10
1.0
 20
0.0
 30
0.0
  9
$UCSYDIR
 10
0.0
 20
1.0
 30
0.0
  9
$UCSORTHOREF
  2

  9
$UCSORTHOVIEW
 70
     0
  9
$UCSORGTOP
 10
0.0
 20
0.0
 30
0.0
  9
$UCSORGBOTTOM
 10
0.0
 20
0.0
 30
0.0
  9
$UCSORGLEFT
 10
0.0
 20
0.0
 30
0.0
  9
$UCSORGRIGHT
 10
0.0
 20
0.0
 30
0.0
  9
$UCSORGFRONT
 10
0.0
 20
0.0
 30
0.0
  9
$UCSORGBACK
 10
0.0
 20
0.0
 30
0.0
  9
$PUCSBASE
  2

  9
$PUCSNAME
  2

  9
$PUCSORG
 10
0.0
 20
0.0
 30
0.0
  9
$PUCSXDIR
 10
1.0
 20
0.0
 30
0.0
  9
$PUCSYDIR
 10
0.0
 20
1.0
 30
0.0
  9
$PUCSORTHOREF
  2

  9
$PUCSORTHOVIEW
 70
     0
  9
$PUCSORGTOP
 10
0.0
 20
0.0
 30
0.0
  9
$PUCSORGBOTTOM
 10
0.0
 20
0.0
 30
0.0
  9
$PUCSORGLEFT
 10
0.0
 20
0.0
 30
0.0
  9
$PUCSORGRIGHT
 10
0.0
 20
0.0
 30
0.0
  9
$PUCSORGFRONT
 10
0.0
 20
0.0
 30
0.0
  9
$PUCSORGBACK
 10
0.0
 20
0.0
 30
0.0
  9
$USERI1
 70
     0
  9
$USERI2
 70
     0
  9
$USERI3
 70
     0
  9
$USERI4
 70
     0
  9
$USERI5
 70
     0
  9
$USERR1
 40
0.0
  9
$USERR2
 40
0.0
  9
$USERR3
 40
0.0
  9
$USERR4
 40
0.0
  9
$USERR5
 40
0.0
  9
$WORLDVIEW
 70
     1
  9
$SHADEDGE
 70
     3
  9
$SHADEDIF
 70
    70
  9
$TILEMODE
 70
     1
  9
$MAXACTVP
 70
    48
  9
$PINSBASE
 10
0.0
 20
0.0
 30
0.0
  9
$PLIMCHECK
 70
     0
  9
$PEXTMIN
 10
1.000000000000000E+20
 20
1.000000000000000E+20
 30
1.000000000000000E+20
  9
$PEXTMAX
 10
-1.000000000000000E+20
 20
-1.000000000000000E+20
 30
-1.000000000000000E+20
  9
$PLIMMIN
 10
0.0
 20
0.0
  9
$PLIMMAX
 10
420.0
 20
297.0
  9
$UNITMODE
 70
     0
  9
$VISRETAIN
 70
     1
  9
$PLINEGEN
 70
     0
  9
$PSLTSCALE
 70
     1
  9
$TREEDEPTH
 70
  3020
  9
$CMLSTYLE
  2
Standard
  9
$CMLJUST
 70
     0
  9
$CMLSCALE
 40
20.0
  9
$PROXYGRAPHICS
 70
     1
  9
$MEASUREMENT
 70
     1
  9
$CELWEIGHT
370
    -1
  9
$ENDCAPS
280
     0
  9
$JOINSTYLE
280
     0
  9
$LWDISPLAY
290
     0
  9
$INSUNITS
 70
     4
  9
$HYPERLINKBASE
  1

  9
$STYLESHEET
  1

  9
$XEDIT
290
     1
  9
$CEPSNTYPE
380
     0
  9
$PSTYLEMODE
290
     1
  9
$FINGERPRINTGUID
  2
{9FA890EF-883C-4FD4-884F-6B075534EB0B}
  9
$VERSIONGUID
  2
{08608ECB-9FDB-4150-BDFF-87E576FC065C}
  9
$EXTNAMES
290
     1
  9
$PSVPSCALE
 40
0.0
  9
$OLESTARTUP
290
     0
  0
ENDSEC
  0
SECTION
  2
CLASSES
  0
CLASS
  1
ACDBDICTIONARYWDFLT
  2
AcDbDictionaryWithDefault
  3
AutoCAD 2000
 90
        0
280
     0
281
     0
  0
CLASS
  1
ACDBPLACEHOLDER
  2
AcDbPlaceHolder
  3
AutoCAD 2000
 90
        0
280
     0
281
     0
  0
CLASS
  1
LAYOUT
  2
AcDbLayout
  3
AutoCAD 2000
 90
        0
280
     0
281
     0
  0
CLASS
  1
LONG_TRANSACTION
  2
AcDbLongTransaction
  3
AutoCAD 2000
 90
    32768
280
     0
281
     0
  0
CLASS
  1
LWPOLYLINE
  2
AcDbPolyline
  3
AutoCAD 2000
 90
    32768
280
     0
281
     1
  0
CLASS
  1
HATCH
  2
AcDbHatch
  3
AutoCAD 2000
 90
    32768
280
     0
281
     1
  0
CLASS
  1
XRECORD
  2
AcDbXrecord
  3
AutoCAD 2000
 90
    32768
280
     0
281
     0
  0
CLASS
  1
DICTIONARYVAR
  2
AcDbDictionaryVar
  3
AutoCAD 2000
 90
        0
280
     0
281
     0
  0
ENDSEC
  0
SECTION
  2
TABLES
  0
TABLE
  2
VPORT
  5
8
330
0
100
AcDbSymbolTable
 70
     2
  0
VPORT
  5
20F1
330
8
100
AcDbSymbolTableRecord
100
AcDbViewportTableRecord
  2
*Active
 70
     0
 10
0.0
 20
0.0
 11
1.0
 21
1.0
 12
-2013.386659064319
 22
-175.3051638831864
 13
0.0
 23
0.0
 14
10.0
 24
10.0
 15
10.0
 25
10.0
 16
0.0
 26
0.0
 36
1.0
 17
0.0
 27
0.0
 37
0.0
 40
1341.058144397911
 41
2.031862745098039
 42
50.0
 43
0.0
 44
0.0
 50
0.0
 51
0.0
 71
     0
 72
   100
 73
     1
 74
     3
 75
     0
 76
     0
 77
     0
 78
     0
281
     0
 65
     1
110
0.0
120
0.0
130
0.0
111
1.0
121
0.0
131
0.0
112
0.0
122
1.0
132
0.0
 79
     0
146
0.0
  0
ENDTAB
  0
TABLE
  2
LTYPE
  5
5
330
0
100
AcDbSymbolTable
 70
     4
  0
LTYPE
  5
14
330
5
100
AcDbSymbolTableRecord
100
AcDbLinetypeTableRecord
  2
ByBlock
 70
     0
  3

 72
    65
 73
     0
 40
0.0
  0
LTYPE
  5
15
330
5
100
AcDbSymbolTableRecord
100
AcDbLinetypeTableRecord
  2
ByLayer
 70
     0
  3

 72
    65
 73
     0
 40
0.0
  0
LTYPE
  5
16
330
5
100
AcDbSymbolTableRecord
100
AcDbLinetypeTableRecord
  2
Continuous
 70
     0
  3
Solid line
 72
    65
 73
     0
 40
0.0
  0
LTYPE
  5
33
330
5
100
AcDbSymbolTableRecord
100
AcDbLinetypeTableRecord
  2
IZOLACE
 70
     0
  3
Izolace SSSSSSSSSSSSSSSSSSSSSSSSSSSSSSSSSSSSSSS
 72
    65
 73
     4
 40
10.16253999999999
 49
0.00254
 74
     0
 49
-2.54
 74
     4
 75
   134
340
3D
 46
2.54
 50
0.0
 44
-2.54
 45
0.0
 49
-5.08
 74
     4
 75
   134
340
3D
 46
2.54
 50
180.0
 44
2.54
 45
0.0
 49
-2.54
 74
     0
  0
LTYPE
  5
34
330
5
100
AcDbSymbolTableRecord
100
AcDbLinetypeTableRecord
  2
DASHED
 70
     0
  3
Dashed __ __ __ __ __ __ __ __ __ __ __ __ __ _
 72
    65
 73
     2
 40
19.04999999999999
 49
12.7
 74
     0
 49
-6.349999999999999
 74
     0
  0
LTYPE
  5
35
330
5
100
AcDbSymbolTableRecord
100
AcDbLinetypeTableRecord
  2
DASHDOT2
 70
     0
  3
Dash dot (.5x) _._._._._._._._._._._._._._._.
 72
    65
 73
     4
 40
12.7
 49
6.349999999999999
 74
     0
 49
-3.174999999999999
 74
     0
 49
0.0
 74
     0
 49
-3.174999999999999
 74
     0
  0
ENDTAB
  0
TABLE
  2
LAYER
  5
2
330
0
100
AcDbSymbolTable
 70
     7
  0
LAYER
  5
10
330
2
100
AcDbSymbolTableRecord
100
AcDbLayerTableRecord
  2
0
 70
     0
 62
     7
  6
Continuous
370
    -3
390
F
  0
LAYER
  5
36
330
2
100
AcDbSymbolTableRecord
100
AcDbLayerTableRecord
  2
POPIS
 70
     0
 62
    30
  6
Continuous
370
    -3
390
F
  0
LAYER
  5
37
330
2
100
AcDbSymbolTableRecord
100
AcDbLayerTableRecord
  2
SPOJOVACÍ
 70
     0
 62
   180
  6
Continuous
370
    -3
390
F
  0
LAYER
  5
38
330
2
100
AcDbSymbolTableRecord
100
AcDbLayerTableRecord
  2
CETRIS
 70
     0
 62
     1
  6
Continuous
370
    -3
390
F
  0
LAYER
  5
39
330
2
100
AcDbSymbolTableRecord
100
AcDbLayerTableRecord
  2
NOSNÉ KONSTRUKCE
 70
     0
 62
    33
  6
Continuous
370
    -3
390
F
  0
LAYER
  5
3A
330
2
100
AcDbSymbolTableRecord
100
AcDbLayerTableRecord
  2
PROFILY
 70
     0
 62
    73
  6
Continuous
370
    -3
390
F
  0
LAYER
  5
3B
330
2
100
AcDbSymbolTableRecord
100
AcDbLayerTableRecord
  2
STAVBA OBRYS
 70
     0
 62
     6
  6
Continuous
370
    -3
390
F
  0
ENDTAB
  0
TABLE
  2
STYLE
  5
3
330
0
100
AcDbSymbolTable
 70
     3
  0
STYLE
  5
11
330
3
100
AcDbSymbolTableRecord
100
AcDbTextStyleTableRecord
  2
Standard
 70
     0
 40
0.0
 41
1.0
 50
0.0
 71
     0
 42
2.5
  3
txt
  4

  0
STYLE
  5
3C
330
3
100
AcDbSymbolTableRecord
100
AcDbTextStyleTableRecord
  2
SIMPLEX7
 70
     0
 40
0.0
 41
0.85
 50
0.0
 71
     0
 42
102.0
  3
ARIAL.TTF
  4

1001
ACAD
1000
Arial CE
1071
    60962
  0
STYLE
  5
3D
330
3
100
AcDbSymbolTableRecord
100
AcDbTextStyleTableRecord
  2

 70
     1
 40
0.0
 41
1.0
 50
0.0
 71
     0
 42
2.5
  3
ltypeshp.shx
  4

  0
ENDTAB
  0
TABLE
  2
VIEW
  5
6
330
0
100
AcDbSymbolTable
 70
     0
  0
ENDTAB
  0
TABLE
  2
UCS
  5
7
330
0
100
AcDbSymbolTable
 70
     0
  0
ENDTAB
  0
TABLE
  2
APPID
  5
9
330
0
100
AcDbSymbolTable
 70
     1
  0
APPID
  5
12
330
9
100
AcDbSymbolTableRecord
100
AcDbRegAppTableRecord
  2
ACAD
 70
     0
  0
ENDTAB
  0
TABLE
  2
DIMSTYLE
  5
A
330
0
100
AcDbSymbolTable
 70
     1
100
AcDbDimStyleTable
 71
     0
  0
DIMSTYLE
105
27
330
A
100
AcDbSymbolTableRecord
100
AcDbDimStyleTableRecord
  2
ISO-25
 70
     0
 41
2.5
 42
0.625
 43
3.75
 44
1.25
 73
     0
 74
     0
 77
     1
 78
     8
140
2.5
141
2.5
143
0.03937007874016
147
0.625
171
     3
172
     1
271
     2
272
     2
274
     3
278
    44
283
     0
284
     8
340
11
  0
ENDTAB
  0
TABLE
  2
BLOCK_RECORD
  5
1
330
0
100
AcDbSymbolTable
 70
     3
  0
BLOCK_RECORD
  5
1F
102
{ACAD_XDICTIONARY
360
2084
102
}
330
1
100
AcDbSymbolTableRecord
100
AcDbBlockTableRecord
  2
*Model_Space
340
22
  0
BLOCK_RECORD
  5
1B
102
{ACAD_XDICTIONARY
360
2086
102
}
330
1
100
AcDbSymbolTableRecord
100
AcDbBlockTableRecord
  2
*Paper_Space
340
1E
  0
BLOCK_RECORD
  5
23
102
{ACAD_XDICTIONARY
360
2088
102
}
330
1
100
AcDbSymbolTableRecord
100
AcDbBlockTableRecord
  2
*Paper_Space0
340
26
  0
BLOCK_RECORD
  5
2B
330
1
100
AcDbSymbolTableRecord
100
AcDbBlockTableRecord
  2
E_PUNKT
340
0
102
{BLKREFS
331
1EF4
331
2012
331
2013
331
201A
331
201D
331
205C
331
205E
331
2060
331
20E8
102
}
  0
BLOCK_RECORD
  5
20C7
330
1
100
AcDbSymbolTableRecord
100
AcDbBlockTableRecord
  2
_ArchTick
340
0
102
{BLKREFS
331
20DB
331
20DC
102
}
  0
ENDTAB
  0
ENDSEC
  0
SECTION
  2
BLOCKS
  0
BLOCK
  5
20
330
1F
100
AcDbEntity
  8
0
100
AcDbBlockBegin
  2
*Model_Space
 70
     0
 10
0.0
 20
0.0
 30
0.0
  3
*Model_Space
  1

  0
ENDBLK
  5
21
330
1F
100
AcDbEntity
  8
0
100
AcDbBlockEnd
  0
BLOCK
  5
1C
330
1B
100
AcDbEntity
 67
     1
  8
0
100
AcDbBlockBegin
  2
*Paper_Space
 70
     0
 10
0.0
 20
0.0
 30
0.0
  3
*Paper_Space
  1

  0
ENDBLK
  5
1D
330
1B
100
AcDbEntity
 67
     1
  8
0
100
AcDbBlockEnd
  0
BLOCK
  5
24
330
23
100
AcDbEntity
  8
0
100
AcDbBlockBegin
  2
*Paper_Space0
 70
     0
 10
0.0
 20
0.0
 30
0.0
  3
*Paper_Space0
  1

  0
ENDBLK
  5
25
330
23
100
AcDbEntity
  8
0
100
AcDbBlockEnd
  0
BLOCK
  5
2D
330
2B
100
AcDbEntity
  8
0
100
AcDbBlockBegin
  2
E_PUNKT
 70
     0
 10
0.0
 20
0.0
 30
0.0
  3
E_PUNKT
  1

  0
LWPOLYLINE
  5
2C
330
2B
100
AcDbEntity
  8
POPIS
100
AcDbPolyline
 90
        2
 70
     1
 43
2.5
 10
1.27761037562675
 20
0.0290683308725193
 42
-1.0
 10
-1.222389624373249
 20
0.0290683308725193
 42
-1.0
  0
ENDBLK
  5
2E
330
2B
100
AcDbEntity
  8
0
100
AcDbBlockEnd
  0
BLOCK
  5
20C9
330
20C7
100
AcDbEntity
  8
0
100
AcDbBlockBegin
  2
_ArchTick
 70
     0
 10
0.0
 20
0.0
 30
0.0
  3
_ArchTick
  1

  0
LWPOLYLINE
  5
20C8
330
20C7
100
AcDbEntity
  8
0
  6
ByBlock
 62
     0
100
AcDbPolyline
 90
        2
 70
     0
 43
0.15
 10
-0.5
 20
-0.5
 10
0.5
 20
0.5
  0
ENDBLK
  5
20CA
330
20C7
100
AcDbEntity
  8
0
100
AcDbBlockEnd
  0
ENDSEC
  0
SECTION
  2
ENTITIES
  0
LINE
  5
1EBA
330
1F
100
AcDbEntity
  8
PROFILY
100
AcDbLine
 10
-2193.364571455167
 20
164.2299803944638
 30
0.0
 11
-2193.364571455171
 21
106.4394869424036
 31
0.0
  0
LINE
  5
1EBB
330
1F
100
AcDbEntity
  8
PROFILY
100
AcDbLine
 10
-2193.364571455171
 20
132.4167558374924
 30
0.0
 11
-2208.00595885672
 21
132.4167558374924
 31
0.0
  0
LINE
  5
1EBC
330
1F
100
AcDbEntity
  8
PROFILY
100
AcDbLine
 10
-2191.864571455171
 20
164.2299803944638
 30
0.0
 11
-2191.864571455174
 21
106.4394869424027
 31
0.0
  0
LINE
  5
1EBD
330
1F
100
AcDbEntity
  8
PROFILY
100
AcDbLine
 10
-2191.864571455171
 20
130.9167558374933
 30
0.0
 11
-2206.50595885672
 21
130.9167558374933
 31
0.0
  0
LINE
  5
1EBE
330
1F
100
AcDbEntity
  8
PROFILY
100
AcDbLine
 10
-2208.00595885672
 20
132.4167558374924
 30
0.0
 11
-2208.005958856727
 21
106.4394869424027
 31
0.0
  0
LINE
  5
1EBF
330
1F
100
AcDbEntity
  8
PROFILY
100
AcDbLine
 10
-2206.50595885672
 20
130.9167558374933
 30
0.0
 11
-2206.505958856723
 21
106.4394869424027
 31
0.0
  0
LINE
  5
1EC0
330
1F
100
AcDbEntity
  8
PROFILY
100
AcDbLine
 10
-2208.005958856727
 20
106.4394869424027
 30
0.0
 11
-2206.505958856727
 21
106.4394869424027
 31
0.0
  0
LINE
  5
1EC1
330
1F
100
AcDbEntity
  8
PROFILY
100
AcDbLine
 10
-2193.364571455167
 20
164.2299803944638
 30
0.0
 11
-2191.864571455167
 21
164.2299803944638
 31
0.0
  0
LINE
  5
1EC2
330
1F
100
AcDbEntity
  8
PROFILY
100
AcDbLine
 10
-2193.364571455171
 20
106.4394869424027
 30
0.0
 11
-2191.864571455174
 21
106.4394869424017
 31
0.0
  0
HATCH
  5
1EC3
330
1F
100
AcDbEntity
  8
PROFILY
100
AcDbHatch
 10
0.0
 20
0.0
 30
0.0
210
0.0
220
0.0
230
1.0
  2
SOLID
 70
     1
 71
     0
 91
        3
 92
        7
 72
     0
 73
     1
 93
        4
 10
-2193.364571455175
 20
130.9167558374942
 10
-2191.864571455167
 20
130.9167558374942
 10
-2191.864571455174
 20
164.2299803944638
 10
-2193.364571455167
 20
164.2299803944638
 97
        0
 92
        7
 72
     0
 73
     1
 93
        4
 10
-2193.364571455171
 20
106.4394869424027
 10
-2191.864571455174
 20
106.4394869424017
 10
-2191.864571455171
 20
130.9167558374933
 10
-2193.364571455167
 20
130.9167558374933
 97
        0
 92
        7
 72
     0
 73
     1
 93
        6
 10
-2208.00595885672
 20
132.4167558374915
 10
-2208.005958856727
 20
106.4394869424027
 10
-2206.505958856723
 20
106.4394869424027
 10
-2206.50595885672
 20
130.9167558374933
 10
-2193.364571455167
 20
130.9167558374933
 10
-2193.364571455167
 20
132.4167558374924
 97
        0
 75
     0
 76
     1
 47
0.2329819976771042
 98
        3
 10
-2193.019311161046
 20
136.1600320899465
 10
-2192.786191718874
 20
128.9375949709224
 10
-2200.245693473513
 20
131.9663691442415
  0
HATCH
  5
1EC4
330
1F
100
AcDbEntity
  8
PROFILY
100
AcDbHatch
 10
0.0
 20
0.0
 30
0.0
210
0.0
220
0.0
230
1.0
  2
SOLID
 70
     1
 71
     0
 91
        3
 92
        7
 72
     0
 73
     1
 93
        4
 10
-2051.696604853095
 20
-686.2917099158908
 10
-2050.196604853088
 20
-686.2917099158908
 10
-2050.196604853095
 20
-652.9784853589212
 10
-2051.696604853088
 20
-652.9784853589212
 97
        0
 92
        7
 72
     0
 73
     1
 93
        4
 10
-2051.696604853092
 20
-710.7689788109824
 10
-2050.196604853095
 20
-710.7689788109833
 10
-2050.196604853092
 20
-686.2917099158917
 10
-2051.696604853088
 20
-686.2917099158917
 97
        0
 92
        7
 72
     0
 73
     1
 93
        6
 10
-2066.337992254641
 20
-684.7917099158935
 10
-2066.337992254648
 20
-710.7689788109824
 10
-2064.837992254644
 20
-710.7689788109824
 10
-2064.837992254641
 20
-686.2917099158917
 10
-2051.696604853088
 20
-686.2917099158917
 10
-2051.696604853088
 20
-684.7917099158926
 97
        0
 75
     0
 76
     1
 47
0.2329819976771042
 98
        3
 10
-2051.351344558967
 20
-681.0484336634385
 10
-2051.118225116795
 20
-688.2708707824626
 10
-2058.577726871433
 20
-685.2420966091435
  0
LINE
  5
1EC5
330
1F
100
AcDbEntity
  8
PROFILY
100
AcDbLine
 10
-2051.696604853092
 20
-710.7689788109824
 30
0.0
 11
-2050.196604853095
 21
-710.7689788109833
 31
0.0
  0
LINE
  5
1EC6
330
1F
100
AcDbEntity
  8
PROFILY
100
AcDbLine
 10
-2051.696604853088
 20
-652.9784853589212
 30
0.0
 11
-2050.196604853088
 21
-652.9784853589212
 31
0.0
  0
LINE
  5
1EC7
330
1F
100
AcDbEntity
  8
PROFILY
100
AcDbLine
 10
-2066.337992254648
 20
-710.7689788109824
 30
0.0
 11
-2064.837992254648
 21
-710.7689788109824
 31
0.0
  0
LINE
  5
1EC8
330
1F
100
AcDbEntity
  8
PROFILY
100
AcDbLine
 10
-2064.837992254641
 20
-686.2917099158917
 30
0.0
 11
-2064.837992254644
 21
-710.7689788109824
 31
0.0
  0
LINE
  5
1EC9
330
1F
100
AcDbEntity
  8
PROFILY
100
AcDbLine
 10
-2066.337992254641
 20
-684.7917099158926
 30
0.0
 11
-2066.337992254648
 21
-710.7689788109824
 31
0.0
  0
LINE
  5
1ECA
330
1F
100
AcDbEntity
  8
PROFILY
100
AcDbLine
 10
-2050.196604853092
 20
-686.2917099158917
 30
0.0
 11
-2064.837992254641
 21
-686.2917099158917
 31
0.0
  0
LINE
  5
1ECB
330
1F
100
AcDbEntity
  8
PROFILY
100
AcDbLine
 10
-2050.196604853092
 20
-652.9784853589212
 30
0.0
 11
-2050.196604853095
 21
-710.7689788109824
 31
0.0
  0
LINE
  5
1ECC
330
1F
100
AcDbEntity
  8
PROFILY
100
AcDbLine
 10
-2051.696604853092
 20
-684.7917099158926
 30
0.0
 11
-2066.337992254641
 21
-684.7917099158926
 31
0.0
  0
LINE
  5
1ECD
330
1F
100
AcDbEntity
  8
PROFILY
100
AcDbLine
 10
-2051.696604853088
 20
-652.9784853589212
 30
0.0
 11
-2051.696604853092
 21
-710.7689788109815
 31
0.0
  0
HATCH
  5
1ECE
330
1F
100
AcDbEntity
  8
PROFILY
100
AcDbHatch
 10
0.0
 20
0.0
 30
0.0
210
0.0
220
0.0
230
1.0
  2
SOLID
 70
     1
 71
     0
 91
        2
 92
        7
 72
     0
 73
     1
 93
        8
 10
-2095.314684696099
 20
-652.6043899459732
 10
-2096.814684696099
 20
-652.6043899459732
 10
-2096.814684696106
 20
-684.3945099920215
 10
-2107.906889665839
 20
-684.3945099920206
 10
-2107.906889665839
 20
-706.5533598459847
 10
-2106.406889665842
 20
-706.5533598459847
 10
-2106.406889665842
 20
-685.8945099920215
 10
-2095.314684696099
 20
-685.8945099920206
 97
        0
 92
        7
 72
     0
 73
     1
 93
        8
 10
-2157.185021476849
 20
-653.1892773305976
 10
-2158.685021476845
 20
-653.1892773305976
 10
-2158.685021476845
 20
-673.8481271845626
 10
-2169.777226446582
 20
-684.6265851757721
 10
-2169.777226446589
 20
-707.138247230609
 10
-2168.277226446585
 20
-707.1382472306082
 10
-2168.277226446585
 20
-685.2605475838995
 10
-2157.185021476849
 20
-674.4820895926846
 97
        0
 75
     0
 76
     1
 47
0.2456732984224696
 98
        2
 10
-2095.746180516409
 20
-682.613156427999
 10
-2157.694051811111
 20
-671.1619679206037
  0
LINE
  5
1ECF
330
1F
100
AcDbEntity
  8
PROFILY
100
AcDbLine
 10
-2106.406889665838
 20
-706.5533598459847
 30
0.0
 11
-2106.406889665838
 21
-685.8945099920206
 31
0.0
  0
LINE
  5
1ED0
330
1F
100
AcDbEntity
  8
PROFILY
100
AcDbLine
 10
-2107.906889665839
 20
-706.5533598459847
 30
0.0
 11
-2107.906889665835
 21
-684.3945099920206
 31
0.0
  0
LINE
  5
1ED1
330
1F
100
AcDbEntity
  8
PROFILY
100
AcDbLine
 10
-2107.906889665839
 20
-706.5533598459847
 30
0.0
 11
-2106.406889665838
 21
-706.5533598459847
 31
0.0
  0
LINE
  5
1ED2
330
1F
100
AcDbEntity
  8
PROFILY
100
AcDbLine
 10
-2107.906889665835
 20
-684.3945099920206
 30
0.0
 11
-2096.814684696102
 21
-684.3945099920215
 31
0.0
  0
LINE
  5
1ED3
330
1F
100
AcDbEntity
  8
PROFILY
100
AcDbLine
 10
-2106.406889665838
 20
-685.8945099920206
 30
0.0
 11
-2095.314684696099
 21
-685.8945099920206
 31
0.0
  0
LINE
  5
1ED4
330
1F
100
AcDbEntity
  8
PROFILY
100
AcDbLine
 10
-2095.314684696099
 20
-685.8945099920206
 30
0.0
 11
-2095.314684696099
 21
-652.6043899459732
 31
0.0
  0
LINE
  5
1ED5
330
1F
100
AcDbEntity
  8
PROFILY
100
AcDbLine
 10
-2096.814684696102
 20
-684.3945099920215
 30
0.0
 11
-2096.814684696099
 21
-652.6043899459732
 31
0.0
  0
LINE
  5
1ED6
330
1F
100
AcDbEntity
  8
PROFILY
100
AcDbLine
 10
-2095.314684696099
 20
-652.6043899459732
 30
0.0
 11
-2096.814684696099
 21
-652.6043899459732
 31
0.0
  0
LINE
  5
1ED7
330
1F
100
AcDbEntity
  8
PROFILY
100
AcDbLine
 10
-2168.277226446585
 20
-685.2605475838977
 30
0.0
 11
-2157.185021476849
 21
-674.4820895926846
 31
0.0
  0
LINE
  5
1ED8
330
1F
100
AcDbEntity
  8
PROFILY
100
AcDbLine
 10
-2169.777226446585
 20
-684.6265851757729
 30
0.0
 11
-2158.685021476845
 21
-673.8481271845617
 31
0.0
  0
LINE
  5
1ED9
330
1F
100
AcDbEntity
  8
PROFILY
100
AcDbLine
 10
-2169.777226446585
 20
-707.138247230609
 30
0.0
 11
-2168.277226446585
 21
-707.138247230609
 31
0.0
  0
LINE
  5
1EDA
330
1F
100
AcDbEntity
  8
PROFILY
100
AcDbLine
 10
-2157.185021476845
 20
-653.1892773305976
 30
0.0
 11
-2158.685021476845
 21
-653.1892773305976
 31
0.0
  0
LINE
  5
1EDB
330
1F
100
AcDbEntity
  8
PROFILY
100
AcDbLine
 10
-2168.277226446585
 20
-685.2605475838977
 30
0.0
 11
-2168.277226446585
 21
-707.138247230609
 31
0.0
  0
LINE
  5
1EDC
330
1F
100
AcDbEntity
  8
PROFILY
100
AcDbLine
 10
-2169.777226446585
 20
-684.6265851757729
 30
0.0
 11
-2169.777226446585
 21
-707.138247230609
 31
0.0
  0
LINE
  5
1EDD
330
1F
100
AcDbEntity
  8
PROFILY
100
AcDbLine
 10
-2157.185021476845
 20
-653.1892773305976
 30
0.0
 11
-2157.185021476849
 21
-674.4820895926846
 31
0.0
  0
LINE
  5
1EDE
330
1F
100
AcDbEntity
  8
PROFILY
100
AcDbLine
 10
-2158.685021476845
 20
-653.1892773305976
 30
0.0
 11
-2158.685021476845
 21
-673.8481271845617
 31
0.0
  0
LINE
  5
1EDF
330
1F
100
AcDbEntity
  8
SPOJOVACÍ
100
AcDbLine
 10
-2206.643605585723
 20
82.90574847069137
 30
0.0
 11
-2206.643605585723
 21
75.78660784569137
 31
0.0
  0
LINE
  5
1EE0
330
1F
100
AcDbEntity
  8
SPOJOVACÍ
100
AcDbLine
 10
-2208.027521376938
 20
82.90574847069137
 30
0.0
 11
-2208.027521376938
 21
90.02488909569137
 31
0.0
  0
LINE
  5
1EE1
330
1F
100
AcDbEntity
  8
SPOJOVACÍ
100
AcDbLine
 10
-2207.514149115679
 20
88.12645159569138
 30
0.0
 11
-2207.518895209428
 21
88.12645159569138
 31
0.0
  0
LINE
  5
1EE2
330
1F
100
AcDbEntity
  8
SPOJOVACÍ
100
AcDbLine
 10
-2206.643605585723
 20
90.02488909569137
 30
0.0
 11
-2208.027521376938
 21
90.02488909568956
 31
0.0
  0
LINE
  5
1EE3
330
1F
100
AcDbEntity
  8
SPOJOVACÍ
100
AcDbLine
 10
-2206.643605585723
 20
90.02488909569137
 30
0.0
 11
-2206.643605585723
 21
82.90574847069137
 31
0.0
  0
LINE
  5
1EE4
330
1F
100
AcDbEntity
  8
SPOJOVACÍ
100
AcDbLine
 10
-2207.514149115679
 20
88.12645159569138
 30
0.0
 11
-2207.518895209428
 21
88.12645159569138
 31
0.0
  0
LINE
  5
1EE5
330
1F
100
AcDbEntity
  8
SPOJOVACÍ
100
AcDbLine
 10
-2208.027521376938
 20
75.78660784569319
 30
0.0
 11
-2206.643605585723
 21
75.78660784569137
 31
0.0
  0
LINE
  5
1EE6
330
1F
100
AcDbEntity
  8
SPOJOVACÍ
100
AcDbLine
 10
-2208.027521376938
 20
86.74171664775668
 30
0.0
 11
-2208.027521376938
 21
75.78660784569137
 31
0.0
  0
HATCH
  5
1EE7
330
1F
100
AcDbEntity
  8
SPOJOVACÍ
100
AcDbHatch
 10
0.0
 20
0.0
 30
0.0
210
0.0
220
0.0
230
1.0
  2
ANSI37
 70
     0
 71
     0
 91
        1
 92
        7
 72
     0
 73
     1
 93
        6
 10
-2208.027521376938
 20
82.90574847069137
 10
-2208.027521376934
 20
75.78660784569319
 10
-2206.643605585723
 20
75.78660784569137
 10
-2206.643605585723
 20
82.90574847069137
 10
-2206.643605585723
 20
90.02488909569137
 10
-2208.027521376938
 20
90.02488909568956
 97
        0
 75
     0
 76
     1
 52
-90.00000000000001
 41
0.9
 77
     0
 78
     2
 53
315.0
 43
-6048.873821029268
 44
10165.76706054157
 45
2.02055762724056
 46
2.020557627240558
 79
     0
 53
44.99999999999999
 43
-6048.873821029268
 44
10165.76706054157
 45
-2.020557627240558
 46
2.02055762724056
 79
     0
 47
0.0246402553748132
 98
        1
 10
-2207.556569934964
 20
83.306594132378
  0
ELLIPSE
  5
1EE8
330
1F
100
AcDbEntity
  8
SPOJOVACÍ
100
AcDbEllipse
 10
-2208.576815824239
 20
82.90574847069137
 30
0.0
 11
0.0000000000000018
 21
7.321312510456553
 31
0.0
210
0.0
220
0.0
230
1.0
 40
0.3214803388886193
 41
-0.2355512395776302
 42
3.377143893167422
  0
LINE
  5
1EE9
330
1F
100
AcDbEntity
  8
SPOJOVACÍ
100
AcDbLine
 10
-2206.643605585723
 20
174.0450749953247
 30
0.0
 11
-2206.643605585723
 21
166.9259343703247
 31
0.0
  0
LINE
  5
1EEA
330
1F
100
AcDbEntity
  8
SPOJOVACÍ
100
AcDbLine
 10
-2208.027521376938
 20
174.0450749953247
 30
0.0
 11
-2208.027521376938
 21
181.1642156203247
 31
0.0
  0
LINE
  5
1EEB
330
1F
100
AcDbEntity
  8
SPOJOVACÍ
100
AcDbLine
 10
-2207.514149115679
 20
179.2657781203247
 30
0.0
 11
-2207.518895209428
 21
179.2657781203247
 31
0.0
  0
LINE
  5
1EEC
330
1F
100
AcDbEntity
  8
SPOJOVACÍ
100
AcDbLine
 10
-2206.643605585723
 20
181.1642156203247
 30
0.0
 11
-2208.027521376938
 21
181.1642156203229
 31
0.0
  0
LINE
  5
1EED
330
1F
100
AcDbEntity
  8
SPOJOVACÍ
100
AcDbLine
 10
-2206.643605585723
 20
181.1642156203247
 30
0.0
 11
-2206.643605585723
 21
174.0450749953247
 31
0.0
  0
LINE
  5
1EEE
330
1F
100
AcDbEntity
  8
SPOJOVACÍ
100
AcDbLine
 10
-2207.514149115679
 20
179.2657781203247
 30
0.0
 11
-2207.518895209428
 21
179.2657781203247
 31
0.0
  0
LINE
  5
1EEF
330
1F
100
AcDbEntity
  8
SPOJOVACÍ
100
AcDbLine
 10
-2208.027521376938
 20
166.9259343703265
 30
0.0
 11
-2206.643605585723
 21
166.9259343703247
 31
0.0
  0
LINE
  5
1EF0
330
1F
100
AcDbEntity
  8
SPOJOVACÍ
100
AcDbLine
 10
-2208.027521376938
 20
177.88104317239
 30
0.0
 11
-2208.027521376938
 21
166.9259343703247
 31
0.0
  0
HATCH
  5
1EF1
330
1F
100
AcDbEntity
  8
SPOJOVACÍ
100
AcDbHatch
 10
0.0
 20
0.0
 30
0.0
210
0.0
220
0.0
230
1.0
  2
ANSI37
 70
     0
 71
     0
 91
        1
 92
        7
 72
     0
 73
     1
 93
        6
 10
-2208.027521376938
 20
174.0450749953247
 10
-2208.027521376934
 20
166.9259343703265
 10
-2206.643605585723
 20
166.9259343703247
 10
-2206.643605585723
 20
174.0450749953247
 10
-2206.643605585723
 20
181.1642156203247
 10
-2208.027521376938
 20
181.1642156203229
 97
        0
 75
     0
 76
     1
 52
-90.00000000000001
 41
0.9
 77
     0
 78
     2
 53
315.0
 43
-6048.873821029268
 44
10256.9063870662
 45
2.02055762724056
 46
2.020557627240558
 79
     0
 53
44.99999999999999
 43
-6048.873821029268
 44
10256.9063870662
 45
-2.020557627240558
 46
2.02055762724056
 79
     0
 47
0.0246402553748132
 98
        1
 10
-2207.556569934964
 20
174.4459206570113
  0
ELLIPSE
  5
1EF2
330
1F
100
AcDbEntity
  8
SPOJOVACÍ
100
AcDbEllipse
 10
-2208.576815824239
 20
174.0450749953247
 30
0.0
 11
0.0000000000000018
 21
7.321312510456553
 31
0.0
210
0.0
220
0.0
230
1.0
 40
0.3214803388886193
 41
-0.2355512395776302
 42
3.377143893167422
  0
HATCH
  5
1EF3
330
1F
100
AcDbEntity
  8
STAVBA OBRYS
100
AcDbHatch
 10
0.0
 20
0.0
 30
0.0
210
0.0
220
0.0
230
1.0
  2
BRICK
 70
     0
 71
     0
 91
        1
 92
        7
 72
     1
 73
     1
 93
       21
 10
-1844.27445749001
 20
198.2875610639525
 42
0.0
 10
-2080.595618813997
 20
227.9846787081173
 42
0.0
 10
-2080.595618813997
 20
93.21111393929596
 42
0.0
 10
-1996.840144280693
 20
155.5416345362359
 42
-0.1120257488369836
 10
-1996.962550350512
 20
156.0811082877949
 42
-1.0
 10
-1994.462550350512
 20
156.0811082877949
 42
-0.7985195055902459
 10
-1996.840144280693
 20
155.5416345362359
 42
0.0
 10
-2080.595618813997
 20
93.21111393929596
 42
0.0
 10
-2080.595618813997
 20
16.96658962447827
 42
0.0
 10
-2022.797338513217
 20
16.96658962447918
 42
0.0
 10
-2019.008477371666
 20
10.40408962447918
 42
0.0
 10
-2022.797338513224
 20
3.841589624479183
 42
0.0
 10
-2080.595618813993
 20
3.841589624477364
 42
0.0
 10
-2080.595618813993
 20
-39.75559051185564
 42
0.0
 10
-2080.595618813997
 20
-211.7588176622407
 42
0.0
 10
-1998.523419188266
 20
-211.7588176622425
 42
0.0
 10
-1994.734558046704
 20
-218.3213176622416
 42
0.0
 10
-1998.523419188263
 20
-224.8838176622416
 42
0.0
 10
-2080.595618813997
 20
-224.8838176622407
 42
0.0
 10
-2080.595618813993
 20
-283.0915191565268
 42
0.0
 10
-1844.27445749002
 20
-282.0366087320594
 42
0.0
 97
        0
 75
     0
 76
     1
 52
0.0
 41
10.0
 77
     0
 78
     3
 53
0.0
 43
-20749.30903144458
 44
-5405.050445818959
 45
0.0
 46
63.5
 79
     0
 53
90.0
 43
-20749.30903144458
 44
-5405.050445818959
 45
-127.0
 46
0.0000000000000078
 79
     2
 49
63.5
 49
-63.5
 53
90.0
 43
-20685.80903144458
 44
-5405.050445818959
 45
-127.0
 46
0.0000000000000078
 79
     2
 49
-63.5
 49
63.5
 47
0.836912991442306
 98
        1
 10
-1908.293222269934
 20
29.89715613263388
  0
INSERT
  5
1EF4
330
1F
100
AcDbEntity
  8
POPIS
100
AcDbBlockReference
  2
E_PUNKT
 10
-2159.042420896093
 20
-206.525245137433
 30
0.0
  0
TEXT
  5
1EF5
330
1F
100
AcDbEntity
  8
POPIS
100
AcDbText
 10
-2400.355722883458
 20
-219.2051559622564
 30
0.0
 40
25.0
  1
09
 41
0.7
  7
SIMPLEX7
100
AcDbText
  0
LINE
  5
1EF6
330
1F
100
AcDbEntity
  8
POPIS
100
AcDbLine
 10
-2359.820287588907
 20
-205.7618145128858
 30
0.0
 11
-2158.893750420888
 21
-205.7618145128858
 31
0.0
  0
TEXT
  5
1EF7
330
1F
100
AcDbEntity
  8
POPIS
100
AcDbText
 10
-2386.772566291158
 20
-635.9256817603186
 30
0.0
 40
25.0
  1
Profil PROTECTOR 9315 (3537,3554)
 41
0.7
  7
SIMPLEX7
100
AcDbText
  0
TEXT
  5
1EF8
330
1F
100
AcDbEntity
  8
POPIS
100
AcDbText
 10
-2441.116269450907
 20
-799.4556895198934
 30
0.0
 40
25.0
  1
09
 41
0.85
  7
SIMPLEX7
100
AcDbText
  0
TEXT
  5
1EF9
330
1F
100
AcDbEntity
  8
POPIS
100
AcDbText
 10
-2386.772566291158
 20
-799.4556895198934
 30
0.0
 40
25.0
  1
Talířová hmoždinka
 41
0.7
  7
SIMPLEX7
100
AcDbText
  0
HATCH
  5
1EFA
330
1F
100
AcDbEntity
  8
PROFILY
100
AcDbHatch
 10
0.0
 20
0.0
 30
0.0
210
0.0
220
0.0
230
1.0
  2
SOLID
 70
     1
 71
     0
 91
        1
 92
        7
 72
     0
 73
     1
 93
        4
 10
-2166.581494625316
 20
238.6112669000663
 10
-2164.581494625312
 20
238.6112669000663
 10
-2164.581494625312
 20
219.4289117555176
 10
-2166.581494625312
 20
219.4289117555176
 97
        0
 75
     0
 76
     1
 47
0.0801976285649081
 98
        1
 10
-2166.243821555017
 20
225.2703276481238
  0
HATCH
  5
1EFB
330
1F
100
AcDbEntity
  8
PROFILY
100
AcDbHatch
 10
0.0
 20
0.0
 30
0.0
210
0.0
220
0.0
230
1.0
  2
SOLID
 70
     1
 71
     0
 91
        1
 92
        7
 72
     0
 73
     1
 93
        4
 10
-2166.581494625316
 20
108.7569404725159
 10
-2164.581494625312
 20
108.7569404725159
 10
-2164.581494625312
 20
89.57458532796726
 10
-2166.581494625312
 20
89.57458532796726
 97
        0
 75
     0
 76
     1
 47
0.0801976285649081
 98
        1
 10
-2166.243821555017
 20
95.41600122057344
  0
HATCH
  5
1EFC
330
1F
100
AcDbEntity
  8
PROFILY
100
AcDbHatch
 10
0.0
 20
0.0
 30
0.0
210
0.0
220
0.0
230
1.0
  2
SOLID
 70
     1
 71
     0
 91
        1
 92
        7
 72
     0
 73
     1
 93
        4
 10
-2166.581494625316
 20
143.5872098144113
 10
-2164.581494625312
 20
143.5872098144113
 10
-2164.581494625312
 20
124.4048546698627
 10
-2166.581494625312
 20
124.4048546698627
 97
        0
 75
     0
 76
     1
 47
0.0801976285649081
 98
        1
 10
-2166.243821555017
 20
130.2462705624689
  0
HATCH
  5
1EFD
330
1F
100
AcDbEntity
  8
PROFILY
100
AcDbHatch
 10
0.0
 20
0.0
 30
0.0
210
0.0
220
0.0
230
1.0
  2
SOLID
 70
     1
 71
     0
 91
        1
 92
        7
 72
     0
 73
     1
 93
        4
 10
-2166.581494625316
 20
180.1752279586812
 10
-2164.581494625312
 20
180.1752279586812
 10
-2164.581494625312
 20
160.9928728141326
 10
-2166.581494625312
 20
160.9928728141326
 97
        0
 75
     0
 76
     1
 47
0.0801976285649081
 98
        1
 10
-2166.243821555017
 20
166.8342887067387
  0
LWPOLYLINE
  5
1EFE
330
1F
100
AcDbEntity
  8
PROFILY
100
AcDbPolyline
 90
        4
 70
     1
 43
0.0
 10
-2166.581494625312
 20
160.9923609765769
 10
-2166.581494625312
 20
180.1747161211255
 10
-2164.581494625312
 20
180.1747161211255
 10
-2164.581494625312
 20
160.9923609765769
  0
HATCH
  5
1EFF
330
1F
100
AcDbEntity
  8
PROFILY
100
AcDbHatch
 10
0.0
 20
0.0
 30
0.0
210
0.0
220
0.0
230
1.0
  2
SOLID
 70
     1
 71
     0
 91
        1
 92
        7
 72
     0
 73
     1
 93
        4
 10
-2166.581494625316
 20
212.6902937365171
 10
-2164.581494625312
 20
212.6902937365171
 10
-2164.581494625312
 20
193.5079385919684
 10
-2166.581494625312
 20
193.5079385919684
 97
        0
 75
     0
 76
     1
 47
0.0801976285649081
 98
        1
 10
-2166.243821555017
 20
199.3493544845746
  0
HATCH
  5
1F00
330
1F
100
AcDbEntity
  8
PROFILY
100
AcDbHatch
 10
0.0
 20
0.0
 30
0.0
210
0.0
220
0.0
230
1.0
  2
SOLID
 70
     1
 71
     0
 91
        1
 92
        7
 72
     0
 73
     1
 93
        4
 10
-2166.581494625316
 20
-268.7737920288332
 10
-2164.581494625312
 20
-268.7737920288332
 10
-2164.581494625312
 20
-287.9561471733818
 10
-2166.581494625312
 20
-287.9561471733818
 97
        0
 75
     0
 76
     1
 47
0.0801976285649081
 98
        1
 10
-2166.243821555017
 20
-282.1147312807756
  0
HATCH
  5
1F01
330
1F
100
AcDbEntity
  8
PROFILY
100
AcDbHatch
 10
0.0
 20
0.0
 30
0.0
210
0.0
220
0.0
230
1.0
  2
SOLID
 70
     1
 71
     0
 91
        1
 92
        7
 72
     0
 73
     1
 93
        4
 10
-2166.581494625316
 20
-232.9330072209691
 10
-2164.581494625312
 20
-232.9330072209691
 10
-2164.581494625312
 20
-252.1153623655177
 10
-2166.581494625312
 20
-252.1153623655177
 97
        0
 75
     0
 76
     1
 47
0.0801976285649081
 98
        1
 10
-2166.243821555017
 20
-246.2739464729115
  0
HATCH
  5
1F02
330
1F
100
AcDbEntity
  8
PROFILY
100
AcDbHatch
 10
0.0
 20
0.0
 30
0.0
210
0.0
220
0.0
230
1.0
  2
SOLID
 70
     1
 71
     0
 91
        1
 92
        7
 72
     0
 73
     1
 93
        4
 10
-2166.581494625316
 20
-199.24675576062
 10
-2164.581494625312
 20
-199.24675576062
 10
-2164.581494625312
 20
-218.4291109051687
 10
-2166.581494625312
 20
-218.4291109051687
 97
        0
 75
     0
 76
     1
 47
0.0801976285649081
 98
        1
 10
-2166.243821555017
 20
-212.5876950125625
  0
HATCH
  5
1F03
330
1F
100
AcDbEntity
  8
PROFILY
100
AcDbHatch
 10
0.0
 20
0.0
 30
0.0
210
0.0
220
0.0
230
1.0
  2
SOLID
 70
     1
 71
     0
 91
        1
 92
        7
 72
     0
 73
     1
 93
        4
 10
-2166.581494625316
 20
-167.156315583436
 10
-2164.581494625312
 20
-167.156315583436
 10
-2164.581494625312
 20
-186.3386707279846
 10
-2166.581494625312
 20
-186.3386707279846
 97
        0
 75
     0
 76
     1
 47
0.0801976285649081
 98
        1
 10
-2166.243821555017
 20
-180.4972548353785
  0
HATCH
  5
1F04
330
1F
100
AcDbEntity
  8
PROFILY
100
AcDbHatch
 10
0.0
 20
0.0
 30
0.0
210
0.0
220
0.0
230
1.0
  2
SOLID
 70
     1
 71
     0
 91
        1
 92
        7
 72
     0
 73
     1
 93
        4
 10
-2166.581494625316
 20
-134.7048921615337
 10
-2164.581494625312
 20
-134.7048921615337
 10
-2164.581494625312
 20
-153.8872473060823
 10
-2166.581494625312
 20
-153.8872473060823
 97
        0
 75
     0
 76
     1
 47
0.0801976285649081
 98
        1
 10
-2166.243821555017
 20
-148.0458314134762
  0
HATCH
  5
1F05
330
1F
100
AcDbEntity
  8
PROFILY
100
AcDbHatch
 10
0.0
 20
0.0
 30
0.0
210
0.0
220
0.0
230
1.0
  2
SOLID
 70
     1
 71
     0
 91
        1
 92
        7
 72
     0
 73
     1
 93
        4
 10
-2166.581494625316
 20
-100.4553642678715
 10
-2164.581494625312
 20
-100.4553642678715
 10
-2164.581494625312
 20
-119.6377194124202
 10
-2166.581494625312
 20
-119.6377194124202
 97
        0
 75
     0
 76
     1
 47
0.0801976285649081
 98
        1
 10
-2166.243821555017
 20
-113.796303519814
  0
HATCH
  5
1F06
330
1F
100
AcDbEntity
  8
PROFILY
100
AcDbHatch
 10
0.0
 20
0.0
 30
0.0
210
0.0
220
0.0
230
1.0
  2
SOLID
 70
     1
 71
     0
 91
        1
 92
        7
 72
     0
 73
     1
 93
        4
 10
-2166.581494625316
 20
-68.01542577641384
 10
-2164.581494625312
 20
-68.01542577641384
 10
-2164.581494625312
 20
-87.19778092096248
 10
-2166.581494625312
 20
-87.19778092096248
 97
        0
 75
     0
 76
     1
 47
0.0801976285649081
 98
        1
 10
-2166.243821555017
 20
-81.35636502835632
  0
HATCH
  5
1F07
330
1F
100
AcDbEntity
  8
PROFILY
100
AcDbHatch
 10
0.0
 20
0.0
 30
0.0
210
0.0
220
0.0
230
1.0
  2
SOLID
 70
     1
 71
     0
 91
        1
 92
        7
 72
     0
 73
     1
 93
        4
 10
-2166.581494625316
 20
-34.39428199070107
 10
-2164.581494625312
 20
-34.39428199070107
 10
-2164.581494625312
 20
-53.57663713524971
 10
-2166.581494625312
 20
-53.57663713524971
 97
        0
 75
     0
 76
     1
 47
0.0801976285649081
 98
        1
 10
-2166.243821555017
 20
-47.73522124264355
  0
HATCH
  5
1F08
330
1F
100
AcDbEntity
  8
PROFILY
100
AcDbHatch
 10
0.0
 20
0.0
 30
0.0
210
0.0
220
0.0
230
1.0
  2
SOLID
 70
     1
 71
     0
 91
        1
 92
        7
 72
     0
 73
     1
 93
        4
 10
-2166.581494625316
 20
0.4359873511943988
 10
-2164.581494625312
 20
0.4359873511943988
 10
-2164.581494625312
 20
-18.74636779335423
 10
-2166.581494625312
 20
-18.74636779335423
 97
        0
 75
     0
 76
     1
 47
0.0801976285649081
 98
        1
 10
-2166.243821555017
 20
-12.90495190074807
  0
LINE
  5
1F09
330
1F
100
AcDbEntity
  8
PROFILY
100
AcDbLine
 10
-2166.581494625312
 20
-285.9561471733818
 30
0.0
 11
-2166.581494625312
 21
238.538699433318
 31
0.0
  0
HATCH
  5
1F0A
330
1F
100
AcDbEntity
  8
PROFILY
100
AcDbHatch
 10
0.0
 20
0.0
 30
0.0
210
0.0
220
0.0
230
1.0
  2
SOLID
 70
     1
 71
     0
 91
        1
 92
        7
 72
     0
 73
     1
 93
        4
 10
-2166.581494625316
 20
75.14359851886684
 10
-2164.581494625312
 20
75.14359851886684
 10
-2164.581494625312
 20
55.9612433743182
 10
-2166.581494625312
 20
55.9612433743182
 97
        0
 75
     0
 76
     1
 47
0.0801976285649081
 98
        1
 10
-2166.243821555017
 20
61.80265926692436
  0
LWPOLYLINE
  5
1F0B
330
1F
100
AcDbEntity
  8
PROFILY
100
AcDbPolyline
 90
        4
 70
     1
 43
0.0
 10
-2166.581494625312
 20
17.84113851335996
 10
-2166.581494625312
 20
37.0234936579086
 10
-2164.581494625312
 20
37.0234936579086
 10
-2164.581494625312
 20
17.84113851335996
  0
HATCH
  5
1F0C
330
1F
100
AcDbEntity
  8
PROFILY
100
AcDbHatch
 10
0.0
 20
0.0
 30
0.0
210
0.0
220
0.0
230
1.0
  2
SOLID
 70
     1
 71
     0
 91
        1
 92
        7
 72
     0
 73
     1
 93
        4
 10
-2166.581494625316
 20
37.02400549546428
 10
-2164.581494625312
 20
37.02400549546428
 10
-2164.581494625312
 20
17.84165035091564
 10
-2166.581494625312
 20
17.84165035091564
 97
        0
 75
     0
 76
     1
 47
0.0801976285649081
 98
        1
 10
-2166.243821555017
 20
23.6830662435218
  0
LINE
  5
1F0D
330
1F
100
AcDbEntity
  8
PROFILY
100
AcDbLine
 10
-2164.581494625312
 20
-288.1312336868782
 30
0.0
 11
-2164.581494625312
 21
37.0234936579086
 31
0.0
  0
LINE
  5
1F0E
330
1F
100
AcDbEntity
  8
PROFILY
100
AcDbLine
 10
-2164.581494625312
 20
238.538699433318
 30
0.0
 11
-2164.581494625312
 21
-287.9561471733818
 31
0.0
  0
LINE
  5
1F0F
330
1F
100
AcDbEntity
  8
STAVBA OBRYS
  6
IZOLACE
 48
4.0
100
AcDbLine
 10
-2122.365295131199
 20
-39.75559051185564
 30
0.0
 11
-2122.728294946988
 21
-286.1534962390501
 31
0.0
  0
LINE
  5
1F10
330
1F
100
AcDbEntity
  8
NOSNÉ KONSTRUKCE
100
AcDbLine
 10
-2167.322865267538
 20
-114.8566150282918
 30
0.0
 11
-2166.288951987764
 21
-141.6727430406813
 31
0.0
  0
LINE
  5
1F11
330
1F
100
AcDbEntity
  8
NOSNÉ KONSTRUKCE
100
AcDbLine
 10
-2166.288951987764
 20
-141.6727430406813
 30
0.0
 11
-2165.974971829935
 21
-161.9139796505391
 31
0.0
  0
LINE
  5
1F12
330
1F
100
AcDbEntity
  8
NOSNÉ KONSTRUKCE
100
AcDbLine
 10
-2173.217297636423
 20
-149.5900111863252
 30
0.0
 11
-2172.028202270168
 21
-130.5114140044374
 31
0.0
  0
LINE
  5
1F13
330
1F
100
AcDbEntity
  8
NOSNÉ KONSTRUKCE
100
AcDbLine
 10
-2175.873183900323
 20
-148.4560813982739
 30
0.0
 11
-2178.20148818865
 21
-123.73116972668
 31
0.0
  0
LINE
  5
1F14
330
1F
100
AcDbEntity
  8
NOSNÉ KONSTRUKCE
100
AcDbLine
 10
-2184.973588063868
 20
-148.9317120704495
 30
0.0
 11
-2186.750026325979
 21
-121.0787972256971
 31
0.0
  0
LINE
  5
1F15
330
1F
100
AcDbEntity
  8
NOSNÉ KONSTRUKCE
100
AcDbLine
 10
-2179.07282180131
 20
-169.5022786337053
 30
0.0
 11
-2177.035526360581
 21
-161.9393612918852
 31
0.0
  0
LINE
  5
1F16
330
1F
100
AcDbEntity
  8
NOSNÉ KONSTRUKCE
100
AcDbLine
 10
-2177.035526360581
 20
-161.9393612918852
 30
0.0
 11
-2175.873183900323
 21
-148.4560813982739
 31
0.0
  0
LINE
  5
1F17
330
1F
100
AcDbEntity
  8
NOSNÉ KONSTRUKCE
100
AcDbLine
 10
-2165.974971829935
 20
-161.9139796505391
 30
0.0
 11
-2166.759002788327
 21
-198.5709326080236
 31
0.0
  0
LINE
  5
1F18
330
1F
100
AcDbEntity
  8
NOSNÉ KONSTRUKCE
100
AcDbLine
 10
-2184.196387202806
 20
-204.2907856050392
 30
0.0
 11
-2184.196387202806
 21
-185.0933532109725
 31
0.0
  0
LINE
  5
1F19
330
1F
100
AcDbEntity
  8
NOSNÉ KONSTRUKCE
100
AcDbLine
 10
-2184.751522335442
 20
-174.662382555131
 30
0.0
 11
-2184.973588063868
 21
-148.9317120704495
 31
0.0
  0
LINE
  5
1F1A
330
1F
100
AcDbEntity
  8
NOSNÉ KONSTRUKCE
100
AcDbLine
 10
-2184.196387202806
 20
-185.0933532109725
 30
0.0
 11
-2184.751522335442
 21
-174.662382555131
 31
0.0
  0
LINE
  5
1F1B
330
1F
100
AcDbEntity
  8
NOSNÉ KONSTRUKCE
100
AcDbLine
 10
-2179.944797559881
 20
-215.8322707181055
 30
0.0
 11
-2179.654897873391
 21
-206.1533146200695
 31
0.0
  0
LINE
  5
1F1C
330
1F
100
AcDbEntity
  8
NOSNÉ KONSTRUKCE
100
AcDbLine
 10
-2174.487724927435
 20
-210.2006671805561
 30
0.0
 11
-2173.217297636423
 21
-185.3231950676913
 31
0.0
  0
LINE
  5
1F1D
330
1F
100
AcDbEntity
  8
NOSNÉ KONSTRUKCE
100
AcDbLine
 10
-2179.654897873391
 20
-206.1533146200695
 30
0.0
 11
-2179.363859837351
 21
-178.810485980523
 31
0.0
  0
LINE
  5
1F1E
330
1F
100
AcDbEntity
  8
NOSNÉ KONSTRUKCE
100
AcDbLine
 10
-2173.217297636423
 20
-185.3231950676913
 30
0.0
 11
-2173.217297636423
 21
-149.5900111863252
 31
0.0
  0
LINE
  5
1F1F
330
1F
100
AcDbEntity
  8
NOSNÉ KONSTRUKCE
100
AcDbLine
 10
-2179.363859837351
 20
-178.810485980523
 30
0.0
 11
-2179.07282180131
 21
-169.5022786337053
 31
0.0
  0
LINE
  5
1F20
330
1F
100
AcDbEntity
  8
NOSNÉ KONSTRUKCE
100
AcDbLine
 10
-2188.131252973602
 20
-194.4929669378239
 30
0.0
 11
-2189.006235142529
 21
-172.9214761598327
 31
0.0
  0
LINE
  5
1F21
330
1F
100
AcDbEntity
  8
NOSNÉ KONSTRUKCE
100
AcDbLine
 10
-2189.616435637101
 20
-210.821049515835
 30
0.0
 11
-2188.131252973602
 21
-194.4929669378239
 31
0.0
  0
LINE
  5
1F22
330
1F
100
AcDbEntity
  8
NOSNÉ KONSTRUKCE
100
AcDbLine
 10
-2166.759002788327
 20
-198.5709326080236
 30
0.0
 11
-2168.328932765907
 21
-225.5592480878317
 31
0.0
  0
LINE
  5
1F23
330
1F
100
AcDbEntity
  8
NOSNÉ KONSTRUKCE
100
AcDbLine
 10
-2177.661034846424
 20
-254.3914036129231
 30
0.0
 11
-2175.968600943735
 21
-227.1157903221051
 31
0.0
  0
LINE
  5
1F24
330
1F
100
AcDbEntity
  8
NOSNÉ KONSTRUKCE
100
AcDbLine
 10
-2187.367595553391
 20
-245.01782095108
 30
0.0
 11
-2187.922876628268
 21
-229.636961204384
 31
0.0
  0
LINE
  5
1F25
330
1F
100
AcDbEntity
  8
NOSNÉ KONSTRUKCE
100
AcDbLine
 10
-2180.672407244208
 20
-253.9377090287912
 30
0.0
 11
-2181.545521352331
 21
-244.1931972202678
 31
0.0
  0
LINE
  5
1F26
330
1F
100
AcDbEntity
  8
NOSNÉ KONSTRUKCE
100
AcDbLine
 10
-2181.545521352331
 20
-244.1931972202678
 30
0.0
 11
-2180.672407244208
 21
-231.9761852248106
 31
0.0
  0
LINE
  5
1F27
330
1F
100
AcDbEntity
  8
NOSNÉ KONSTRUKCE
100
AcDbLine
 10
-2180.672407244208
 20
-231.9761852248106
 30
0.0
 11
-2179.944797559881
 21
-222.8134126985628
 31
0.0
  0
LINE
  5
1F28
330
1F
100
AcDbEntity
  8
NOSNÉ KONSTRUKCE
100
AcDbLine
 10
-2186.336367611024
 20
-222.5015269862328
 30
0.0
 11
-2184.196387202806
 21
-204.2907856050392
 31
0.0
  0
LINE
  5
1F29
330
1F
100
AcDbEntity
  8
NOSNÉ KONSTRUKCE
100
AcDbLine
 10
-2187.922876628268
 20
-229.636961204384
 30
0.0
 11
-2186.336367611024
 21
-222.5015269862328
 31
0.0
  0
LINE
  5
1F2A
330
1F
100
AcDbEntity
  8
NOSNÉ KONSTRUKCE
100
AcDbLine
 10
-2175.968600943735
 20
-227.1157903221051
 30
0.0
 11
-2174.487724927435
 21
-210.2006671805561
 31
0.0
  0
LINE
  5
1F2B
330
1F
100
AcDbEntity
  8
NOSNÉ KONSTRUKCE
100
AcDbLine
 10
-2179.944797559881
 20
-222.8134126985628
 30
0.0
 11
-2179.944797559881
 21
-215.8322707181055
 31
0.0
  0
LINE
  5
1F2C
330
1F
100
AcDbEntity
  8
NOSNÉ KONSTRUKCE
100
AcDbLine
 10
-2168.328932765907
 20
-225.5592480878317
 30
0.0
 11
-2170.998537601357
 21
-262.1995866233651
 31
0.0
  0
LINE
  5
1F2D
330
1F
100
AcDbEntity
  8
NOSNÉ KONSTRUKCE
100
AcDbLine
 10
-2187.843746740021
 20
-267.028340162235
 30
0.0
 11
-2188.399027814906
 21
-261.3992621611346
 31
0.0
  0
LINE
  5
1F2E
330
1F
100
AcDbEntity
  8
NOSNÉ KONSTRUKCE
100
AcDbLine
 10
-2188.399027814906
 20
-261.3992621611346
 30
0.0
 11
-2187.843746740021
 21
-255.3737831742823
 31
0.0
  0
LINE
  5
1F2F
330
1F
100
AcDbEntity
  8
NOSNÉ KONSTRUKCE
100
AcDbLine
 10
-2183.582787604609
 20
-267.0273660267471
 30
0.0
 11
-2180.672407244208
 21
-258.3009340412922
 31
0.0
  0
LINE
  5
1F30
330
1F
100
AcDbEntity
  8
NOSNÉ KONSTRUKCE
100
AcDbLine
 10
-2187.843746740021
 20
-255.3737831742823
 30
0.0
 11
-2187.367595553391
 21
-245.01782095108
 31
0.0
  0
LINE
  5
1F31
330
1F
100
AcDbEntity
  8
NOSNÉ KONSTRUKCE
100
AcDbLine
 10
-2180.672407244208
 20
-258.3009340412922
 30
0.0
 11
-2180.672407244208
 21
-253.9377090287912
 31
0.0
  0
LINE
  5
1F32
330
1F
100
AcDbEntity
  8
NOSNÉ KONSTRUKCE
100
AcDbLine
 10
-2170.998537601357
 20
-262.1995866233651
 30
0.0
 11
-2170.527552770392
 21
-276.635192194552
 31
0.0
  0
LINE
  5
1F33
330
1F
100
AcDbEntity
  8
NOSNÉ KONSTRUKCE
100
AcDbLine
 10
-2178.930352976327
 20
-275.5353030299725
 30
0.0
 11
-2177.661034846424
 21
-254.3914036129231
 31
0.0
  0
LINE
  5
1F34
330
1F
100
AcDbEntity
  8
NOSNÉ KONSTRUKCE
100
AcDbLine
 10
-2185.4745494331
 20
-276.9173306953839
 30
0.0
 11
-2183.582787604609
 21
-267.0273660267471
 31
0.0
  0
LINE
  5
1F35
330
1F
100
AcDbEntity
  8
NOSNÉ KONSTRUKCE
100
AcDbLine
 10
-2189.616435637097
 20
-275.8869532774529
 30
0.0
 11
-2187.843746740021
 21
-267.028340162235
 31
0.0
  0
LINE
  5
1F36
330
1F
100
AcDbEntity
  8
NOSNÉ KONSTRUKCE
100
AcDbLine
 10
-2170.527552770392
 20
-276.635192194552
 30
0.0
 11
-2170.818526395229
 21
-287.9772953564365
 31
0.0
  0
LINE
  5
1F37
330
1F
100
AcDbEntity
  8
NOSNÉ KONSTRUKCE
100
AcDbLine
 10
-2178.729590454258
 20
-287.9772953564375
 30
0.0
 11
-2178.930352976327
 21
-275.5353030299725
 31
0.0
  0
LINE
  5
1F38
330
1F
100
AcDbEntity
  8
NOSNÉ KONSTRUKCE
100
AcDbLine
 10
-2187.973342468379
 20
-287.9772953564365
 30
0.0
 11
-2185.4745494331
 21
-276.9173306953839
 31
0.0
  0
LINE
  5
1F39
330
1F
100
AcDbEntity
  8
NOSNÉ KONSTRUKCE
100
AcDbLine
 10
-2167.485153835201
 20
237.8137564090889
 30
0.0
 11
-2167.968678663266
 21
215.2068087030861
 31
0.0
  0
LINE
  5
1F3A
330
1F
100
AcDbEntity
  8
NOSNÉ KONSTRUKCE
100
AcDbLine
 10
-2175.836256878232
 20
198.758821103454
 30
0.0
 11
-2175.697400802375
 21
203.5770741305536
 31
0.0
  0
LINE
  5
1F3B
330
1F
100
AcDbEntity
  8
NOSNÉ KONSTRUKCE
100
AcDbLine
 10
-2190.814974767512
 20
203.7790629281121
 30
0.0
 11
-2190.814974767512
 21
217.8707553963345
 31
0.0
  0
LINE
  5
1F3C
330
1F
100
AcDbEntity
  8
NOSNÉ KONSTRUKCE
100
AcDbLine
 10
-2181.130112330629
 20
198.758821103454
 30
0.0
 11
-2180.864573748331
 21
207.6244266910403
 31
0.0
  0
LINE
  5
1F3D
330
1F
100
AcDbEntity
  8
NOSNÉ KONSTRUKCE
100
AcDbLine
 10
-2186.016014119683
 20
201.8158371668109
 30
0.0
 11
-2185.406063077745
 21
209.4869557060706
 31
0.0
  0
LINE
  5
1F3E
330
1F
100
AcDbEntity
  8
NOSNÉ KONSTRUKCE
100
AcDbLine
 10
-2175.697400802375
 20
203.5770741305536
 30
0.0
 11
-2173.93789226063
 21
238.0317217827337
 31
0.0
  0
LINE
  5
1F3F
330
1F
100
AcDbEntity
  8
NOSNÉ KONSTRUKCE
100
AcDbLine
 10
-2180.864573748331
 20
207.6244266910403
 30
0.0
 11
-2180.538544210587
 21
238.2546834888676
 31
0.0
  0
LINE
  5
1F40
330
1F
100
AcDbEntity
  8
NOSNÉ KONSTRUKCE
100
AcDbLine
 10
-2185.406063077745
 20
209.4869557060706
 30
0.0
 11
-2185.406063077745
 21
238.4191021431893
 31
0.0
  0
LINE
  5
1F41
330
1F
100
AcDbEntity
  8
NOSNÉ KONSTRUKCE
100
AcDbLine
 10
-2190.82611151204
 20
202.9566917952829
 30
0.0
 11
-2187.593771836011
 21
238.4930001885591
 31
0.0
  0
LINE
  5
1F42
330
1F
100
AcDbEntity
  8
NOSNÉ KONSTRUKCE
100
AcDbLine
 10
-2187.500655446048
 20
189.4506303002385
 30
0.0
 11
-2186.016014119683
 21
201.8158371668109
 31
0.0
  0
LINE
  5
1F43
330
1F
100
AcDbEntity
  8
NOSNÉ KONSTRUKCE
100
AcDbLine
 10
-2167.968678663266
 20
215.2068087030861
 30
0.0
 11
-2169.538608640847
 21
188.218493223278
 31
0.0
  0
LINE
  5
1F44
330
1F
100
AcDbEntity
  8
NOSNÉ KONSTRUKCE
100
AcDbLine
 10
-2170.41154761827
 20
182.1768147240368
 30
0.0
 11
-2169.538608640847
 21
188.218493223278
 31
0.0
  0
LINE
  5
1F45
330
1F
100
AcDbEntity
  8
NOSNÉ KONSTRUKCE
100
AcDbLine
 10
-2180.581241463122
 20
171.1908393932285
 30
0.0
 11
-2180.788641090188
 21
175.9805605438464
 31
0.0
  0
LINE
  5
1F46
330
1F
100
AcDbEntity
  8
NOSNÉ KONSTRUKCE
100
AcDbLine
 10
-2170.41154761827
 20
182.1768147240368
 30
0.0
 11
-2168.719113715575
 21
149.1923345197687
 31
0.0
  0
LINE
  5
1F47
330
1F
100
AcDbEntity
  8
NOSNÉ KONSTRUKCE
100
AcDbLine
 10
-2168.719113715575
 20
149.1923345197687
 30
0.0
 11
-2166.82611151204
 21
131.5356682998885
 31
0.0
  0
LINE
  5
1F48
330
1F
100
AcDbEntity
  8
NOSNÉ KONSTRUKCE
100
AcDbLine
 10
-2187.995545617654
 20
164.4729485088505
 30
0.0
 11
-2187.500655446048
 21
189.4506303002385
 31
0.0
  0
LINE
  5
1F49
330
1F
100
AcDbEntity
  8
NOSNÉ KONSTRUKCE
100
AcDbLine
 10
-2178.966371072067
 20
137.9105568840836
 30
0.0
 11
-2180.581241463122
 21
171.1908393932285
 31
0.0
  0
LINE
  5
1F4A
330
1F
100
AcDbEntity
  8
NOSNÉ KONSTRUKCE
100
AcDbLine
 10
-2174.007973310043
 20
165.6845746219046
 30
0.0
 11
-2174.651824720061
 21
175.9805605438464
 31
0.0
  0
LINE
  5
1F4B
330
1F
100
AcDbEntity
  8
NOSNÉ KONSTRUKCE
100
AcDbLine
 10
-2173.159523442263
 20
138.0723073219746
 30
0.0
 11
-2174.007973310043
 21
165.6845746219046
 31
0.0
  0
LINE
  5
1F4C
330
1F
100
AcDbEntity
  8
NOSNÉ KONSTRUKCE
100
AcDbLine
 10
-2185.768583628108
 20
139.2479445405811
 30
0.0
 11
-2187.995545617654
 21
164.4729485088505
 31
0.0
  0
LINE
  5
1F4D
330
1F
100
AcDbEntity
  8
POPIS
100
AcDbLine
 10
-2182.468257260661
 20
176.5904103346615
 30
0.0
 11
-2179.048783472925
 21
181.9717069821394
 31
0.0
  0
LINE
  5
1F4E
330
1F
100
AcDbEntity
  8
POPIS
100
AcDbLine
 10
-2175.62930968518
 20
176.5904103346615
 30
0.0
 11
-2179.048783472917
 21
181.9717069821394
 31
0.0
  0
HATCH
  5
1F4F
330
1F
100
AcDbEntity
  8
POPIS
100
AcDbHatch
 10
0.0
 20
0.0
 30
0.0
210
0.0
220
0.0
230
1.0
  2
SOLID
 70
     1
 71
     0
 91
        1
 92
        7
 72
     0
 73
     1
 93
        8
 10
-2177.155055633138
 20
189.526054233745
 10
-2173.476214295536
 20
189.526054233745
 10
-2179.048783472917
 20
197.3269063166412
 10
-2184.621352650301
 20
189.526054233745
 10
-2180.942511312703
 20
189.526054233745
 10
-2182.468257260661
 20
176.5904103346597
 10
-2179.048783472925
 20
181.9717069821431
 10
-2175.629309685184
 20
176.5904103346597
 97
        0
 75
     0
 76
     1
 47
0.3835833255279223
 98
        1
 10
-2178.640600725666
 20
186.6178710532453
  0
LINE
  5
1F50
330
1F
100
AcDbEntity
  8
POPIS
100
AcDbLine
 10
-2179.048783472921
 20
197.3221852198507
 30
0.0
 11
-2184.621352650301
 21
189.5213331369536
 31
0.0
  0
LINE
  5
1F51
330
1F
100
AcDbEntity
  8
POPIS
100
AcDbLine
 10
-2184.621352650301
 20
189.5213331369536
 30
0.0
 11
-2180.942511312703
 21
189.5213331369536
 31
0.0
  0
LINE
  5
1F52
330
1F
100
AcDbEntity
  8
POPIS
100
AcDbLine
 10
-2180.942511312703
 20
189.526054233745
 30
0.0
 11
-2182.468257260661
 21
176.5904103346615
 31
0.0
  0
LINE
  5
1F53
330
1F
100
AcDbEntity
  8
POPIS
100
AcDbLine
 10
-2177.155055633138
 20
189.526054233745
 30
0.0
 11
-2175.62930968518
 21
176.5904103346615
 31
0.0
  0
LINE
  5
1F54
330
1F
100
AcDbEntity
  8
POPIS
100
AcDbLine
 10
-2173.47621429554
 20
189.5213331369536
 30
0.0
 11
-2177.155055633138
 21
189.5213331369536
 31
0.0
  0
LINE
  5
1F55
330
1F
100
AcDbEntity
  8
POPIS
100
AcDbLine
 10
-2179.048783472921
 20
197.3221852198507
 30
0.0
 11
-2173.47621429554
 21
189.5213331369536
 31
0.0
  0
LINE
  5
1F56
330
1F
100
AcDbEntity
  8
NOSNÉ KONSTRUKCE
100
AcDbLine
 10
-2183.541650827013
 20
118.9690413584908
 30
0.0
 11
-2185.768583628108
 21
139.2479445405811
 31
0.0
  0
LINE
  5
1F57
330
1F
100
AcDbEntity
  8
NOSNÉ KONSTRUKCE
100
AcDbLine
 10
-2178.107403562549
 20
124.9407264189108
 30
0.0
 11
-2179.126051282917
 21
133.5217235837958
 31
0.0
  0
LINE
  5
1F58
330
1F
100
AcDbEntity
  8
NOSNÉ KONSTRUKCE
100
AcDbLine
 10
-2179.126051282917
 20
133.5217235837958
 30
0.0
 11
-2178.966371072067
 21
137.9105568840836
 31
0.0
  0
LINE
  5
1F59
330
1F
100
AcDbEntity
  8
NOSNÉ KONSTRUKCE
100
AcDbLine
 10
-2189.340928848542
 20
117.3646943270837
 30
0.0
 11
-2190.215911017469
 21
138.9361851050748
 31
0.0
  0
LINE
  5
1F5A
330
1F
100
AcDbEntity
  8
NOSNÉ KONSTRUKCE
100
AcDbLine
 10
-2177.230553332818
 20
111.2110443652677
 30
0.0
 11
-2178.107403562549
 21
124.9407264189108
 31
0.0
  0
LINE
  5
1F5B
330
1F
100
AcDbEntity
  8
NOSNÉ KONSTRUKCE
100
AcDbLine
 10
-2173.37108132866
 20
108.682296873631
 30
0.0
 11
-2173.159523442263
 21
138.0723073219746
 31
0.0
  0
LINE
  5
1F5C
330
1F
100
AcDbEntity
  8
NOSNÉ KONSTRUKCE
100
AcDbLine
 10
-2184.531401981774
 20
95.7224704888763
 30
0.0
 11
-2183.541650827013
 21
118.9690413584908
 31
0.0
  0
LINE
  5
1F5D
330
1F
100
AcDbEntity
  8
NOSNÉ KONSTRUKCE
100
AcDbLine
 10
-2178.685772701472
 20
91.14024538685816
 30
0.0
 11
-2177.230553332818
 21
111.2110443652677
 31
0.0
  0
LINE
  5
1F5E
330
1F
100
AcDbEntity
  8
NOSNÉ KONSTRUKCE
100
AcDbLine
 10
-2191.090922374845
 20
98.12528390927083
 30
0.0
 11
-2189.340928848542
 21
117.3646943270837
 31
0.0
  0
LINE
  5
1F5F
330
1F
100
AcDbEntity
  8
NOSNÉ KONSTRUKCE
100
AcDbLine
 10
-2179.267848773553
 20
78.92323339140467
 30
0.0
 11
-2178.685772701472
 21
91.14024538685816
 31
0.0
  0
LINE
  5
1F60
330
1F
100
AcDbEntity
  8
NOSNÉ KONSTRUKCE
100
AcDbLine
 10
-2186.961632337879
 20
72.76335978618999
 30
0.0
 11
-2184.531401981774
 21
95.7224704888763
 31
0.0
  0
LINE
  5
1F61
330
1F
100
AcDbEntity
  8
NOSNÉ KONSTRUKCE
100
AcDbLine
 10
-2173.582639215048
 20
70.62329235457991
 30
0.0
 11
-2173.37108132866
 21
108.682296873631
 31
0.0
  0
LINE
  5
1F62
330
1F
100
AcDbEntity
  8
NOSNÉ KONSTRUKCE
100
AcDbLine
 10
-2168.196144254965
 20
89.31531078587841
 30
0.0
 11
-2169.990708544588
 21
69.51472616833098
 31
0.0
  0
LINE
  5
1F63
330
1F
100
AcDbEntity
  8
NOSNÉ KONSTRUKCE
100
AcDbLine
 10
-2187.737665660934
 20
52.81030492510081
 30
0.0
 11
-2186.961632337879
 21
72.76335978618999
 31
0.0
  0
LINE
  5
1F64
330
1F
100
AcDbEntity
  8
NOSNÉ KONSTRUKCE
100
AcDbLine
 10
-2179.70220209963
 20
47.40612594509047
 30
0.0
 11
-2180.138773747916
 21
56.71433329191177
 31
0.0
  0
LINE
  5
1F65
330
1F
100
AcDbEntity
  8
NOSNÉ KONSTRUKCE
100
AcDbLine
 10
-2180.138773747916
 20
56.71433329191177
 30
0.0
 11
-2179.704391233383
 21
63.07020656537907
 31
0.0
  0
LINE
  5
1F66
330
1F
100
AcDbEntity
  8
NOSNÉ KONSTRUKCE
100
AcDbLine
 10
-2179.704391233383
 20
63.07020656537907
 30
0.0
 11
-2179.267848773553
 21
78.92323339140467
 31
0.0
  0
LINE
  5
1F67
330
1F
100
AcDbEntity
  8
NOSNÉ KONSTRUKCE
100
AcDbLine
 10
-2174.004032869277
 20
49.52932640110566
 30
0.0
 11
-2173.582639215048
 21
70.62329235457991
 31
0.0
  0
LINE
  5
1F68
330
1F
100
AcDbEntity
  8
NOSNÉ KONSTRUKCE
100
AcDbLine
 10
-2169.990708544588
 20
69.51472616833098
 30
0.0
 11
-2169.87853733082
 21
49.89616057082139
 31
0.0
  0
LINE
  5
1F69
330
1F
100
AcDbEntity
  8
NOSNÉ KONSTRUKCE
100
AcDbLine
 10
-2169.87853733082
 20
49.89616057082139
 30
0.0
 11
-2168.532541142478
 21
42.60926632370728
 31
0.0
  0
LINE
  5
1F6A
330
1F
100
AcDbEntity
  8
NOSNÉ KONSTRUKCE
100
AcDbLine
 10
-2187.959702200918
 20
36.38708412630194
 30
0.0
 11
-2187.737665660934
 21
52.81030492510081
 31
0.0
  0
LINE
  5
1F6B
330
1F
100
AcDbEntity
  8
NOSNÉ KONSTRUKCE
100
AcDbLine
 10
-2190.215911017469
 20
-15.45559480783367
 30
0.0
 11
-2190.82611151204
 21
-5.687349739908768
 31
0.0
  0
LINE
  5
1F6C
330
1F
100
AcDbEntity
  8
NOSNÉ KONSTRUKCE
100
AcDbLine
 10
-2190.82611151204
 20
-53.35516816383597
 30
0.0
 11
-2189.340928848542
 21
-37.02708558582481
 31
0.0
  0
LINE
  5
1F6D
330
1F
100
AcDbEntity
  8
NOSNÉ KONSTRUKCE
100
AcDbLine
 10
-2189.340928848542
 20
-37.02708558582481
 30
0.0
 11
-2190.215911017469
 21
-15.45559480783367
 31
0.0
  0
LINE
  5
1F6E
330
1F
100
AcDbEntity
  8
NOSNÉ KONSTRUKCE
100
AcDbLine
 10
-2178.245202235521
 20
-4.473479939886146
 30
0.0
 11
-2177.082859775262
 21
9.009799953725178
 31
0.0
  0
LINE
  5
1F6F
330
1F
100
AcDbEntity
  8
NOSNÉ KONSTRUKCE
100
AcDbLine
 10
-2177.082859775262
 20
9.009799953725178
 30
0.0
 11
-2179.411164063589
 21
33.73471162531905
 31
0.0
  0
LINE
  5
1F70
330
1F
100
AcDbEntity
  8
NOSNÉ KONSTRUKCE
100
AcDbLine
 10
-2179.411164063589
 20
33.73471162531905
 30
0.0
 11
-2179.70220209963
 21
47.40612594509047
 31
0.0
  0
LINE
  5
1F71
330
1F
100
AcDbEntity
  8
NOSNÉ KONSTRUKCE
100
AcDbLine
 10
-2174.426973511363
 20
7.875870165673859
 30
0.0
 11
-2174.850089284147
 21
30.7112656612885
 31
0.0
  0
LINE
  5
1F72
330
1F
100
AcDbEntity
  8
NOSNÉ KONSTRUKCE
100
AcDbLine
 10
-2174.850089284147
 20
30.7112656612885
 30
0.0
 11
-2174.004032869277
 21
49.52932640110566
 31
0.0
  0
LINE
  5
1F73
330
1F
100
AcDbEntity
  8
NOSNÉ KONSTRUKCE
100
AcDbLine
 10
-2180.57353571229
 20
-21.34460462852393
 30
0.0
 11
-2180.282497676249
 21
-12.03639728170628
 31
0.0
  0
LINE
  5
1F74
330
1F
100
AcDbEntity
  8
NOSNÉ KONSTRUKCE
100
AcDbLine
 10
-2180.282497676249
 20
-12.03639728170628
 30
0.0
 11
-2178.245202235521
 21
-4.473479939886146
 31
0.0
  0
LINE
  5
1F75
330
1F
100
AcDbEntity
  8
NOSNÉ KONSTRUKCE
100
AcDbLine
 10
-2174.426973511363
 20
-27.85731371569227
 30
0.0
 11
-2174.426973511363
 21
7.875870165673859
 31
0.0
  0
LINE
  5
1F76
330
1F
100
AcDbEntity
  8
NOSNÉ KONSTRUKCE
100
AcDbLine
 10
-2167.184647704874
 20
-4.448098298540116
 30
0.0
 11
-2167.968678663266
 21
-41.10505125602458
 31
0.0
  0
LINE
  5
1F77
330
1F
100
AcDbEntity
  8
NOSNÉ KONSTRUKCE
100
AcDbLine
 10
-2180.864573748331
 20
-48.68743326807043
 30
0.0
 11
-2180.57353571229
 21
-21.34460462852393
 31
0.0
  0
LINE
  5
1F78
330
1F
100
AcDbEntity
  8
NOSNÉ KONSTRUKCE
100
AcDbLine
 10
-2175.697400802375
 20
-52.73478582855705
 30
0.0
 11
-2174.426973511363
 21
-27.85731371569227
 31
0.0
  0
LINE
  5
1F79
330
1F
100
AcDbEntity
  8
NOSNÉ KONSTRUKCE
100
AcDbLine
 10
-2167.968678663266
 20
-41.10505125602458
 30
0.0
 11
-2169.538608640847
 21
-68.09336673583266
 31
0.0
  0
LINE
  5
1F7A
330
1F
100
AcDbEntity
  8
NOSNÉ KONSTRUKCE
100
AcDbLine
 10
-2181.15447343482
 20
-65.34753134656376
 30
0.0
 11
-2181.15447343482
 21
-58.36638936610643
 31
0.0
  0
LINE
  5
1F7B
330
1F
100
AcDbEntity
  8
NOSNÉ KONSTRUKCE
100
AcDbLine
 10
-2181.15447343482
 20
-58.36638936610643
 30
0.0
 11
-2180.864573748331
 21
-48.68743326807043
 31
0.0
  0
LINE
  5
1F7C
330
1F
100
AcDbEntity
  8
NOSNÉ KONSTRUKCE
100
AcDbLine
 10
-2177.178276818675
 20
-69.64990897010602
 30
0.0
 11
-2175.697400802375
 21
-52.73478582855705
 31
0.0
  0
LINE
  5
1F7D
330
1F
100
AcDbEntity
  8
NOSNÉ KONSTRUKCE
100
AcDbLine
 10
-2186.183263938808
 20
8.534169281549566
 30
0.0
 11
-2187.959702200918
 21
36.38708412630194
 31
0.0
  0
LINE
  5
1F7E
330
1F
100
AcDbEntity
  8
NOSNÉ KONSTRUKCE
100
AcDbLine
 10
-2185.406063077745
 20
-27.62747185897342
 30
0.0
 11
-2185.961198210381
 21
-17.1965012031319
 31
0.0
  0
LINE
  5
1F7F
330
1F
100
AcDbEntity
  8
NOSNÉ KONSTRUKCE
100
AcDbLine
 10
-2185.961198210381
 20
-17.1965012031319
 30
0.0
 11
-2186.183263938808
 21
8.534169281549566
 31
0.0
  0
LINE
  5
1F80
330
1F
100
AcDbEntity
  8
NOSNÉ KONSTRUKCE
100
AcDbLine
 10
-2185.406063077745
 20
-46.82490425304012
 30
0.0
 11
-2185.406063077745
 21
-27.62747185897342
 31
0.0
  0
LINE
  5
1F81
330
1F
100
AcDbEntity
  8
NOSNÉ KONSTRUKCE
100
AcDbLine
 10
-2189.132552503207
 20
-72.17107985238499
 30
0.0
 11
-2187.546043485963
 21
-65.03564563423378
 31
0.0
  0
LINE
  5
1F82
330
1F
100
AcDbEntity
  8
NOSNÉ KONSTRUKCE
100
AcDbLine
 10
-2187.546043485963
 20
-65.03564563423378
 30
0.0
 11
-2185.406063077745
 21
-46.82490425304012
 31
0.0
  0
LINE
  5
1F83
330
1F
100
AcDbEntity
  8
NOSNÉ KONSTRUKCE
100
AcDbLine
 10
-2166.82611151204
 20
-287.9772953564383
 30
0.0
 11
-2166.826111512036
 21
237.7914947897975
 31
0.0
  0
LINE
  5
1F84
330
1F
100
AcDbEntity
  8
NOSNÉ KONSTRUKCE
100
AcDbLine
 10
-2181.882083119148
 20
-100.8350526892932
 30
0.0
 11
-2181.882083119148
 21
-96.47182767679215
 31
0.0
  0
LINE
  5
1F85
330
1F
100
AcDbEntity
  8
NOSNÉ KONSTRUKCE
100
AcDbLine
 10
-2181.882083119148
 20
-74.51030387281162
 30
0.0
 11
-2181.15447343482
 21
-65.34753134656376
 31
0.0
  0
LINE
  5
1F86
330
1F
100
AcDbEntity
  8
NOSNÉ KONSTRUKCE
100
AcDbLine
 10
-2182.75519722727
 20
-86.72731586826875
 30
0.0
 11
-2181.882083119148
 21
-74.51030387281162
 31
0.0
  0
LINE
  5
1F87
330
1F
100
AcDbEntity
  8
NOSNÉ KONSTRUKCE
100
AcDbLine
 10
-2181.882083119148
 20
-96.47182767679215
 30
0.0
 11
-2182.75519722727
 21
-86.72731586826875
 31
0.0
  0
LINE
  5
1F88
330
1F
100
AcDbEntity
  8
NOSNÉ KONSTRUKCE
100
AcDbLine
 10
-2189.053422614961
 20
-97.90790182228329
 30
0.0
 11
-2188.57727142833
 21
-87.55193959908092
 31
0.0
  0
LINE
  5
1F89
330
1F
100
AcDbEntity
  8
NOSNÉ KONSTRUKCE
100
AcDbLine
 10
-2188.57727142833
 20
-87.55193959908092
 30
0.0
 11
-2189.132552503207
 21
-72.17107985238499
 31
0.0
  0
LINE
  5
1F8A
330
1F
100
AcDbEntity
  8
NOSNÉ KONSTRUKCE
100
AcDbLine
 10
-2178.870710721363
 20
-96.92552226092402
 30
0.0
 11
-2177.178276818675
 21
-69.64990897010602
 31
0.0
  0
LINE
  5
1F8B
330
1F
100
AcDbEntity
  8
NOSNÉ KONSTRUKCE
100
AcDbLine
 10
-2169.538608640847
 20
-68.09336673583266
 30
0.0
 11
-2172.208213476297
 21
-104.733705271366
 31
0.0
  0
LINE
  5
1F8C
330
1F
100
AcDbEntity
  8
NOSNÉ KONSTRUKCE
100
AcDbLine
 10
-2189.053422614961
 20
-109.5624588102359
 30
0.0
 11
-2189.608703689846
 21
-103.9333808091355
 31
0.0
  0
LINE
  5
1F8D
330
1F
100
AcDbEntity
  8
NOSNÉ KONSTRUKCE
100
AcDbLine
 10
-2184.792463479549
 20
-109.561484674748
 30
0.0
 11
-2181.882083119148
 21
-100.8350526892932
 31
0.0
  0
LINE
  5
1F8E
330
1F
100
AcDbEntity
  8
NOSNÉ KONSTRUKCE
100
AcDbLine
 10
-2189.608703689846
 20
-103.9333808091355
 30
0.0
 11
-2189.053422614961
 21
-97.90790182228329
 31
0.0
  0
LINE
  5
1F8F
330
1F
100
AcDbEntity
  8
NOSNÉ KONSTRUKCE
100
AcDbLine
 10
-2190.82611151204
 20
-287.9772953564383
 30
0.0
 11
-2190.82611151204
 21
238.6021845501095
 31
0.0
  0
LINE
  5
1F90
330
1F
100
AcDbEntity
  8
NOSNÉ KONSTRUKCE
100
AcDbLine
 10
-2178.20148818865
 20
-123.73116972668
 30
0.0
 11
-2180.140028851266
 21
-118.0694216779734
 31
0.0
  0
LINE
  5
1F91
330
1F
100
AcDbEntity
  8
NOSNÉ KONSTRUKCE
100
AcDbLine
 10
-2171.737228645331
 20
-119.1693108425529
 30
0.0
 11
-2172.028202270168
 21
-130.5114140044374
 31
0.0
  0
LINE
  5
1F92
330
1F
100
AcDbEntity
  8
NOSNÉ KONSTRUKCE
100
AcDbLine
 10
-2190.826111512036
 20
-118.4210719254538
 30
0.0
 11
-2189.053422614961
 21
-109.5624588102359
 31
0.0
  0
LINE
  5
1F93
330
1F
100
AcDbEntity
  8
NOSNÉ KONSTRUKCE
100
AcDbLine
 10
-2186.750026325979
 20
-121.0787972256971
 30
0.0
 11
-2184.792463479549
 21
-109.561484674748
 31
0.0
  0
LINE
  5
1F94
330
1F
100
AcDbEntity
  8
NOSNÉ KONSTRUKCE
100
AcDbLine
 10
-2180.140028851266
 20
-118.0694216779734
 30
0.0
 11
-2178.870710721363
 21
-96.92552226092402
 31
0.0
  0
LINE
  5
1F95
330
1F
100
AcDbEntity
  8
NOSNÉ KONSTRUKCE
100
AcDbLine
 10
-2172.208213476297
 20
-104.733705271366
 30
0.0
 11
-2171.737228645331
 21
-119.1693108425529
 31
0.0
  0
LINE
  5
1F96
330
1F
100
AcDbEntity
  8
SPOJOVACÍ
  6
DASHDOT2
100
AcDbLine
 10
-2169.64901760079
 20
10.40408962447827
 30
0.0
 11
-1984.402032239504
 21
10.40408962447918
 31
0.0
  0
LINE
  5
1F97
330
1F
100
AcDbEntity
  8
SPOJOVACÍ
100
AcDbLine
 10
-2077.993706939236
 20
11.59411064494042
 30
0.0
 11
-2077.427537108033
 21
9.481136069172407
 31
0.0
  0
LINE
  5
1F98
330
1F
100
AcDbEntity
  8
SPOJOVACÍ
100
AcDbLine
 10
-2076.159473919858
 20
11.74625508789404
 30
0.0
 11
-2075.521075945751
 21
9.363721413073562
 31
0.0
  0
LINE
  5
1F99
330
1F
100
AcDbEntity
  8
SPOJOVACÍ
100
AcDbLine
 10
-2076.45703749749
 20
12.85677747810177
 30
0.0
 11
-2075.103869751601
 21
7.806686699271722
 31
0.0
  0
LINE
  5
1F9A
330
1F
100
AcDbEntity
  8
SPOJOVACÍ
100
AcDbLine
 10
-2078.33203749749
 20
12.85677747810177
 30
0.0
 11
-2076.984340307466
 21
7.827103091707158
 31
0.0
  0
LINE
  5
1F9B
330
1F
100
AcDbEntity
  8
SPOJOVACÍ
100
AcDbLine
 10
-2074.586738711074
 20
12.8743226460524
 30
0.0
 11
-2073.226079421881
 21
7.796273046989426
 31
0.0
  0
LINE
  5
1F9C
330
1F
100
AcDbEntity
  8
SPOJOVACÍ
100
AcDbLine
 10
-2072.71379178196
 20
12.8819848109083
 30
0.0
 11
-2071.350957655235
 21
7.7958186076753
 31
0.0
  0
LINE
  5
1F9D
330
1F
100
AcDbEntity
  8
SPOJOVACÍ
100
AcDbLine
 10
-2070.838185602715
 20
12.87972251915516
 30
0.0
 11
-2069.478493096485
 21
7.805281003229993
 31
0.0
  0
LINE
  5
1F9E
330
1F
100
AcDbEntity
  8
SPOJOVACÍ
100
AcDbLine
 10
-2068.959908762586
 20
12.86749318531337
 30
0.0
 11
-2067.608674692757
 21
7.824618983787786
 31
0.0
  0
LINE
  5
1F9F
330
1F
100
AcDbEntity
  8
SPOJOVACÍ
100
AcDbLine
 10
-2067.078949541901
 20
12.84525307094054
 30
0.0
 11
-2065.741491688106
 21
7.853792407600394
 31
0.0
  0
LINE
  5
1FA0
330
1F
100
AcDbEntity
  8
SPOJOVACÍ
100
AcDbLine
 10
-2065.195295906214
 20
12.8129572628809
 30
0.0
 11
-2063.876933618303
 21
7.89276222161834
 31
0.0
  0
LINE
  5
1FA1
330
1F
100
AcDbEntity
  8
SPOJOVACÍ
  6
DASHED
100
AcDbLine
 10
-2031.017637974848
 20
5.841589624472817
 30
0.0
 11
-2156.641218297958
 21
5.841589624474636
 31
0.0
  0
LINE
  5
1FA2
330
1F
100
AcDbEntity
  8
SPOJOVACÍ
  6
DASHED
100
AcDbLine
 10
-2031.017637974844
 20
14.96658962447918
 30
0.0
 11
-2156.641218297958
 21
14.96658962447827
 31
0.0
  0
LINE
  5
1FA3
330
1F
100
AcDbEntity
  8
SPOJOVACÍ
  6
DASHED
100
AcDbLine
 10
-2019.008477371666
 20
10.40408962447918
 30
0.0
 11
-2022.797338513224
 21
3.841589624479183
 31
0.0
  0
LINE
  5
1FA4
330
1F
100
AcDbEntity
  8
SPOJOVACÍ
  6
DASHED
100
AcDbLine
 10
-2028.383477371666
 20
10.40408962447918
 30
0.0
 11
-2031.017637974848
 21
5.841589624472817
 31
0.0
  0
LINE
  5
1FA5
330
1F
100
AcDbEntity
  8
SPOJOVACÍ
100
AcDbLine
 10
-2036.607938329882
 20
11.08741529675853
 30
0.0
 11
-2036.217277946311
 21
9.629450896767139
 31
0.0
  0
LINE
  5
1FA6
330
1F
100
AcDbEntity
  8
SPOJOVACÍ
100
AcDbLine
 10
-2030.813005389445
 20
10.45321692915558
 30
0.0
 11
-2030.753449173349
 21
10.23095010477436
 31
0.0
  0
LINE
  5
1FA7
330
1F
100
AcDbEntity
  8
SPOJOVACÍ
100
AcDbLine
 10
-2032.747616327676
 20
10.67568797934063
 30
0.0
 11
-2032.572241933368
 21
10.02118182942422
 31
0.0
  0
LINE
  5
1FA8
330
1F
100
AcDbEntity
  8
SPOJOVACÍ
100
AcDbLine
 10
-2034.679254313694
 20
10.88706382078771
 30
0.0
 11
-2034.39351621822
 21
9.820674730829068
 31
0.0
  0
LINE
  5
1FA9
330
1F
100
AcDbEntity
  8
SPOJOVACÍ
100
AcDbLine
 10
-2038.533686893573
 20
11.2768115148533
 30
0.0
 11
-2038.043533260686
 21
9.447533253410711
 31
0.0
  0
LINE
  5
1FAA
330
1F
100
AcDbEntity
  8
SPOJOVACÍ
100
AcDbLine
 10
-2040.456518068211
 20
11.4553198887911
 30
0.0
 11
-2039.872288531663
 21
9.274945575114088
 31
0.0
  0
LINE
  5
1FAB
330
1F
100
AcDbEntity
  8
SPOJOVACÍ
100
AcDbLine
 10
-2042.376449474159
 20
11.62300617863684
 30
0.0
 11
-2041.703550359565
 21
9.111712494609037
 31
0.0
  0
LINE
  5
1FAC
330
1F
100
AcDbEntity
  8
SPOJOVACÍ
100
AcDbLine
 10
-2044.293498299066
 20
11.77993452959299
 30
0.0
 11
-2043.527845355016
 21
8.922478841445354
 31
0.0
  0
LINE
  5
1FAD
330
1F
100
AcDbEntity
  8
SPOJOVACÍ
  6
DASHED
100
AcDbLine
 10
-2028.383477371666
 20
10.40408962448009
 30
0.0
 11
-2031.017637974844
 21
14.96658962447918
 31
0.0
  0
LINE
  5
1FAE
330
1F
100
AcDbEntity
  8
SPOJOVACÍ
  6
DASHED
100
AcDbLine
 10
-2019.008477371666
 20
10.40408962447918
 30
0.0
 11
-2022.797338513221
 21
16.96658962447827
 31
0.0
  0
LINE
  5
1FAF
330
1F
100
AcDbEntity
  8
SPOJOVACÍ
100
AcDbLine
 10
-2049.94771913037
 20
11.8889881566497
 30
0.0
 11
-2049.053803459606
 21
8.552849455694286
 31
0.0
  0
LINE
  5
1FB0
330
1F
100
AcDbEntity
  8
SPOJOVACÍ
100
AcDbLine
 10
-2057.633485163318
 20
12.58227642993506
 30
0.0
 11
-2056.444751336985
 21
8.145861393400537
 31
0.0
  0
LINE
  5
1FB1
330
1F
100
AcDbEntity
  8
SPOJOVACÍ
100
AcDbLine
 10
-2055.736167483828
 20
12.49898571618132
 30
0.0
 11
-2054.600087706847
 21
8.259078267033601
 31
0.0
  0
LINE
  5
1FB2
330
1F
100
AcDbEntity
  8
SPOJOVACÍ
100
AcDbLine
 10
-2053.836076218503
 20
12.40534383916338
 30
0.0
 11
-2052.744158363002
 21
8.330250924752817
 31
0.0
  0
LINE
  5
1FB3
330
1F
100
AcDbEntity
  8
SPOJOVACÍ
100
AcDbLine
 10
-2051.933196947513
 20
12.30129698335576
 30
0.0
 11
-2050.897705332947
 21
8.436789666971435
 31
0.0
  0
LINE
  5
1FB4
330
1F
100
AcDbEntity
  8
SPOJOVACÍ
100
AcDbLine
 10
-2059.536963047565
 20
12.688557340854
 30
0.0
 11
-2058.298908647284
 21
8.068075416460942
 31
0.0
  0
LINE
  5
1FB5
330
1F
100
AcDbEntity
  8
SPOJOVACÍ
100
AcDbLine
 10
-2061.394177485442
 20
12.62218071936831
 30
0.0
 11
-2060.296744551702
 21
8.526505252752485
 31
0.0
  0
LINE
  5
1FB6
330
1F
100
AcDbEntity
  8
SPOJOVACÍ
100
AcDbLine
 10
-2063.248804346534
 20
12.54614712984903
 30
0.0
 11
-2062.014990305808
 21
7.941490442779013
 31
0.0
  0
LINE
  5
1FB7
330
1F
100
AcDbEntity
  8
SPOJOVACÍ
100
AcDbLine
 10
-2048.108435219091
 20
12.0222824144289
 30
0.0
 11
-2047.212444698645
 21
8.678400269008761
 31
0.0
  0
LINE
  5
1FB8
330
1F
100
AcDbEntity
  8
SPOJOVACÍ
100
AcDbLine
 10
-2046.2076813079
 20
11.92616750935803
 30
0.0
 11
-2045.373621254624
 21
8.813413013967419
 31
0.0
  0
LINE
  5
1FB9
330
1F
100
AcDbEntity
  8
SPOJOVACÍ
  6
DASHED
100
AcDbLine
 10
-2022.797338513224
 20
3.841589624479183
 30
0.0
 11
-2155.654857568981
 21
3.841589624474636
 31
0.0
  0
LINE
  5
1FBA
330
1F
100
AcDbEntity
  8
SPOJOVACÍ
  6
DASHED
100
AcDbLine
 10
-2022.797338513221
 20
16.96658962447827
 30
0.0
 11
-2155.654857568981
 21
16.96658962447827
 31
0.0
  0
LWPOLYLINE
  5
1FBB
330
1F
100
AcDbEntity
  8
NOSNÉ KONSTRUKCE
100
AcDbPolyline
 90
        7
 70
     0
 43
0.0
 10
-2159.752263266058
 20
60.40408962447827
 42
-0.0203924744732807
 10
-2160.654347250467
 20
59.39095959532415
 42
-0.0273961979096945
 10
-2161.504211600662
 20
58.60278322129807
 42
-0.0243529190212958
 10
-2162.667332093082
 20
57.72902387663044
 42
-0.0398020282482987
 10
-2163.442290630638
 20
57.28939513318391
 42
-0.104168275620852
 10
-2163.828701766982
 20
57.19937867300678
 42
-0.007272956268647
 10
-2164.267031745741
 20
57.18092532171204
 42
-0.007272956268647
  0
LWPOLYLINE
  5
1FBC
330
1F
100
AcDbEntity
  8
NOSNÉ KONSTRUKCE
100
AcDbPolyline
 90
        2
 70
     0
 43
0.0
 10
-2086.209256202953
 20
43.06567246672739
 10
-2080.595618813993
 20
40.47841540785111
  0
LWPOLYLINE
  5
1FBD
330
1F
100
AcDbEntity
  8
NOSNÉ KONSTRUKCE
100
AcDbPolyline
 90
        9
 70
     0
 43
0.0
 10
-2154.402576931537
 20
60.40408962447646
 42
-0.0064239028828688
 10
-2154.441445371721
 20
60.18497596512634
 42
-0.0832048017309575
 10
-2155.225627974399
 20
57.85476238547153
 42
-0.0336767237692336
 10
-2156.928444533321
 20
55.12648786601085
 42
-0.0844635135812105
 10
-2157.848254293214
 20
54.22206626101569
 42
-0.0495829410719565
 10
-2159.596932730568
 20
53.24541675370301
 42
-0.0322692699774654
 10
-2162.488286911659
 20
52.20389325230235
 42
-0.0276160659512937
 10
-2163.34386334995
 20
52.00715782335783
 42
-0.0126891984598699
 10
-2164.267031745741
 20
51.87195543381631
  0
LWPOLYLINE
  5
1FC8
330
1F
100
AcDbEntity
  8
NOSNÉ KONSTRUKCE
100
AcDbPolyline
 90
       11
 70
     0
 43
0.0
 10
-2147.174525910803
 20
60.40408962447646
 42
-0.0072417954699014
 10
-2147.230096278643
 20
59.99268441320191
 42
-0.0707158694326265
 10
-2147.761222795062
 20
58.05658096060824
 42
-0.033952657250207
 10
-2150.009878634471
 20
53.70354323543461
 42
-0.0571374688189033
 10
-2151.796035394323
 20
51.39661895174822
 42
-0.0274923553235744
 10
-2154.393341124876
 20
49.01154362861371
 42
-0.0255412025538677
 10
-2157.444771162587
 20
46.75482995159427
 42
-0.0272796991712396
 10
-2161.557770315772
 20
44.33849406993203
 42
-0.056967459841729
 10
-2163.698717596508
 20
43.52575823473261
 42
-0.0373408083348504
 10
-2163.921071971981
 20
43.4865926937814
 42
-0.0052305969362967
 10
-2164.267031745741
 20
43.45563572687706
  0
LWPOLYLINE
  5
1FD5
330
1F
100
AcDbEntity
  8
NOSNÉ KONSTRUKCE
100
AcDbPolyline
 90
        3
 70
     0
 43
0.0
 10
-2138.266056662792
 20
53.9049200552231
 10
-2118.2698042308
 20
44.68889100470323
 10
-2114.269866597085
 20
44.04349352936105
  0
LWPOLYLINE
  5
1FD6
330
1F
100
AcDbEntity
  8
NOSNÉ KONSTRUKCE
100
AcDbPolyline
 90
        2
 70
     0
 43
0.0
 10
-2083.131139056309
 20
13.3219248509381
 42
-0.2104338366210547
 10
-2163.21579301609
 20
-39.59591037552172
  0
LWPOLYLINE
  5
1FD7
330
1F
100
AcDbEntity
  8
NOSNÉ KONSTRUKCE
100
AcDbPolyline
 90
        3
 70
     0
 43
0.0
 10
-2158.654975727582
 20
10.54791931449608
 10
-2138.65872329559
 20
1.33189026397622
 10
-2134.658785661875
 20
0.6864927886340411
  0
LWPOLYLINE
  5
1FD8
330
1F
100
AcDbEntity
  8
NOSNÉ KONSTRUKCE
100
AcDbPolyline
 90
        2
 70
     0
 43
0.0
 10
-2130.63606381624
 20
4.967495134413638
 42
-0.1134617175825293
 10
-2164.461150554929
 20
-10.97260090849022
  0
LWPOLYLINE
  5
1FD9
330
1F
100
AcDbEntity
  8
NOSNÉ KONSTRUKCE
100
AcDbPolyline
 90
        3
 70
     0
 43
0.0
 10
-2117.052884753862
 20
29.40111957535418
 10
-2100.297667134134
 20
21.01737870738588
 10
-2092.13056248501
 20
12.83607700628863
  0
LWPOLYLINE
  5
1FDA
330
1F
100
AcDbEntity
  8
NOSNÉ KONSTRUKCE
100
AcDbPolyline
 90
        2
 70
     0
 43
0.0
 10
-2080.595618813993
 20
-13.96729369983268
 42
-0.1112051866389916
 10
-2111.866510241656
 20
-39.59591037552172
  0
LWPOLYLINE
  5
1FDB
330
1F
100
AcDbEntity
  8
STAVBA OBRYS
100
AcDbPolyline
 90
        2
 70
     0
 43
0.0
 10
-2080.595618813993
 20
17.44118705710252
 42
-0.0020939004487291
 10
-2081.104689050782
 20
16.58346361410758
  0
LWPOLYLINE
  5
1FDC
330
1F
100
AcDbEntity
  8
NOSNÉ KONSTRUKCE
100
AcDbPolyline
 90
        6
 70
     0
 43
0.0
 10
-2102.160812861661
 20
60.32734010155173
 42
-0.0128837512779301
 10
-2102.588000801999
 20
55.32759286893224
 42
-0.0351641677647434
 10
-2103.529640384283
 20
49.92202868742379
 42
-0.0187319685742942
 10
-2108.60566420577
 20
32.28467267420956
 42
-0.0582629403736403
 10
-2111.094914007892
 20
26.91492137581144
 42
-0.0636293101863209
 10
-2124.356383601418
 20
10.43361307558598
 42
-0.0636293101863209
  0
LWPOLYLINE
  5
1FDD
330
1F
100
AcDbEntity
  8
NOSNÉ KONSTRUKCE
100
AcDbPolyline
 90
        4
 70
     0
 43
0.0
 10
-2086.876218455658
 20
60.32734010155173
 42
-0.0135911980674875
 10
-2092.454915491496
 20
29.83430032785281
 42
-0.0219777111230329
 10
-2093.814084244473
 20
24.55713044409958
 42
-0.2158759397126542
 10
-2164.267031745741
 20
-24.54743684396226
 42
-0.0618986513001703
  0
LWPOLYLINE
  5
1FDE
330
1F
100
AcDbEntity
  8
NOSNÉ KONSTRUKCE
100
AcDbPolyline
 90
       10
 70
     0
 43
0.0
 10
-2140.224747887117
 20
60.40408962447827
 42
-0.0168162630274194
 10
-2140.359773466177
 20
58.71305147235898
 42
-0.0575155827655532
 10
-2141.039805746524
 20
55.6134268116416
 42
-0.0310289133982999
 10
-2144.042607091349
 20
48.36839928699692
 42
-0.0882970623535771
 10
-2145.679829011442
 20
46.12803023619699
 42
-0.0171636441953577
 10
-2148.493193073303
 20
43.61411288095178
 42
-0.0157521173632038
 10
-2151.73204791034
 20
41.08261682844522
 42
-0.0073640874174249
 10
-2156.365697266661
 20
37.79421540270914
 42
-0.0194185739168057
 10
-2158.187740586338
 20
36.64264640342798
 42
-0.0567960585128809
 10
-2164.267031745741
 20
33.99078219805187
 42
-0.0229547400386702
  0
LWPOLYLINE
  5
1FDF
330
1F
100
AcDbEntity
  8
NOSNÉ KONSTRUKCE
100
AcDbPolyline
 90
        3
 70
     0
 43
0.0
 10
-2157.558634288037
 20
54.8867589289598
 10
-2140.80341666831
 20
46.5030180609915
 10
-2132.636312019185
 20
38.32171635989425
  0
LWPOLYLINE
  5
1FE0
330
1F
100
AcDbEntity
  8
NOSNÉ KONSTRUKCE
100
AcDbPolyline
 90
        8
 70
     0
 43
0.0
 10
-2131.357688663603
 20
60.40408962447827
 42
-0.0120721047703132
 10
-2131.426671353645
 20
58.6702014857342
 42
-0.044358077361292
 10
-2131.822299088318
 20
55.97440146731742
 42
-0.0188067511131767
 10
-2133.842122536702
 20
48.732172292011
 42
-0.0457786284636091
 10
-2135.050145426317
 20
45.883561909131
 42
-0.0295006114745606
 10
-2137.466205880616
 20
41.95666269572893
 42
-0.0258674098621065
 10
-2140.698881194581
 20
37.81088261697505
 42
-0.2409478365688615
 10
-2164.267031745741
 20
23.3863351720015
 42
-0.0884720560394402
  0
LWPOLYLINE
  5
1FE1
330
1F
100
AcDbEntity
  8
NOSNÉ KONSTRUKCE
100
AcDbPolyline
 90
        4
 70
     0
 43
0.0
 10
-2112.543743679558
 20
60.40408962447827
 42
-0.0135911980674876
 10
-2116.262875036784
 20
40.07539644201233
 42
-0.0219777111230329
 10
-2117.168987538771
 20
36.55728318617684
 42
-0.2163722049316613
 10
-2164.267031745741
 20
3.797018232147365
  0
LWPOLYLINE
  5
1FE2
330
1F
100
AcDbEntity
  8
NOSNÉ KONSTRUKCE
100
AcDbPolyline
 90
        6
 70
     0
 43
0.0
 10
-2122.733473283562
 20
60.40408962447827
 42
-0.0128837512779302
 10
-2123.018265243791
 20
57.07092480273195
 42
-0.0351641677647434
 10
-2123.646024965313
 20
53.46721534839298
 42
-0.0187319685742942
 10
-2127.030040846304
 20
41.70897800625016
 42
-0.0582629403736403
 10
-2128.689540714385
 20
38.12914380731808
 42
-0.2042445348716764
 10
-2164.267031745741
 20
12.87079561778364
  0
LWPOLYLINE
  5
1FE3
330
1F
100
AcDbEntity
  8
NOSNÉ KONSTRUKCE
100
AcDbPolyline
 90
        4
 70
     1
 43
0.0
 10
-2164.267031745741
 20
-39.75559051185564
 10
-2080.595618813993
 20
-39.75559051185564
 10
-2080.595618813993
 20
60.24440948814436
 10
-2164.267031745741
 20
60.24440948814436
  0
LINE
  5
1FE4
330
1F
100
AcDbEntity
  8
SPOJOVACÍ
100
AcDbLine
 10
-2085.585456312553
 20
12.54614712984903
 30
0.0
 11
-2084.351642271828
 21
7.941490442779013
 31
0.0
  0
LINE
  5
1FE5
330
1F
100
AcDbEntity
  8
SPOJOVACÍ
100
AcDbLine
 10
-2087.531947872233
 20
12.8129572628809
 30
0.0
 11
-2086.213585584322
 21
7.89276222161834
 31
0.0
  0
LINE
  5
1FE6
330
1F
100
AcDbEntity
  8
SPOJOVACÍ
100
AcDbLine
 10
-2089.415601507921
 20
12.84525307094054
 30
0.0
 11
-2088.078143654125
 21
7.853792407600394
 31
0.0
  0
LINE
  5
1FE7
330
1F
100
AcDbEntity
  8
SPOJOVACÍ
100
AcDbLine
 10
-2091.296560728606
 20
12.86749318531337
 30
0.0
 11
-2089.945326658777
 21
7.824618983787786
 31
0.0
  0
LINE
  5
1FE8
330
1F
100
AcDbEntity
  8
SPOJOVACÍ
100
AcDbLine
 10
-2093.174837568735
 20
12.87972251915516
 30
0.0
 11
-2091.815145062504
 21
7.805281003229993
 31
0.0
  0
LINE
  5
1FE9
330
1F
100
AcDbEntity
  8
SPOJOVACÍ
100
AcDbLine
 10
-2095.050443747979
 20
12.8819848109083
 30
0.0
 11
-2093.687609621254
 21
7.7958186076753
 31
0.0
  0
LINE
  5
1FEA
330
1F
100
AcDbEntity
  8
SPOJOVACÍ
100
AcDbLine
 10
-2096.923390677093
 20
12.8743226460524
 30
0.0
 11
-2095.562731387901
 21
7.796273046989426
 31
0.0
  0
LINE
  5
1FEB
330
1F
100
AcDbEntity
  8
SPOJOVACÍ
100
AcDbLine
 10
-2102.092674260279
 20
12.79219840789892
 30
0.0
 11
-2100.770443738733
 21
7.857566922182286
 31
0.0
  0
LINE
  5
1FEC
330
1F
100
AcDbEntity
  8
SPOJOVACÍ
100
AcDbLine
 10
-2100.668689463509
 20
12.85677747810177
 30
0.0
 11
-2099.320992273486
 21
7.827103091707158
 31
0.0
  0
LINE
  5
1FED
330
1F
100
AcDbEntity
  8
SPOJOVACÍ
100
AcDbLine
 10
-2098.793689463509
 20
12.85677747810177
 30
0.0
 11
-2097.44052171762
 21
7.806686699271722
 31
0.0
  0
LINE
  5
1FEE
330
1F
100
AcDbEntity
  8
SPOJOVACÍ
100
AcDbLine
 10
-2098.496125885878
 20
11.74625508789404
 30
0.0
 11
-2097.85772791177
 21
9.363721413073562
 31
0.0
  0
LINE
  5
1FEF
330
1F
100
AcDbEntity
  8
SPOJOVACÍ
100
AcDbLine
 10
-2100.330358905255
 20
11.59411064494042
 30
0.0
 11
-2099.764189074052
 21
9.481136069172407
 31
0.0
  0
LINE
  5
1FF0
330
1F
100
AcDbEntity
  8
SPOJOVACÍ
100
AcDbLine
 10
-2101.728365973187
 20
11.4325813708524
 30
0.0
 11
-2101.2377025825
 21
9.601400667390862
 31
0.0
  0
LINE
  5
1FF1
330
1F
100
AcDbEntity
  8
SPOJOVACÍ
100
AcDbLine
 10
-2105.81490372006
 20
12.688557340854
 30
0.0
 11
-2104.54489537673
 21
7.948821677505748
 31
0.0
  0
LINE
  5
1FF2
330
1F
100
AcDbEntity
  8
SPOJOVACÍ
100
AcDbLine
 10
-2103.984978169985
 20
12.85677747810177
 30
0.0
 11
-2102.656310996873
 21
7.898124081682453
 31
0.0
  0
LINE
  5
1FF3
330
1F
100
AcDbEntity
  8
SPOJOVACÍ
100
AcDbLine
 10
-2164.267031745741
 20
-1.658410375523544
 30
0.0
 11
-2162.395500979615
 21
-1.658410375523544
 31
0.0
  0
LINE
  5
1FF4
330
1F
100
AcDbEntity
  8
SPOJOVACÍ
100
AcDbLine
 10
-2162.395500979615
 20
-1.658410375523544
 30
0.0
 11
-2156.641218297958
 21
5.841589624474636
 31
0.0
  0
LINE
  5
1FF5
330
1F
100
AcDbEntity
  8
SPOJOVACÍ
100
AcDbLine
 10
-2164.267031745741
 20
22.46658962447645
 30
0.0
 11
-2162.395500979615
 21
22.46658962447645
 31
0.0
  0
LINE
  5
1FF6
330
1F
100
AcDbEntity
  8
SPOJOVACÍ
100
AcDbLine
 10
-2162.395500979615
 20
22.46658962447645
 30
0.0
 11
-2156.641218297958
 21
14.96658962447827
 31
0.0
  0
LINE
  5
1FF7
330
1F
100
AcDbEntity
  8
SPOJOVACÍ
100
AcDbLine
 10
-2161.409140250634
 20
-3.658410375523544
 30
0.0
 11
-2155.654857568981
 21
3.841589624474636
 31
0.0
  0
LINE
  5
1FF8
330
1F
100
AcDbEntity
  8
SPOJOVACÍ
100
AcDbLine
 10
-2161.409140250634
 20
24.46658962447645
 30
0.0
 11
-2155.654857568981
 21
16.96658962447827
 31
0.0
  0
LINE
  5
1FF9
330
1F
100
AcDbEntity
  8
SPOJOVACÍ
100
AcDbLine
 10
-2082.08203749749
 20
12.85677747810177
 30
0.0
 11
-2080.753370324378
 21
7.898124081682453
 31
0.0
  0
LINE
  5
1FFA
330
1F
100
AcDbEntity
  8
SPOJOVACÍ
100
AcDbLine
 10
-2108.392607059908
 20
12.62218071936831
 30
0.0
 11
-2107.156698735001
 21
8.009708057320949
 31
0.0
  0
LINE
  5
1FFB
330
1F
100
AcDbEntity
  8
SPOJOVACÍ
100
AcDbLine
 10
-2110.247233921
 20
12.54614712984903
 30
0.0
 11
-2109.0507565615
 21
8.080832834100419
 31
0.0
  0
LINE
  5
1FFC
330
1F
100
AcDbEntity
  8
SPOJOVACÍ
100
AcDbLine
 10
-2112.099282331215
 20
12.46049063066448
 30
0.0
 11
-2110.947571397923
 21
8.162246911969759
 31
0.0
  0
LINE
  5
1FFD
330
1F
100
AcDbEntity
  8
SPOJOVACÍ
100
AcDbLine
 10
-2083.911963047565
 20
12.688557340854
 30
0.0
 11
-2082.641954704235
 21
7.948821677505748
 31
0.0
  0
LINE
  5
1FFE
330
1F
100
AcDbEntity
  8
SPOJOVACÍ
100
AcDbLine
 10
-2115.795678982129
 20
12.26044020842664
 30
0.0
 11
-2114.749528432516
 21
8.35615320489569
 31
0.0
  0
LINE
  5
1FFF
330
1F
100
AcDbEntity
  8
SPOJOVACÍ
100
AcDbLine
 10
-2113.94876115155
 20
12.36524429148403
 30
0.0
 11
-2112.847157237112
 21
8.254002512985152
 31
0.0
  0
LINE
  5
2000
330
1F
100
AcDbEntity
  8
SPOJOVACÍ
100
AcDbLine
 10
-2121.321148704828
 20
11.8889881566497
 30
0.0
 11
-2120.473503262958
 21
8.725532300768009
 31
0.0
  0
LINE
  5
2001
330
1F
100
AcDbEntity
  8
SPOJOVACÍ
100
AcDbLine
 10
-2117.640044166135
 20
12.1461095186537
 30
0.0
 11
-2116.654699705857
 21
8.468753929929789
 31
0.0
  0
LINE
  5
2002
330
1F
100
AcDbEntity
  8
SPOJOVACÍ
100
AcDbLine
 10
-2119.481864793557
 20
12.0222824144289
 30
0.0
 11
-2118.562686155142
 21
8.591861034626617
 31
0.0
  0
LINE
  5
2003
330
1F
100
AcDbEntity
  8
SPOJOVACÍ
100
AcDbLine
 10
-2123.157903494324
 20
11.74625508789404
 30
0.0
 11
-2122.387166905046
 21
8.869826977448155
 31
0.0
  0
LINE
  5
2004
330
1F
100
AcDbEntity
  8
SPOJOVACÍ
100
AcDbLine
 10
-2124.992136513701
 20
11.59411064494042
 30
0.0
 11
-2124.303693359233
 21
9.024805814344745
 31
0.0
  0
LINE
  5
2005
330
1F
100
AcDbEntity
  8
SPOJOVACÍ
100
AcDbLine
 10
-2126.823854875158
 20
11.4325813708524
 30
0.0
 11
-2126.223099314676
 21
9.190531096201539
 31
0.0
  0
LINE
  5
2006
330
1F
100
AcDbEntity
  8
SPOJOVACÍ
100
AcDbLine
 10
-2128.653065454509
 20
11.26169292656004
 30
0.0
 11
-2128.145401881414
 21
9.367066678614264
 31
0.0
  0
LINE
  5
2007
330
1F
100
AcDbEntity
  8
SPOJOVACÍ
100
AcDbLine
 10
-2130.479774894218
 20
11.08147010201491
 30
0.0
 11
-2130.070618600377
 21
9.554478025154367
 31
0.0
  0
LINE
  5
2008
330
1F
100
AcDbEntity
  8
SPOJOVACÍ
100
AcDbLine
 10
-2079.825425300692
 20
11.4325813708524
 30
0.0
 11
-2079.334761910005
 21
9.601400667390862
 31
0.0
  0
LINE
  5
2009
330
1F
100
AcDbEntity
  8
SPOJOVACÍ
100
AcDbLine
 10
-2080.189733587784
 20
12.79219840789892
 30
0.0
 11
-2078.867503066237
 21
7.857566922182286
 31
0.0
  0
LINE
  5
200A
330
1F
100
AcDbEntity
  8
SPOJOVACÍ
100
AcDbLine
 10
-2161.409140250634
 20
-3.658410375523544
 30
0.0
 11
-2164.267031745741
 21
-3.658410375523544
 31
0.0
  0
LINE
  5
200B
330
1F
100
AcDbEntity
  8
SPOJOVACÍ
100
AcDbLine
 10
-2164.267031745741
 20
24.46658962447645
 30
0.0
 11
-2161.409140250634
 21
24.46658962447645
 31
0.0
  0
LINE
  5
200C
330
1F
100
AcDbEntity
  8
SPOJOVACÍ
100
AcDbLine
 10
-2132.303989606207
 20
10.89193682689028
 30
0.0
 11
-2132.059459070351
 21
9.979336443065676
 31
0.0
  0
LINE
  5
200D
330
1F
100
AcDbEntity
  8
SPOJOVACÍ
100
AcDbLine
 10
-2134.125715774669
 20
10.69311618086021
 30
0.0
 11
-2133.969749811727
 21
10.11104328291503
 31
0.0
  0
LINE
  5
200E
330
1F
100
AcDbEntity
  8
SPOJOVACÍ
100
AcDbLine
 10
-2164.267031745741
 20
10.40408962447645
 30
0.0
 11
-2164.267031745741
 21
-3.658410375523544
 31
0.0
  0
LINE
  5
200F
330
1F
100
AcDbEntity
  8
SPOJOVACÍ
100
AcDbLine
 10
-2164.267031745741
 20
2.82686853397854
 30
0.0
 11
-2164.267031745741
 21
24.46658962447645
 31
0.0
  0
LINE
  5
2010
330
1F
100
AcDbEntity
  8
NOSNÉ KONSTRUKCE
100
AcDbLine
 10
-2167.498627862703
 20
15.79313831131776
 30
0.0
 11
-2167.184647704874
 21
-4.448098298540116
 31
0.0
  0
LINE
  5
2011
330
1F
100
AcDbEntity
  8
NOSNÉ KONSTRUKCE
100
AcDbLine
 10
-2168.532541142478
 20
42.60926632370728
 30
0.0
 11
-2167.498627862703
 21
15.79313831131776
 31
0.0
  0
INSERT
  5
2012
330
1F
100
AcDbEntity
  8
POPIS
100
AcDbBlockReference
  2
E_PUNKT
 10
-2135.311871519094
 20
-23.06544668221476
 30
0.0
 41
-1.0
 50
180.0
  0
INSERT
  5
2013
330
1F
100
AcDbEntity
  8
POPIS
100
AcDbBlockReference
  2
E_PUNKT
 10
-2176.282581904626
 20
-102.4042766007846
 30
0.0
  0
TEXT
  5
2014
330
1F
100
AcDbEntity
  8
POPIS
100
AcDbText
 10
-2400.355722883458
 20
-115.818549719283
 30
0.0
 40
25.0
  1
03
 41
0.7
  7
SIMPLEX7
100
AcDbText
  0
LINE
  5
2015
330
1F
100
AcDbEntity
  8
POPIS
100
AcDbLine
 10
-2359.820287588907
 20
-102.3752082699124
 30
0.0
 11
-2177.504971528997
 21
-102.3752082699124
 31
0.0
  0
TEXT
  5
2016
330
1F
100
AcDbEntity
  8
POPIS
100
AcDbText
 10
-2400.355722883458
 20
-35.59685065856729
 30
0.0
 40
25.0
  1
06
 41
0.7
  7
SIMPLEX7
100
AcDbText
  0
LINE
  5
2017
330
1F
100
AcDbEntity
  8
POPIS
100
AcDbLine
 10
-2359.820287588907
 20
-22.15350920919672
 30
0.0
 11
-2135.784092275938
 21
-22.15350920919672
 31
0.0
  0
TEXT
  5
2018
330
1F
100
AcDbEntity
  8
POPIS
100
AcDbText
 10
-2400.355722883458
 20
6.248964001409603
 30
0.0
 40
25.0
  1
05
 41
0.7
  7
SIMPLEX7
100
AcDbText
  0
LINE
  5
2019
330
1F
100
AcDbEntity
  8
POPIS
100
AcDbLine
 10
-2359.820287588907
 20
19.69230545078016
 30
0.0
 11
-2166.581494625312
 21
19.69230545078016
 31
0.0
  0
INSERT
  5
201A
330
1F
100
AcDbEntity
  8
POPIS
100
AcDbBlockReference
  2
E_PUNKT
 10
-2166.370614758875
 20
19.70146994222659
 30
0.0
  0
TEXT
  5
201B
330
1F
100
AcDbEntity
  8
POPIS
100
AcDbText
 10
-2435.409120610904
 20
49.85647839763578
 30
0.0
 40
25.0
  1
03,04
 41
0.7
  7
SIMPLEX7
100
AcDbText
  0
LINE
  5
201C
330
1F
100
AcDbEntity
  8
POPIS
100
AcDbLine
 10
-2359.820287588907
 20
63.29981984700634
 30
0.0
 11
-2182.499741855357
 21
63.29981984700634
 31
0.0
  0
INSERT
  5
201D
330
1F
100
AcDbEntity
  8
POPIS
100
AcDbBlockReference
  2
E_PUNKT
 10
-2211.855887090576
 20
173.1050722981267
 30
0.0
  0
TEXT
  5
201E
330
1F
100
AcDbEntity
  8
POPIS
100
AcDbText
 10
-2400.355722883458
 20
161.3828058148351
 30
0.0
 40
25.0
  1
02
 41
0.7
  7
SIMPLEX7
100
AcDbText
  0
LINE
  5
201F
330
1F
100
AcDbEntity
  8
POPIS
100
AcDbLine
 10
-2359.820287588907
 20
173.0081232198112
 30
0.0
 11
-2210.891260085696
 21
173.0081232198112
 31
0.0
  0
LWPOLYLINE
  5
2020
330
1F
100
AcDbEntity
  8
STAVBA OBRYS
  6
DASHED
100
AcDbPolyline
 90
        4
 70
     1
 43
0.0
 10
-2164.267031745741
 20
-243.3811036717529
 10
-2158.893750420888
 20
-243.3811036717529
 10
-2158.893750420888
 20
-193.2615316527303
 10
-2164.267031745741
 20
-193.2615316527303
  0
LINE
  5
2021
330
1F
100
AcDbEntity
  8
STAVBA OBRYS
  6
DASHDOT2
100
AcDbLine
 10
-2192.651994922562
 20
-218.3213176622398
 30
0.0
 11
-1979.875505856463
 21
-218.3213176622416
 31
0.0
  0
LINE
  5
2022
330
1F
100
AcDbEntity
  8
STAVBA OBRYS
  6
DASHED
100
AcDbLine
 10
-1994.734558046704
 20
-218.3213176622416
 30
0.0
 11
-1998.523419188263
 21
-211.7588176622416
 31
0.0
  0
LINE
  5
2023
330
1F
100
AcDbEntity
  8
STAVBA OBRYS
  6
DASHED
100
AcDbLine
 10
-1998.523419188263
 20
-211.7588176622416
 30
0.0
 11
-2158.893750420888
 21
-211.7588176622398
 31
0.0
  0
LINE
  5
2024
330
1F
100
AcDbEntity
  8
STAVBA OBRYS
  6
DASHED
100
AcDbLine
 10
-1998.523419188263
 20
-224.8838176622416
 30
0.0
 11
-2158.893750420888
 21
-224.8838176622398
 31
0.0
  0
LINE
  5
2025
330
1F
100
AcDbEntity
  8
STAVBA OBRYS
  6
DASHED
100
AcDbLine
 10
-1994.734558046704
 20
-218.3213176622416
 30
0.0
 11
-1998.523419188263
 21
-224.8838176622416
 31
0.0
  0
SOLID
  5
2026
330
1F
100
AcDbEntity
  8
CETRIS
100
AcDbTrace
 10
-2206.097767390591
 20
239.2260076127799
 30
0.0
 11
-2194.092621637137
 21
237.9594531813095
 31
0.0
 12
-2206.092621637137
 22
133.424566983896
 32
0.0
 13
-2194.092621637137
 23
133.424566983896
 33
0.0
  0
LINE
  5
2027
330
1F
100
AcDbEntity
  8
SPOJOVACÍ
100
AcDbLine
 10
-2198.230928664947
 20
85.68351469706476
 30
0.0
 11
-2196.707921409452
 21
79.99957423926344
 31
0.0
  0
LINE
  5
2028
330
1F
100
AcDbEntity
  8
SPOJOVACÍ
100
AcDbLine
 10
-2196.648897414946
 20
85.68351469706476
 30
0.0
 11
-2195.125890159452
 21
79.99957423926344
 31
0.0
  0
LINE
  5
2029
330
1F
100
AcDbEntity
  8
SPOJOVACÍ
100
AcDbLine
 10
-2190.320772414947
 20
85.68351469706476
 30
0.0
 11
-2188.797765159452
 21
79.99957423926344
 31
0.0
  0
LINE
  5
202A
330
1F
100
AcDbEntity
  8
SPOJOVACÍ
100
AcDbLine
 10
-2193.484834914943
 20
85.68351469706476
 30
0.0
 11
-2191.961827659452
 21
79.99957423926344
 31
0.0
  0
LINE
  5
202B
330
1F
100
AcDbEntity
  8
SPOJOVACÍ
100
AcDbLine
 10
-2195.066866164947
 20
85.68351469706476
 30
0.0
 11
-2193.543858909452
 21
79.99957423926344
 31
0.0
  0
LINE
  5
202C
330
1F
100
AcDbEntity
  8
SPOJOVACÍ
100
AcDbLine
 10
-2191.902803664947
 20
85.68351469706476
 30
0.0
 11
-2190.379796409451
 21
79.99957423926344
 31
0.0
  0
LINE
  5
202D
330
1F
100
AcDbEntity
  8
SPOJOVACÍ
100
AcDbLine
 10
-2202.977022414946
 20
85.68351469706476
 30
0.0
 11
-2201.454015159451
 21
79.99957423926344
 31
0.0
  0
LINE
  5
202E
330
1F
100
AcDbEntity
  8
SPOJOVACÍ
100
AcDbLine
 10
-2204.559053664943
 20
85.68351469706476
 30
0.0
 11
-2203.036046409452
 21
79.99957423926344
 31
0.0
  0
LINE
  5
202F
330
1F
100
AcDbEntity
  8
SPOJOVACÍ
100
AcDbLine
 10
-2199.81295991495
 20
85.68351469706476
 30
0.0
 11
-2198.289952659452
 21
79.99957423926344
 31
0.0
  0
LINE
  5
2030
330
1F
100
AcDbEntity
  8
SPOJOVACÍ
100
AcDbLine
 10
-2201.394991164947
 20
85.68351469706476
 30
0.0
 11
-2199.871983909452
 21
79.99957423926344
 31
0.0
  0
LINE
  5
2031
330
1F
100
AcDbEntity
  8
SPOJOVACÍ
100
AcDbLine
 10
-2179.24655366495
 20
85.68351469706476
 30
0.0
 11
-2177.723546409452
 21
79.99957423926344
 31
0.0
  0
LINE
  5
2032
330
1F
100
AcDbEntity
  8
SPOJOVACÍ
100
AcDbLine
 10
-2182.410616164947
 20
85.68351469706476
 30
0.0
 11
-2180.887608909455
 21
79.99957423926344
 31
0.0
  0
LINE
  5
2033
330
1F
100
AcDbEntity
  8
SPOJOVACÍ
100
AcDbLine
 10
-2180.828584914947
 20
85.68351469706476
 30
0.0
 11
-2179.305577659455
 21
79.99957423926344
 31
0.0
  0
LINE
  5
2034
330
1F
100
AcDbEntity
  8
SPOJOVACÍ
100
AcDbLine
 10
-2177.66452241495
 20
85.68351469706476
 30
0.0
 11
-2176.59072084726
 21
81.67603268919856
 31
0.0
  0
LINE
  5
2035
330
1F
100
AcDbEntity
  8
SPOJOVACÍ
100
AcDbLine
 10
-2175.692753543986
 20
82.84154446816456
 30
0.0
 11
-2177.882346466587
 21
85.68351469706476
 31
0.0
  0
LINE
  5
2036
330
1F
100
AcDbEntity
  8
SPOJOVACÍ
100
AcDbLine
 10
-2175.692753543986
 20
82.84154446816456
 30
0.0
 11
-2177.882346466587
 21
79.99957423926344
 31
0.0
  0
LINE
  5
2037
330
1F
100
AcDbEntity
  8
SPOJOVACÍ
100
AcDbLine
 10
-2185.57467866495
 20
85.68351469706476
 30
0.0
 11
-2184.051671409452
 21
79.99957423926344
 31
0.0
  0
LINE
  5
2038
330
1F
100
AcDbEntity
  8
SPOJOVACÍ
100
AcDbLine
 10
-2187.15670991495
 20
85.68351469706476
 30
0.0
 11
-2185.633702659452
 21
79.99957423926344
 31
0.0
  0
LINE
  5
2039
330
1F
100
AcDbEntity
  8
SPOJOVACÍ
100
AcDbLine
 10
-2188.738741164947
 20
85.68351469706476
 30
0.0
 11
-2187.215733909452
 21
79.99957423926344
 31
0.0
  0
LINE
  5
203A
330
1F
100
AcDbEntity
  8
SPOJOVACÍ
100
AcDbLine
 10
-2177.882346466587
 20
85.68351469706476
 30
0.0
 11
-2206.64933623945
 21
85.68351469706476
 31
0.0
  0
LINE
  5
203B
330
1F
100
AcDbEntity
  8
SPOJOVACÍ
100
AcDbLine
 10
-2177.882346466587
 20
79.99957423926344
 30
0.0
 11
-2206.64933623945
 21
79.99957423926344
 31
0.0
  0
LINE
  5
203C
330
1F
100
AcDbEntity
  8
SPOJOVACÍ
100
AcDbLine
 10
-2183.99264741495
 20
85.68351469706476
 30
0.0
 11
-2182.469640159455
 21
79.99957423926344
 31
0.0
  0
LINE
  5
203D
330
1F
100
AcDbEntity
  8
SPOJOVACÍ
100
AcDbLine
 10
-2179.24655366495
 20
171.1389007638977
 30
0.0
 11
-2177.723546409452
 21
176.822841221699
 31
0.0
  0
LINE
  5
203E
330
1F
100
AcDbEntity
  8
SPOJOVACÍ
100
AcDbLine
 10
-2182.410616164947
 20
171.1389007638977
 30
0.0
 11
-2180.887608909455
 21
176.822841221699
 31
0.0
  0
LINE
  5
203F
330
1F
100
AcDbEntity
  8
SPOJOVACÍ
100
AcDbLine
 10
-2180.828584914947
 20
171.1389007638977
 30
0.0
 11
-2179.305577659455
 21
176.822841221699
 31
0.0
  0
LINE
  5
2040
330
1F
100
AcDbEntity
  8
SPOJOVACÍ
100
AcDbLine
 10
-2177.66452241495
 20
171.1389007638977
 30
0.0
 11
-2176.59072084726
 21
175.1463827717639
 31
0.0
  0
LINE
  5
2041
330
1F
100
AcDbEntity
  8
SPOJOVACÍ
100
AcDbLine
 10
-2175.692753543986
 20
173.9808709927979
 30
0.0
 11
-2177.882346466587
 21
171.1389007638977
 31
0.0
  0
LINE
  5
2042
330
1F
100
AcDbEntity
  8
SPOJOVACÍ
100
AcDbLine
 10
-2175.692753543986
 20
173.9808709927979
 30
0.0
 11
-2177.882346466587
 21
176.822841221699
 31
0.0
  0
LINE
  5
2043
330
1F
100
AcDbEntity
  8
SPOJOVACÍ
100
AcDbLine
 10
-2187.15670991495
 20
171.1389007638977
 30
0.0
 11
-2185.633702659452
 21
176.822841221699
 31
0.0
  0
LINE
  5
2044
330
1F
100
AcDbEntity
  8
SPOJOVACÍ
100
AcDbLine
 10
-2191.902803664947
 20
171.1389007638977
 30
0.0
 11
-2190.379796409451
 21
176.822841221699
 31
0.0
  0
LINE
  5
2045
330
1F
100
AcDbEntity
  8
SPOJOVACÍ
100
AcDbLine
 10
-2193.484834914943
 20
171.1389007638977
 30
0.0
 11
-2191.961827659452
 21
176.822841221699
 31
0.0
  0
LINE
  5
2046
330
1F
100
AcDbEntity
  8
SPOJOVACÍ
100
AcDbLine
 10
-2195.066866164947
 20
171.1389007638977
 30
0.0
 11
-2193.543858909452
 21
176.822841221699
 31
0.0
  0
LINE
  5
2047
330
1F
100
AcDbEntity
  8
SPOJOVACÍ
100
AcDbLine
 10
-2188.738741164947
 20
171.1389007638977
 30
0.0
 11
-2187.215733909452
 21
176.822841221699
 31
0.0
  0
LINE
  5
2048
330
1F
100
AcDbEntity
  8
SPOJOVACÍ
100
AcDbLine
 10
-2190.320772414947
 20
171.1389007638977
 30
0.0
 11
-2188.797765159452
 21
176.822841221699
 31
0.0
  0
LINE
  5
2049
330
1F
100
AcDbEntity
  8
SPOJOVACÍ
100
AcDbLine
 10
-2202.977022414946
 20
171.1389007638977
 30
0.0
 11
-2201.454015159451
 21
176.822841221699
 31
0.0
  0
LINE
  5
204A
330
1F
100
AcDbEntity
  8
SPOJOVACÍ
100
AcDbLine
 10
-2204.559053664943
 20
171.1389007638977
 30
0.0
 11
-2203.036046409452
 21
176.822841221699
 31
0.0
  0
LINE
  5
204B
330
1F
100
AcDbEntity
  8
SPOJOVACÍ
100
AcDbLine
 10
-2198.230928664947
 20
171.1389007638977
 30
0.0
 11
-2196.707921409452
 21
176.822841221699
 31
0.0
  0
LINE
  5
204C
330
1F
100
AcDbEntity
  8
SPOJOVACÍ
100
AcDbLine
 10
-2199.81295991495
 20
171.1389007638977
 30
0.0
 11
-2198.289952659452
 21
176.822841221699
 31
0.0
  0
LINE
  5
204D
330
1F
100
AcDbEntity
  8
SPOJOVACÍ
100
AcDbLine
 10
-2201.394991164947
 20
171.1389007638977
 30
0.0
 11
-2199.871983909452
 21
176.822841221699
 31
0.0
  0
LINE
  5
204E
330
1F
100
AcDbEntity
  8
SPOJOVACÍ
100
AcDbLine
 10
-2196.648897414946
 20
171.1389007638977
 30
0.0
 11
-2195.125890159452
 21
176.822841221699
 31
0.0
  0
LINE
  5
204F
330
1F
100
AcDbEntity
  8
SPOJOVACÍ
100
AcDbLine
 10
-2185.57467866495
 20
171.1389007638977
 30
0.0
 11
-2184.051671409452
 21
176.822841221699
 31
0.0
  0
LINE
  5
2050
330
1F
100
AcDbEntity
  8
SPOJOVACÍ
100
AcDbLine
 10
-2177.882346466587
 20
171.1389007638977
 30
0.0
 11
-2206.64933623945
 21
171.1389007638977
 31
0.0
  0
LINE
  5
2051
330
1F
100
AcDbEntity
  8
SPOJOVACÍ
100
AcDbLine
 10
-2177.882346466587
 20
176.822841221699
 30
0.0
 11
-2206.64933623945
 21
176.822841221699
 31
0.0
  0
LINE
  5
2052
330
1F
100
AcDbEntity
  8
SPOJOVACÍ
100
AcDbLine
 10
-2183.99264741495
 20
171.1389007638977
 30
0.0
 11
-2182.469640159455
 21
176.822841221699
 31
0.0
  0
SOLID
  5
2053
330
1F
100
AcDbEntity
  8
CETRIS
100
AcDbTrace
 10
-2206.112620950196
 20
-287.7797691431228
 30
0.0
 11
-2194.092621637133
 21
-287.6020557186716
 31
0.0
 12
-2206.092621637137
 22
123.424566983896
 32
0.0
 13
-2194.092621637137
 23
123.424566983896
 33
0.0
  0
LINE
  5
2054
330
1F
100
AcDbEntity
  8
STAVBA OBRYS
  6
IZOLACE
 48
4.0
100
AcDbLine
 10
-2121.978406464008
 20
222.8576483906886
 30
0.0
 11
-2122.21797252522
 21
60.24440948814436
 31
0.0
  0
LINE
  5
2055
330
1F
100
AcDbEntity
  8
STAVBA OBRYS
100
AcDbLine
 10
-2164.267031745745
 20
230.834476195972
 30
0.0
 11
-2164.267031745741
 21
-285.7321407849198
 31
0.0
  0
LINE
  5
2056
330
1F
100
AcDbEntity
  8
STAVBA OBRYS
100
AcDbLine
 10
-1844.274457490017
 20
-282.0366087320585
 30
0.0
 11
-1844.274457490013
 21
198.2875610639534
 31
0.0
  0
LINE
  5
2057
330
1F
100
AcDbEntity
  8
STAVBA OBRYS
100
AcDbLine
 10
-2080.595618813997
 20
227.9846787081182
 30
0.0
 11
-2080.595618813997
 21
-283.0915191565277
 31
0.0
  0
TEXT
  5
2058
330
1F
100
AcDbEntity
  8
POPIS
100
AcDbText
 10
-2398.123938686629
 20
189.7269612661052
 30
0.0
 40
25.0
  1
01
 41
0.7
  7
SIMPLEX7
100
AcDbText
  0
LINE
  5
2059
330
1F
100
AcDbEntity
  8
POPIS
100
AcDbLine
 10
-2359.820287588907
 20
203.1703027154758
 30
0.0
 11
-2196.983757133585
 21
203.1703027154749
 31
0.0
  0
LINE
  5
205A
330
1F
100
AcDbEntity
  8
POPIS
100
AcDbLine
 10
-2359.820287588907
 20
128.9541269817723
 30
0.0
 11
-2207.787536318621
 21
128.9541269817723
 31
0.0
  0
TEXT
  5
205B
330
1F
100
AcDbEntity
  8
POPIS
100
AcDbText
 10
-2400.355722883458
 20
113.0867534732128
 30
0.0
 40
25.0
  1
07
 41
0.7
  7
SIMPLEX7
100
AcDbText
  0
INSERT
  5
205C
330
1F
100
AcDbEntity
  8
POPIS
100
AcDbBlockReference
  2
E_PUNKT
 10
-2207.855578026803
 20
129.005711340294
 30
0.0
  0
LINE
  5
205D
330
1F
100
AcDbEntity
  8
POPIS
100
AcDbLine
 10
-2359.820287588907
 20
-157.0533928453792
 30
0.0
 11
-2105.560174318143
 21
-157.0533928453792
 31
0.0
  0
INSERT
  5
205E
330
1F
100
AcDbEntity
  8
POPIS
100
AcDbBlockReference
  2
E_PUNKT
 10
-2104.337784693769
 20
-157.0824611762513
 30
0.0
  0
TEXT
  5
205F
330
1F
100
AcDbEntity
  8
POPIS
100
AcDbText
 10
-2400.355722883458
 20
-170.4967342947497
 30
0.0
 40
25.0
  1
08
 41
0.7
  7
SIMPLEX7
100
AcDbText
  0
INSERT
  5
2060
330
1F
100
AcDbEntity
  8
POPIS
100
AcDbBlockReference
  2
E_PUNKT
 10
-2181.565421773844
 20
63.34027700357319
 30
0.0
  0
TEXT
  5
2061
330
1F
100
AcDbEntity
  8
POPIS
100
AcDbText
 10
-2445.619314508367
 20
372.4176461424844
 30
0.0
 40
35.0
  1
ŘEZ-ŘEŠENÍ S (BEZ) PROFILEM
 41
0.85
  7
SIMPLEX7
100
AcDbText
  0
TEXT
  5
2062
330
1F
100
AcDbEntity
  8
POPIS
100
AcDbText
 10
-2445.619314508367
 20
427.0423891682853
 30
0.0
 40
50.0
  1
ÚPRAVA VODOROVNÉ SPÁRY
 41
0.85
  7
SIMPLEX7
100
AcDbText
  0
CIRCLE
  5
2063
330
1F
100
AcDbEntity
  8
POPIS
100
AcDbCircle
 10
-2214.387351996931
 20
-355.8935112258363
 30
0.0
 40
11.13656048292026
  0
TEXT
  5
2064
330
1F
100
AcDbEntity
  8
POPIS
100
AcDbText
 10
-2218.769635507255
 20
-362.003672593782
 30
0.0
 40
12.0
  1
R
 41
0.85
  7
SIMPLEX7
100
AcDbText
  0
TEXT
  5
2065
330
1F
100
AcDbEntity
  8
POPIS
100
AcDbText
 10
-2441.116269450907
 20
-564.0892383428941
 30
0.0
 40
25.0
  1
06
 41
0.85
  7
SIMPLEX7
100
AcDbText
  0
TEXT
  5
2066
330
1F
100
AcDbEntity
  8
POPIS
100
AcDbText
 10
-2386.772566291158
 20
-564.0892383428941
 30
0.0
 40
25.0
  1
Vodorovná dřevěná lať š=100 mm (tloušťka dle izolace)
 41
0.7
  7
SIMPLEX7
100
AcDbText
  0
TEXT
  5
2067
330
1F
100
AcDbEntity
  8
POPIS
100
AcDbText
 10
-2441.116269450907
 20
-528.4703496448051
 30
0.0
 40
25.0
  1
05
 41
0.85
  7
SIMPLEX7
100
AcDbText
  0
TEXT
  5
2068
330
1F
100
AcDbEntity
  8
POPIS
100
AcDbText
 10
-2386.772566291158
 20
-528.4703496448051
 30
0.0
 40
25.0
  1
Pojistná fólie - parozábrana
 41
0.7
  7
SIMPLEX7
100
AcDbText
  0
TEXT
  5
2069
330
1F
100
AcDbEntity
  8
POPIS
100
AcDbText
 10
-2386.772566291158
 20
-763.4308289993082
 30
0.0
 40
25.0
  1
Tepelná izolace (np. ORSIL, ROCKWOOL, ISOVER, NOBASIL)
 41
0.7
  7
SIMPLEX7
100
AcDbText
  0
TEXT
  5
206A
330
1F
100
AcDbEntity
  8
POPIS
100
AcDbText
 10
-2441.116269450907
 20
-763.4308289993082
 30
0.0
 40
25.0
  1
08
 41
0.85
  7
SIMPLEX7
100
AcDbText
  0
TEXT
  5
206B
330
1F
100
AcDbEntity
  8
POPIS
100
AcDbText
 10
-2386.772566291158
 20
-602.2725781854192
 30
0.0
 40
25.0
  1
Profil ve spáře - klempířský výrobek
 41
0.7
  7
SIMPLEX7
100
AcDbText
  0
TEXT
  5
206C
330
1F
100
AcDbEntity
  8
POPIS
100
AcDbText
 10
-2441.116269450907
 20
-602.2725781854192
 30
0.0
 40
25.0
  1
07
 41
0.85
  7
SIMPLEX7
100
AcDbText
  0
TEXT
  5
206D
330
1F
100
AcDbEntity
  8
POPIS
100
AcDbText
 10
-2386.772566291158
 20
-492.3635281576166
 30
0.0
 40
25.0
  1
Svislá dřevěné lať 50x25 (100x25), impregnovaná
 41
0.7
  7
SIMPLEX7
100
AcDbText
  0
TEXT
  5
206E
330
1F
100
AcDbEntity
  8
POPIS
100
AcDbText
 10
-2441.116269450907
 20
-492.3635281576166
 30
0.0
 40
25.0
  1
04
 41
0.85
  7
SIMPLEX7
100
AcDbText
  0
TEXT
  5
206F
330
1F
100
AcDbEntity
  8
POPIS
100
AcDbText
 10
-2386.772566291158
 20
-456.959366939454
 30
0.0
 40
25.0
  1
Vzduchová mezera - min. 25 mm
 41
0.7
  7
SIMPLEX7
100
AcDbText
  0
TEXT
  5
2070
330
1F
100
AcDbEntity
  8
POPIS
100
AcDbText
 10
-2441.116269450907
 20
-456.959366939454
 30
0.0
 40
25.0
  1
03
 41
0.85
  7
SIMPLEX7
100
AcDbText
  0
TEXT
  5
2071
330
1F
100
AcDbEntity
  8
POPIS
100
AcDbText
 10
-2386.772566291158
 20
-423.0091786947318
 30
0.0
 40
25.0
  1
Nerezový vrut s podložkou (np. SFS, EJOT)
 41
0.7
  7
SIMPLEX7
100
AcDbText
  0
TEXT
  5
2072
330
1F
100
AcDbEntity
  8
POPIS
100
AcDbText
 10
-2441.116269450907
 20
-423.0091786947318
 30
0.0
 40
25.0
  1
02
 41
0.85
  7
SIMPLEX7
100
AcDbText
  0
TEXT
  5
2073
330
1F
100
AcDbEntity
  8
POPIS
100
AcDbText
 10
-2386.772566291158
 20
-386.4141670791036
 30
0.0
 40
25.0
  1
Deska CETRIS   (BASIC,FINISH,DOLOMIT)
 41
0.7
  7
SIMPLEX7
100
AcDbText
  0
TEXT
  5
2074
330
1F
100
AcDbEntity
  8
POPIS
100
AcDbText
 10
-2441.116269450907
 20
-386.4141670791036
 30
0.0
 40
25.0
  1
01
 41
0.85
  7
SIMPLEX7
100
AcDbText
  0
LINE
  5
2075
330
1F
100
AcDbEntity
  8
STAVBA OBRYS
100
AcDbLine
 10
-1834.274457490017
 20
-282.0366087320585
 30
0.0
 11
-1834.274457490017
 21
197.0309187269826
 31
0.0
  0
HATCH
  5
2076
330
1F
100
AcDbEntity
  8
STAVBA OBRYS
100
AcDbHatch
 10
0.0
 20
0.0
 30
0.0
210
0.0
220
0.0
230
1.0
  2
AR-SAND
 70
     0
 71
     0
 91
        1
 92
        7
 72
     0
 73
     1
 93
        4
 10
-1834.27445749002
 20
196.2457231574221
 10
-1844.274457490013
 20
196.2457231574221
 10
-1844.27445749002
 20
-282.0366087320585
 10
-1834.274457490013
 20
-282.0366087320585
 97
        0
 75
     0
 76
     1
 52
0.0
 41
0.1
 77
     0
 78
     4
 53
37.5
 43
-17697.14405452775
 44
-1237.475242387975
 45
-0.1600031295984046
 46
4.894132373293423
 79
     6
 49
0.0
 49
-3.8608
 49
0.0
 49
-4.318
 49
0.0
 49
-4.1275
 53
7.499999999999999
 43
-17697.14405452775
 44
-1237.475242387975
 45
4.495232831380026
 46
7.168251005683543
 79
     6
 49
0.0
 49
-2.0828
 49
0.0
 49
-3.4798
 49
0.0
 49
-1.3335
 53
327.4999999999999
 43
-17700.26825452775
 44
-1237.475242387975
 45
7.909923702414579
 46
0.0143718467854569
 79
     6
 49
0.0
 49
-1.27
 49
0.0
 49
-4.572
 49
0.0
 49
-5.969
 53
317.5
 43
-17700.26825452775
 44
-1237.475242387975
 45
7.635564524722972
 46
2.229293232572162
 79
     6
 49
0.0
 49
-0.635
 49
0.0
 49
-2.997199999999999
 49
0.0
 49
-3.429
 47
1.565892305305214
 98
        1
 10
-1839.888897212957
 20
54.23356261239087
  0
LINE
  5
2077
330
1F
100
AcDbEntity
  8
PROFILY
100
AcDbLine
 10
-2304.239431289647
 20
-640.626585175773
 30
0.0
 11
-2305.739431289646
 21
-640.626585175773
 31
0.0
  0
LINE
  5
2078
330
1F
100
AcDbEntity
  8
PROFILY
100
AcDbLine
 10
-2264.821480933798
 20
-682.8583730058112
 30
0.0
 11
-2252.093161055276
 21
-682.8583730058112
 31
0.0
  0
LINE
  5
2079
330
1F
100
AcDbEntity
  8
PROFILY
100
AcDbLine
 10
-2266.321480933798
 20
-684.3583730058112
 30
0.0
 11
-2253.593161055276
 21
-684.3583730058112
 31
0.0
  0
LINE
  5
207A
330
1F
100
AcDbEntity
  8
PROFILY
100
AcDbLine
 10
-2253.593161055276
 20
-704.8648308302968
 30
0.0
 11
-2252.093161055276
 21
-704.8648308302968
 31
0.0
  0
LINE
  5
207B
330
1F
100
AcDbEntity
  8
PROFILY
100
AcDbLine
 10
-2252.093161055276
 20
-662.2505934842288
 30
0.0
 11
-2252.093161055276
 21
-704.8648308302968
 31
0.0
  0
LINE
  5
207C
330
1F
100
AcDbEntity
  8
PROFILY
100
AcDbLine
 10
-2253.593161055276
 20
-662.2505934842288
 30
0.0
 11
-2253.593161055276
 21
-704.8648308302968
 31
0.0
  0
ARC
  5
207D
330
1F
100
AcDbEntity
  8
PROFILY
100
AcDbCircle
 10
-2252.093161055276
 20
-683.3427648785423
 30
0.0
 40
12.72831987852259
100
AcDbArc
 50
143.4520438048837
 51
216.5479561951162
  0
ARC
  5
207E
330
1F
100
AcDbEntity
  8
PROFILY
100
AcDbCircle
 10
-2252.093161055276
 20
-683.3427648785423
 30
0.0
 40
14.22831987852259
100
AcDbArc
 50
143.4520438048837
 51
216.5479561951162
  0
LINE
  5
207F
330
1F
100
AcDbEntity
  8
PROFILY
100
AcDbLine
 10
-2263.523605847909
 20
-674.8698658228418
 30
0.0
 11
-2262.318567774047
 21
-675.7631089243427
 31
0.0
  0
LINE
  5
2080
330
1F
100
AcDbEntity
  8
PROFILY
100
AcDbLine
 10
-2262.318567774047
 20
-690.9224208327428
 30
0.0
 11
-2263.523605847909
 21
-691.8156639342437
 31
0.0
  0
LINE
  5
2081
330
1F
100
AcDbEntity
  8
PROFILY
100
AcDbLine
 10
-2253.593161055276
 20
-662.2505934842288
 30
0.0
 11
-2252.093161055276
 21
-662.2505934842288
 31
0.0
  0
HATCH
  5
2082
330
1F
100
AcDbEntity
  8
PROFILY
100
AcDbHatch
 10
0.0
 20
0.0
 30
0.0
210
0.0
220
0.0
230
1.0
  2
SOLID
 70
     1
 71
     0
 91
        5
 92
        7
 72
     1
 73
     1
 93
        4
 10
-2262.318567773469
 20
-675.763108924772
 42
0.0
 10
-2263.523605847909
 20
-674.8698658228418
 42
0.1792130352967749
 10
-2266.285187925928
 20
-684.3583730058112
 42
0.0
 10
-2264.780897932348
 20
-684.3583730058112
 42
-0.1813906050583396
 97
        0
 92
        7
 72
     1
 73
     1
 93
        4
 10
-2264.81226052983
 20
-682.8583730058112
 42
0.0294939350368585
 10
-2264.780897932348
 20
-684.3583730058112
 42
0.0
 10
-2253.593161055276
 20
-684.3583730058112
 42
0.0
 10
-2253.593161055276
 20
-682.8583730058112
 42
0.0
 97
        0
 92
        7
 72
     1
 73
     1
 93
        4
 10
-2264.780897932348
 20
-684.3583730058112
 42
0.0
 10
-2266.285187925928
 20
-684.3583730058112
 42
0.1425647712502209
 10
-2263.523605847909
 20
-691.8156639342428
 42
0.0
 10
-2262.318567773469
 20
-690.9224208323134
 42
-0.1404135420578338
 97
        0
 92
        7
 72
     0
 73
     1
 93
        4
 10
-2252.093161055272
 20
-682.8583730058112
 10
-2253.593161055276
 20
-682.8583730058112
 10
-2253.593161055276
 20
-704.8648308302968
 10
-2252.093161055276
 20
-704.8648308302968
 97
        0
 92
        7
 72
     0
 73
     1
 93
        4
 10
-2252.093161055272
 20
-662.2505934842288
 10
-2253.593161055276
 20
-662.2505934842279
 10
-2253.593161055276
 20
-682.8583730058112
 10
-2252.093161055276
 20
-682.8583730058112
 97
        0
 75
     0
 76
     1
 47
0.0868811722163578
 98
        5
 10
-2265.471364837067
 20
-682.5525695301353
 10
-2263.645851734799
 20
-683.3344791543481
 10
-2264.515134367298
 20
-687.4179088860496
 10
-2252.692812269284
 20
-688.5473635309777
 10
-2252.51895574278
 20
-677.6003378579139
  0
LINE
  5
20DA
330
1F
100
AcDbEntity
  8
POPIS
100
AcDbLine
 10
-2241.570969122617
 20
124.1615322761463
 30
0.0
 11
-2285.05397897852
 21
124.1615322761463
 31
0.0
  0
INSERT
  5
20DB
330
1F
100
AcDbEntity
  8
POPIS
100
AcDbBlockReference
  2
_ArchTick
 10
-2272.553978978521
 20
124.1615322761463
 30
0.0
 41
15.0
 42
15.0
 43
15.0
 50
90.0
  0
INSERT
  5
20DC
330
1F
100
AcDbEntity
  8
POPIS
100
AcDbBlockReference
  2
_ArchTick
 10
-2272.553978978521
 20
80.47433901067643
 30
0.0
 41
15.0
 42
15.0
 43
15.0
 50
270.0
  0
LINE
  5
20DD
330
1F
100
AcDbEntity
  8
POPIS
100
AcDbLine
 10
-2243.75991135562
 20
80.47433901067643
 30
0.0
 11
-2285.05397897852
 21
80.47433901067643
 31
0.0
  0
LINE
  5
20DE
330
1F
100
AcDbEntity
  8
POPIS
100
AcDbLine
 10
-2272.553978978521
 20
129.5700689371419
 30
0.0
 11
-2272.553978978521
 21
73.737267700747
 31
0.0
  0
TEXT
  5
20DF
330
1F
100
AcDbEntity
  8
POPIS
100
AcDbText
 10
-2278.163889370812
 20
92.32248000134541
 30
0.0
 40
25.0
  1
70
 50
90.0
 41
0.7
  7
SIMPLEX7
100
AcDbText
  0
LINE
  5
20E0
330
1F
100
AcDbEntity
  8
PROFILY
100
AcDbLine
 10
-2192.179413032005
 20
-288.0268802292785
 30
0.0
 11
-2192.179413032004
 21
238.1200603152728
 31
0.0
  0
LINE
  5
20E1
330
1F
100
AcDbEntity
  8
PROFILY
  6
DASHED
370
    40
100
AcDbLine
 10
-2192.379413032005
 20
-288.0268802292785
 30
0.0
 11
-2192.379413032004
 21
238.1200603152728
 31
0.0
  0
LINE
  5
20E2
330
1F
100
AcDbEntity
  8
PROFILY
100
AcDbLine
 10
-2192.579413032003
 20
-288.0268802292785
 30
0.0
 11
-2192.579413032004
 21
238.1200603152728
 31
0.0
  0
TEXT
  5
20E3
330
1F
100
AcDbEntity
  8
POPIS
100
AcDbText
 10
-2439.967169873219
 20
-833.4750884600989
 30
0.0
 40
25.0
  1
10
 41
0.85
  7
SIMPLEX7
100
AcDbText
  0
TEXT
  5
20E4
330
1F
100
AcDbEntity
  8
POPIS
100
AcDbText
 10
-2385.623466713477
 20
-833.4750884600989
 30
0.0
 40
25.0
  1
Podkladní EPDM páska tl.1 mm
 41
0.7
  7
SIMPLEX7
100
AcDbText
  0
TEXT
  5
20E6
330
1F
100
AcDbEntity
  8
POPIS
100
AcDbText
 10
-2400.355722883458
 20
-259.421841136173
 30
0.0
 40
25.0
  1
10
 41
0.7
  7
SIMPLEX7
100
AcDbText
  0
LINE
  5
20E7
330
1F
100
AcDbEntity
  8
POPIS
100
AcDbLine
 10
-2359.820287588907
 20
-245.9784996868024
 30
0.0
 11
-2191.226820113941
 21
-245.9784996868024
 31
0.0
  0
INSERT
  5
20E8
330
1F
100
AcDbEntity
  8
POPIS
100
AcDbBlockReference
  2
E_PUNKT
 10
-2192.265814109181
 20
-246.0075680176746
 30
0.0
  0
ENDSEC
  0
SECTION
  2
OBJECTS
  0
DICTIONARY
  5
C
330
0
100
AcDbDictionary
281
     1
  3
ACAD_GROUP
350
D
  3
ACAD_LAYOUT
350
1A
  3
ACAD_MLINESTYLE
350
17
  3
ACAD_PLOTSETTINGS
350
19
  3
ACAD_PLOTSTYLENAME
350
E
  3
AcDbVariableDictionary
350
20EA
  0
DICTIONARY
  5
2084
330
1F
100
AcDbDictionary
280
     1
281
     1
  3
ACAD_LAYOUTSELFREF
360
20BE
  0
DICTIONARY
  5
2086
330
1B
100
AcDbDictionary
280
     1
281
     1
  3
ACAD_LAYOUTSELFREF
360
20BD
  0
DICTIONARY
  5
2088
330
23
100
AcDbDictionary
280
     1
281
     1
  3
ACAD_LAYOUTSELFREF
360
20BF
  0
DICTIONARY
  5
D
102
{ACAD_REACTORS
330
C
102
}
330
C
100
AcDbDictionary
281
     1
  0
DICTIONARY
  5
1A
102
{ACAD_REACTORS
330
C
102
}
330
C
100
AcDbDictionary
281
     1
  3
Model
350
22
  3
Rozvržení1
350
1E
  3
Rozvržení2
350
26
  0
DICTIONARY
  5
17
102
{ACAD_REACTORS
330
C
102
}
330
C
100
AcDbDictionary
281
     1
  3
Standard
350
18
  0
DICTIONARY
  5
19
102
{ACAD_REACTORS
330
C
102
}
330
C
100
AcDbDictionary
281
     1
  0
ACDBDICTIONARYWDFLT
  5
E
102
{ACAD_REACTORS
330
C
102
}
330
C
100
AcDbDictionary
281
     1
  3
Normal
350
F
100
AcDbDictionaryWithDefault
340
F
  0
DICTIONARY
  5
20EA
102
{ACAD_REACTORS
330
C
102
}
330
C
100
AcDbDictionary
281
     1
  3
DIMASSOC
350
20EB
  0
XRECORD
  5
20BE
102
{ACAD_REACTORS
330
2084
102
}
330
2084
100
AcDbXrecord
280
     1
340
1F
  0
XRECORD
  5
20BD
102
{ACAD_REACTORS
330
2086
102
}
330
2086
100
AcDbXrecord
280
     1
340
1B
  0
XRECORD
  5
20BF
102
{ACAD_REACTORS
330
2088
102
}
330
2088
100
AcDbXrecord
280
     1
340
23
  0
LAYOUT
  5
22
102
{ACAD_REACTORS
330
1A
102
}
330
1A
100
AcDbPlotSettings
  1

  2
HP DeskJet 690C
  4

  6

 40
0.0
 41
0.0
 42
0.0
 43
0.0
 44
0.0
 45
0.0
 46
0.0
 47
0.0
 48
0.0
 49
0.0
140
0.0
141
0.0
142
1.0
143
1.0
 70
  1712
 72
     0
 73
     0
 74
     0
  7
monochrome.ctb
 75
     0
147
1.0
148
0.0
149
0.0
100
AcDbLayout
  1
Model
 70
     1
 71
     0
 10
0.0
 20
0.0
 11
12.0
 21
9.0
 12
0.0
 22
0.0
 32
0.0
 14
0.0
 24
0.0
 34
0.0
 15
0.0
 25
0.0
 35
0.0
146
0.0
 13
0.0
 23
0.0
 33
0.0
 16
1.0
 26
0.0
 36
0.0
 17
0.0
 27
1.0
 37
0.0
 76
     0
330
1F
  0
LAYOUT
  5
1E
102
{ACAD_REACTORS
330
1A
102
}
330
1A
100
AcDbPlotSettings
  1

  2
HP DeskJet 690C
  4

  6

 40
0.0
 41
0.0
 42
0.0
 43
0.0
 44
0.0
 45
0.0
 46
0.0
 47
0.0
 48
0.0
 49
0.0
140
0.0
141
0.0
142
1.0
143
1.0
 70
   688
 72
     0
 73
     0
 74
     5
  7
monochrome.ctb
 75
    16
147
1.0
148
0.0
149
0.0
100
AcDbLayout
  1
Rozvržení1
 70
     1
 71
     1
 10
0.0
 20
0.0
 11
420.0
 21
297.0
 12
0.0
 22
0.0
 32
0.0
 14
1.000000000000000E+20
 24
1.000000000000000E+20
 34
1.000000000000000E+20
 15
-1.000000000000000E+20
 25
-1.000000000000000E+20
 35
-1.000000000000000E+20
146
0.0
 13
0.0
 23
0.0
 33
0.0
 16
1.0
 26
0.0
 36
0.0
 17
0.0
 27
1.0
 37
0.0
 76
     0
330
1B
  0
LAYOUT
  5
26
102
{ACAD_REACTORS
330
1A
102
}
330
1A
100
AcDbPlotSettings
  1

  2
HP DeskJet 690C
  4

  6

 40
0.0
 41
0.0
 42
0.0
 43
0.0
 44
0.0
 45
0.0
 46
0.0
 47
0.0
 48
0.0
 49
0.0
140
0.0
141
0.0
142
1.0
143
1.0
 70
   688
 72
     0
 73
     0
 74
     5
  7
monochrome.ctb
 75
    16
147
1.0
148
0.0
149
0.0
100
AcDbLayout
  1
Rozvržení2
 70
     1
 71
     2
 10
0.0
 20
0.0
 11
12.0
 21
9.0
 12
0.0
 22
0.0
 32
0.0
 14
0.0
 24
0.0
 34
0.0
 15
0.0
 25
0.0
 35
0.0
146
0.0
 13
0.0
 23
0.0
 33
0.0
 16
1.0
 26
0.0
 36
0.0
 17
0.0
 27
1.0
 37
0.0
 76
     0
330
23
  0
MLINESTYLE
  5
18
102
{ACAD_REACTORS
330
17
102
}
330
17
100
AcDbMlineStyle
  2
STANDARD
 70
     0
  3

 62
   256
 51
90.0
 52
90.0
 71
     2
 49
0.5
 62
   256
  6
BYLAYER
 49
-0.5
 62
   256
  6
BYLAYER
  0
ACDBPLACEHOLDER
  5
F
102
{ACAD_REACTORS
330
E
102
}
330
E
  0
DICTIONARYVAR
  5
20EB
102
{ACAD_REACTORS
330
20EA
102
}
330
20EA
100
DictionaryVariables
280
     0
  1
1
  0
ENDSEC
  0
EOF
