  0
SECTION
  2
HEADER
  9
$ACADVER
  1
AC1015
  9
$ACADMAINTVER
 70
    14
  9
$DWGCODEPAGE
  3
ANSI_1250
  9
$INSBASE
 10
0.0
 20
0.0
 30
0.0
  9
$EXTMIN
 10
-2501.323736443668
 20
-812.4536085951326
 30
-0.0000000349181948
  9
$EXTMAX
 10
-1711.686427570131
 20
517.4234472930548
 30
0.0000000814935746
  9
$LIMMIN
 10
0.0
 20
0.0
  9
$LIMMAX
 10
420.0
 20
297.0
  9
$ORTHOMODE
 70
     1
  9
$REGENMODE
 70
     1
  9
$FILLMODE
 70
     1
  9
$QTEXTMODE
 70
     0
  9
$MIRRTEXT
 70
     1
  9
$LTSCALE
 40
1.0
  9
$ATTMODE
 70
     1
  9
$TEXTSIZE
 40
2.5
  9
$TRACEWID
 40
1.0
  9
$TEXTSTYLE
  7
Standard
  9
$CLAYER
  8
0
  9
$CELTYPE
  6
ByLayer
  9
$CECOLOR
 62
   256
  9
$CELTSCALE
 40
1.0
  9
$DISPSILH
 70
     0
  9
$DIMSCALE
 40
1.0
  9
$DIMASZ
 40
2.5
  9
$DIMEXO
 40
0.625
  9
$DIMDLI
 40
3.75
  9
$DIMRND
 40
0.0
  9
$DIMDLE
 40
0.0
  9
$DIMEXE
 40
1.25
  9
$DIMTP
 40
0.0
  9
$DIMTM
 40
0.0
  9
$DIMTXT
 40
2.5
  9
$DIMCEN
 40
2.5
  9
$DIMTSZ
 40
0.0
  9
$DIMTOL
 70
     0
  9
$DIMLIM
 70
     0
  9
$DIMTIH
 70
     0
  9
$DIMTOH
 70
     0
  9
$DIMSE1
 70
     0
  9
$DIMSE2
 70
     0
  9
$DIMTAD
 70
     1
  9
$DIMZIN
 70
     8
  9
$DIMBLK
  1

  9
$DIMASO
 70
     1
  9
$DIMSHO
 70
     1
  9
$DIMPOST
  1

  9
$DIMAPOST
  1

  9
$DIMALT
 70
     0
  9
$DIMALTD
 70
     3
  9
$DIMALTF
 40
0.03937007874016
  9
$DIMLFAC
 40
1.0
  9
$DIMTOFL
 70
     1
  9
$DIMTVP
 40
0.0
  9
$DIMTIX
 70
     0
  9
$DIMSOXD
 70
     0
  9
$DIMSAH
 70
     0
  9
$DIMBLK1
  1

  9
$DIMBLK2
  1

  9
$DIMSTYLE
  2
ISO-25
  9
$DIMCLRD
 70
     0
  9
$DIMCLRE
 70
     0
  9
$DIMCLRT
 70
     0
  9
$DIMTFAC
 40
1.0
  9
$DIMGAP
 40
0.625
  9
$DIMJUST
 70
     0
  9
$DIMSD1
 70
     0
  9
$DIMSD2
 70
     0
  9
$DIMTOLJ
 70
     0
  9
$DIMTZIN
 70
     8
  9
$DIMALTZ
 70
     0
  9
$DIMALTTZ
 70
     0
  9
$DIMUPT
 70
     0
  9
$DIMDEC
 70
     2
  9
$DIMTDEC
 70
     2
  9
$DIMALTU
 70
     2
  9
$DIMALTTD
 70
     3
  9
$DIMTXSTY
  7
Standard
  9
$DIMAUNIT
 70
     0
  9
$DIMADEC
 70
     0
  9
$DIMALTRND
 40
0.0
  9
$DIMAZIN
 70
     0
  9
$DIMDSEP
 70
    44
  9
$DIMATFIT
 70
     3
  9
$DIMFRAC
 70
     0
  9
$DIMLDRBLK
  1

  9
$DIMLUNIT
 70
     2
  9
$DIMLWD
 70
    -2
  9
$DIMLWE
 70
    -2
  9
$DIMTMOVE
 70
     0
  9
$LUNITS
 70
     2
  9
$LUPREC
 70
     4
  9
$SKETCHINC
 40
1.0
  9
$FILLETRAD
 40
10.0
  9
$AUNITS
 70
     0
  9
$AUPREC
 70
     0
  9
$MENU
  1
.
  9
$ELEVATION
 40
0.0
  9
$PELEVATION
 40
0.0
  9
$THICKNESS
 40
0.0
  9
$LIMCHECK
 70
     0
  9
$CHAMFERA
 40
10.0
  9
$CHAMFERB
 40
10.0
  9
$CHAMFERC
 40
20.0
  9
$CHAMFERD
 40
0.0
  9
$SKPOLY
 70
     0
  9
$TDCREATE
 40
2452339.371895717
  9
$TDUCREATE
 40
2452339.330229051
  9
$TDUPDATE
 40
2455610.263073889
  9
$TDUUPDATE
 40
2455610.221407222
  9
$TDINDWG
 40
0.0309187384
  9
$TDUSRTIMER
 40
0.0309187384
  9
$USRTIMER
 70
     1
  9
$ANGBASE
 50
0.0
  9
$ANGDIR
 70
     0
  9
$PDMODE
 70
     0
  9
$PDSIZE
 40
0.0
  9
$PLINEWID
 40
0.0
  9
$SPLFRAME
 70
     0
  9
$SPLINETYPE
 70
     6
  9
$SPLINESEGS
 70
     8
  9
$HANDSEED
  5
1D0D
  9
$SURFTAB1
 70
     6
  9
$SURFTAB2
 70
     6
  9
$SURFTYPE
 70
     6
  9
$SURFU
 70
     6
  9
$SURFV
 70
     6
  9
$UCSBASE
  2

  9
$UCSNAME
  2

  9
$UCSORG
 10
0.0
 20
0.0
 30
0.0
  9
$UCSXDIR
 10
1.0
 20
0.0
 30
0.0
  9
$UCSYDIR
 10
0.0
 20
1.0
 30
0.0
  9
$UCSORTHOREF
  2

  9
$UCSORTHOVIEW
 70
     0
  9
$UCSORGTOP
 10
0.0
 20
0.0
 30
0.0
  9
$UCSORGBOTTOM
 10
0.0
 20
0.0
 30
0.0
  9
$UCSORGLEFT
 10
0.0
 20
0.0
 30
0.0
  9
$UCSORGRIGHT
 10
0.0
 20
0.0
 30
0.0
  9
$UCSORGFRONT
 10
0.0
 20
0.0
 30
0.0
  9
$UCSORGBACK
 10
0.0
 20
0.0
 30
0.0
  9
$PUCSBASE
  2

  9
$PUCSNAME
  2

  9
$PUCSORG
 10
0.0
 20
0.0
 30
0.0
  9
$PUCSXDIR
 10
1.0
 20
0.0
 30
0.0
  9
$PUCSYDIR
 10
0.0
 20
1.0
 30
0.0
  9
$PUCSORTHOREF
  2

  9
$PUCSORTHOVIEW
 70
     0
  9
$PUCSORGTOP
 10
0.0
 20
0.0
 30
0.0
  9
$PUCSORGBOTTOM
 10
0.0
 20
0.0
 30
0.0
  9
$PUCSORGLEFT
 10
0.0
 20
0.0
 30
0.0
  9
$PUCSORGRIGHT
 10
0.0
 20
0.0
 30
0.0
  9
$PUCSORGFRONT
 10
0.0
 20
0.0
 30
0.0
  9
$PUCSORGBACK
 10
0.0
 20
0.0
 30
0.0
  9
$USERI1
 70
     0
  9
$USERI2
 70
     0
  9
$USERI3
 70
     0
  9
$USERI4
 70
     0
  9
$USERI5
 70
     0
  9
$USERR1
 40
0.0
  9
$USERR2
 40
0.0
  9
$USERR3
 40
0.0
  9
$USERR4
 40
0.0
  9
$USERR5
 40
0.0
  9
$WORLDVIEW
 70
     1
  9
$SHADEDGE
 70
     3
  9
$SHADEDIF
 70
    70
  9
$TILEMODE
 70
     1
  9
$MAXACTVP
 70
    48
  9
$PINSBASE
 10
0.0
 20
0.0
 30
0.0
  9
$PLIMCHECK
 70
     0
  9
$PEXTMIN
 10
1.000000000000000E+20
 20
1.000000000000000E+20
 30
1.000000000000000E+20
  9
$PEXTMAX
 10
-1.000000000000000E+20
 20
-1.000000000000000E+20
 30
-1.000000000000000E+20
  9
$PLIMMIN
 10
0.0
 20
0.0
  9
$PLIMMAX
 10
420.0
 20
297.0
  9
$UNITMODE
 70
     0
  9
$VISRETAIN
 70
     1
  9
$PLINEGEN
 70
     0
  9
$PSLTSCALE
 70
     1
  9
$TREEDEPTH
 70
  3020
  9
$CMLSTYLE
  2
Standard
  9
$CMLJUST
 70
     0
  9
$CMLSCALE
 40
20.0
  9
$PROXYGRAPHICS
 70
     1
  9
$MEASUREMENT
 70
     1
  9
$CELWEIGHT
370
    -1
  9
$ENDCAPS
280
     0
  9
$JOINSTYLE
280
     0
  9
$LWDISPLAY
290
     0
  9
$INSUNITS
 70
     4
  9
$HYPERLINKBASE
  1

  9
$STYLESHEET
  1

  9
$XEDIT
290
     1
  9
$CEPSNTYPE
380
     0
  9
$PSTYLEMODE
290
     1
  9
$FINGERPRINTGUID
  2
{9FA890EF-883C-4FD4-884F-6B075534EB0B}
  9
$VERSIONGUID
  2
{6CEDC35D-1F99-4E34-AF81-D82CD0626F86}
  9
$EXTNAMES
290
     1
  9
$PSVPSCALE
 40
0.0
  9
$OLESTARTUP
290
     0
  0
ENDSEC
  0
SECTION
  2
CLASSES
  0
CLASS
  1
ACDBDICTIONARYWDFLT
  2
AcDbDictionaryWithDefault
  3
AutoCAD 2000
 90
        0
280
     0
281
     0
  0
CLASS
  1
ACDBPLACEHOLDER
  2
AcDbPlaceHolder
  3
AutoCAD 2000
 90
        0
280
     0
281
     0
  0
CLASS
  1
LAYOUT
  2
AcDbLayout
  3
AutoCAD 2000
 90
        0
280
     0
281
     0
  0
CLASS
  1
LONG_TRANSACTION
  2
AcDbLongTransaction
  3
AutoCAD 2000
 90
    32768
280
     0
281
     0
  0
CLASS
  1
LWPOLYLINE
  2
AcDbPolyline
  3
AutoCAD 2000
 90
    32768
280
     0
281
     1
  0
CLASS
  1
HATCH
  2
AcDbHatch
  3
AutoCAD 2000
 90
    32768
280
     0
281
     1
  0
CLASS
  1
XRECORD
  2
AcDbXrecord
  3
AutoCAD 2000
 90
    32768
280
     0
281
     0
  0
CLASS
  1
DICTIONARYVAR
  2
AcDbDictionaryVar
  3
AutoCAD 2000
 90
        0
280
     0
281
     0
  0
ENDSEC
  0
SECTION
  2
TABLES
  0
TABLE
  2
VPORT
  5
8
330
0
100
AcDbSymbolTable
 70
     2
  0
VPORT
  5
1D0C
330
8
100
AcDbSymbolTableRecord
100
AcDbViewportTableRecord
  2
*Active
 70
     0
 10
0.0
 20
0.0
 11
1.0
 21
1.0
 12
-2106.505082006899
 22
-147.5150806510389
 13
0.0
 23
0.0
 14
10.0
 24
10.0
 15
10.0
 25
10.0
 16
0.0
 26
0.0
 36
1.0
 17
0.0
 27
0.0
 37
0.0
 40
1339.643594854318
 41
2.031862745098039
 42
50.0
 43
0.0
 44
0.0
 50
0.0
 51
0.0
 71
     0
 72
   100
 73
     1
 74
     3
 75
     0
 76
     0
 77
     0
 78
     0
281
     0
 65
     1
110
0.0
120
0.0
130
0.0
111
1.0
121
0.0
131
0.0
112
0.0
122
1.0
132
0.0
 79
     0
146
0.0
  0
ENDTAB
  0
TABLE
  2
LTYPE
  5
5
330
0
100
AcDbSymbolTable
 70
     4
  0
LTYPE
  5
14
330
5
100
AcDbSymbolTableRecord
100
AcDbLinetypeTableRecord
  2
ByBlock
 70
     0
  3

 72
    65
 73
     0
 40
0.0
  0
LTYPE
  5
15
330
5
100
AcDbSymbolTableRecord
100
AcDbLinetypeTableRecord
  2
ByLayer
 70
     0
  3

 72
    65
 73
     0
 40
0.0
  0
LTYPE
  5
16
330
5
100
AcDbSymbolTableRecord
100
AcDbLinetypeTableRecord
  2
Continuous
 70
     0
  3
Solid line
 72
    65
 73
     0
 40
0.0
  0
LTYPE
  5
33
330
5
100
AcDbSymbolTableRecord
100
AcDbLinetypeTableRecord
  2
IZOLACE
 70
     0
  3
Izolace SSSSSSSSSSSSSSSSSSSSSSSSSSSSSSSSSSSSSSS
 72
    65
 73
     4
 40
10.16253999999999
 49
0.00254
 74
     0
 49
-2.54
 74
     4
 75
   134
340
3D
 46
2.54
 50
0.0
 44
-2.54
 45
0.0
 49
-5.08
 74
     4
 75
   134
340
3D
 46
2.54
 50
180.0
 44
2.54
 45
0.0
 49
-2.54
 74
     0
  0
LTYPE
  5
34
330
5
100
AcDbSymbolTableRecord
100
AcDbLinetypeTableRecord
  2
DASHED
 70
     0
  3
Dashed __ __ __ __ __ __ __ __ __ __ __ __ __ _
 72
    65
 73
     2
 40
19.04999999999999
 49
12.7
 74
     0
 49
-6.349999999999999
 74
     0
  0
LTYPE
  5
35
330
5
100
AcDbSymbolTableRecord
100
AcDbLinetypeTableRecord
  2
DASHDOT2
 70
     0
  3
Dash dot (.5x) _._._._._._._._._._._._._._._.
 72
    65
 73
     4
 40
12.7
 49
6.349999999999999
 74
     0
 49
-3.174999999999999
 74
     0
 49
0.0
 74
     0
 49
-3.174999999999999
 74
     0
  0
ENDTAB
  0
TABLE
  2
LAYER
  5
2
330
0
100
AcDbSymbolTable
 70
     7
  0
LAYER
  5
10
330
2
100
AcDbSymbolTableRecord
100
AcDbLayerTableRecord
  2
0
 70
     0
 62
     7
  6
Continuous
370
    -3
390
F
  0
LAYER
  5
36
330
2
100
AcDbSymbolTableRecord
100
AcDbLayerTableRecord
  2
POPIS
 70
     0
 62
    30
  6
Continuous
370
    -3
390
F
  0
LAYER
  5
37
330
2
100
AcDbSymbolTableRecord
100
AcDbLayerTableRecord
  2
SPOJOVACÍ
 70
     0
 62
   180
  6
Continuous
370
    -3
390
F
  0
LAYER
  5
38
330
2
100
AcDbSymbolTableRecord
100
AcDbLayerTableRecord
  2
CETRIS
 70
     0
 62
     1
  6
Continuous
370
    -3
390
F
  0
LAYER
  5
39
330
2
100
AcDbSymbolTableRecord
100
AcDbLayerTableRecord
  2
NOSNÉ KONSTRUKCE
 70
     0
 62
    33
  6
Continuous
370
    -3
390
F
  0
LAYER
  5
3A
330
2
100
AcDbSymbolTableRecord
100
AcDbLayerTableRecord
  2
PROFILY
 70
     0
 62
    73
  6
Continuous
370
    -3
390
F
  0
LAYER
  5
3B
330
2
100
AcDbSymbolTableRecord
100
AcDbLayerTableRecord
  2
STAVBA OBRYS
 70
     0
 62
     6
  6
Continuous
370
    -3
390
F
  0
ENDTAB
  0
TABLE
  2
STYLE
  5
3
330
0
100
AcDbSymbolTable
 70
     3
  0
STYLE
  5
11
330
3
100
AcDbSymbolTableRecord
100
AcDbTextStyleTableRecord
  2
Standard
 70
     0
 40
0.0
 41
1.0
 50
0.0
 71
     0
 42
2.5
  3
txt
  4

  0
STYLE
  5
3C
330
3
100
AcDbSymbolTableRecord
100
AcDbTextStyleTableRecord
  2
SIMPLEX7
 70
     0
 40
0.0
 41
0.85
 50
0.0
 71
     0
 42
102.0
  3
ARIAL.TTF
  4

1001
ACAD
1000
Arial CE
1071
    60962
  0
STYLE
  5
3D
330
3
100
AcDbSymbolTableRecord
100
AcDbTextStyleTableRecord
  2

 70
     1
 40
0.0
 41
1.0
 50
0.0
 71
     0
 42
2.5
  3
ltypeshp.shx
  4

  0
ENDTAB
  0
TABLE
  2
VIEW
  5
6
330
0
100
AcDbSymbolTable
 70
     0
  0
ENDTAB
  0
TABLE
  2
UCS
  5
7
330
0
100
AcDbSymbolTable
 70
     0
  0
ENDTAB
  0
TABLE
  2
APPID
  5
9
330
0
100
AcDbSymbolTable
 70
     1
  0
APPID
  5
12
330
9
100
AcDbSymbolTableRecord
100
AcDbRegAppTableRecord
  2
ACAD
 70
     0
  0
ENDTAB
  0
TABLE
  2
DIMSTYLE
  5
A
330
0
100
AcDbSymbolTable
 70
     1
100
AcDbDimStyleTable
 71
     0
  0
DIMSTYLE
105
27
330
A
100
AcDbSymbolTableRecord
100
AcDbDimStyleTableRecord
  2
ISO-25
 70
     0
 41
2.5
 42
0.625
 43
3.75
 44
1.25
 73
     0
 74
     0
 77
     1
 78
     8
140
2.5
141
2.5
143
0.03937007874016
147
0.625
171
     3
172
     1
271
     2
272
     2
274
     3
278
    44
283
     0
284
     8
340
11
  0
ENDTAB
  0
TABLE
  2
BLOCK_RECORD
  5
1
330
0
100
AcDbSymbolTable
 70
     2
  0
BLOCK_RECORD
  5
1F
102
{ACAD_XDICTIONARY
360
1CAB
102
}
330
1
100
AcDbSymbolTableRecord
100
AcDbBlockTableRecord
  2
*Model_Space
340
22
  0
BLOCK_RECORD
  5
1B
102
{ACAD_XDICTIONARY
360
1CAD
102
}
330
1
100
AcDbSymbolTableRecord
100
AcDbBlockTableRecord
  2
*Paper_Space
340
1E
  0
BLOCK_RECORD
  5
23
102
{ACAD_XDICTIONARY
360
1CAF
102
}
330
1
100
AcDbSymbolTableRecord
100
AcDbBlockTableRecord
  2
*Paper_Space0
340
26
  0
BLOCK_RECORD
  5
2B
330
1
100
AcDbSymbolTableRecord
100
AcDbBlockTableRecord
  2
E_PUNKT
340
0
102
{BLKREFS
331
1B94
331
1B97
331
1B98
331
1B99
331
1B9A
331
1C74
331
1C7A
331
1D00
331
1D03
102
}
  0
ENDTAB
  0
ENDSEC
  0
SECTION
  2
BLOCKS
  0
BLOCK
  5
20
330
1F
100
AcDbEntity
  8
0
100
AcDbBlockBegin
  2
*Model_Space
 70
     0
 10
0.0
 20
0.0
 30
0.0
  3
*Model_Space
  1

  0
ENDBLK
  5
21
330
1F
100
AcDbEntity
  8
0
100
AcDbBlockEnd
  0
BLOCK
  5
1C
330
1B
100
AcDbEntity
 67
     1
  8
0
100
AcDbBlockBegin
  2
*Paper_Space
 70
     0
 10
0.0
 20
0.0
 30
0.0
  3
*Paper_Space
  1

  0
ENDBLK
  5
1D
330
1B
100
AcDbEntity
 67
     1
  8
0
100
AcDbBlockEnd
  0
BLOCK
  5
24
330
23
100
AcDbEntity
  8
0
100
AcDbBlockBegin
  2
*Paper_Space0
 70
     0
 10
0.0
 20
0.0
 30
0.0
  3
*Paper_Space0
  1

  0
ENDBLK
  5
25
330
23
100
AcDbEntity
  8
0
100
AcDbBlockEnd
  0
BLOCK
  5
2D
330
2B
100
AcDbEntity
  8
0
100
AcDbBlockBegin
  2
E_PUNKT
 70
     0
 10
0.0
 20
0.0
 30
0.0
  3
E_PUNKT
  1

  0
LWPOLYLINE
  5
2C
330
2B
100
AcDbEntity
  8
POPIS
100
AcDbPolyline
 90
        2
 70
     1
 43
2.5
 10
1.27761037562675
 20
0.0290683308725193
 42
-1.0
 10
-1.222389624373249
 20
0.0290683308725193
 42
-1.0
  0
ENDBLK
  5
2E
330
2B
100
AcDbEntity
  8
0
100
AcDbBlockEnd
  0
ENDSEC
  0
SECTION
  2
ENTITIES
  0
INSERT
  5
1B94
330
1F
100
AcDbEntity
  8
POPIS
100
AcDbBlockReference
  2
E_PUNKT
 10
-2252.520186921981
 20
-232.4445387755449
 30
0.0
 41
-1.0
 50
180.0
  0
LINE
  5
1B95
330
1F
100
AcDbEntity
  8
POPIS
100
AcDbLine
 10
-2429.79686105742
 20
-232.5495115523817
 30
0.0
 11
-2252.476315323871
 21
-232.5495115523817
 31
0.0
  0
TEXT
  5
1B96
330
1F
100
AcDbEntity
  8
POPIS
100
AcDbText
 10
-2471.167822576983
 20
-245.9928530017523
 30
0.0
 40
25.0
  1
04
 41
0.7
  7
SIMPLEX7
100
AcDbText
  0
INSERT
  5
1B97
330
1F
100
AcDbEntity
  8
POPIS
100
AcDbBlockReference
  2
E_PUNKT
 10
-2228.357081200483
 20
-164.7838433071929
 30
0.0
 41
-1.0
 50
180.0
  0
INSERT
  5
1B98
330
1F
100
AcDbEntity
  8
POPIS
100
AcDbBlockReference
  2
E_PUNKT
 10
-2205.017454849897
 20
18.38139165404845
 30
0.0
 41
-1.0
 50
180.0
  0
INSERT
  5
1B99
330
1F
100
AcDbEntity
  8
POPIS
100
AcDbBlockReference
  2
E_PUNKT
 10
-2236.083023483042
 20
60.54233368357654
 30
0.0
 41
-1.0
 50
180.0
  0
INSERT
  5
1B9A
330
1F
100
AcDbEntity
  8
POPIS
100
AcDbBlockReference
  2
E_PUNKT
 10
-2252.520186921981
 20
127.234453483662
 30
0.0
 41
-1.0
 50
180.0
  0
LINE
  5
1B9B
330
1F
100
AcDbEntity
  8
SPOJOVACÍ
100
AcDbLine
 10
-2262.819618898138
 20
-216.9211163820619
 30
0.0
 11
-2261.296611642643
 21
-211.2371759242605
 31
0.0
  0
LINE
  5
1B9C
330
1F
100
AcDbEntity
  8
SPOJOVACÍ
100
AcDbLine
 10
-2254.909462648142
 20
-216.9211163820619
 30
0.0
 11
-2253.386455392647
 21
-211.2371759242605
 31
0.0
  0
LINE
  5
1B9D
330
1F
100
AcDbEntity
  8
SPOJOVACÍ
100
AcDbLine
 10
-2256.491493898141
 20
-216.9211163820619
 30
0.0
 11
-2254.968486642643
 21
-211.2371759242605
 31
0.0
  0
LINE
  5
1B9E
330
1F
100
AcDbEntity
  8
SPOJOVACÍ
100
AcDbLine
 10
-2261.237587648138
 20
-216.9211163820619
 30
0.0
 11
-2259.714580392643
 21
-211.2371759242605
 31
0.0
  0
LINE
  5
1B9F
330
1F
100
AcDbEntity
  8
SPOJOVACÍ
100
AcDbLine
 10
-2259.655556398138
 20
-216.9211163820619
 30
0.0
 11
-2258.132549142643
 21
-211.2371759242605
 31
0.0
  0
LINE
  5
1BA0
330
1F
100
AcDbEntity
  8
SPOJOVACÍ
100
AcDbLine
 10
-2258.073525148142
 20
-216.9211163820619
 30
0.0
 11
-2256.550517892643
 21
-211.2371759242605
 31
0.0
  0
LINE
  5
1BA1
330
1F
100
AcDbEntity
  8
SPOJOVACÍ
100
AcDbLine
 10
-2246.429634914169
 20
-214.0791461531616
 30
0.0
 11
-2248.612467420243
 21
-211.2459505701335
 31
0.0
  0
LINE
  5
1BA2
330
1F
100
AcDbEntity
  8
SPOJOVACÍ
100
AcDbLine
 10
-2246.429634914169
 20
-214.0791461531616
 30
0.0
 11
-2248.625988253301
 21
-216.9298910279339
 31
0.0
  0
LINE
  5
1BA3
330
1F
100
AcDbEntity
  8
SPOJOVACÍ
100
AcDbLine
 10
-2248.581337648142
 20
-216.9211163820619
 30
0.0
 11
-2247.507536080451
 21
-212.9136343741957
 31
0.0
  0
LINE
  5
1BA4
330
1F
100
AcDbEntity
  8
SPOJOVACÍ
100
AcDbLine
 10
-2251.745400148138
 20
-216.9211163820619
 30
0.0
 11
-2250.222392892646
 21
-211.2371759242605
 31
0.0
  0
LINE
  5
1BA5
330
1F
100
AcDbEntity
  8
SPOJOVACÍ
100
AcDbLine
 10
-2253.327431398138
 20
-216.9211163820619
 30
0.0
 11
-2251.804424142647
 21
-211.2371759242605
 31
0.0
  0
LINE
  5
1BA6
330
1F
100
AcDbEntity
  8
SPOJOVACÍ
100
AcDbLine
 10
-2250.163368898142
 20
-216.9211163820619
 30
0.0
 11
-2248.640361642643
 21
-211.2371759242605
 31
0.0
  0
LINE
  5
1BA7
330
1F
100
AcDbEntity
  8
SPOJOVACÍ
100
AcDbLine
 10
-2248.612467420243
 20
-211.2459505701335
 30
0.0
 11
-2278.220003265716
 21
-211.2459505701326
 31
0.0
  0
LINE
  5
1BA8
330
1F
100
AcDbEntity
  8
SPOJOVACÍ
100
AcDbLine
 10
-2248.625988253301
 20
-216.9298910279339
 30
0.0
 11
-2278.220003265716
 21
-216.9298910279339
 31
0.0
  0
LINE
  5
1BA9
330
1F
100
AcDbEntity
  8
SPOJOVACÍ
100
AcDbLine
 10
-2267.565712648138
 20
-216.9211163820619
 30
0.0
 11
-2266.042705392643
 21
-211.2371759242605
 31
0.0
  0
LINE
  5
1BAA
330
1F
100
AcDbEntity
  8
SPOJOVACÍ
100
AcDbLine
 10
-2269.147743898138
 20
-216.9211163820619
 30
0.0
 11
-2267.624736642643
 21
-211.2371759242605
 31
0.0
  0
LINE
  5
1BAB
330
1F
100
AcDbEntity
  8
SPOJOVACÍ
100
AcDbLine
 10
-2265.983681398138
 20
-216.9211163820619
 30
0.0
 11
-2264.460674142643
 21
-211.2371759242605
 31
0.0
  0
LINE
  5
1BAC
330
1F
100
AcDbEntity
  8
SPOJOVACÍ
100
AcDbLine
 10
-2264.401650148134
 20
-216.9211163820619
 30
0.0
 11
-2262.878642892643
 21
-211.2371759242605
 31
0.0
  0
LINE
  5
1BAD
330
1F
100
AcDbEntity
  8
SPOJOVACÍ
100
AcDbLine
 10
-2273.893837648138
 20
-216.9211163820619
 30
0.0
 11
-2272.370830392643
 21
-211.2371759242605
 31
0.0
  0
LINE
  5
1BAE
330
1F
100
AcDbEntity
  8
SPOJOVACÍ
100
AcDbLine
 10
-2272.311806398138
 20
-216.9211163820619
 30
0.0
 11
-2270.788799142643
 21
-211.2371759242605
 31
0.0
  0
LINE
  5
1BAF
330
1F
100
AcDbEntity
  8
SPOJOVACÍ
100
AcDbLine
 10
-2270.729775148141
 20
-216.9211163820619
 30
0.0
 11
-2269.206767892643
 21
-211.2371759242605
 31
0.0
  0
LINE
  5
1BB0
330
1F
100
AcDbEntity
  8
SPOJOVACÍ
100
AcDbLine
 10
-2275.475868898134
 20
-216.9211163820619
 30
0.0
 11
-2273.952861642643
 21
-211.2371759242605
 31
0.0
  0
ELLIPSE
  5
1BB1
330
1F
100
AcDbEntity
  8
SPOJOVACÍ
100
AcDbEllipse
 10
-2280.181444726364
 20
-214.1398581404046
 30
0.0
 11
0.0000000000000018
 21
7.321312510456553
 31
0.0
210
0.0
220
0.0
230
1.0
 40
0.3214803388886193
 41
-0.2355512395776302
 42
3.377143893167422
  0
HATCH
  5
1BB2
330
1F
100
AcDbEntity
  8
SPOJOVACÍ
100
AcDbHatch
 10
0.0
 20
0.0
 30
0.0
210
0.0
220
0.0
230
1.0
  2
ANSI37
 70
     0
 71
     0
 91
        1
 92
        7
 72
     0
 73
     1
 93
        6
 10
-2279.632150279063
 20
-214.1398581404046
 10
-2279.632150279059
 20
-221.2589987654027
 10
-2278.248234487848
 20
-221.2589987654046
 10
-2278.248234487848
 20
-214.1398581404046
 10
-2278.248234487848
 20
-207.0207175154046
 10
-2279.632150279063
 20
-207.0207175154064
 97
        0
 75
     0
 76
     1
 52
-90.00000000000001
 41
0.9
 77
     0
 78
     2
 53
315.0
 43
-6120.478449931393
 44
9868.721453930481
 45
2.02055762724056
 46
2.020557627240558
 79
     0
 53
44.99999999999999
 43
-6120.478449931393
 44
9868.721453930481
 45
-2.020557627240558
 46
2.02055762724056
 79
     0
 47
0.0246402553748132
 98
        1
 10
-2279.161198837089
 20
-213.739012478718
  0
LINE
  5
1BB3
330
1F
100
AcDbEntity
  8
SPOJOVACÍ
100
AcDbLine
 10
-2279.118778017804
 20
-208.9191550154046
 30
0.0
 11
-2279.123524111553
 21
-208.9191550154046
 31
0.0
  0
LINE
  5
1BB4
330
1F
100
AcDbEntity
  8
SPOJOVACÍ
100
AcDbLine
 10
-2278.248234487848
 20
-207.0207175154046
 30
0.0
 11
-2278.248234487848
 21
-214.1398581404046
 31
0.0
  0
LINE
  5
1BB5
330
1F
100
AcDbEntity
  8
SPOJOVACÍ
100
AcDbLine
 10
-2278.248234487848
 20
-207.0207175154046
 30
0.0
 11
-2279.632150279063
 21
-207.0207175154064
 31
0.0
  0
LINE
  5
1BB6
330
1F
100
AcDbEntity
  8
SPOJOVACÍ
100
AcDbLine
 10
-2279.118778017804
 20
-208.9191550154046
 30
0.0
 11
-2279.123524111553
 21
-208.9191550154046
 31
0.0
  0
LINE
  5
1BB7
330
1F
100
AcDbEntity
  8
SPOJOVACÍ
100
AcDbLine
 10
-2279.632150279063
 20
-214.1398581404046
 30
0.0
 11
-2279.632150279063
 21
-207.0207175154046
 31
0.0
  0
LINE
  5
1BB8
330
1F
100
AcDbEntity
  8
SPOJOVACÍ
100
AcDbLine
 10
-2279.632150279063
 20
-210.3038899633393
 30
0.0
 11
-2279.632150279063
 21
-221.2589987654046
 31
0.0
  0
LINE
  5
1BB9
330
1F
100
AcDbEntity
  8
SPOJOVACÍ
100
AcDbLine
 10
-2279.632150279063
 20
-221.2589987654027
 30
0.0
 11
-2278.248234487848
 21
-221.2589987654046
 31
0.0
  0
LINE
  5
1BBA
330
1F
100
AcDbEntity
  8
SPOJOVACÍ
100
AcDbLine
 10
-2278.248234487848
 20
-214.1398581404046
 30
0.0
 11
-2278.248234487848
 21
-221.2589987654046
 31
0.0
  0
LINE
  5
1BBB
330
1F
100
AcDbEntity
  8
SPOJOVACÍ
100
AcDbLine
 10
-2278.248234487848
 20
143.4138675423037
 30
0.0
 11
-2278.248234487848
 21
136.2947269173037
 31
0.0
  0
LINE
  5
1BBC
330
1F
100
AcDbEntity
  8
SPOJOVACÍ
100
AcDbLine
 10
-2279.632150279063
 20
136.2947269173055
 30
0.0
 11
-2278.248234487848
 21
136.2947269173037
 31
0.0
  0
LINE
  5
1BBD
330
1F
100
AcDbEntity
  8
SPOJOVACÍ
100
AcDbLine
 10
-2279.632150279063
 20
147.249835719369
 30
0.0
 11
-2279.632150279063
 21
136.2947269173037
 31
0.0
  0
LINE
  5
1BBE
330
1F
100
AcDbEntity
  8
SPOJOVACÍ
100
AcDbLine
 10
-2279.632150279063
 20
143.4138675423037
 30
0.0
 11
-2279.632150279063
 21
150.5330081673037
 31
0.0
  0
LINE
  5
1BBF
330
1F
100
AcDbEntity
  8
SPOJOVACÍ
100
AcDbLine
 10
-2279.118778017804
 20
148.6345706673037
 30
0.0
 11
-2279.123524111553
 21
148.6345706673037
 31
0.0
  0
LINE
  5
1BC0
330
1F
100
AcDbEntity
  8
SPOJOVACÍ
100
AcDbLine
 10
-2278.248234487848
 20
150.5330081673037
 30
0.0
 11
-2279.632150279063
 21
150.5330081673018
 31
0.0
  0
LINE
  5
1BC1
330
1F
100
AcDbEntity
  8
SPOJOVACÍ
100
AcDbLine
 10
-2278.248234487848
 20
150.5330081673037
 30
0.0
 11
-2278.248234487848
 21
143.4138675423037
 31
0.0
  0
LINE
  5
1BC2
330
1F
100
AcDbEntity
  8
SPOJOVACÍ
100
AcDbLine
 10
-2279.118778017804
 20
148.6345706673037
 30
0.0
 11
-2279.123524111553
 21
148.6345706673037
 31
0.0
  0
HATCH
  5
1BC3
330
1F
100
AcDbEntity
  8
SPOJOVACÍ
100
AcDbHatch
 10
0.0
 20
0.0
 30
0.0
210
0.0
220
0.0
230
1.0
  2
ANSI37
 70
     0
 71
     0
 91
        1
 92
        7
 72
     0
 73
     1
 93
        6
 10
-2279.632150279063
 20
143.4138675423037
 10
-2279.632150279059
 20
136.2947269173055
 10
-2278.248234487848
 20
136.2947269173037
 10
-2278.248234487848
 20
143.4138675423037
 10
-2278.248234487848
 20
150.5330081673037
 10
-2279.632150279063
 20
150.5330081673018
 97
        0
 75
     0
 76
     1
 52
-90.00000000000001
 41
0.9
 77
     0
 78
     2
 53
315.0
 43
-6120.478449931393
 44
10226.27517961318
 45
2.02055762724056
 46
2.020557627240558
 79
     0
 53
44.99999999999999
 43
-6120.478449931393
 44
10226.27517961318
 45
-2.020557627240558
 46
2.02055762724056
 79
     0
 47
0.0246402553748132
 98
        1
 10
-2279.161198837089
 20
143.8147132039903
  0
ELLIPSE
  5
1BC4
330
1F
100
AcDbEntity
  8
SPOJOVACÍ
100
AcDbEllipse
 10
-2280.181444726364
 20
143.4138675423037
 30
0.0
 11
0.0000000000000018
 21
7.321312510456553
 31
0.0
210
0.0
220
0.0
230
1.0
 40
0.3214803388886193
 41
-0.2355512395776302
 42
3.377143893167422
  0
LINE
  5
1BC5
330
1F
100
AcDbEntity
  8
NOSNÉ KONSTRUKCE
100
AcDbLine
 10
-2263.780705303299
 20
-190.758993864335
 30
0.0
 11
-2238.780705303299
 21
-190.758993864335
 31
0.0
  0
LWPOLYLINE
  5
1BC6
330
1F
100
AcDbEntity
  8
NOSNÉ KONSTRUKCE
100
AcDbPolyline
 90
        3
 70
     0
 43
0.0
 10
-2257.281535734044
 20
-214.7551839300422
 10
-2248.065506683524
 20
-194.7589314980496
 10
-2247.420109208182
 20
-190.758993864335
  0
LWPOLYLINE
  5
1BC7
330
1F
100
AcDbEntity
  8
NOSNÉ KONSTRUKCE
100
AcDbPolyline
 90
        8
 70
     0
 43
0.0
 10
-2263.780705303299
 20
-207.8468159308568
 42
-0.0120721047703142
 10
-2262.046817164555
 20
-207.9157986208947
 42
-0.044358077361292
 10
-2259.351017146138
 20
-208.311426355568
 42
-0.0188067511131767
 10
-2252.108787970832
 20
-210.3312498039513
 42
-0.0457786284636091
 10
-2249.260177587952
 20
-211.5392726935669
 42
-0.0295006114745606
 10
-2245.33327837455
 20
-213.9553331478664
 42
-0.0258674098621065
 10
-2241.187498295796
 20
-217.1880084618305
 42
-0.0093759062953949
 10
-2238.780705303299
 20
-219.3538206414868
 42
-0.0093759062953949
  0
LWPOLYLINE
  5
1BC8
330
1F
100
AcDbEntity
  8
NOSNÉ KONSTRUKCE
100
AcDbPolyline
 90
        6
 70
     0
 43
0.0
 10
-2263.780705303299
 20
-199.2226005508145
 42
-0.0128837512779302
 10
-2260.447540481553
 20
-199.50739251104
 42
-0.0351641677647434
 10
-2256.843831027214
 20
-200.135152232563
 42
-0.0187319685742942
 10
-2245.085593685071
 20
-203.5191681135538
 42
-0.0582629403736403
 10
-2241.505759486139
 20
-205.178667981635
 42
-0.0146402521923566
 10
-2238.780705303299
 20
-206.9630759632191
  0
LWPOLYLINE
  5
1BC9
330
1F
100
AcDbEntity
  8
NOSNÉ KONSTRUKCE
100
AcDbPolyline
 90
        9
 70
     0
 43
0.0
 10
-2263.780705303299
 20
-230.891704198787
 42
-0.0064239028828688
 10
-2263.561591643949
 20
-230.9305726389675
 42
-0.0832048017309575
 10
-2261.231378064294
 20
-231.714755241649
 42
-0.0336767237692336
 10
-2258.503103544833
 20
-233.4175718005708
 42
-0.0844635135812105
 10
-2257.598681939839
 20
-234.3373815604636
 42
-0.0495829410719565
 10
-2256.622032432525
 20
-236.0860599978177
 42
-0.0322692699774654
 10
-2255.580508931125
 20
-238.9774141789084
 42
-0.0276160659512937
 10
-2255.383773502181
 20
-239.8329906171957
 42
-0.0126891984598699
 10
-2255.248571112639
 20
-240.7561590129889
  0
LWPOLYLINE
  5
1BD4
330
1F
100
AcDbEntity
  8
NOSNÉ KONSTRUKCE
100
AcDbPolyline
 90
       11
 70
     0
 43
0.0
 10
-2263.780705303299
 20
-223.6636531780504
 42
-0.0072417954699014
 10
-2263.369300092024
 20
-223.7192235458924
 42
-0.0707158694326265
 10
-2261.433196639431
 20
-224.2503500623124
 42
-0.033952657250207
 10
-2257.080158914257
 20
-226.4990059017209
 42
-0.0571374688189033
 10
-2254.773234630571
 20
-228.2851626615729
 42
-0.0274923553235744
 10
-2252.388159307436
 20
-230.8824683921256
 42
-0.0255412025538677
 10
-2250.131445630417
 20
-233.9338984298365
 42
-0.0272796991712396
 10
-2247.715109748754
 20
-238.0468975830217
 42
-0.056967459841729
 10
-2246.902373913555
 20
-240.1878448637535
 42
-0.0373408083348504
 10
-2246.863208372604
 20
-240.410199239227
 42
-0.0052305969362967
 10
-2246.8322514057
 20
-240.7561590129889
  0
LWPOLYLINE
  5
1BE1
330
1F
100
AcDbEntity
  8
NOSNÉ KONSTRUKCE
100
AcDbPolyline
 90
       10
 70
     0
 43
0.0
 10
-2263.780705303299
 20
-216.713875154367
 42
-0.0168162630274194
 10
-2262.08966715118
 20
-216.848900733431
 42
-0.0575155827655532
 10
-2258.990042490462
 20
-217.5289330137739
 42
-0.0310289133982999
 10
-2251.745014965818
 20
-220.531734358602
 42
-0.0882970623535771
 10
-2249.504645915018
 20
-222.168956278695
 42
-0.0171636441953577
 10
-2246.990728559772
 20
-224.982320340553
 42
-0.0157521173632038
 10
-2244.459232507266
 20
-228.2211751775894
 42
-0.0073640874174249
 10
-2241.17083108153
 20
-232.8548245339106
 42
-0.0194185739168057
 10
-2240.019262082248
 20
-234.6768678535872
 42
-0.0229547400386702
 10
-2238.780705303299
 20
-237.0623259176009
 42
-0.0229547400386702
  0
LWPOLYLINE
  5
1BE2
330
1F
100
AcDbEntity
  8
NOSNÉ KONSTRUKCE
100
AcDbPolyline
 90
        3
 70
     0
 43
0.0
 10
-2258.263374607781
 20
-234.0477615552872
 10
-2249.879633739812
 20
-217.2925439355594
 10
-2241.698332038715
 20
-209.1254392864348
  0
LWPOLYLINE
  5
1BE3
330
1F
100
AcDbEntity
  8
NOSNÉ KONSTRUKCE
100
AcDbPolyline
 90
        4
 70
     0
 43
0.0
 10
-2238.780705303299
 20
-190.758993864335
 10
-2238.780705303299
 20
-240.7561590129889
 10
-2263.780705303299
 20
-240.7561590129889
 10
-2263.780705303299
 20
-190.758993864335
  0
LWPOLYLINE
  5
1BE4
330
1F
100
AcDbEntity
  8
NOSNÉ KONSTRUKCE
100
AcDbPolyline
 90
        4
 70
     0
 43
0.0
 10
-2262.834137519745
 20
199.7687043971809
 42
-0.0135911980674878
 10
-2242.505444337279
 20
196.0495730399516
 42
-0.0219777111230329
 10
-2238.987331081443
 20
195.1434605379681
 42
-0.0092752982622242
 10
-2237.834137519745
 20
194.7682335760246
  0
LWPOLYLINE
  5
1BE5
330
1F
100
AcDbEntity
  8
NOSNÉ KONSTRUKCE
100
AcDbPolyline
 90
        4
 70
     0
 43
0.0
 10
-2262.834137519745
 20
190.4670582075186
 42
-0.0135911980674878
 10
-2242.505444337279
 20
186.7479268502893
 42
-0.0219777111230329
 10
-2238.987331081443
 20
185.8418143483058
 42
-0.0092752982622242
 10
-2237.834137519745
 20
185.4665873863623
  0
LWPOLYLINE
  5
1BE6
330
1F
100
AcDbEntity
  8
NOSNÉ KONSTRUKCE
100
AcDbPolyline
 90
        4
 70
     0
 43
0.0
 10
-2262.834137519745
 20
170.9883801050009
 42
-0.0135911980674878
 10
-2242.505444337279
 20
167.2692487477716
 42
-0.0219777111230329
 10
-2238.987331081443
 20
166.3631362457881
 42
-0.0092752982622242
 10
-2237.834137519745
 20
165.9879092838446
  0
LWPOLYLINE
  5
1BE7
330
1F
100
AcDbEntity
  8
NOSNÉ KONSTRUKCE
100
AcDbPolyline
 90
        3
 70
     0
 43
0.0
 10
-2257.316806824226
 20
166.2439883702309
 10
-2248.933065956258
 20
182.9992059899586
 10
-2240.751764255161
 20
191.1663106390833
  0
LWPOLYLINE
  5
1BE8
330
1F
100
AcDbEntity
  8
NOSNÉ KONSTRUKCE
100
AcDbPolyline
 90
        4
 70
     0
 43
0.0
 10
-2262.834137519745
 20
180.837110329724
 42
-0.0135911980674878
 10
-2242.505444337279
 20
177.1179789724947
 42
-0.0219777111230329
 10
-2238.987331081443
 20
176.2118664705112
 42
-0.0092752982622242
 10
-2237.834137519745
 20
175.8366395085677
  0
LWPOLYLINE
  5
1BE9
330
1F
100
AcDbEntity
  8
NOSNÉ KONSTRUKCE
100
AcDbPolyline
 90
        6
 70
     0
 43
0.0
 10
-2262.834137519745
 20
160.7986505009967
 42
-0.0128837512779302
 10
-2259.500972697999
 20
160.5138585407685
 42
-0.0351641677647434
 10
-2255.89726324366
 20
159.8860988192454
 42
-0.0187319685742942
 10
-2244.139025901517
 20
156.5020829382547
 42
-0.0582629403736403
 10
-2240.559191702585
 20
154.8425830701735
 42
-0.0146402521923566
 10
-2237.834137519745
 20
153.0581750885894
  0
LWPOLYLINE
  5
1BEA
330
1F
100
AcDbEntity
  8
NOSNÉ KONSTRUKCE
100
AcDbPolyline
 90
        8
 70
     0
 43
0.0
 10
-2262.834137519745
 20
152.1744351209517
 42
-0.0120721047703142
 10
-2261.100249381001
 20
152.1054524309138
 42
-0.044358077361292
 10
-2258.404449362584
 20
151.7098246962405
 42
-0.0188067511131767
 10
-2251.162220187278
 20
149.6900012478572
 42
-0.0457786284636091
 10
-2248.313609804398
 20
148.4819783582415
 42
-0.0295006114745606
 10
-2244.386710590995
 20
146.0659179039421
 42
-0.0258674098621065
 10
-2240.240930512241
 20
142.833242589978
 42
-0.0093759062953949
 10
-2237.834137519745
 20
140.6674304103207
 42
-0.0093759062953949
  0
LWPOLYLINE
  5
1BEB
330
1F
100
AcDbEntity
  8
NOSNÉ KONSTRUKCE
100
AcDbPolyline
 90
        3
 70
     0
 43
0.0
 10
-2256.334967950489
 20
145.2660671217663
 10
-2247.11893889997
 20
165.2623195537589
 10
-2246.473541424628
 20
169.2622571874735
  0
LWPOLYLINE
  5
1BEC
330
1F
100
AcDbEntity
  8
NOSNÉ KONSTRUKCE
100
AcDbPolyline
 90
        4
 70
     0
 43
0.0
 10
-2262.834137519745
 20
121.2798605185043
 42
-0.0203924744732813
 10
-2261.821007490591
 20
120.3777765340919
 42
-0.0273961979096945
 10
-2261.032831116565
 20
119.5279121838966
 42
-0.0056626190774687
 10
-2260.819579321476
 20
119.2650920388223
 42
-0.0056626190774687
  0
LWPOLYLINE
  5
1BED
330
1F
100
AcDbEntity
  8
NOSNÉ KONSTRUKCE
100
AcDbPolyline
 90
        9
 70
     0
 43
0.0
 10
-2262.834137519745
 20
129.1295468530215
 42
-0.0064239028828688
 10
-2262.615023860395
 20
129.0906784128446
 42
-0.0832048017309575
 10
-2260.28481028074
 20
128.3064958101595
 42
-0.0336767237692336
 10
-2257.556535761279
 20
126.6036792512377
 42
-0.0844635135812105
 10
-2256.652114156284
 20
125.6838694913449
 42
-0.0495829410719565
 10
-2255.675464648971
 20
123.9351910539908
 42
-0.0322692699774654
 10
-2254.633941147571
 20
121.0438368729001
 42
-0.0276160659512937
 10
-2254.437205718626
 20
120.1882604346165
 42
-0.0126891984598699
 10
-2254.302003329085
 20
119.2650920388214
  0
LWPOLYLINE
  5
1BF8
330
1F
100
AcDbEntity
  8
NOSNÉ KONSTRUKCE
100
AcDbPolyline
 90
        3
 70
     0
 43
0.0
 10
-2257.316806824226
 20
125.9734894965213
 10
-2248.933065956258
 20
142.728707116249
 10
-2240.751764255161
 20
150.8958117653737
  0
LWPOLYLINE
  5
1BF9
330
1F
100
AcDbEntity
  8
NOSNÉ KONSTRUKCE
100
AcDbPolyline
 90
       10
 70
     0
 43
0.0
 10
-2262.834137519745
 20
143.3073758974414
 42
-0.0168162630274194
 10
-2261.143099367625
 20
143.1723503183775
 42
-0.0575155827655532
 10
-2258.043474706908
 20
142.4923180380346
 42
-0.0310289133982999
 10
-2250.798447182263
 20
139.4895166932065
 42
-0.0882970623535771
 10
-2248.558078131464
 20
137.8522947731134
 42
-0.0171636441953577
 10
-2246.044160776218
 20
135.0389307112555
 42
-0.0157521173632038
 10
-2243.512664723712
 20
131.8000758742191
 42
-0.0073640874174249
 10
-2240.224263297976
 20
127.1664265178978
 42
-0.0194185739168057
 10
-2239.072694298694
 20
125.3443831982212
 42
-0.0229547400386702
 10
-2237.834137519745
 20
122.9589251342104
 42
-0.0229547400386702
  0
LWPOLYLINE
  5
1BFA
330
1F
100
AcDbEntity
  8
NOSNÉ KONSTRUKCE
100
AcDbPolyline
 90
       11
 70
     0
 43
0.0
 10
-2262.834137519745
 20
136.3575978737599
 42
-0.0072417954699014
 10
-2262.42273230847
 20
136.3020275059161
 42
-0.0707158694326265
 10
-2260.486628855877
 20
135.7709009894961
 42
-0.033952657250207
 10
-2256.133591130703
 20
133.5222451500876
 42
-0.0571374688189033
 10
-2253.826666847016
 20
131.7360883902356
 42
-0.0274923553235744
 10
-2251.441591523882
 20
129.1387826596828
 42
-0.0255412025538677
 10
-2249.184877846862
 20
126.087352621972
 42
-0.0272796991712396
 10
-2246.7685419652
 20
121.9743534687868
 42
-0.056967459841729
 10
-2245.955806130001
 20
119.8334061880586
 42
-0.0373408083348504
 10
-2245.91664058905
 20
119.6110518125851
 42
-0.0052305969362967
 10
-2245.885683622145
 20
119.2650920388214
  0
LWPOLYLINE
  5
1C07
330
1F
100
AcDbEntity
  8
NOSNÉ KONSTRUKCE
100
AcDbPolyline
 90
        4
 70
     0
 43
0.0
 10
-2237.834137519745
 20
219.2622571874735
 10
-2237.834137519745
 20
119.2650920388214
 10
-2262.834137519745
 20
119.2650920388214
 10
-2262.834137519745
 20
219.2622571874735
  0
LWPOLYLINE
  5
1C08
330
1F
100
AcDbEntity
  8
NOSNÉ KONSTRUKCE
100
AcDbPolyline
 90
        4
 70
     0
 43
0.0
 10
-2262.834137519745
 20
208.8514400721606
 42
-0.0135911980674878
 10
-2242.505444337279
 20
205.1323087149312
 42
-0.0219777111230329
 10
-2238.987331081443
 20
204.2261962129478
 42
-0.0092752982622242
 10
-2237.834137519745
 20
203.8509692510042
  0
LWPOLYLINE
  5
1C09
330
1F
100
AcDbEntity
  8
NOSNÉ KONSTRUKCE
100
AcDbPolyline
 90
        4
 70
     0
 43
0.0
 10
-2262.834137519745
 20
218.3719326926211
 42
-0.0135911980674878
 10
-2242.505444337279
 20
214.6528013353918
 42
-0.0219777111230329
 10
-2238.987331081443
 20
213.7466888334083
 42
-0.0092752982622242
 10
-2237.834137519745
 20
213.3714618714648
  0
LWPOLYLINE
  5
1C0A
330
1F
100
AcDbEntity
  8
NOSNÉ KONSTRUKCE
100
AcDbPolyline
 90
        3
 70
     0
 43
0.0
 10
-2256.334967950489
 20
194.2911281500628
 10
-2247.11893889997
 20
214.2873805820554
 10
-2246.473541424628
 20
218.28731821577
  0
LINE
  5
1C0B
330
1F
100
AcDbEntity
  8
NOSNÉ KONSTRUKCE
100
AcDbLine
 10
-2262.834137519745
 20
219.2622571874735
 30
0.0
 11
-2237.834137519745
 21
219.2622571874735
 31
0.0
  0
LINE
  5
1C0C
330
1F
100
AcDbEntity
  8
SPOJOVACÍ
100
AcDbLine
 10
-2248.625988253301
 20
140.6238346547743
 30
0.0
 11
-2278.220003265716
 21
140.6238346547743
 31
0.0
  0
LINE
  5
1C0D
330
1F
100
AcDbEntity
  8
SPOJOVACÍ
100
AcDbLine
 10
-2248.612467420243
 20
146.3077751125747
 30
0.0
 11
-2278.220003265716
 21
146.3077751125756
 31
0.0
  0
LINE
  5
1C0E
330
1F
100
AcDbEntity
  8
SPOJOVACÍ
100
AcDbLine
 10
-2250.163368898142
 20
140.6326093006464
 30
0.0
 11
-2248.640361642643
 21
146.3165497584477
 31
0.0
  0
LINE
  5
1C0F
330
1F
100
AcDbEntity
  8
SPOJOVACÍ
100
AcDbLine
 10
-2253.327431398138
 20
140.6326093006464
 30
0.0
 11
-2251.804424142647
 21
146.3165497584477
 31
0.0
  0
LINE
  5
1C10
330
1F
100
AcDbEntity
  8
SPOJOVACÍ
100
AcDbLine
 10
-2251.745400148138
 20
140.6326093006464
 30
0.0
 11
-2250.222392892646
 21
146.3165497584477
 31
0.0
  0
LINE
  5
1C11
330
1F
100
AcDbEntity
  8
SPOJOVACÍ
100
AcDbLine
 10
-2248.581337648142
 20
140.6326093006464
 30
0.0
 11
-2247.507536080451
 21
144.6400913085126
 31
0.0
  0
LINE
  5
1C12
330
1F
100
AcDbEntity
  8
SPOJOVACÍ
100
AcDbLine
 10
-2246.429634914169
 20
143.4745795295466
 30
0.0
 11
-2248.625988253301
 21
140.6238346547743
 31
0.0
  0
LINE
  5
1C13
330
1F
100
AcDbEntity
  8
SPOJOVACÍ
100
AcDbLine
 10
-2246.429634914169
 20
143.4745795295466
 30
0.0
 11
-2248.612467420243
 21
146.3077751125747
 31
0.0
  0
LINE
  5
1C14
330
1F
100
AcDbEntity
  8
SPOJOVACÍ
100
AcDbLine
 10
-2258.073525148142
 20
140.6326093006464
 30
0.0
 11
-2256.550517892643
 21
146.3165497584477
 31
0.0
  0
LINE
  5
1C15
330
1F
100
AcDbEntity
  8
SPOJOVACÍ
100
AcDbLine
 10
-2262.819618898138
 20
140.6326093006464
 30
0.0
 11
-2261.296611642643
 21
146.3165497584477
 31
0.0
  0
LINE
  5
1C16
330
1F
100
AcDbEntity
  8
SPOJOVACÍ
100
AcDbLine
 10
-2264.401650148134
 20
140.6326093006464
 30
0.0
 11
-2262.878642892643
 21
146.3165497584477
 31
0.0
  0
LINE
  5
1C17
330
1F
100
AcDbEntity
  8
SPOJOVACÍ
100
AcDbLine
 10
-2265.983681398138
 20
140.6326093006464
 30
0.0
 11
-2264.460674142643
 21
146.3165497584477
 31
0.0
  0
LINE
  5
1C18
330
1F
100
AcDbEntity
  8
SPOJOVACÍ
100
AcDbLine
 10
-2259.655556398138
 20
140.6326093006464
 30
0.0
 11
-2258.132549142643
 21
146.3165497584477
 31
0.0
  0
LINE
  5
1C19
330
1F
100
AcDbEntity
  8
SPOJOVACÍ
100
AcDbLine
 10
-2261.237587648138
 20
140.6326093006464
 30
0.0
 11
-2259.714580392643
 21
146.3165497584477
 31
0.0
  0
LINE
  5
1C1A
330
1F
100
AcDbEntity
  8
SPOJOVACÍ
100
AcDbLine
 10
-2269.147743898138
 20
140.6326093006464
 30
0.0
 11
-2267.624736642643
 21
146.3165497584477
 31
0.0
  0
LINE
  5
1C1B
330
1F
100
AcDbEntity
  8
SPOJOVACÍ
100
AcDbLine
 10
-2270.729775148141
 20
140.6326093006464
 30
0.0
 11
-2269.206767892643
 21
146.3165497584477
 31
0.0
  0
LINE
  5
1C1C
330
1F
100
AcDbEntity
  8
SPOJOVACÍ
100
AcDbLine
 10
-2272.311806398138
 20
140.6326093006464
 30
0.0
 11
-2270.788799142643
 21
146.3165497584477
 31
0.0
  0
LINE
  5
1C1D
330
1F
100
AcDbEntity
  8
SPOJOVACÍ
100
AcDbLine
 10
-2267.565712648138
 20
140.6326093006464
 30
0.0
 11
-2266.042705392643
 21
146.3165497584477
 31
0.0
  0
LINE
  5
1C1E
330
1F
100
AcDbEntity
  8
SPOJOVACÍ
100
AcDbLine
 10
-2256.491493898141
 20
140.6326093006464
 30
0.0
 11
-2254.968486642643
 21
146.3165497584477
 31
0.0
  0
LINE
  5
1C1F
330
1F
100
AcDbEntity
  8
SPOJOVACÍ
100
AcDbLine
 10
-2254.909462648142
 20
140.6326093006464
 30
0.0
 11
-2253.386455392647
 21
146.3165497584477
 31
0.0
  0
LINE
  5
1C20
330
1F
100
AcDbEntity
  8
SPOJOVACÍ
100
AcDbLine
 10
-2273.893837648138
 20
140.6326093006464
 30
0.0
 11
-2272.370830392643
 21
146.3165497584477
 31
0.0
  0
LINE
  5
1C21
330
1F
100
AcDbEntity
  8
SPOJOVACÍ
100
AcDbLine
 10
-2275.475868898134
 20
140.6326093006464
 30
0.0
 11
-2273.952861642643
 21
146.3165497584477
 31
0.0
  0
LINE
  5
1C22
330
1F
100
AcDbEntity
  8
SPOJOVACÍ
100
AcDbLine
 10
-2254.909462648142
 20
191.6306508595771
 30
0.0
 11
-2253.386455392647
 21
197.3145913173784
 31
0.0
  0
LINE
  5
1C23
330
1F
100
AcDbEntity
  8
SPOJOVACÍ
100
AcDbLine
 10
-2256.491493898141
 20
191.6306508595771
 30
0.0
 11
-2254.968486642643
 21
197.3145913173784
 31
0.0
  0
LINE
  5
1C24
330
1F
100
AcDbEntity
  8
SPOJOVACÍ
100
AcDbLine
 10
-2267.565712648138
 20
191.6306508595771
 30
0.0
 11
-2266.042705392643
 21
197.3145913173784
 31
0.0
  0
LINE
  5
1C25
330
1F
100
AcDbEntity
  8
SPOJOVACÍ
100
AcDbLine
 10
-2272.311806398138
 20
191.6306508595771
 30
0.0
 11
-2270.788799142643
 21
197.3145913173784
 31
0.0
  0
LINE
  5
1C26
330
1F
100
AcDbEntity
  8
SPOJOVACÍ
100
AcDbLine
 10
-2270.729775148141
 20
191.6306508595771
 30
0.0
 11
-2269.206767892643
 21
197.3145913173784
 31
0.0
  0
LINE
  5
1C27
330
1F
100
AcDbEntity
  8
SPOJOVACÍ
100
AcDbLine
 10
-2269.147743898138
 20
191.6306508595771
 30
0.0
 11
-2267.624736642643
 21
197.3145913173784
 31
0.0
  0
LINE
  5
1C28
330
1F
100
AcDbEntity
  8
SPOJOVACÍ
100
AcDbLine
 10
-2275.475868898134
 20
191.6306508595771
 30
0.0
 11
-2273.952861642643
 21
197.3145913173784
 31
0.0
  0
LINE
  5
1C29
330
1F
100
AcDbEntity
  8
SPOJOVACÍ
100
AcDbLine
 10
-2273.893837648138
 20
191.6306508595771
 30
0.0
 11
-2272.370830392643
 21
197.3145913173784
 31
0.0
  0
LINE
  5
1C2A
330
1F
100
AcDbEntity
  8
SPOJOVACÍ
100
AcDbLine
 10
-2261.237587648138
 20
191.6306508595771
 30
0.0
 11
-2259.714580392643
 21
197.3145913173784
 31
0.0
  0
LINE
  5
1C2B
330
1F
100
AcDbEntity
  8
SPOJOVACÍ
100
AcDbLine
 10
-2259.655556398138
 20
191.6306508595771
 30
0.0
 11
-2258.132549142643
 21
197.3145913173784
 31
0.0
  0
LINE
  5
1C2C
330
1F
100
AcDbEntity
  8
SPOJOVACÍ
100
AcDbLine
 10
-2265.983681398138
 20
191.6306508595771
 30
0.0
 11
-2264.460674142643
 21
197.3145913173784
 31
0.0
  0
LINE
  5
1C2D
330
1F
100
AcDbEntity
  8
SPOJOVACÍ
100
AcDbLine
 10
-2264.401650148134
 20
191.6306508595771
 30
0.0
 11
-2262.878642892643
 21
197.3145913173784
 31
0.0
  0
LINE
  5
1C2E
330
1F
100
AcDbEntity
  8
SPOJOVACÍ
100
AcDbLine
 10
-2262.819618898138
 20
191.6306508595771
 30
0.0
 11
-2261.296611642643
 21
197.3145913173784
 31
0.0
  0
LINE
  5
1C2F
330
1F
100
AcDbEntity
  8
SPOJOVACÍ
100
AcDbLine
 10
-2258.073525148142
 20
191.6306508595771
 30
0.0
 11
-2256.550517892643
 21
197.3145913173784
 31
0.0
  0
LINE
  5
1C30
330
1F
100
AcDbEntity
  8
SPOJOVACÍ
100
AcDbLine
 10
-2246.429634914169
 20
194.4726210884773
 30
0.0
 11
-2248.612467420243
 21
197.3058166715054
 31
0.0
  0
LINE
  5
1C31
330
1F
100
AcDbEntity
  8
SPOJOVACÍ
100
AcDbLine
 10
-2246.429634914169
 20
194.4726210884773
 30
0.0
 11
-2248.625988253301
 21
191.621876213705
 31
0.0
  0
LINE
  5
1C32
330
1F
100
AcDbEntity
  8
SPOJOVACÍ
100
AcDbLine
 10
-2248.581337648142
 20
191.6306508595771
 30
0.0
 11
-2247.507536080451
 21
195.6381328674433
 31
0.0
  0
LINE
  5
1C33
330
1F
100
AcDbEntity
  8
SPOJOVACÍ
100
AcDbLine
 10
-2251.745400148138
 20
191.6306508595771
 30
0.0
 11
-2250.222392892646
 21
197.3145913173784
 31
0.0
  0
LINE
  5
1C34
330
1F
100
AcDbEntity
  8
SPOJOVACÍ
100
AcDbLine
 10
-2253.327431398138
 20
191.6306508595771
 30
0.0
 11
-2251.804424142647
 21
197.3145913173784
 31
0.0
  0
LINE
  5
1C35
330
1F
100
AcDbEntity
  8
SPOJOVACÍ
100
AcDbLine
 10
-2250.163368898142
 20
191.6306508595771
 30
0.0
 11
-2248.640361642643
 21
197.3145913173784
 31
0.0
  0
TEXT
  5
1C36
330
1F
100
AcDbEntity
  8
POPIS
100
AcDbText
 10
-2490.688099353665
 20
-465.2740805720186
 30
0.0
 40
25.0
  1
04
 41
0.85
  7
SIMPLEX7
100
AcDbText
  0
TEXT
  5
1C37
330
1F
100
AcDbEntity
  8
POPIS
100
AcDbText
 10
-2436.344396193915
 20
-465.2740805720186
 30
0.0
 40
25.0
  1
Svislá dřevěné lať 50x25 (100x25), impregnovaná
 41
0.7
  7
SIMPLEX7
100
AcDbText
  0
TEXT
  5
1C38
330
1F
100
AcDbEntity
  8
POPIS
100
AcDbText
 10
-2436.344396193915
 20
-501.380902059207
 30
0.0
 40
25.0
  1
Pojistná fólie - parozábrana
 41
0.7
  7
SIMPLEX7
100
AcDbText
  0
TEXT
  5
1C39
330
1F
100
AcDbEntity
  8
POPIS
100
AcDbText
 10
-2490.688099353665
 20
-501.380902059207
 30
0.0
 40
25.0
  1
05
 41
0.85
  7
SIMPLEX7
100
AcDbText
  0
TEXT
  5
1C3A
330
1F
100
AcDbEntity
  8
POPIS
100
AcDbText
 10
-2436.344396193915
 20
-536.999790757296
 30
0.0
 40
25.0
  1
Vodorovná dřevěná lať š=100 mm (tloušťka dle izolace)
 41
0.7
  7
SIMPLEX7
100
AcDbText
  0
TEXT
  5
1C3B
330
1F
100
AcDbEntity
  8
POPIS
100
AcDbText
 10
-2490.688099353665
 20
-536.999790757296
 30
0.0
 40
25.0
  1
06
 41
0.85
  7
SIMPLEX7
100
AcDbText
  0
TEXT
  5
1C3C
330
1F
100
AcDbEntity
  8
POPIS
100
AcDbText
 10
-2436.344396193915
 20
-772.3662419342954
 30
0.0
 40
25.0
  1
Talířová hmoždinka
 41
0.7
  7
SIMPLEX7
100
AcDbText
  0
TEXT
  5
1C3D
330
1F
100
AcDbEntity
  8
POPIS
100
AcDbText
 10
-2490.688099353665
 20
-772.3662419342954
 30
0.0
 40
25.0
  1
09
 41
0.85
  7
SIMPLEX7
100
AcDbText
  0
TEXT
  5
1C3E
330
1F
100
AcDbEntity
  8
POPIS
100
AcDbText
 10
-2436.389526357172
 20
-610.158704113398
 30
0.0
 40
25.0
  1
Profil PROTECTOR 9311 (3548)
 41
0.7
  7
SIMPLEX7
100
AcDbText
  0
HATCH
  5
1C3F
330
1F
100
AcDbEntity
  8
PROFILY
100
AcDbHatch
 10
0.0
 20
0.0
 30
0.0
210
0.0
220
0.0
230
1.0
  2
SOLID
 70
     1
 71
     0
 91
        5
 92
        7
 72
     1
 73
     1
 93
        4
 10
-2336.697112984653
 20
-648.673661339174
 42
0.0
 10
-2337.902151059093
 20
-647.7804182372437
 42
0.1792130352967749
 10
-2340.663733137112
 20
-657.2689254202132
 42
0.0
 10
-2339.159443143533
 20
-657.2689254202132
 42
-0.1813906050583396
 97
        0
 92
        7
 72
     1
 73
     1
 93
        4
 10
-2339.190805741014
 20
-655.7689254202132
 42
0.0294939350368585
 10
-2339.159443143533
 20
-657.2689254202132
 42
0.0
 10
-2327.97170626646
 20
-657.2689254202132
 42
0.0
 10
-2327.97170626646
 20
-655.7689254202132
 42
0.0
 97
        0
 92
        7
 72
     1
 73
     1
 93
        4
 10
-2339.159443143533
 20
-657.2689254202132
 42
0.0
 10
-2340.663733137112
 20
-657.2689254202132
 42
0.1425647712502209
 10
-2337.902151059093
 20
-664.7262163486447
 42
0.0
 10
-2336.697112984653
 20
-663.8329732467155
 42
-0.1404135420578338
 97
        0
 92
        7
 72
     0
 73
     1
 93
        4
 10
-2326.471706266457
 20
-655.7689254202132
 10
-2327.97170626646
 20
-655.7689254202132
 10
-2327.97170626646
 20
-677.7753832446988
 10
-2326.47170626646
 20
-677.7753832446988
 97
        0
 92
        7
 72
     0
 73
     1
 93
        4
 10
-2326.471706266457
 20
-635.1611458986308
 10
-2327.97170626646
 20
-635.1611458986298
 10
-2327.97170626646
 20
-655.7689254202132
 10
-2326.47170626646
 20
-655.7689254202132
 97
        0
 75
     0
 76
     1
 47
0.0868811722163578
 98
        5
 10
-2339.849910048251
 20
-655.4631219445373
 10
-2338.024396945984
 20
-656.2450315687502
 10
-2338.893679578482
 20
-660.3284613004516
 10
-2327.071357480468
 20
-661.4579159453796
 10
-2326.897500953964
 20
-650.5108902723159
  0
LINE
  5
1C40
330
1F
100
AcDbEntity
  8
PROFILY
100
AcDbLine
 10
-2327.97170626646
 20
-635.1611458986308
 30
0.0
 11
-2326.47170626646
 21
-635.1611458986308
 31
0.0
  0
LINE
  5
1C41
330
1F
100
AcDbEntity
  8
PROFILY
100
AcDbLine
 10
-2336.697112985231
 20
-663.8329732471447
 30
0.0
 11
-2337.902151059093
 21
-664.7262163486457
 31
0.0
  0
LINE
  5
1C42
330
1F
100
AcDbEntity
  8
PROFILY
100
AcDbLine
 10
-2337.902151059093
 20
-647.7804182372437
 30
0.0
 11
-2336.697112985231
 21
-648.6736613387448
 31
0.0
  0
ARC
  5
1C43
330
1F
100
AcDbEntity
  8
PROFILY
100
AcDbCircle
 10
-2326.47170626646
 20
-656.2533172929443
 30
0.0
 40
14.22831987852259
100
AcDbArc
 50
143.4520438048837
 51
216.5479561951162
  0
ARC
  5
1C44
330
1F
100
AcDbEntity
  8
PROFILY
100
AcDbCircle
 10
-2326.47170626646
 20
-656.2533172929443
 30
0.0
 40
12.72831987852259
100
AcDbArc
 50
143.4520438048837
 51
216.5479561951162
  0
LINE
  5
1C45
330
1F
100
AcDbEntity
  8
PROFILY
100
AcDbLine
 10
-2327.97170626646
 20
-635.1611458986308
 30
0.0
 11
-2327.97170626646
 21
-677.7753832446988
 31
0.0
  0
LINE
  5
1C46
330
1F
100
AcDbEntity
  8
PROFILY
100
AcDbLine
 10
-2326.47170626646
 20
-635.1611458986308
 30
0.0
 11
-2326.47170626646
 21
-677.7753832446988
 31
0.0
  0
LINE
  5
1C47
330
1F
100
AcDbEntity
  8
PROFILY
100
AcDbLine
 10
-2327.97170626646
 20
-677.7753832446988
 30
0.0
 11
-2326.47170626646
 21
-677.7753832446988
 31
0.0
  0
LINE
  5
1C48
330
1F
100
AcDbEntity
  8
PROFILY
100
AcDbLine
 10
-2340.700026144983
 20
-657.2689254202132
 30
0.0
 11
-2327.97170626646
 21
-657.2689254202132
 31
0.0
  0
LINE
  5
1C49
330
1F
100
AcDbEntity
  8
PROFILY
100
AcDbLine
 10
-2339.200026144983
 20
-655.7689254202132
 30
0.0
 11
-2326.47170626646
 21
-655.7689254202132
 31
0.0
  0
HATCH
  5
1C4A
330
1F
100
AcDbEntity
  8
PROFILY
100
AcDbHatch
 10
0.0
 20
0.0
 30
0.0
210
0.0
220
0.0
230
1.0
  2
SOLID
 70
     1
 71
     0
 91
        1
 92
        7
 72
     0
 73
     1
 93
       12
 10
-2378.617976500831
 20
-613.5371375901749
 10
-2380.117976500831
 20
-613.5371375901749
 10
-2380.117976500831
 20
-649.537137590175
 10
-2392.846296379353
 20
-649.537137590175
 10
-2392.846296379353
 20
-657.537137590175
 10
-2380.117976500831
 20
-657.537137590175
 10
-2380.117976500831
 20
-693.537137590175
 10
-2378.617976500831
 20
-693.537137590175
 10
-2378.617976500831
 20
-656.037137590175
 10
-2391.346296379353
 20
-656.037137590175
 10
-2391.346296379353
 20
-651.0371375901749
 10
-2378.617976500831
 20
-651.0371375901749
 97
        0
 75
     0
 76
     1
 47
0.1667846378505084
 98
        1
 10
-2379.297182529913
 20
-628.2303041007444
  0
LINE
  5
1C4B
330
1F
100
AcDbEntity
  8
PROFILY
100
AcDbLine
 10
-2392.846296379353
 20
-649.537137590175
 30
0.0
 11
-2392.846296379353
 21
-657.537137590175
 31
0.0
  0
LINE
  5
1C4C
330
1F
100
AcDbEntity
  8
PROFILY
100
AcDbLine
 10
-2391.346296379353
 20
-651.0371375901749
 30
0.0
 11
-2391.346296379353
 21
-656.037137590175
 31
0.0
  0
LINE
  5
1C4D
330
1F
100
AcDbEntity
  8
PROFILY
100
AcDbLine
 10
-2380.117976500831
 20
-693.537137590175
 30
0.0
 11
-2378.617976500831
 21
-693.537137590175
 31
0.0
  0
LINE
  5
1C4E
330
1F
100
AcDbEntity
  8
PROFILY
100
AcDbLine
 10
-2378.617976500831
 20
-656.037137590175
 30
0.0
 11
-2378.617976500831
 21
-693.537137590175
 31
0.0
  0
LINE
  5
1C4F
330
1F
100
AcDbEntity
  8
PROFILY
100
AcDbLine
 10
-2391.346296379353
 20
-656.037137590175
 30
0.0
 11
-2378.617976500831
 21
-656.037137590175
 31
0.0
  0
LINE
  5
1C50
330
1F
100
AcDbEntity
  8
PROFILY
100
AcDbLine
 10
-2380.117976500831
 20
-657.537137590175
 30
0.0
 11
-2380.117976500831
 21
-693.537137590175
 31
0.0
  0
LINE
  5
1C51
330
1F
100
AcDbEntity
  8
PROFILY
100
AcDbLine
 10
-2392.846296379353
 20
-657.537137590175
 30
0.0
 11
-2380.117976500831
 21
-657.537137590175
 31
0.0
  0
LINE
  5
1C52
330
1F
100
AcDbEntity
  8
PROFILY
100
AcDbLine
 10
-2378.617976500831
 20
-651.0371375901749
 30
0.0
 11
-2391.346296379353
 21
-651.0371375901749
 31
0.0
  0
LINE
  5
1C53
330
1F
100
AcDbEntity
  8
PROFILY
100
AcDbLine
 10
-2378.617976500831
 20
-613.5371375901749
 30
0.0
 11
-2378.617976500831
 21
-651.0371375901749
 31
0.0
  0
LINE
  5
1C54
330
1F
100
AcDbEntity
  8
PROFILY
100
AcDbLine
 10
-2380.117976500831
 20
-649.537137590175
 30
0.0
 11
-2392.846296379353
 21
-649.537137590175
 31
0.0
  0
LINE
  5
1C55
330
1F
100
AcDbEntity
  8
PROFILY
100
AcDbLine
 10
-2380.117976500831
 20
-613.5371375901749
 30
0.0
 11
-2380.117976500831
 21
-649.537137590175
 31
0.0
  0
HATCH
  5
1C56
330
1F
100
AcDbEntity
  8
PROFILY
100
AcDbHatch
 10
0.0
 20
0.0
 30
0.0
210
0.0
220
0.0
230
1.0
  2
SOLID
 70
     1
 71
     0
 91
        4
 92
        7
 72
     0
 73
     1
 93
        4
 10
-2380.117976500831
 20
-625.394365327621
 10
-2378.617976500831
 20
-625.394365327621
 10
-2378.617976500831
 20
-613.5371375901749
 10
-2380.117976500831
 20
-613.5371375901749
 97
        0
 92
        7
 72
     0
 73
     1
 93
       12
 10
-2380.117976500831
 20
-649.537137590175
 10
-2392.846296379353
 20
-649.537137590175
 10
-2392.846296379353
 20
-657.537137590175
 10
-2380.117976500831
 20
-657.537137590175
 10
-2380.117976500831
 20
-668.7349368649274
 10
-2378.617976500831
 20
-668.7349368649274
 10
-2378.617976500831
 20
-656.037137590175
 10
-2391.346296379353
 20
-656.037137590175
 10
-2391.346296379353
 20
-651.0371375901749
 10
-2378.617976500831
 20
-651.0371375901749
 10
-2378.617976500831
 20
-631.0783057854223
 10
-2380.117976500831
 20
-631.0783057854223
 97
        0
 92
        7
 72
     0
 73
     1
 93
        4
 10
-2378.617976500831
 20
-668.7349368649274
 10
-2380.117976500831
 20
-668.7349368649274
 10
-2380.117976500831
 20
-676.5336918522562
 10
-2378.617976500831
 20
-676.5336918522562
 97
        0
 92
        7
 72
     0
 73
     1
 93
        4
 10
-2380.117976500831
 20
-693.537137590175
 10
-2378.617976500831
 20
-693.537137590175
 10
-2378.617976500831
 20
-682.2176323100566
 10
-2380.117976500831
 20
-682.2176323100566
 97
        0
 75
     0
 76
     1
 47
0.2506351096018158
 98
        4
 10
-2379.704672938187
 20
-618.4724914058797
 10
-2379.704672938187
 20
-647.2955370745412
 10
-2379.203114495525
 20
-672.6096886175773
 10
-2379.453893716854
 20
-689.903516018775
  0
HATCH
  5
1C57
330
1F
100
AcDbEntity
  8
PROFILY
100
AcDbHatch
 10
0.0
 20
0.0
 30
0.0
210
0.0
220
0.0
230
1.0
  2
SOLID
 70
     1
 71
     0
 91
        1
 92
        7
 72
     0
 73
     1
 93
        4
 10
-2236.558068093829
 20
-192.2981534668842
 10
-2234.558068093825
 20
-192.2981534668842
 10
-2234.558068093825
 20
-211.4805086114329
 10
-2236.558068093825
 20
-211.4805086114329
 97
        0
 75
     0
 76
     1
 47
0.0801976285649081
 98
        1
 10
-2236.220395023531
 20
-205.6390927188267
  0
HATCH
  5
1C58
330
1F
100
AcDbEntity
  8
PROFILY
100
AcDbHatch
 10
0.0
 20
0.0
 30
0.0
210
0.0
220
0.0
230
1.0
  2
SOLID
 70
     1
 71
     0
 91
        1
 92
        7
 72
     0
 73
     1
 93
        4
 10
-2236.558068093829
 20
-228.1389382747483
 10
-2234.558068093825
 20
-228.1389382747483
 10
-2234.558068093825
 20
-247.321293419297
 10
-2236.558068093825
 20
-247.321293419297
 97
        0
 75
     0
 76
     1
 47
0.0801976285649081
 98
        1
 10
-2236.220395023531
 20
-241.4798775266908
  0
HATCH
  5
1C59
330
1F
100
AcDbEntity
  8
PROFILY
100
AcDbHatch
 10
0.0
 20
0.0
 30
0.0
210
0.0
220
0.0
230
1.0
  2
SOLID
 70
     1
 71
     0
 91
        1
 92
        7
 72
     0
 73
     1
 93
        4
 10
-2236.558068093829
 20
-158.6119020065352
 10
-2234.558068093825
 20
-158.6119020065352
 10
-2234.558068093825
 20
-177.7942571510839
 10
-2236.558068093825
 20
-177.7942571510839
 97
        0
 75
     0
 76
     1
 47
0.0801976285649081
 98
        1
 10
-2236.220395023531
 20
-171.9528412584777
  0
LWPOLYLINE
  5
1C5A
330
1F
100
AcDbEntity
  8
STAVBA OBRYS
  6
DASHED
100
AcDbPolyline
 90
        4
 70
     1
 43
0.0
 10
-2234.243605214254
 20
-202.7462499176681
 10
-2228.870323889401
 20
-202.7462499176681
 10
-2228.870323889401
 20
-152.6266778986455
 10
-2234.243605214254
 20
-152.6266778986455
  0
HATCH
  5
1C5B
330
1F
100
AcDbEntity
  8
PROFILY
100
AcDbHatch
 10
0.0
 20
0.0
 30
0.0
210
0.0
220
0.0
230
1.0
  2
SOLID
 70
     1
 71
     0
 91
        1
 92
        7
 72
     0
 73
     1
 93
        4
 10
-2236.558068093829
 20
-126.5214618293512
 10
-2234.558068093825
 20
-126.5214618293512
 10
-2234.558068093825
 20
-145.7038169738998
 10
-2236.558068093825
 20
-145.7038169738998
 97
        0
 75
     0
 76
     1
 47
0.0801976285649081
 98
        1
 10
-2236.220395023531
 20
-139.8624010812936
  0
HATCH
  5
1C5C
330
1F
100
AcDbEntity
  8
PROFILY
100
AcDbHatch
 10
0.0
 20
0.0
 30
0.0
210
0.0
220
0.0
230
1.0
  2
SOLID
 70
     1
 71
     0
 91
        1
 92
        7
 72
     0
 73
     1
 93
        4
 10
-2236.558068093829
 20
-59.82051051378675
 10
-2234.558068093825
 20
-59.82051051378675
 10
-2234.558068093825
 20
-79.00286565833539
 10
-2236.558068093825
 20
-79.00286565833539
 97
        0
 75
     0
 76
     1
 47
0.0801976285649081
 98
        1
 10
-2236.220395023531
 20
-73.16144976572923
  0
HATCH
  5
1C5D
330
1F
100
AcDbEntity
  8
PROFILY
100
AcDbHatch
 10
0.0
 20
0.0
 30
0.0
210
0.0
220
0.0
230
1.0
  2
SOLID
 70
     1
 71
     0
 91
        1
 92
        7
 72
     0
 73
     1
 93
        4
 10
-2236.558068093829
 20
-94.07003840744891
 10
-2234.558068093825
 20
-94.07003840744891
 10
-2234.558068093825
 20
-113.2523935519975
 10
-2236.558068093825
 20
-113.2523935519975
 97
        0
 75
     0
 76
     1
 47
0.0801976285649081
 98
        1
 10
-2236.220395023531
 20
-107.4109776593914
  0
HATCH
  5
1C5E
330
1F
100
AcDbEntity
  8
PROFILY
100
AcDbHatch
 10
0.0
 20
0.0
 30
0.0
210
0.0
220
0.0
230
1.0
  2
SOLID
 70
     1
 71
     0
 91
        1
 92
        7
 72
     0
 73
     1
 93
        4
 10
-2236.558068093829
 20
-27.38057202232903
 10
-2234.558068093825
 20
-27.38057202232903
 10
-2234.558068093825
 20
-46.56292716687767
 10
-2236.558068093825
 20
-46.56292716687767
 97
        0
 75
     0
 76
     1
 47
0.0801976285649081
 98
        1
 10
-2236.220395023531
 20
-40.7215112742715
  0
LINE
  5
1C5F
330
1F
100
AcDbEntity
  8
PROFILY
100
AcDbLine
 10
-2234.558068093825
 20
-247.4963799327933
 30
0.0
 11
-2234.558068093825
 21
77.65834741199341
 31
0.0
  0
HATCH
  5
1C60
330
1F
100
AcDbEntity
  8
PROFILY
100
AcDbHatch
 10
0.0
 20
0.0
 30
0.0
210
0.0
220
0.0
230
1.0
  2
SOLID
 70
     1
 71
     0
 91
        1
 92
        7
 72
     0
 73
     1
 93
        4
 10
-2236.558068093829
 20
6.240571763383741
 10
-2234.558068093825
 20
6.240571763383741
 10
-2234.558068093825
 20
-12.94178338116489
 10
-2236.558068093825
 20
-12.94178338116489
 97
        0
 75
     0
 76
     1
 47
0.0801976285649081
 98
        1
 10
-2236.220395023531
 20
-7.100367488558731
  0
HATCH
  5
1C61
330
1F
100
AcDbEntity
  8
PROFILY
100
AcDbHatch
 10
0.0
 20
0.0
 30
0.0
210
0.0
220
0.0
230
1.0
  2
SOLID
 70
     1
 71
     0
 91
        1
 92
        7
 72
     0
 73
     1
 93
        4
 10
-2236.558068093829
 20
41.07084110527921
 10
-2234.558068093825
 20
41.07084110527921
 10
-2234.558068093825
 20
21.88848596073057
 10
-2236.558068093825
 20
21.88848596073057
 97
        0
 75
     0
 76
     1
 47
0.0801976285649081
 98
        1
 10
-2236.220395023531
 20
27.72990185333674
  0
HATCH
  5
1C62
330
1F
100
AcDbEntity
  8
PROFILY
100
AcDbHatch
 10
0.0
 20
0.0
 30
0.0
210
0.0
220
0.0
230
1.0
  2
SOLID
 70
     1
 71
     0
 91
        1
 92
        7
 72
     0
 73
     1
 93
        4
 10
-2236.558068093829
 20
77.65885924954909
 10
-2234.558068093825
 20
77.65885924954909
 10
-2234.558068093825
 20
58.47650410500046
 10
-2236.558068093825
 20
58.47650410500046
 97
        0
 75
     0
 76
     1
 47
0.0801976285649081
 98
        1
 10
-2236.220395023531
 20
64.31791999760662
  0
HATCH
  5
1C63
330
1F
100
AcDbEntity
  8
PROFILY
100
AcDbHatch
 10
0.0
 20
0.0
 30
0.0
210
0.0
220
0.0
230
1.0
  2
SOLID
 70
     1
 71
     0
 91
        1
 92
        7
 72
     0
 73
     1
 93
        4
 10
-2236.558068093829
 20
184.2220635684961
 10
-2234.558068093825
 20
184.2220635684961
 10
-2234.558068093825
 20
165.0397084239475
 10
-2236.558068093825
 20
165.0397084239475
 97
        0
 75
     0
 76
     1
 47
0.0801976285649081
 98
        1
 10
-2236.220395023531
 20
170.8811243165537
  0
LINE
  5
1C64
330
1F
100
AcDbEntity
  8
NOSNÉ KONSTRUKCE
100
AcDbLine
 10
-2236.802684980554
 20
-247.3424416023535
 30
0.0
 11
-2236.80268498055
 21
278.4263485438823
 31
0.0
  0
HATCH
  5
1C65
330
1F
100
AcDbEntity
  8
PROFILY
100
AcDbHatch
 10
0.0
 20
0.0
 30
0.0
210
0.0
220
0.0
230
1.0
  2
SOLID
 70
     1
 71
     0
 91
        1
 92
        7
 72
     0
 73
     1
 93
        4
 10
-2236.558068093829
 20
115.7784522729516
 10
-2234.558068093825
 20
115.7784522729516
 10
-2234.558068093825
 20
96.59609712840302
 10
-2236.558068093825
 20
96.59609712840302
 97
        0
 75
     0
 76
     1
 47
0.0801976285649081
 98
        1
 10
-2236.220395023531
 20
102.4375130210091
  0
HATCH
  5
1C66
330
1F
100
AcDbEntity
  8
PROFILY
100
AcDbHatch
 10
0.0
 20
0.0
 30
0.0
210
0.0
220
0.0
230
1.0
  2
SOLID
 70
     1
 71
     0
 91
        1
 92
        7
 72
     0
 73
     1
 93
        4
 10
-2236.558068093829
 20
149.3917942266007
 10
-2234.558068093825
 20
149.3917942266007
 10
-2234.558068093825
 20
130.209439082052
 10
-2236.558068093825
 20
130.209439082052
 97
        0
 75
     0
 76
     1
 47
0.0801976285649081
 98
        1
 10
-2236.220395023531
 20
136.0508549746582
  0
LINE
  5
1C67
330
1F
100
AcDbEntity
  8
PROFILY
100
AcDbLine
 10
-2236.558068093825
 20
-245.321293419297
 30
0.0
 11
-2236.558068093825
 21
279.1735531874028
 31
0.0
  0
HATCH
  5
1C68
330
1F
100
AcDbEntity
  8
PROFILY
100
AcDbHatch
 10
0.0
 20
0.0
 30
0.0
210
0.0
220
0.0
230
1.0
  2
SOLID
 70
     1
 71
     0
 91
        1
 92
        7
 72
     0
 73
     1
 93
        4
 10
-2236.558068093829
 20
253.3251474906019
 10
-2234.558068093825
 20
253.3251474906019
 10
-2234.558068093825
 20
234.1427923460532
 10
-2236.558068093825
 20
234.1427923460532
 97
        0
 75
     0
 76
     1
 47
0.0801976285649081
 98
        1
 10
-2236.220395023531
 20
239.9842082386594
  0
HATCH
  5
1C69
330
1F
100
AcDbEntity
  8
PROFILY
100
AcDbHatch
 10
0.0
 20
0.0
 30
0.0
210
0.0
220
0.0
230
1.0
  2
SOLID
 70
     1
 71
     0
 91
        1
 92
        7
 72
     0
 73
     1
 93
        4
 10
-2236.558068093829
 20
279.2461206541511
 10
-2234.558068093825
 20
279.2461206541511
 10
-2234.558068093825
 20
260.0637655096024
 10
-2236.558068093825
 20
260.0637655096024
 97
        0
 75
     0
 76
     1
 47
0.0801976285649081
 98
        1
 10
-2236.220395023531
 20
265.9051814022086
  0
LINE
  5
1C6A
330
1F
100
AcDbEntity
  8
STAVBA OBRYS
100
AcDbLine
 10
-2234.243605214258
 20
271.4693299500568
 30
0.0
 11
-2234.243605214254
 21
-245.0972870308351
 31
0.0
  0
LINE
  5
1C6B
330
1F
100
AcDbEntity
  8
PROFILY
100
AcDbLine
 10
-2234.558068093825
 20
279.1735531874028
 30
0.0
 11
-2234.558068093825
 21
-247.321293419297
 31
0.0
  0
LWPOLYLINE
  5
1C6C
330
1F
100
AcDbEntity
  8
PROFILY
100
AcDbPolyline
 90
        4
 70
     1
 43
0.0
 10
-2236.558068093825
 20
201.6272147306617
 10
-2236.558068093825
 20
220.8095698752103
 10
-2234.558068093825
 20
220.8095698752103
 10
-2234.558068093825
 20
201.6272147306617
  0
HATCH
  5
1C6D
330
1F
100
AcDbEntity
  8
PROFILY
100
AcDbHatch
 10
0.0
 20
0.0
 30
0.0
210
0.0
220
0.0
230
1.0
  2
SOLID
 70
     1
 71
     0
 91
        1
 92
        7
 72
     0
 73
     1
 93
        4
 10
-2236.558068093829
 20
220.8100817127661
 10
-2234.558068093825
 20
220.8100817127661
 10
-2234.558068093825
 20
201.6277265682174
 10
-2236.558068093825
 20
201.6277265682174
 97
        0
 75
     0
 76
     1
 47
0.0801976285649081
 98
        1
 10
-2236.220395023531
 20
207.4691424608236
  0
HATCH
  5
1C6E
330
1F
100
AcDbEntity
  8
PROFILY
100
AcDbHatch
 10
0.0
 20
0.0
 30
0.0
210
0.0
220
0.0
230
1.0
  2
SOLID
 70
     1
 71
     0
 91
        4
 92
        7
 72
     0
 73
     1
 93
        4
 10
-2264.874423759651
 20
197.4576949757838
 10
-2263.374423759651
 20
197.4576949757838
 10
-2263.374423759651
 20
209.3149227132298
 10
-2264.874423759651
 20
209.3149227132298
 97
        0
 92
        7
 72
     0
 73
     1
 93
       12
 10
-2264.874423759651
 20
173.3149227132298
 10
-2277.602743638174
 20
173.3149227132298
 10
-2277.602743638174
 20
165.3149227132298
 10
-2264.874423759651
 20
165.3149227132298
 10
-2264.874423759651
 20
154.1171234384773
 10
-2263.374423759651
 20
154.1171234384773
 10
-2263.374423759651
 20
166.8149227132298
 10
-2276.102743638173
 20
166.8149227132298
 10
-2276.102743638173
 20
171.8149227132298
 10
-2263.374423759651
 20
171.8149227132298
 10
-2263.374423759651
 20
191.7737545179825
 10
-2264.874423759651
 20
191.7737545179825
 97
        0
 92
        7
 72
     0
 73
     1
 93
        4
 10
-2263.374423759651
 20
154.1171234384773
 10
-2264.874423759651
 20
154.1171234384773
 10
-2264.874423759651
 20
146.3183684511486
 10
-2263.374423759651
 20
146.3183684511486
 97
        0
 92
        7
 72
     0
 73
     1
 93
        4
 10
-2264.874423759651
 20
129.3149227132298
 10
-2263.374423759651
 20
129.3149227132298
 10
-2263.374423759651
 20
140.6344279933482
 10
-2264.874423759651
 20
140.6344279933482
 97
        0
 75
     0
 76
     1
 47
0.2506351096018158
 98
        4
 10
-2264.461120197007
 20
204.3795688975251
 10
-2264.461120197007
 20
175.5565232288636
 10
-2263.959561754345
 20
150.2423716858275
 10
-2264.210340975674
 20
132.9485442846298
  0
LINE
  5
1C6F
330
1F
100
AcDbEntity
  8
PROFILY
100
AcDbLine
 10
-2264.874423759651
 20
173.3149227132298
 30
0.0
 11
-2277.602743638174
 21
173.3149227132298
 31
0.0
  0
LINE
  5
1C70
330
1F
100
AcDbEntity
  8
PROFILY
100
AcDbLine
 10
-2263.374423759651
 20
171.8149227132298
 30
0.0
 11
-2276.102743638173
 21
171.8149227132298
 31
0.0
  0
LINE
  5
1C71
330
1F
100
AcDbEntity
  8
SPOJOVACÍ
100
AcDbLine
 10
-2248.612467420243
 20
197.3058166715054
 30
0.0
 11
-2278.220003265716
 21
197.3058166715063
 31
0.0
  0
LINE
  5
1C72
330
1F
100
AcDbEntity
  8
SPOJOVACÍ
100
AcDbLine
 10
-2248.625988253301
 20
191.621876213705
 30
0.0
 11
-2278.220003265716
 21
191.621876213705
 31
0.0
  0
SOLID
  5
1C73
330
1F
100
AcDbEntity
  8
CETRIS
100
AcDbTrace
 10
-2277.668434416857
 20
279.8608613668648
 30
0.0
 11
-2265.663288663403
 21
278.5943069353943
 31
0.0
 12
-2277.663288663403
 22
174.0594207379808
 32
0.0
 13
-2265.663288663403
 23
174.0594207379808
 33
0.0
  0
INSERT
  5
1C74
330
1F
100
AcDbEntity
  8
POPIS
100
AcDbBlockReference
  2
E_PUNKT
 10
-2276.54172016276
 20
169.5599124049849
 30
0.0
  0
TEXT
  5
1C75
330
1F
100
AcDbEntity
  8
POPIS
100
AcDbText
 10
-2470.332296351971
 20
153.7216072272976
 30
0.0
 40
25.0
  1
07
 41
0.7
  7
SIMPLEX7
100
AcDbText
  0
LINE
  5
1C76
330
1F
100
AcDbEntity
  8
POPIS
100
AcDbLine
 10
-2429.79686105742
 20
169.5889807358571
 30
0.0
 11
-2277.764109787134
 21
169.5889807358571
 31
0.0
  0
TEXT
  5
1C77
330
1F
100
AcDbEntity
  8
POPIS
100
AcDbText
 10
-2468.100512155142
 20
249.3361201618072
 30
0.0
 40
25.0
  1
01
 41
0.7
  7
SIMPLEX7
100
AcDbText
  0
LINE
  5
1C78
330
1F
100
AcDbEntity
  8
POPIS
100
AcDbLine
 10
-2429.79686105742
 20
196.0107969192167
 30
0.0
 11
-2280.86783355421
 21
196.0107969192167
 31
0.0
  0
TEXT
  5
1C79
330
1F
100
AcDbEntity
  8
POPIS
100
AcDbText
 10
-2470.332296351971
 20
184.3854795142406
 30
0.0
 40
25.0
  1
02
 41
0.7
  7
SIMPLEX7
100
AcDbText
  0
INSERT
  5
1C7A
330
1F
100
AcDbEntity
  8
POPIS
100
AcDbBlockReference
  2
E_PUNKT
 10
-2281.83246055909
 20
196.1077459975322
 30
0.0
  0
ELLIPSE
  5
1C7B
330
1F
100
AcDbEntity
  8
SPOJOVACÍ
100
AcDbEllipse
 10
-2280.147482850505
 20
194.528050445132
 30
0.0
 11
0.0000000000000018
 21
7.321312510456553
 31
0.0
210
0.0
220
0.0
230
1.0
 40
0.3214803388886193
 41
-0.2355512395776302
 42
3.377143893167422
  0
HATCH
  5
1C7C
330
1F
100
AcDbEntity
  8
SPOJOVACÍ
100
AcDbHatch
 10
0.0
 20
0.0
 30
0.0
210
0.0
220
0.0
230
1.0
  2
ANSI37
 70
     0
 71
     0
 91
        1
 92
        7
 72
     0
 73
     1
 93
        6
 10
-2279.598188403204
 20
194.528050445132
 10
-2279.598188403201
 20
187.4089098201338
 10
-2278.214272611989
 20
187.408909820132
 10
-2278.214272611989
 20
194.528050445132
 10
-2278.214272611989
 20
201.647191070132
 10
-2279.598188403204
 20
201.6471910701302
 97
        0
 75
     0
 76
     1
 52
-90.00000000000001
 41
0.9
 77
     0
 78
     2
 53
315.0
 43
-6120.444488055535
 44
10277.38936251601
 45
2.02055762724056
 46
2.020557627240558
 79
     0
 53
44.99999999999999
 43
-6120.444488055535
 44
10277.38936251601
 45
-2.020557627240558
 46
2.02055762724056
 79
     0
 47
0.0246402553748132
 98
        1
 10
-2279.12723696123
 20
194.9288961068186
  0
LINE
  5
1C7D
330
1F
100
AcDbEntity
  8
SPOJOVACÍ
100
AcDbLine
 10
-2279.598188403204
 20
198.3640186221973
 30
0.0
 11
-2279.598188403204
 21
187.408909820132
 31
0.0
  0
LINE
  5
1C7E
330
1F
100
AcDbEntity
  8
SPOJOVACÍ
100
AcDbLine
 10
-2279.598188403204
 20
187.4089098201338
 30
0.0
 11
-2278.214272611989
 21
187.408909820132
 31
0.0
  0
LINE
  5
1C7F
330
1F
100
AcDbEntity
  8
SPOJOVACÍ
100
AcDbLine
 10
-2279.084816141945
 20
199.748753570132
 30
0.0
 11
-2279.089562235694
 21
199.748753570132
 31
0.0
  0
LINE
  5
1C80
330
1F
100
AcDbEntity
  8
SPOJOVACÍ
100
AcDbLine
 10
-2278.214272611989
 20
201.647191070132
 30
0.0
 11
-2278.214272611989
 21
194.528050445132
 31
0.0
  0
LINE
  5
1C81
330
1F
100
AcDbEntity
  8
SPOJOVACÍ
100
AcDbLine
 10
-2278.214272611989
 20
201.647191070132
 30
0.0
 11
-2279.598188403204
 21
201.6471910701302
 31
0.0
  0
LINE
  5
1C82
330
1F
100
AcDbEntity
  8
SPOJOVACÍ
100
AcDbLine
 10
-2279.084816141945
 20
199.748753570132
 30
0.0
 11
-2279.089562235694
 21
199.748753570132
 31
0.0
  0
LINE
  5
1C83
330
1F
100
AcDbEntity
  8
SPOJOVACÍ
100
AcDbLine
 10
-2279.598188403204
 20
194.528050445132
 30
0.0
 11
-2279.598188403204
 21
201.647191070132
 31
0.0
  0
LINE
  5
1C84
330
1F
100
AcDbEntity
  8
SPOJOVACÍ
100
AcDbLine
 10
-2278.214272611989
 20
194.528050445132
 30
0.0
 11
-2278.214272611989
 21
187.408909820132
 31
0.0
  0
SOLID
  5
1C85
330
1F
100
AcDbEntity
  8
CETRIS
100
AcDbTrace
 10
-2277.683287976462
 20
-247.144915389038
 30
0.0
 11
-2265.663288663399
 21
-246.9672019645868
 31
0.0
 12
-2277.663288663403
 22
164.0594207379808
 32
0.0
 13
-2265.663288663403
 23
164.0594207379808
 33
0.0
  0
LINE
  5
1C86
330
1F
100
AcDbEntity
  8
POPIS
100
AcDbLine
 10
-2429.79686105742
 20
127.1294807068252
 30
0.0
 11
-2252.476315323871
 21
127.1294807068252
 31
0.0
  0
TEXT
  5
1C87
330
1F
100
AcDbEntity
  8
POPIS
100
AcDbText
 10
-2471.167822576983
 20
113.6861392574546
 30
0.0
 40
25.0
  1
04
 41
0.7
  7
SIMPLEX7
100
AcDbText
  0
LINE
  5
1C88
330
1F
100
AcDbEntity
  8
POPIS
100
AcDbLine
 10
-2429.79686105742
 20
60.32715920486499
 30
0.0
 11
-2236.558068093825
 21
60.32715920486499
 31
0.0
  0
TEXT
  5
1C89
330
1F
100
AcDbEntity
  8
POPIS
100
AcDbText
 10
-2470.332296351971
 20
46.88381775549442
 30
0.0
 40
25.0
  1
05
 41
0.7
  7
SIMPLEX7
100
AcDbText
  0
LINE
  5
1C8A
330
1F
100
AcDbEntity
  8
POPIS
100
AcDbLine
 10
-2429.79686105742
 20
18.48134454488809
 30
0.0
 11
-2205.760665744452
 21
18.48134454488809
 31
0.0
  0
TEXT
  5
1C8B
330
1F
100
AcDbEntity
  8
POPIS
100
AcDbText
 10
-2501.11066285762
 20
5.038003095517524
 30
0.0
 40
25.0
  1
06,08
 41
0.7
  7
SIMPLEX7
100
AcDbText
  0
LINE
  5
1C8C
330
1F
100
AcDbEntity
  8
POPIS
100
AcDbLine
 10
-2429.79686105742
 20
-165.126960758801
 30
0.0
 11
-2228.870323889401
 21
-165.126960758801
 31
0.0
  0
TEXT
  5
1C8D
330
1F
100
AcDbEntity
  8
POPIS
100
AcDbText
 10
-2470.332296351971
 20
-178.5703022081716
 30
0.0
 40
25.0
  1
09
 41
0.7
  7
SIMPLEX7
100
AcDbText
  0
LINE
  5
1C8E
330
1F
100
AcDbEntity
  8
STAVBA OBRYS
  6
DASHED
100
AcDbLine
 10
-2064.711131515218
 20
-177.6864639081568
 30
0.0
 11
-2068.499992656776
 21
-184.2489639081568
 31
0.0
  0
LINE
  5
1C8F
330
1F
100
AcDbEntity
  8
STAVBA OBRYS
  6
DASHED
100
AcDbLine
 10
-2068.499992656776
 20
-184.2489639081568
 30
0.0
 11
-2228.870323889401
 21
-184.248963908155
 31
0.0
  0
LINE
  5
1C90
330
1F
100
AcDbEntity
  8
STAVBA OBRYS
  6
DASHED
100
AcDbLine
 10
-2068.499992656776
 20
-171.1239639081568
 30
0.0
 11
-2228.870323889401
 21
-171.123963908155
 31
0.0
  0
LINE
  5
1C91
330
1F
100
AcDbEntity
  8
STAVBA OBRYS
  6
DASHED
100
AcDbLine
 10
-2064.711131515218
 20
-177.6864639081568
 30
0.0
 11
-2068.499992656776
 21
-171.1239639081568
 31
0.0
  0
LINE
  5
1C92
330
1F
100
AcDbEntity
  8
STAVBA OBRYS
  6
DASHDOT2
100
AcDbLine
 10
-2262.628568391075
 20
-177.686463908155
 30
0.0
 11
-2049.852079324977
 21
-177.6864639081568
 31
0.0
  0
LINE
  5
1C93
330
1F
100
AcDbEntity
  8
STAVBA OBRYS
  6
IZOLACE
 48
4.0
100
AcDbLine
 10
-2192.341868599713
 20
273.1295887412443
 30
0.0
 11
-2192.704868415501
 21
-245.5186424849653
 31
0.0
  0
HATCH
  5
1C94
330
1F
100
AcDbEntity
  8
STAVBA OBRYS
100
AcDbHatch
 10
0.0
 20
0.0
 30
0.0
210
0.0
220
0.0
230
1.0
  2
AR-SAND
 70
     0
 71
     0
 91
        1
 92
        7
 72
     0
 73
     1
 93
        4
 10
-1904.251030958534
 20
236.8805769115069
 10
-1914.251030958526
 20
236.8805769115069
 10
-1914.251030958534
 20
-241.4017549779737
 10
-1904.251030958526
 20
-241.4017549779737
 97
        0
 75
     0
 76
     1
 52
0.0
 41
0.1
 77
     0
 78
     4
 53
37.5
 43
-17767.12062799627
 44
-1196.84038863389
 45
-0.1600031295984046
 46
4.894132373293423
 79
     6
 49
0.0
 49
-3.8608
 49
0.0
 49
-4.318
 49
0.0
 49
-4.1275
 53
7.499999999999999
 43
-17767.12062799627
 44
-1196.84038863389
 45
4.495232831380026
 46
7.168251005683543
 79
     6
 49
0.0
 49
-2.0828
 49
0.0
 49
-3.4798
 49
0.0
 49
-1.3335
 53
327.4999999999999
 43
-17770.24482799627
 44
-1196.84038863389
 45
7.909923702414579
 46
0.0143718467854569
 79
     6
 49
0.0
 49
-1.27
 49
0.0
 49
-4.572
 49
0.0
 49
-5.969
 53
317.5
 43
-17770.24482799627
 44
-1196.84038863389
 45
7.635564524722972
 46
2.229293232572162
 79
     6
 49
0.0
 49
-0.635
 49
0.0
 49
-2.997199999999999
 49
0.0
 49
-3.429
 47
1.565892305305214
 98
        1
 10
-1909.86547068147
 20
94.86841636647568
  0
LINE
  5
1C95
330
1F
100
AcDbEntity
  8
STAVBA OBRYS
100
AcDbLine
 10
-1904.25103095853
 20
-241.4017549779737
 30
0.0
 11
-1904.25103095853
 21
237.6657724810675
 31
0.0
  0
LINE
  5
1C96
330
1F
100
AcDbEntity
  8
STAVBA OBRYS
100
AcDbLine
 10
-2150.57219228251
 20
268.6195324622031
 30
0.0
 11
-2150.57219228251
 21
-242.4566654024429
 31
0.0
  0
LINE
  5
1C97
330
1F
100
AcDbEntity
  8
STAVBA OBRYS
100
AcDbLine
 10
-1914.25103095853
 20
-241.4017549779737
 30
0.0
 11
-1914.251030958526
 21
238.9224148180383
 31
0.0
  0
HATCH
  5
1C98
330
1F
100
AcDbEntity
  8
STAVBA OBRYS
100
AcDbHatch
 10
0.0
 20
0.0
 30
0.0
210
0.0
220
0.0
230
1.0
  2
BRICK
 70
     0
 71
     0
 91
        1
 92
        7
 72
     1
 73
     1
 93
       21
 10
-1914.251030958523
 20
238.9224148180374
 42
0.0
 10
-2150.57219228251
 20
268.6195324622021
 42
0.0
 10
-2150.57219228251
 20
133.8459676933807
 42
0.0
 10
-2066.816717749206
 20
196.1764882903207
 42
-0.1120257488369836
 10
-2066.939123819025
 20
196.7159620418797
 42
-1.0
 10
-2064.439123819025
 20
196.7159620418797
 42
-0.7985195055902459
 10
-2066.816717749206
 20
196.1764882903207
 42
0.0
 10
-2150.57219228251
 20
133.8459676933807
 42
0.0
 10
-2150.57219228251
 20
57.60144337856309
 42
0.0
 10
-2092.77391198173
 20
57.601443378564
 42
0.0
 10
-2088.985050840179
 20
51.038943378564
 42
0.0
 10
-2092.773911981737
 20
44.476443378564
 42
0.0
 10
-2150.572192282507
 20
44.47644337856218
 42
0.0
 10
-2150.572192282507
 20
0.8792632422291717
 42
0.0
 10
-2150.57219228251
 20
-171.1239639081559
 42
0.0
 10
-2068.499992656779
 20
-171.1239639081577
 42
0.0
 10
-2064.711131515218
 20
-177.6864639081568
 42
0.0
 10
-2068.499992656776
 20
-184.2489639081568
 42
0.0
 10
-2150.57219228251
 20
-184.2489639081559
 42
0.0
 10
-2150.572192282507
 20
-242.456665402442
 42
0.0
 10
-1914.251030958534
 20
-241.4017549779746
 42
0.0
 97
        0
 75
     0
 76
     1
 52
0.0
 41
10.0
 77
     0
 78
     3
 53
0.0
 43
-20819.28560491309
 44
-5364.415592064875
 45
0.0
 46
63.5
 79
     0
 53
90.0
 43
-20819.28560491309
 44
-5364.415592064875
 45
-127.0
 46
0.0000000000000078
 79
     2
 49
63.5
 49
-63.5
 53
90.0
 43
-20755.78560491309
 44
-5364.415592064875
 45
-127.0
 46
0.0000000000000078
 79
     2
 49
-63.5
 49
63.5
 47
0.836912991442306
 98
        1
 10
-1978.269795738448
 20
70.5320098867187
  0
LINE
  5
1C99
330
1F
100
AcDbEntity
  8
PROFILY
100
AcDbLine
 10
-2301.737830402035
 20
-574.1645666790536
 30
0.0
 11
-2303.237830402034
 21
-574.1645666790536
 31
0.0
  0
TEXT
  5
1C9A
330
1F
100
AcDbEntity
  8
POPIS
100
AcDbText
 10
-2469.321720086329
 20
454.1318367538833
 30
0.0
 40
50.0
  1
ÚPRAVA SVISLÉ SPÁRY
 41
0.85
  7
SIMPLEX7
100
AcDbText
  0
TEXT
  5
1C9B
330
1F
100
AcDbEntity
  8
POPIS
100
AcDbText
 10
-2469.321720086329
 20
399.5070937280825
 30
0.0
 40
35.0
  1
PŮDORYS-ŘEŠENÍ S (BEZ) PROFILEM
 41
0.85
  7
SIMPLEX7
100
AcDbText
  0
TEXT
  5
1C9C
330
1F
100
AcDbEntity
  8
POPIS
100
AcDbText
 10
-2490.733229516921
 20
-359.3247194935056
 30
0.0
 40
25.0
  1
01
 41
0.85
  7
SIMPLEX7
100
AcDbText
  0
TEXT
  5
1C9D
330
1F
100
AcDbEntity
  8
POPIS
100
AcDbText
 10
-2436.389526357172
 20
-359.3247194935056
 30
0.0
 40
25.0
  1
Deska CETRIS   (BASIC,FINISH,LASUR)
 41
0.7
  7
SIMPLEX7
100
AcDbText
  0
TEXT
  5
1C9E
330
1F
100
AcDbEntity
  8
POPIS
100
AcDbText
 10
-2490.733229516921
 20
-395.9197311091338
 30
0.0
 40
25.0
  1
02
 41
0.85
  7
SIMPLEX7
100
AcDbText
  0
TEXT
  5
1C9F
330
1F
100
AcDbEntity
  8
POPIS
100
AcDbText
 10
-2436.389526357172
 20
-395.9197311091338
 30
0.0
 40
25.0
  1
Nerezový vrut s podložkou (np. SFS, EJOT)
 41
0.7
  7
SIMPLEX7
100
AcDbText
  0
TEXT
  5
1CA0
330
1F
100
AcDbEntity
  8
POPIS
100
AcDbText
 10
-2490.733229516921
 20
-429.8699193538559
 30
0.0
 40
25.0
  1
03
 41
0.85
  7
SIMPLEX7
100
AcDbText
  0
TEXT
  5
1CA1
330
1F
100
AcDbEntity
  8
POPIS
100
AcDbText
 10
-2436.389526357172
 20
-429.8699193538559
 30
0.0
 40
25.0
  1
Vzduchová mezera - min. 25 mm
 41
0.7
  7
SIMPLEX7
100
AcDbText
  0
TEXT
  5
1CA2
330
1F
100
AcDbEntity
  8
POPIS
100
AcDbText
 10
-2490.733229516921
 20
-575.1831305998211
 30
0.0
 40
25.0
  1
07
 41
0.85
  7
SIMPLEX7
100
AcDbText
  0
TEXT
  5
1CA3
330
1F
100
AcDbEntity
  8
POPIS
100
AcDbText
 10
-2436.389526357172
 20
-575.1831305998211
 30
0.0
 40
25.0
  1
Profil ve spáře - klempířský výrobek
 41
0.7
  7
SIMPLEX7
100
AcDbText
  0
TEXT
  5
1CA4
330
1F
100
AcDbEntity
  8
POPIS
100
AcDbText
 10
-2490.733229516921
 20
-735.0359279848571
 30
0.0
 40
25.0
  1
08
 41
0.85
  7
SIMPLEX7
100
AcDbText
  0
TEXT
  5
1CA5
330
1F
100
AcDbEntity
  8
POPIS
100
AcDbText
 10
-2436.389526357172
 20
-735.0359279848571
 30
0.0
 40
25.0
  1
Tepelná izolace (np. ORSIL, ROCKWOOL, ISOVER, NOBASIL)
 41
0.7
  7
SIMPLEX7
100
AcDbText
  0
TEXT
  5
1CA6
330
1F
100
AcDbEntity
  8
POPIS
100
AcDbText
 10
-2268.386595573269
 20
-334.914225008184
 30
0.0
 40
12.0
  1
R
 41
0.85
  7
SIMPLEX7
100
AcDbText
  0
CIRCLE
  5
1CA7
330
1F
100
AcDbEntity
  8
POPIS
100
AcDbCircle
 10
-2264.004312062945
 20
-328.8040636402383
 30
0.0
 40
11.13656048292026
  0
TEXT
  5
1CFA
330
1F
100
AcDbEntity
  8
POPIS
100
AcDbText
 10
-2436.085998330878
 20
-805.043513217951
 30
0.0
 40
25.0
  1
Podkladní EPDM páska tl.1 mm
 41
0.7
  7
SIMPLEX7
100
AcDbText
  0
TEXT
  5
1CFB
330
1F
100
AcDbEntity
  8
POPIS
100
AcDbText
 10
-2490.42970149062
 20
-805.043513217951
 30
0.0
 40
25.0
  1
10
 41
0.85
  7
SIMPLEX7
100
AcDbText
  0
LINE
  5
1CFC
330
1F
100
AcDbEntity
  8
POPIS
100
AcDbLine
 10
-2431.736629431694
 20
227.7466214539358
 30
0.0
 11
-2307.531021361241
 21
227.7466214539358
 31
0.0
  0
TEXT
  5
1CFD
330
1F
100
AcDbEntity
  8
POPIS
100
AcDbText
 10
-2472.272064726245
 20
214.3032800045657
 30
0.0
 40
25.0
  1
10
 41
0.7
  7
SIMPLEX7
100
AcDbText
  0
LINE
  5
1CFE
330
1F
100
AcDbEntity
  8
PROFILY
100
AcDbLine
 10
-2263.458793637921
 20
119.4523518560954
 30
0.0
 11
-2263.458793637921
 21
219.2540009157643
 31
0.0
  0
LINE
  5
1CFF
330
1F
100
AcDbEntity
  8
PROFILY
100
AcDbLine
 10
-2263.858793637921
 20
119.4185428119553
 30
0.0
 11
-2263.858793637921
 21
219.2540009157643
 31
0.0
  0
INSERT
  5
1D00
330
1F
100
AcDbEntity
  8
POPIS
100
AcDbBlockReference
  2
E_PUNKT
 10
-2263.998937257367
 20
217.3273535573521
 30
0.0
  0
LINE
  5
1D01
330
1F
100
AcDbEntity
  8
POPIS
100
AcDbLine
 10
-2307.531021361241
 20
227.7466214539358
 30
0.0
 11
-2263.458793637921
 21
219.2540009157643
 31
0.0
  0
LINE
  5
1D02
330
1F
100
AcDbEntity
  8
POPIS
100
AcDbLine
 10
-2429.79686105742
 20
262.0992808298328
 30
0.0
 11
-2280.86783355421
 21
262.0992808298328
 31
0.0
  0
INSERT
  5
1D03
330
1F
100
AcDbEntity
  8
POPIS
100
AcDbBlockReference
  2
E_PUNKT
 10
-2278.555447615371
 20
262.1962299081483
 30
0.0
  0
ENDSEC
  0
SECTION
  2
OBJECTS
  0
DICTIONARY
  5
C
330
0
100
AcDbDictionary
281
     1
  3
ACAD_GROUP
350
D
  3
ACAD_LAYOUT
350
1A
  3
ACAD_MLINESTYLE
350
17
  3
ACAD_PLOTSETTINGS
350
19
  3
ACAD_PLOTSTYLENAME
350
E
  3
AcDbVariableDictionary
350
1D05
  0
DICTIONARY
  5
1CAB
330
1F
100
AcDbDictionary
280
     1
281
     1
  3
ACAD_LAYOUTSELFREF
360
1CE5
  0
DICTIONARY
  5
1CAD
330
1B
100
AcDbDictionary
280
     1
281
     1
  3
ACAD_LAYOUTSELFREF
360
1CE4
  0
DICTIONARY
  5
1CAF
330
23
100
AcDbDictionary
280
     1
281
     1
  3
ACAD_LAYOUTSELFREF
360
1CE6
  0
DICTIONARY
  5
D
102
{ACAD_REACTORS
330
C
102
}
330
C
100
AcDbDictionary
281
     1
  0
DICTIONARY
  5
1A
102
{ACAD_REACTORS
330
C
102
}
330
C
100
AcDbDictionary
281
     1
  3
Model
350
22
  3
Rozvržení1
350
1E
  3
Rozvržení2
350
26
  0
DICTIONARY
  5
17
102
{ACAD_REACTORS
330
C
102
}
330
C
100
AcDbDictionary
281
     1
  3
Standard
350
18
  0
DICTIONARY
  5
19
102
{ACAD_REACTORS
330
C
102
}
330
C
100
AcDbDictionary
281
     1
  0
ACDBDICTIONARYWDFLT
  5
E
102
{ACAD_REACTORS
330
C
102
}
330
C
100
AcDbDictionary
281
     1
  3
Normal
350
F
100
AcDbDictionaryWithDefault
340
F
  0
DICTIONARY
  5
1D05
102
{ACAD_REACTORS
330
C
102
}
330
C
100
AcDbDictionary
281
     1
  3
DIMASSOC
350
1D06
  0
XRECORD
  5
1CE5
102
{ACAD_REACTORS
330
1CAB
102
}
330
1CAB
100
AcDbXrecord
280
     1
340
1F
  0
XRECORD
  5
1CE4
102
{ACAD_REACTORS
330
1CAD
102
}
330
1CAD
100
AcDbXrecord
280
     1
340
1B
  0
XRECORD
  5
1CE6
102
{ACAD_REACTORS
330
1CAF
102
}
330
1CAF
100
AcDbXrecord
280
     1
340
23
  0
LAYOUT
  5
22
102
{ACAD_REACTORS
330
1A
102
}
330
1A
100
AcDbPlotSettings
  1

  2
HP DeskJet 690C
  4

  6

 40
0.0
 41
0.0
 42
0.0
 43
0.0
 44
0.0
 45
0.0
 46
0.0
 47
0.0
 48
0.0
 49
0.0
140
0.0
141
0.0
142
1.0
143
1.0
 70
  1712
 72
     0
 73
     0
 74
     0
  7
monochrome.ctb
 75
     0
147
1.0
148
0.0
149
0.0
100
AcDbLayout
  1
Model
 70
     1
 71
     0
 10
0.0
 20
0.0
 11
12.0
 21
9.0
 12
0.0
 22
0.0
 32
0.0
 14
0.0
 24
0.0
 34
0.0
 15
0.0
 25
0.0
 35
0.0
146
0.0
 13
0.0
 23
0.0
 33
0.0
 16
1.0
 26
0.0
 36
0.0
 17
0.0
 27
1.0
 37
0.0
 76
     0
330
1F
  0
LAYOUT
  5
1E
102
{ACAD_REACTORS
330
1A
102
}
330
1A
100
AcDbPlotSettings
  1

  2
HP DeskJet 690C
  4

  6

 40
0.0
 41
0.0
 42
0.0
 43
0.0
 44
0.0
 45
0.0
 46
0.0
 47
0.0
 48
0.0
 49
0.0
140
0.0
141
0.0
142
1.0
143
1.0
 70
   688
 72
     0
 73
     0
 74
     5
  7
monochrome.ctb
 75
    16
147
1.0
148
0.0
149
0.0
100
AcDbLayout
  1
Rozvržení1
 70
     1
 71
     1
 10
0.0
 20
0.0
 11
420.0
 21
297.0
 12
0.0
 22
0.0
 32
0.0
 14
1.000000000000000E+20
 24
1.000000000000000E+20
 34
1.000000000000000E+20
 15
-1.000000000000000E+20
 25
-1.000000000000000E+20
 35
-1.000000000000000E+20
146
0.0
 13
0.0
 23
0.0
 33
0.0
 16
1.0
 26
0.0
 36
0.0
 17
0.0
 27
1.0
 37
0.0
 76
     0
330
1B
  0
LAYOUT
  5
26
102
{ACAD_REACTORS
330
1A
102
}
330
1A
100
AcDbPlotSettings
  1

  2
HP DeskJet 690C
  4

  6

 40
0.0
 41
0.0
 42
0.0
 43
0.0
 44
0.0
 45
0.0
 46
0.0
 47
0.0
 48
0.0
 49
0.0
140
0.0
141
0.0
142
1.0
143
1.0
 70
   688
 72
     0
 73
     0
 74
     5
  7
monochrome.ctb
 75
    16
147
1.0
148
0.0
149
0.0
100
AcDbLayout
  1
Rozvržení2
 70
     1
 71
     2
 10
0.0
 20
0.0
 11
12.0
 21
9.0
 12
0.0
 22
0.0
 32
0.0
 14
0.0
 24
0.0
 34
0.0
 15
0.0
 25
0.0
 35
0.0
146
0.0
 13
0.0
 23
0.0
 33
0.0
 16
1.0
 26
0.0
 36
0.0
 17
0.0
 27
1.0
 37
0.0
 76
     0
330
23
  0
MLINESTYLE
  5
18
102
{ACAD_REACTORS
330
17
102
}
330
17
100
AcDbMlineStyle
  2
STANDARD
 70
     0
  3

 62
   256
 51
90.0
 52
90.0
 71
     2
 49
0.5
 62
   256
  6
BYLAYER
 49
-0.5
 62
   256
  6
BYLAYER
  0
ACDBPLACEHOLDER
  5
F
102
{ACAD_REACTORS
330
E
102
}
330
E
  0
DICTIONARYVAR
  5
1D06
102
{ACAD_REACTORS
330
1D05
102
}
330
1D05
100
DictionaryVariables
280
     0
  1
1
  0
ENDSEC
  0
EOF
