  0
SECTION
  2
HEADER
  9
$ACADVER
  1
AC1015
  9
$ACADMAINTVER
 70
    14
  9
$DWGCODEPAGE
  3
ANSI_1250
  9
$INSBASE
 10
0.0
 20
0.0
 30
0.0
  9
$EXTMIN
 10
1424.41496865241
 20
-100.9078270543045
 30
-0.0015258207003583
  9
$EXTMAX
 10
2280.520593106734
 20
1244.116627850654
 30
0.0000000349246037
  9
$LIMMIN
 10
0.0
 20
0.0
  9
$LIMMAX
 10
420.0
 20
297.0
  9
$ORTHOMODE
 70
     0
  9
$REGENMODE
 70
     1
  9
$FILLMODE
 70
     1
  9
$QTEXTMODE
 70
     0
  9
$MIRRTEXT
 70
     1
  9
$LTSCALE
 40
1.0
  9
$ATTMODE
 70
     1
  9
$TEXTSIZE
 40
2.5
  9
$TRACEWID
 40
1.0
  9
$TEXTSTYLE
  7
Standard
  9
$CLAYER
  8
0
  9
$CELTYPE
  6
ByLayer
  9
$CECOLOR
 62
   256
  9
$CELTSCALE
 40
1.0
  9
$DISPSILH
 70
     0
  9
$DIMSCALE
 40
1.0
  9
$DIMASZ
 40
2.5
  9
$DIMEXO
 40
0.625
  9
$DIMDLI
 40
3.75
  9
$DIMRND
 40
0.0
  9
$DIMDLE
 40
0.0
  9
$DIMEXE
 40
1.25
  9
$DIMTP
 40
0.0
  9
$DIMTM
 40
0.0
  9
$DIMTXT
 40
2.5
  9
$DIMCEN
 40
2.5
  9
$DIMTSZ
 40
0.0
  9
$DIMTOL
 70
     0
  9
$DIMLIM
 70
     0
  9
$DIMTIH
 70
     0
  9
$DIMTOH
 70
     0
  9
$DIMSE1
 70
     0
  9
$DIMSE2
 70
     0
  9
$DIMTAD
 70
     1
  9
$DIMZIN
 70
     8
  9
$DIMBLK
  1

  9
$DIMASO
 70
     1
  9
$DIMSHO
 70
     1
  9
$DIMPOST
  1

  9
$DIMAPOST
  1

  9
$DIMALT
 70
     0
  9
$DIMALTD
 70
     3
  9
$DIMALTF
 40
0.03937007874016
  9
$DIMLFAC
 40
1.0
  9
$DIMTOFL
 70
     1
  9
$DIMTVP
 40
0.0
  9
$DIMTIX
 70
     0
  9
$DIMSOXD
 70
     0
  9
$DIMSAH
 70
     0
  9
$DIMBLK1
  1

  9
$DIMBLK2
  1

  9
$DIMSTYLE
  2
ISO-25
  9
$DIMCLRD
 70
     0
  9
$DIMCLRE
 70
     0
  9
$DIMCLRT
 70
     0
  9
$DIMTFAC
 40
1.0
  9
$DIMGAP
 40
0.625
  9
$DIMJUST
 70
     0
  9
$DIMSD1
 70
     0
  9
$DIMSD2
 70
     0
  9
$DIMTOLJ
 70
     0
  9
$DIMTZIN
 70
     8
  9
$DIMALTZ
 70
     0
  9
$DIMALTTZ
 70
     0
  9
$DIMUPT
 70
     0
  9
$DIMDEC
 70
     2
  9
$DIMTDEC
 70
     2
  9
$DIMALTU
 70
     2
  9
$DIMALTTD
 70
     3
  9
$DIMTXSTY
  7
Standard
  9
$DIMAUNIT
 70
     0
  9
$DIMADEC
 70
     0
  9
$DIMALTRND
 40
0.0
  9
$DIMAZIN
 70
     0
  9
$DIMDSEP
 70
    44
  9
$DIMATFIT
 70
     3
  9
$DIMFRAC
 70
     0
  9
$DIMLDRBLK
  1

  9
$DIMLUNIT
 70
     2
  9
$DIMLWD
 70
    -2
  9
$DIMLWE
 70
    -2
  9
$DIMTMOVE
 70
     0
  9
$LUNITS
 70
     2
  9
$LUPREC
 70
     4
  9
$SKETCHINC
 40
1.0
  9
$FILLETRAD
 40
10.0
  9
$AUNITS
 70
     0
  9
$AUPREC
 70
     0
  9
$MENU
  1
.
  9
$ELEVATION
 40
0.0
  9
$PELEVATION
 40
0.0
  9
$THICKNESS
 40
0.0
  9
$LIMCHECK
 70
     0
  9
$CHAMFERA
 40
10.0
  9
$CHAMFERB
 40
10.0
  9
$CHAMFERC
 40
20.0
  9
$CHAMFERD
 40
0.0
  9
$SKPOLY
 70
     0
  9
$TDCREATE
 40
2452339.360978703
  9
$TDUCREATE
 40
2452339.319312037
  9
$TDUPDATE
 40
2455610.261840196
  9
$TDUUPDATE
 40
2455610.220173530
  9
$TDINDWG
 40
0.0103246991
  9
$TDUSRTIMER
 40
0.0103240046
  9
$USRTIMER
 70
     1
  9
$ANGBASE
 50
0.0
  9
$ANGDIR
 70
     0
  9
$PDMODE
 70
     0
  9
$PDSIZE
 40
0.0
  9
$PLINEWID
 40
0.0
  9
$SPLFRAME
 70
     0
  9
$SPLINETYPE
 70
     6
  9
$SPLINESEGS
 70
     8
  9
$HANDSEED
  5
1CDC
  9
$SURFTAB1
 70
     6
  9
$SURFTAB2
 70
     6
  9
$SURFTYPE
 70
     6
  9
$SURFU
 70
     6
  9
$SURFV
 70
     6
  9
$UCSBASE
  2

  9
$UCSNAME
  2

  9
$UCSORG
 10
0.0
 20
0.0
 30
0.0
  9
$UCSXDIR
 10
1.0
 20
0.0
 30
0.0
  9
$UCSYDIR
 10
0.0
 20
1.0
 30
0.0
  9
$UCSORTHOREF
  2

  9
$UCSORTHOVIEW
 70
     0
  9
$UCSORGTOP
 10
0.0
 20
0.0
 30
0.0
  9
$UCSORGBOTTOM
 10
0.0
 20
0.0
 30
0.0
  9
$UCSORGLEFT
 10
0.0
 20
0.0
 30
0.0
  9
$UCSORGRIGHT
 10
0.0
 20
0.0
 30
0.0
  9
$UCSORGFRONT
 10
0.0
 20
0.0
 30
0.0
  9
$UCSORGBACK
 10
0.0
 20
0.0
 30
0.0
  9
$PUCSBASE
  2

  9
$PUCSNAME
  2

  9
$PUCSORG
 10
0.0
 20
0.0
 30
0.0
  9
$PUCSXDIR
 10
1.0
 20
0.0
 30
0.0
  9
$PUCSYDIR
 10
0.0
 20
1.0
 30
0.0
  9
$PUCSORTHOREF
  2

  9
$PUCSORTHOVIEW
 70
     0
  9
$PUCSORGTOP
 10
0.0
 20
0.0
 30
0.0
  9
$PUCSORGBOTTOM
 10
0.0
 20
0.0
 30
0.0
  9
$PUCSORGLEFT
 10
0.0
 20
0.0
 30
0.0
  9
$PUCSORGRIGHT
 10
0.0
 20
0.0
 30
0.0
  9
$PUCSORGFRONT
 10
0.0
 20
0.0
 30
0.0
  9
$PUCSORGBACK
 10
0.0
 20
0.0
 30
0.0
  9
$USERI1
 70
     0
  9
$USERI2
 70
     0
  9
$USERI3
 70
     0
  9
$USERI4
 70
     0
  9
$USERI5
 70
     0
  9
$USERR1
 40
0.0
  9
$USERR2
 40
0.0
  9
$USERR3
 40
0.0
  9
$USERR4
 40
0.0
  9
$USERR5
 40
0.0
  9
$WORLDVIEW
 70
     1
  9
$SHADEDGE
 70
     3
  9
$SHADEDIF
 70
    70
  9
$TILEMODE
 70
     1
  9
$MAXACTVP
 70
    48
  9
$PINSBASE
 10
0.0
 20
0.0
 30
0.0
  9
$PLIMCHECK
 70
     0
  9
$PEXTMIN
 10
1.000000000000000E+20
 20
1.000000000000000E+20
 30
1.000000000000000E+20
  9
$PEXTMAX
 10
-1.000000000000000E+20
 20
-1.000000000000000E+20
 30
-1.000000000000000E+20
  9
$PLIMMIN
 10
0.0
 20
0.0
  9
$PLIMMAX
 10
420.0
 20
297.0
  9
$UNITMODE
 70
     0
  9
$VISRETAIN
 70
     1
  9
$PLINEGEN
 70
     0
  9
$PSLTSCALE
 70
     1
  9
$TREEDEPTH
 70
  3020
  9
$CMLSTYLE
  2
Standard
  9
$CMLJUST
 70
     0
  9
$CMLSCALE
 40
20.0
  9
$PROXYGRAPHICS
 70
     1
  9
$MEASUREMENT
 70
     1
  9
$CELWEIGHT
370
    -1
  9
$ENDCAPS
280
     0
  9
$JOINSTYLE
280
     0
  9
$LWDISPLAY
290
     0
  9
$INSUNITS
 70
     4
  9
$HYPERLINKBASE
  1

  9
$STYLESHEET
  1

  9
$XEDIT
290
     1
  9
$CEPSNTYPE
380
     0
  9
$PSTYLEMODE
290
     1
  9
$FINGERPRINTGUID
  2
{9C079773-E80E-4585-A7F4-852C8B38093D}
  9
$VERSIONGUID
  2
{A10FA8A6-014A-41E0-BA45-2F70006C8AD9}
  9
$EXTNAMES
290
     1
  9
$PSVPSCALE
 40
0.0
  9
$OLESTARTUP
290
     0
  0
ENDSEC
  0
SECTION
  2
CLASSES
  0
CLASS
  1
ACDBDICTIONARYWDFLT
  2
AcDbDictionaryWithDefault
  3
AutoCAD 2000
 90
        0
280
     0
281
     0
  0
CLASS
  1
ACDBPLACEHOLDER
  2
AcDbPlaceHolder
  3
AutoCAD 2000
 90
        0
280
     0
281
     0
  0
CLASS
  1
LAYOUT
  2
AcDbLayout
  3
AutoCAD 2000
 90
        0
280
     0
281
     0
  0
CLASS
  1
LONG_TRANSACTION
  2
AcDbLongTransaction
  3
AutoCAD 2000
 90
    32768
280
     0
281
     0
  0
CLASS
  1
LWPOLYLINE
  2
AcDbPolyline
  3
AutoCAD 2000
 90
    32768
280
     0
281
     1
  0
CLASS
  1
HATCH
  2
AcDbHatch
  3
AutoCAD 2000
 90
    32768
280
     0
281
     1
  0
CLASS
  1
XRECORD
  2
AcDbXrecord
  3
AutoCAD 2000
 90
    32768
280
     0
281
     0
  0
CLASS
  1
DICTIONARYVAR
  2
AcDbDictionaryVar
  3
AutoCAD 2000
 90
        0
280
     0
281
     0
  0
ENDSEC
  0
SECTION
  2
TABLES
  0
TABLE
  2
VPORT
  5
8
330
0
100
AcDbSymbolTable
 70
     2
  0
VPORT
  5
1CDB
330
8
100
AcDbSymbolTableRecord
100
AcDbViewportTableRecord
  2
*Active
 70
     0
 10
0.0
 20
0.0
 11
1.0
 21
1.0
 12
1852.467780879572
 22
571.604400398175
 13
0.0
 23
0.0
 14
10.0
 24
10.0
 15
10.0
 25
10.0
 16
0.0
 26
0.0
 36
1.0
 17
0.0
 27
0.0
 37
0.0
 40
1354.902235479536
 41
2.031862745098039
 42
50.0
 43
0.0
 44
0.0
 50
0.0
 51
0.0
 71
     0
 72
   100
 73
     1
 74
     3
 75
     0
 76
     0
 77
     0
 78
     0
281
     0
 65
     1
110
0.0
120
0.0
130
0.0
111
1.0
121
0.0
131
0.0
112
0.0
122
1.0
132
0.0
 79
     0
146
0.0
  0
ENDTAB
  0
TABLE
  2
LTYPE
  5
5
330
0
100
AcDbSymbolTable
 70
     4
  0
LTYPE
  5
14
330
5
100
AcDbSymbolTableRecord
100
AcDbLinetypeTableRecord
  2
ByBlock
 70
     0
  3

 72
    65
 73
     0
 40
0.0
  0
LTYPE
  5
15
330
5
100
AcDbSymbolTableRecord
100
AcDbLinetypeTableRecord
  2
ByLayer
 70
     0
  3

 72
    65
 73
     0
 40
0.0
  0
LTYPE
  5
16
330
5
100
AcDbSymbolTableRecord
100
AcDbLinetypeTableRecord
  2
Continuous
 70
     0
  3
Solid line
 72
    65
 73
     0
 40
0.0
  0
LTYPE
  5
3F
330
5
100
AcDbSymbolTableRecord
100
AcDbLinetypeTableRecord
  2
IZOLACE
 70
     0
  3
Izolace SSSSSSSSSSSSSSSSSSSSSSSSSSSSSSSSSSSSSSS
 72
    65
 73
     4
 40
10.16253999999999
 49
0.00254
 74
     0
 49
-2.54
 74
     4
 75
   134
340
4A
 46
2.54
 50
0.0
 44
-2.54
 45
0.0
 49
-5.08
 74
     4
 75
   134
340
4A
 46
2.54
 50
180.0
 44
2.54
 45
0.0
 49
-2.54
 74
     0
  0
LTYPE
  5
40
330
5
100
AcDbSymbolTableRecord
100
AcDbLinetypeTableRecord
  2
DASHED
 70
     0
  3
Dashed __ __ __ __ __ __ __ __ __ __ __ __ __ _
 72
    65
 73
     2
 40
19.04999999999999
 49
12.7
 74
     0
 49
-6.349999999999999
 74
     0
  0
LTYPE
  5
41
330
5
100
AcDbSymbolTableRecord
100
AcDbLinetypeTableRecord
  2
DASHDOT2
 70
     0
  3
Dash dot (.5x) _._._._._._._._._._._._._._._.
 72
    65
 73
     4
 40
12.7
 49
6.349999999999999
 74
     0
 49
-3.174999999999999
 74
     0
 49
0.0
 74
     0
 49
-3.174999999999999
 74
     0
  0
ENDTAB
  0
TABLE
  2
LAYER
  5
2
330
0
100
AcDbSymbolTable
 70
     8
  0
LAYER
  5
10
330
2
100
AcDbSymbolTableRecord
100
AcDbLayerTableRecord
  2
0
 70
     0
 62
     7
  6
Continuous
370
    -3
390
F
  0
LAYER
  5
42
330
2
100
AcDbSymbolTableRecord
100
AcDbLayerTableRecord
  2
POPIS
 70
     0
 62
    30
  6
Continuous
370
    -3
390
F
  0
LAYER
  5
43
330
2
100
AcDbSymbolTableRecord
100
AcDbLayerTableRecord
  2
SPOJOVACÍ
 70
     0
 62
   180
  6
Continuous
370
    -3
390
F
  0
LAYER
  5
44
330
2
100
AcDbSymbolTableRecord
100
AcDbLayerTableRecord
  2
CETRIS
 70
     0
 62
     1
  6
Continuous
370
    -3
390
F
  0
LAYER
  5
45
330
2
100
AcDbSymbolTableRecord
100
AcDbLayerTableRecord
  2
NOSNÉ KONSTRUKCE
 70
     0
 62
    33
  6
Continuous
370
    -3
390
F
  0
LAYER
  5
46
330
2
100
AcDbSymbolTableRecord
100
AcDbLayerTableRecord
  2
PROFILY
 70
     0
 62
    73
  6
Continuous
370
    -3
390
F
  0
LAYER
  5
47
330
2
100
AcDbSymbolTableRecord
100
AcDbLayerTableRecord
  2
STAVBA OBRYS
 70
     0
 62
     6
  6
Continuous
370
    -3
390
F
  0
LAYER
  5
48
330
2
100
AcDbSymbolTableRecord
100
AcDbLayerTableRecord
  2
Defpoints
 70
     0
 62
     7
  6
Continuous
290
     0
370
    -3
390
F
  0
ENDTAB
  0
TABLE
  2
STYLE
  5
3
330
0
100
AcDbSymbolTable
 70
     3
  0
STYLE
  5
11
330
3
100
AcDbSymbolTableRecord
100
AcDbTextStyleTableRecord
  2
Standard
 70
     0
 40
0.0
 41
1.0
 50
0.0
 71
     0
 42
2.5
  3
txt
  4

  0
STYLE
  5
49
330
3
100
AcDbSymbolTableRecord
100
AcDbTextStyleTableRecord
  2
SIMPLEX7
 70
     0
 40
0.0
 41
0.85
 50
0.0
 71
     0
 42
102.0
  3
ARIAL.TTF
  4

1001
ACAD
1000
Arial CE
1071
    60962
  0
STYLE
  5
4A
330
3
100
AcDbSymbolTableRecord
100
AcDbTextStyleTableRecord
  2

 70
     1
 40
0.0
 41
1.0
 50
0.0
 71
     0
 42
2.5
  3
ltypeshp.shx
  4

  0
ENDTAB
  0
TABLE
  2
VIEW
  5
6
330
0
100
AcDbSymbolTable
 70
     0
  0
ENDTAB
  0
TABLE
  2
UCS
  5
7
330
0
100
AcDbSymbolTable
 70
     0
  0
ENDTAB
  0
TABLE
  2
APPID
  5
9
330
0
100
AcDbSymbolTable
 70
     1
  0
APPID
  5
12
330
9
100
AcDbSymbolTableRecord
100
AcDbRegAppTableRecord
  2
ACAD
 70
     0
  0
ENDTAB
  0
TABLE
  2
DIMSTYLE
  5
A
330
0
100
AcDbSymbolTable
 70
     1
100
AcDbDimStyleTable
 71
     0
  0
DIMSTYLE
105
27
330
A
100
AcDbSymbolTableRecord
100
AcDbDimStyleTableRecord
  2
ISO-25
 70
     0
 41
2.5
 42
0.625
 43
3.75
 44
1.25
 73
     0
 74
     0
 77
     1
 78
     8
140
2.5
141
2.5
143
0.03937007874016
147
0.625
171
     3
172
     1
271
     2
272
     2
274
     3
278
    44
283
     0
284
     8
340
11
  0
ENDTAB
  0
TABLE
  2
BLOCK_RECORD
  5
1
330
0
100
AcDbSymbolTable
 70
     3
  0
BLOCK_RECORD
  5
1F
102
{ACAD_XDICTIONARY
360
189B
102
}
330
1
100
AcDbSymbolTableRecord
100
AcDbBlockTableRecord
  2
*Model_Space
340
22
  0
BLOCK_RECORD
  5
1B
102
{ACAD_XDICTIONARY
360
189D
102
}
330
1
100
AcDbSymbolTableRecord
100
AcDbBlockTableRecord
  2
*Paper_Space
340
1E
  0
BLOCK_RECORD
  5
23
102
{ACAD_XDICTIONARY
360
189F
102
}
330
1
100
AcDbSymbolTableRecord
100
AcDbBlockTableRecord
  2
*Paper_Space0
340
26
  0
BLOCK_RECORD
  5
2B
330
1
100
AcDbSymbolTableRecord
100
AcDbBlockTableRecord
  2
E_PUNKT
340
0
102
{BLKREFS
331
1AFA
331
1B96
331
1C17
331
1AA9
331
1AC2
331
1AC3
331
1AC6
331
1CB5
102
}
  0
BLOCK_RECORD
  5
1C70
330
1
100
AcDbSymbolTableRecord
100
AcDbBlockTableRecord
  2
_ArchTick
340
0
102
{BLKREFS
331
1CBF
331
1CC1
102
}
  0
ENDTAB
  0
ENDSEC
  0
SECTION
  2
BLOCKS
  0
BLOCK
  5
20
330
1F
100
AcDbEntity
  8
0
100
AcDbBlockBegin
  2
*Model_Space
 70
     0
 10
0.0
 20
0.0
 30
0.0
  3
*Model_Space
  1

  0
ENDBLK
  5
21
330
1F
100
AcDbEntity
  8
0
100
AcDbBlockEnd
  0
BLOCK
  5
1C
330
1B
100
AcDbEntity
 67
     1
  8
0
100
AcDbBlockBegin
  2
*Paper_Space
 70
     0
 10
0.0
 20
0.0
 30
0.0
  3
*Paper_Space
  1

  0
ENDBLK
  5
1D
330
1B
100
AcDbEntity
 67
     1
  8
0
100
AcDbBlockEnd
  0
BLOCK
  5
24
330
23
100
AcDbEntity
  8
0
100
AcDbBlockBegin
  2
*Paper_Space0
 70
     0
 10
0.0
 20
0.0
 30
0.0
  3
*Paper_Space0
  1

  0
ENDBLK
  5
25
330
23
100
AcDbEntity
  8
0
100
AcDbBlockEnd
  0
BLOCK
  5
2D
330
2B
100
AcDbEntity
  8
0
100
AcDbBlockBegin
  2
E_PUNKT
 70
     0
 10
0.0
 20
0.0
 30
0.0
  3
E_PUNKT
  1

  0
LWPOLYLINE
  5
2C
330
2B
100
AcDbEntity
  8
POPIS
100
AcDbPolyline
 90
        2
 70
     1
 43
2.5
 10
1.27761037562675
 20
0.0290683308725193
 42
-1.0
 10
-1.222389624373249
 20
0.0290683308725193
 42
-1.0
  0
ENDBLK
  5
2E
330
2B
100
AcDbEntity
  8
0
100
AcDbBlockEnd
  0
BLOCK
  5
1C72
330
1C70
100
AcDbEntity
  8
0
100
AcDbBlockBegin
  2
_ArchTick
 70
     0
 10
0.0
 20
0.0
 30
0.0
  3
_ArchTick
  1

  0
LWPOLYLINE
  5
1C71
330
1C70
100
AcDbEntity
  8
0
  6
ByBlock
 62
     0
100
AcDbPolyline
 90
        2
 70
     0
 43
0.15
 10
-0.5
 20
-0.5
 10
0.5
 20
0.5
  0
ENDBLK
  5
1C73
330
1C70
100
AcDbEntity
  8
0
100
AcDbBlockEnd
  0
ENDSEC
  0
SECTION
  2
ENTITIES
  0
INSERT
  5
1AA9
330
1F
100
AcDbEntity
  8
POPIS
100
AcDbBlockReference
  2
E_PUNKT
 10
1662.38616640344
 20
511.9692621743393
 30
0.0
  0
LINE
  5
1AAA
330
1F
100
AcDbEntity
  8
POPIS
100
AcDbLine
 10
1640.613736970305
 20
495.0612716863092
 30
0.0
 11
1662.434287457944
 21
511.9939450003898
 31
0.0
  0
LINE
  5
1AAB
330
1F
100
AcDbEntity
  8
POPIS
100
AcDbLine
 10
1498.300442264465
 20
495.0612716863092
 30
0.0
 11
1640.613736970305
 21
495.0612716863092
 31
0.0
  0
TEXT
  5
1AAC
330
1F
100
AcDbEntity
  8
POPIS
100
AcDbText
 10
1457.765006969914
 20
481.6179302369387
 30
0.0
 40
25.0
  1
09
 41
0.7
  7
SIMPLEX7
100
AcDbText
  0
TEXT
  5
1AAD
330
1F
100
AcDbEntity
  8
POPIS
100
AcDbText
 10
1587.587960411382
 20
111.911600397731
 30
0.0
 40
25.0
  1
Talířová hmoždinka
 41
0.7
  7
SIMPLEX7
100
AcDbText
  0
TEXT
  5
1AAE
330
1F
100
AcDbEntity
  8
POPIS
100
AcDbText
 10
1587.587960411382
 20
221.1559860750289
 30
0.0
 40
25.0
  1
Pojistná fólie - parozábrana
 41
0.7
  7
SIMPLEX7
100
AcDbText
  0
TEXT
  5
1AAF
330
1F
100
AcDbEntity
  8
POPIS
100
AcDbText
 10
1587.587960411382
 20
185.5370973769399
 30
0.0
 40
25.0
  1
Vodorovná dřevěná lať š=100 mm (tloušťka dle izolace)
 41
0.7
  7
SIMPLEX7
100
AcDbText
  0
TEXT
  5
1AB0
330
1F
100
AcDbEntity
  8
POPIS
100
AcDbText
 10
1587.587960411382
 20
147.3537575344148
 30
0.0
 40
25.0
  1
Tepelná izolace (np. ORSIL, ROCKWOOL, ISOVER, NOBASIL)
 41
0.7
  7
SIMPLEX7
100
AcDbText
  0
TEXT
  5
1AB1
330
1F
100
AcDbEntity
  8
POPIS
100
AcDbText
 10
1587.587960411382
 20
257.2628075622174
 30
0.0
 40
25.0
  1
Svislá dřevěné lať 50x25 (100x25), impregnovaná
 41
0.7
  7
SIMPLEX7
100
AcDbText
  0
LINE
  5
1AB2
330
1F
100
AcDbEntity
  8
PROFILY
100
AcDbLine
 10
1664.055028553423
 20
564.5232877446747
 30
0.0
 11
1661.709755174904
 21
564.5232877446747
 31
0.0
  0
LINE
  5
1AB3
330
1F
100
AcDbEntity
  8
PROFILY
100
AcDbLine
 10
1713.447686549006
 20
515.1190259256131
 30
0.0
 11
1713.447686549006
 21
512.7853563705734
 31
0.0
  0
LINE
  5
1AB4
330
1F
100
AcDbEntity
  8
PROFILY
100
AcDbLine
 10
1713.447686549006
 20
512.7853563705734
 30
0.0
 11
1661.709755174902
 21
512.7853563705744
 31
0.0
  0
LINE
  5
1AB5
330
1F
100
AcDbEntity
  8
PROFILY
100
AcDbLine
 10
1664.055028553423
 20
515.1190259256131
 30
0.0
 11
1713.447686549006
 21
515.1190259256131
 31
0.0
  0
LINE
  5
1AB6
330
1F
100
AcDbEntity
  8
PROFILY
100
AcDbLine
 10
1664.055028553423
 20
515.1190259256131
 30
0.0
 11
1664.055028553421
 21
564.5232877446747
 31
0.0
  0
LINE
  5
1AB7
330
1F
100
AcDbEntity
  8
PROFILY
100
AcDbLine
 10
1661.709755174902
 20
564.5232877446747
 30
0.0
 11
1661.709755174902
 21
512.7853563705744
 31
0.0
  0
HATCH
  5
1AB8
330
1F
100
AcDbEntity
  8
PROFILY
100
AcDbHatch
 10
0.0
 20
0.0
 30
0.0
210
0.0
220
0.0
230
1.0
  2
SOLID
 70
     1
 71
     0
 91
        3
 92
        7
 72
     0
 73
     1
 93
        6
 10
1691.735644390121
 20
515.1190259256131
 10
1664.055028553421
 20
515.1190259256131
 10
1664.055028553423
 20
543.1489470424607
 10
1661.709755174902
 20
543.1489470424607
 10
1661.709755174902
 20
512.7853563705744
 10
1691.735644390121
 20
512.7853563705744
 97
        0
 92
        7
 72
     0
 73
     1
 93
        4
 10
1664.055028553421
 20
564.5232877446747
 10
1661.709755174902
 20
564.5232877446747
 10
1661.709755174904
 20
549.4644364400169
 10
1664.055028553421
 20
549.4644364400169
 97
        0
 92
        7
 72
     0
 73
     1
 93
        4
 10
1713.447686549006
 20
515.1190259256131
 10
1698.05113378768
 20
515.1190259256131
 10
1698.05113378768
 20
512.7853563705744
 10
1713.447686549008
 20
512.7853563705734
 97
        0
 75
     0
 76
     1
 47
0.2629182711253479
 98
        3
 10
1667.147558968691
 20
514.4333550370925
 10
1662.675162370166
 20
555.71152642499
 10
1709.503573763769
 20
514.95920108789
  0
HATCH
  5
1AB9
330
1F
100
AcDbEntity
  8
STAVBA OBRYS
100
AcDbHatch
 10
0.0
 20
0.0
 30
0.0
210
0.0
220
0.0
230
1.0
  2
AR-SAND
 70
     0
 71
     0
 91
        1
 92
        7
 72
     0
 73
     1
 93
        6
 10
2219.49718181777
 20
872.8732173661359
 10
2022.551340011813
 20
872.8732173661359
 10
2022.551340011812
 20
1037.63091871363
 10
2012.551340011813
 20
1037.63091871363
 10
2012.551340011811
 20
862.873217366136
 10
2219.49718181777
 20
862.873217366136
 97
        0
 75
     0
 76
     1
 52
0.0
 41
0.1
 77
     0
 78
     4
 53
37.5
 43
-8511.270915549953
 44
2047.240290375178
 45
-0.1600031295984046
 46
4.894132373293423
 79
     6
 49
0.0
 49
-3.8608
 49
0.0
 49
-4.318
 49
0.0
 49
-4.1275
 53
7.499999999999999
 43
-8511.270915549953
 44
2047.240290375178
 45
4.495232831380026
 46
7.168251005683543
 79
     6
 49
0.0
 49
-2.0828
 49
0.0
 49
-3.4798
 49
0.0
 49
-1.3335
 53
327.4999999999999
 43
-8514.39511554995
 44
2047.240290375178
 45
7.909923702414579
 46
0.0143718467854569
 79
     6
 49
0.0
 49
-1.27
 49
0.0
 49
-4.572
 49
0.0
 49
-5.969
 53
317.5
 43
-8514.39511554995
 44
2047.240290375178
 45
7.635564524722972
 46
2.229293232572162
 79
     6
 49
0.0
 49
-0.635
 49
0.0
 49
-2.997199999999999
 49
0.0
 49
-3.429
 47
0.8733352055991284
 98
        1
 10
2107.16390321158
 20
870.9436386378424
  0
LINE
  5
1ABA
330
1F
100
AcDbEntity
  8
STAVBA OBRYS
100
AcDbLine
 10
2022.551340011813
 20
872.8732173661359
 30
0.0
 11
2219.497181817772
 21
872.8732173661359
 31
0.0
  0
LINE
  5
1ABB
330
1F
100
AcDbEntity
  8
STAVBA OBRYS
100
AcDbLine
 10
2022.551340011813
 20
1037.63091871363
 30
0.0
 11
2022.551340011813
 21
872.8732173661359
 31
0.0
  0
LWPOLYLINE
  5
1ABC
330
1F
100
AcDbEntity
  8
STAVBA OBRYS
  6
DASHED
100
AcDbPolyline
 90
        4
 70
     1
 43
0.0
 10
2188.908343510994
 20
544.544666116662
 10
2188.908343510994
 20
549.9179474415154
 10
2138.788771491971
 20
549.9179474415154
 10
2138.788771491971
 20
544.544666116662
  0
LINE
  5
1ABD
330
1F
100
AcDbEntity
  8
STAVBA OBRYS
  6
DASHED
100
AcDbLine
 10
2163.848557501482
 20
714.0771398156971
 30
0.0
 11
2157.286057501483
 21
710.2882786741406
 31
0.0
  0
LINE
  5
1ABE
330
1F
100
AcDbEntity
  8
STAVBA OBRYS
  6
DASHED
100
AcDbLine
 10
2163.848557501482
 20
714.0771398156971
 30
0.0
 11
2170.411057501483
 21
710.2882786741406
 31
0.0
  0
LINE
  5
1ABF
330
1F
100
AcDbEntity
  8
STAVBA OBRYS
  6
DASHED
100
AcDbLine
 10
2170.411057501483
 20
710.2882786741406
 30
0.0
 11
2170.411057501481
 21
549.9179474415154
 31
0.0
  0
LINE
  5
1AC0
330
1F
100
AcDbEntity
  8
STAVBA OBRYS
  6
DASHED
100
AcDbLine
 10
2157.286057501483
 20
710.2882786741406
 30
0.0
 11
2157.286057501481
 21
549.9179474415154
 31
0.0
  0
LINE
  5
1AC1
330
1F
100
AcDbEntity
  8
STAVBA OBRYS
  6
DASHDOT2
100
AcDbLine
 10
2163.848557501481
 20
516.1597029398413
 30
0.0
 11
2163.848557501482
 21
728.9361920059396
 31
0.0
  0
INSERT
  5
1AC2
330
1F
100
AcDbEntity
  8
POPIS
100
AcDbBlockReference
  2
E_PUNKT
 10
1679.552808875244
 20
946.1233244740656
 30
0.0
  0
INSERT
  5
1AC3
330
1F
100
AcDbEntity
  8
POPIS
100
AcDbBlockReference
  2
E_PUNKT
 10
1745.873836740483
 20
815.7033723383269
 30
0.0
  0
TEXT
  5
1AC4
330
1F
100
AcDbEntity
  8
POPIS
100
AcDbText
 10
1457.287616847693
 20
838.96659671543
 30
0.0
 40
25.0
  1
05
 41
0.7
  7
SIMPLEX7
100
AcDbText
  0
LINE
  5
1AC5
330
1F
100
AcDbEntity
  8
POPIS
100
AcDbLine
 10
1497.265103190962
 20
852.4099381648007
 30
0.0
 11
1689.884657120575
 21
852.4099381647998
 31
0.0
  0
INSERT
  5
1AC6
330
1F
100
AcDbEntity
  8
POPIS
100
AcDbBlockReference
  2
E_PUNKT
 10
1811.042753775403
 20
659.4030079253975
 30
0.0
  0
TEXT
  5
1AC7
330
1F
100
AcDbEntity
  8
POPIS
100
AcDbText
 10
1457.765006969914
 20
518.8267759679843
 30
0.0
 40
25.0
  1
02
 41
0.7
  7
SIMPLEX7
100
AcDbText
  0
LINE
  5
1AC8
330
1F
100
AcDbEntity
  8
POPIS
100
AcDbLine
 10
1498.300442264465
 20
532.2701174173548
 30
0.0
 11
1644.421607727322
 21
532.2701174173548
 31
0.0
  0
TEXT
  5
1AC9
330
1F
100
AcDbEntity
  8
POPIS
100
AcDbText
 10
1456.729667896411
 20
645.879139428875
 30
0.0
 40
25.0
  1
08
 41
0.7
  7
SIMPLEX7
100
AcDbText
  0
LINE
  5
1ACA
330
1F
100
AcDbEntity
  8
POPIS
100
AcDbLine
 10
1497.265103190962
 20
659.3224808782456
 30
0.0
 11
1811.402049829569
 21
659.3224808782456
 31
0.0
  0
TEXT
  5
1ACB
330
1F
100
AcDbEntity
  8
POPIS
100
AcDbText
 10
1458.96145209324
 20
992.6016745379188
 30
0.0
 40
25.0
  1
01
 41
0.7
  7
SIMPLEX7
100
AcDbText
  0
TEXT
  5
1ACC
330
1F
100
AcDbEntity
  8
POPIS
100
AcDbText
 10
1456.729667896411
 20
932.7090513555672
 30
0.0
 40
25.0
  1
03
 41
0.7
  7
SIMPLEX7
100
AcDbText
  0
LINE
  5
1ACD
330
1F
100
AcDbEntity
  8
POPIS
100
AcDbLine
 10
1497.265103190962
 20
1006.045015987289
 30
0.0
 11
1660.101633646284
 21
1006.045015987288
 31
0.0
  0
LINE
  5
1ACE
330
1F
100
AcDbEntity
  8
POPIS
100
AcDbLine
 10
1497.265103190962
 20
946.1523928049377
 30
0.0
 11
1679.580419250872
 21
946.1523928049377
 31
0.0
  0
LINE
  5
1ACF
330
1F
100
AcDbEntity
  8
STAVBA OBRYS
  6
DASHED
100
AcDbLine
 10
1811.402049829569
 20
714.0771398156971
 30
0.0
 11
1804.839549829569
 21
710.2882786741406
 31
0.0
  0
LINE
  5
1AD0
330
1F
100
AcDbEntity
  8
STAVBA OBRYS
  6
DASHED
100
AcDbLine
 10
1811.402049829569
 20
714.0771398156971
 30
0.0
 11
1817.964549829569
 21
710.2882786741406
 31
0.0
  0
LWPOLYLINE
  5
1AD1
330
1F
100
AcDbEntity
  8
STAVBA OBRYS
  6
DASHED
100
AcDbPolyline
 90
        4
 70
     1
 43
0.0
 10
1836.46183583908
 20
544.544666116662
 10
1836.46183583908
 20
549.9179474415154
 10
1786.342263820058
 20
549.9179474415154
 10
1786.342263820058
 20
544.544666116662
  0
LINE
  5
1AD2
330
1F
100
AcDbEntity
  8
STAVBA OBRYS
  6
DASHDOT2
100
AcDbLine
 10
1811.402049829567
 20
516.1597029398413
 30
0.0
 11
1811.402049829569
 21
728.9361920059396
 31
0.0
  0
LINE
  5
1AD3
330
1F
100
AcDbEntity
  8
STAVBA OBRYS
  6
DASHED
100
AcDbLine
 10
1817.964549829569
 20
710.2882786741406
 30
0.0
 11
1817.964549829567
 21
549.9179474415154
 31
0.0
  0
LINE
  5
1AD4
330
1F
100
AcDbEntity
  8
STAVBA OBRYS
  6
DASHED
100
AcDbLine
 10
1804.839549829569
 20
710.2882786741406
 30
0.0
 11
1804.839549829567
 21
549.9179474415154
 31
0.0
  0
LINE
  5
1AD5
330
1F
100
AcDbEntity
  8
STAVBA OBRYS
  6
DASHED
100
AcDbLine
 10
1861.819530204456
 20
895.6344186358478
 30
0.0
 11
1858.030669062899
 21
902.1969186358479
 31
0.0
  0
LINE
  5
1AD6
330
1F
100
AcDbEntity
  8
STAVBA OBRYS
  6
DASHED
100
AcDbLine
 10
1861.819530204456
 20
895.6344186358478
 30
0.0
 11
1858.030669062899
 21
889.0719186358479
 31
0.0
  0
LWPOLYLINE
  5
1AD7
330
1F
100
AcDbEntity
  8
STAVBA OBRYS
  6
DASHED
100
AcDbPolyline
 90
        4
 70
     1
 43
0.0
 10
1692.28705650542
 20
870.5746326263357
 10
1697.660337830274
 20
870.5746326263357
 10
1697.660337830274
 20
920.6942046453582
 10
1692.28705650542
 20
920.6942046453582
  0
LINE
  5
1AD8
330
1F
100
AcDbEntity
  8
STAVBA OBRYS
  6
DASHDOT2
100
AcDbLine
 10
1663.9020933286
 20
895.6344186358478
 30
0.0
 11
1876.678582394698
 21
895.6344186358478
 31
0.0
  0
LINE
  5
1AD9
330
1F
100
AcDbEntity
  8
STAVBA OBRYS
  6
DASHED
100
AcDbLine
 10
1858.030669062899
 20
889.0719186358479
 30
0.0
 11
1697.660337830274
 21
889.0719186358497
 31
0.0
  0
LINE
  5
1ADA
330
1F
100
AcDbEntity
  8
STAVBA OBRYS
  6
DASHED
100
AcDbLine
 10
1858.030669062899
 20
902.1969186358479
 30
0.0
 11
1697.660337830274
 21
902.1969186358496
 31
0.0
  0
LINE
  5
1ADB
330
1F
100
AcDbEntity
  8
STAVBA OBRYS
100
AcDbLine
 10
2012.551340011813
 20
862.873217366136
 30
0.0
 11
2220.046534236041
 21
862.873217366136
 31
0.0
  0
LINE
  5
1ADC
330
1F
100
AcDbEntity
  8
STAVBA OBRYS
100
AcDbLine
 10
2012.551340011813
 20
1037.675136171869
 30
0.0
 11
2012.551340011813
 21
862.873217366136
 31
0.0
  0
LINE
  5
1ADD
330
1F
100
AcDbEntity
  8
STAVBA OBRYS
100
AcDbLine
 10
1775.958469437165
 20
627.873217366136
 30
0.0
 11
1692.28705650542
 21
627.873217366136
 31
0.0
  0
LINE
  5
1ADE
330
1F
100
AcDbEntity
  8
SPOJOVACÍ
100
AcDbLine
 10
1678.794612887127
 20
546.319033097187
 30
0.0
 11
1676.605019964524
 21
549.1610033260881
 31
0.0
  0
LINE
  5
1ADF
330
1F
100
AcDbEntity
  8
SPOJOVACÍ
100
AcDbLine
 10
1678.794612887127
 20
546.319033097187
 30
0.0
 11
1676.605019964524
 21
543.4770628682876
 31
0.0
  0
LINE
  5
1AE0
330
1F
100
AcDbEntity
  8
SPOJOVACÍ
100
AcDbLine
 10
1676.822844016163
 20
543.4770628682876
 30
0.0
 11
1677.896645583853
 21
547.484544876153
 31
0.0
  0
LINE
  5
1AE1
330
1F
100
AcDbEntity
  8
SPOJOVACÍ
100
AcDbLine
 10
1675.240812766161
 20
543.4770628682876
 30
0.0
 11
1676.763820021658
 21
549.1610033260881
 31
0.0
  0
LINE
  5
1AE2
330
1F
100
AcDbEntity
  8
SPOJOVACÍ
100
AcDbLine
 10
1673.658781516165
 20
543.4770628682876
 30
0.0
 11
1675.181788771656
 21
549.1610033260881
 31
0.0
  0
LINE
  5
1AE3
330
1F
100
AcDbEntity
  8
SPOJOVACÍ
100
AcDbLine
 10
1672.076750266164
 20
543.4770628682876
 30
0.0
 11
1673.599757521656
 21
549.1610033260881
 31
0.0
  0
LINE
  5
1AE4
330
1F
100
AcDbEntity
  8
SPOJOVACÍ
100
AcDbLine
 10
1697.74579065749
 20
521.5240777015947
 30
0.0
 11
1692.061850199687
 21
523.047084957087
 31
0.0
  0
LINE
  5
1AE5
330
1F
100
AcDbEntity
  8
SPOJOVACÍ
100
AcDbLine
 10
1697.74579065749
 20
519.9420464515947
 30
0.0
 11
1692.061850199687
 21
521.4650537070887
 31
0.0
  0
LINE
  5
1AE6
330
1F
100
AcDbEntity
  8
SPOJOVACÍ
100
AcDbLine
 10
1697.74579065749
 20
518.3600152015928
 30
0.0
 11
1692.061850199687
 21
519.8830224570888
 31
0.0
  0
LINE
  5
1AE7
330
1F
100
AcDbEntity
  8
SPOJOVACÍ
100
AcDbLine
 10
1697.74579065749
 20
515.1959527015955
 30
0.0
 11
1692.061850199687
 21
516.7189599570888
 31
0.0
  0
LINE
  5
1AE8
330
1F
100
AcDbEntity
  8
SPOJOVACÍ
100
AcDbLine
 10
1697.74579065749
 20
516.7779839515956
 30
0.0
 11
1692.061850199687
 21
518.3009912070888
 31
0.0
  0
LINE
  5
1AE9
330
1F
100
AcDbEntity
  8
SPOJOVACÍ
100
AcDbLine
 10
1697.74579065749
 20
513.6139214515956
 30
0.0
 11
1692.061850199687
 21
515.1369287070906
 31
0.0
  0
LINE
  5
1AEA
330
1F
100
AcDbEntity
  8
SPOJOVACÍ
100
AcDbLine
 10
1697.74579065749
 20
512.0318902015974
 30
0.0
 11
1692.061850199687
 21
513.5548974570887
 31
0.0
  0
LINE
  5
1AEB
330
1F
100
AcDbEntity
  8
SPOJOVACÍ
100
AcDbLine
 10
1697.74579065749
 20
510.4498589515974
 30
0.0
 11
1692.061850199687
 21
511.9728662070888
 31
0.0
  0
LINE
  5
1AEC
330
1F
100
AcDbEntity
  8
SPOJOVACÍ
100
AcDbLine
 10
1697.74579065749
 20
508.8678277015956
 30
0.0
 11
1692.061850199687
 21
510.3908349570897
 31
0.0
  0
LINE
  5
1AED
330
1F
100
AcDbEntity
  8
SPOJOVACÍ
100
AcDbLine
 10
1697.74579065749
 20
504.1217339515956
 30
0.0
 11
1692.061850199687
 21
505.6447412070906
 31
0.0
  0
LINE
  5
1AEE
330
1F
100
AcDbEntity
  8
SPOJOVACÍ
100
AcDbLine
 10
1697.74579065749
 20
505.7037652015947
 30
0.0
 11
1692.061850199687
 21
507.2267724570906
 31
0.0
  0
LINE
  5
1AEF
330
1F
100
AcDbEntity
  8
SPOJOVACÍ
100
AcDbLine
 10
1697.74579065749
 20
507.2857964515955
 30
0.0
 11
1692.061850199687
 21
508.8088037070906
 31
0.0
  0
LINE
  5
1AF0
330
1F
100
AcDbEntity
  8
SPOJOVACÍ
100
AcDbLine
 10
1697.74579065749
 20
500.9576714515974
 30
0.0
 11
1692.061850199687
 21
502.4806787070888
 31
0.0
  0
LINE
  5
1AF1
330
1F
100
AcDbEntity
  8
SPOJOVACÍ
100
AcDbLine
 10
1697.74579065749
 20
502.5397027015956
 30
0.0
 11
1692.061850199687
 21
504.0627099570897
 31
0.0
  0
LINE
  5
1AF2
330
1F
100
AcDbEntity
  8
SPOJOVACÍ
100
AcDbLine
 10
1694.903820428589
 20
529.823971572558
 30
0.0
 11
1692.061850199687
 21
527.6343786499551
 31
0.0
  0
LINE
  5
1AF3
330
1F
100
AcDbEntity
  8
SPOJOVACÍ
100
AcDbLine
 10
1694.903820428589
 20
529.823971572558
 30
0.0
 11
1697.74579065749
 21
527.6343786499551
 31
0.0
  0
LINE
  5
1AF4
330
1F
100
AcDbEntity
  8
SPOJOVACÍ
100
AcDbLine
 10
1697.74579065749
 20
527.8522027015947
 30
0.0
 11
1693.738308649624
 21
528.9260042692835
 31
0.0
  0
LINE
  5
1AF5
330
1F
100
AcDbEntity
  8
SPOJOVACÍ
100
AcDbLine
 10
1697.74579065749
 20
526.2701714515937
 30
0.0
 11
1692.061850199687
 21
527.7931787070888
 31
0.0
  0
LINE
  5
1AF6
330
1F
100
AcDbEntity
  8
SPOJOVACÍ
100
AcDbLine
 10
1697.74579065749
 20
524.6881402015956
 30
0.0
 11
1692.061850199687
 21
526.211147457087
 31
0.0
  0
LINE
  5
1AF7
330
1F
100
AcDbEntity
  8
SPOJOVACÍ
100
AcDbLine
 10
1697.74579065749
 20
523.1061089515955
 30
0.0
 11
1692.061850199687
 21
524.6291162070869
 31
0.0
  0
LINE
  5
1AF8
330
1F
100
AcDbEntity
  8
SPOJOVACÍ
100
AcDbLine
 10
1697.74579065749
 20
527.6343786499551
 30
0.0
 11
1697.74579065749
 21
498.867388877094
 31
0.0
  0
LINE
  5
1AF9
330
1F
100
AcDbEntity
  8
SPOJOVACÍ
100
AcDbLine
 10
1692.061850199687
 20
527.6343786499551
 30
0.0
 11
1692.061850199687
 21
498.867388877094
 31
0.0
  0
INSERT
  5
1AFA
330
1F
100
AcDbEntity
  8
POPIS
100
AcDbBlockReference
  2
E_PUNKT
 10
1644.373486672814
 20
532.3229929308549
 30
0.0
  0
LINE
  5
1AFB
330
1F
100
AcDbEntity
  8
SPOJOVACÍ
100
AcDbLine
 10
1668.912687766162
 20
543.4770628682876
 30
0.0
 11
1670.435695021657
 21
549.1610033260881
 31
0.0
  0
LINE
  5
1AFC
330
1F
100
AcDbEntity
  8
SPOJOVACÍ
100
AcDbLine
 10
1667.330656516161
 20
543.4770628682876
 30
0.0
 11
1668.853663771658
 21
549.1610033260881
 31
0.0
  0
LINE
  5
1AFD
330
1F
100
AcDbEntity
  8
SPOJOVACÍ
100
AcDbLine
 10
1664.166594016164
 20
543.4770628682876
 30
0.0
 11
1665.689601271657
 21
549.1610033260881
 31
0.0
  0
LINE
  5
1AFE
330
1F
100
AcDbEntity
  8
SPOJOVACÍ
100
AcDbLine
 10
1665.748625266164
 20
543.4770628682876
 30
0.0
 11
1667.271632521658
 21
549.1610033260881
 31
0.0
  0
LINE
  5
1AFF
330
1F
100
AcDbEntity
  8
SPOJOVACÍ
100
AcDbLine
 10
1662.584562766164
 20
543.4770628682876
 30
0.0
 11
1664.107570021659
 21
549.1610033260881
 31
0.0
  0
LINE
  5
1B00
330
1F
100
AcDbEntity
  8
SPOJOVACÍ
100
AcDbLine
 10
1661.002531516166
 20
543.4770628682876
 30
0.0
 11
1662.525538771657
 21
549.1610033260881
 31
0.0
  0
LINE
  5
1B01
330
1F
100
AcDbEntity
  8
SPOJOVACÍ
100
AcDbLine
 10
1659.420500266164
 20
543.4770628682876
 30
0.0
 11
1660.943507521658
 21
549.1610033260881
 31
0.0
  0
LINE
  5
1B02
330
1F
100
AcDbEntity
  8
SPOJOVACÍ
100
AcDbLine
 10
1657.838469016164
 20
543.4770628682876
 30
0.0
 11
1659.361476271659
 21
549.1610033260881
 31
0.0
  0
LINE
  5
1B03
330
1F
100
AcDbEntity
  8
SPOJOVACÍ
100
AcDbLine
 10
1653.092375266164
 20
543.4770628682876
 30
0.0
 11
1654.61538252166
 21
549.1610033260881
 31
0.0
  0
LINE
  5
1B04
330
1F
100
AcDbEntity
  8
SPOJOVACÍ
100
AcDbLine
 10
1654.674406516162
 20
543.4770628682876
 30
0.0
 11
1656.197413771659
 21
549.1610033260881
 31
0.0
  0
LINE
  5
1B05
330
1F
100
AcDbEntity
  8
SPOJOVACÍ
100
AcDbLine
 10
1656.256437766164
 20
543.4770628682876
 30
0.0
 11
1657.779445021659
 21
549.1610033260881
 31
0.0
  0
LINE
  5
1B06
330
1F
100
AcDbEntity
  8
SPOJOVACÍ
100
AcDbLine
 10
1649.928312766166
 20
543.4770628682876
 30
0.0
 11
1651.451320021658
 21
549.1610033260881
 31
0.0
  0
LINE
  5
1B07
330
1F
100
AcDbEntity
  8
SPOJOVACÍ
100
AcDbLine
 10
1651.510344016164
 20
543.4770628682876
 30
0.0
 11
1653.033351271659
 21
549.1610033260881
 31
0.0
  0
LINE
  5
1B08
330
1F
100
AcDbEntity
  8
SPOJOVACÍ
100
AcDbLine
 10
1670.494719016162
 20
543.4770628682876
 30
0.0
 11
1672.017726271656
 21
549.1610033260881
 31
0.0
  0
LINE
  5
1B09
330
1F
100
AcDbEntity
  8
SPOJOVACÍ
100
AcDbLine
 10
1676.605019964524
 20
543.4770628682876
 30
0.0
 11
1647.838030191663
 21
543.4770628682876
 31
0.0
  0
LINE
  5
1B0A
330
1F
100
AcDbEntity
  8
SPOJOVACÍ
100
AcDbLine
 10
1676.605019964524
 20
549.1610033260881
 30
0.0
 11
1647.838030191663
 21
549.1610033260881
 31
0.0
  0
LINE
  5
1B0B
330
1F
100
AcDbEntity
  8
POPIS
100
AcDbLine
 10
1497.265103190962
 20
815.9271894706176
 30
0.0
 11
1746.637489107127
 21
815.9271894706167
 31
0.0
  0
LINE
  5
1B0C
330
1F
100
AcDbEntity
  8
STAVBA OBRYS
100
AcDbLine
 10
1692.28705650542
 20
1037.63091871363
 30
0.0
 11
1692.28705650542
 21
544.544666116662
 31
0.0
  0
LINE
  5
1B0D
330
1F
100
AcDbEntity
  8
STAVBA OBRYS
  6
IZOLACE
 48
4.0
100
AcDbLine
 10
1734.214836095098
 20
626.586115428658
 30
0.0
 11
1733.609274179166
 21
1037.63091871363
 31
0.0
  0
LINE
  5
1B0E
330
1F
100
AcDbEntity
  8
STAVBA OBRYS
100
AcDbLine
 10
1775.958469437165
 20
627.873217366136
 30
0.0
 11
1775.95846943717
 21
1038.721289709278
 31
0.0
  0
SOLID
  5
1B0F
330
1F
100
AcDbEntity
  8
CETRIS
100
AcDbTrace
 10
1648.368795057306
 20
1052.360537460658
 30
0.0
 11
1660.394744793981
 21
1052.307361767633
 31
0.0
 12
1648.394744793974
 22
516.3196283432703
 32
0.0
 13
1660.394744793974
 23
516.3196283432703
 33
0.0
  0
LINE
  5
1B10
330
1F
100
AcDbEntity
  8
STAVBA OBRYS
100
AcDbLine
 10
1692.28705650542
 20
544.544666116662
 30
0.0
 11
2238.442934552002
 21
544.544666116662
 31
0.0
  0
LINE
  5
1B11
330
1F
100
AcDbEntity
  8
STAVBA OBRYS
  6
IZOLACE
 48
4.0
100
AcDbLine
 10
2235.933610967817
 20
586.7065877027457
 30
0.0
 11
1692.28705650542
 21
585.9056734314076
 31
0.0
  0
LINE
  5
1B12
330
1F
100
AcDbEntity
  8
STAVBA OBRYS
100
AcDbLine
 10
1775.958469437165
 20
627.873217366136
 30
0.0
 11
2233.48352352375
 21
627.873217366136
 31
0.0
  0
SOLID
  5
1B13
330
1F
100
AcDbEntity
  8
CETRIS
100
AcDbTrace
 10
2231.157733675992
 20
511.5821110557694
 30
0.0
 11
2231.818468170441
 21
499.5545951575118
 31
0.0
 12
1665.405468078484
 22
511.5545951575191
 32
0.0
 13
1665.405468078484
 23
499.554595157519
 33
0.0
  0
POLYLINE
  5
1B14
330
1F
100
AcDbEntity
  8
NOSNÉ KONSTRUKCE
100
AcDb2dPolyline
 66
     1
 10
0.0
 20
0.0
 30
0.0
  0
VERTEX
  5
1B15
330
1B14
100
AcDbEntity
  8
NOSNÉ KONSTRUKCE
100
AcDbVertex
100
AcDb2dVertex
 10
1729.498764320197
 20
540.9973532759308
 30
0.0
 42
0.0064239028828688
  0
VERTEX
  5
1B16
330
1B14
100
AcDbEntity
  8
NOSNÉ KONSTRUKCE
100
AcDbVertex
100
AcDb2dVertex
 10
1729.537632760377
 20
540.7782396165807
 30
0.0
 42
0.0832048017309575
  0
VERTEX
  5
1B17
330
1B14
100
AcDbEntity
  8
NOSNÉ KONSTRUKCE
100
AcDbVertex
100
AcDb2dVertex
 10
1730.321815363059
 20
538.4480260369259
 30
0.0
 42
0.0336767237692336
  0
VERTEX
  5
1B18
330
1B14
100
AcDbEntity
  8
NOSNÉ KONSTRUKCE
100
AcDbVertex
100
AcDb2dVertex
 10
1732.024631921981
 20
535.7197515174653
 30
0.0
 42
0.0844635135812105
  0
VERTEX
  5
1B19
330
1B14
100
AcDbEntity
  8
NOSNÉ KONSTRUKCE
100
AcDbVertex
100
AcDb2dVertex
 10
1732.944441681874
 20
534.8153299124701
 30
0.0
 42
0.0495829410719565
  0
VERTEX
  5
1B1A
330
1B14
100
AcDbEntity
  8
NOSNÉ KONSTRUKCE
100
AcDbVertex
100
AcDb2dVertex
 10
1734.693120119228
 20
533.8386804051574
 30
0.0
 42
0.0322692699774654
  0
VERTEX
  5
1B1B
330
1B14
100
AcDbEntity
  8
NOSNÉ KONSTRUKCE
100
AcDbVertex
100
AcDb2dVertex
 10
1737.584474300319
 20
532.7971569037567
 30
0.0
 42
0.0276160659512937
  0
VERTEX
  5
1B1C
330
1B14
100
AcDbEntity
  8
NOSNÉ KONSTRUKCE
100
AcDbVertex
100
AcDb2dVertex
 10
1738.440050738606
 20
532.6004214748122
 30
0.0
 42
0.0126891984598699
  0
VERTEX
  5
1B1D
330
1B14
100
AcDbEntity
  8
NOSNÉ KONSTRUKCE
100
AcDbVertex
100
AcDb2dVertex
 10
1739.363219134399
 20
532.4652190852707
 30
0.0
  0
SEQEND
  5
1B1E
330
1B14
100
AcDbEntity
  8
NOSNÉ KONSTRUKCE
  0
LWPOLYLINE
  5
1B1F
330
1F
100
AcDbEntity
  8
NOSNÉ KONSTRUKCE
100
AcDbPolyline
 90
        3
 70
     0
 43
0.0
 10
1732.654821676699
 20
535.4800225804124
 10
1715.899604056971
 20
527.096281712444
 10
1707.732499407847
 20
518.9149800113468
  0
LWPOLYLINE
  5
1B20
330
1F
100
AcDbEntity
  8
NOSNÉ KONSTRUKCE
100
AcDbPolyline
 90
       10
 70
     0
 43
0.0
 10
1715.320935275779
 20
540.9973532759308
 42
0.0168162630274194
 10
1715.455960854843
 20
539.3063151238115
 42
0.0575155827655532
 10
1716.135993135186
 20
536.2066904630942
 42
0.0310289133982999
 10
1719.138794480014
 20
528.9616629384495
 42
0.0882970623535771
 10
1720.776016400107
 20
526.7212938876496
 42
0.0171636441953577
 10
1723.589380461965
 20
524.2073765324043
 42
0.0157521173632038
 10
1726.828235299001
 20
521.6758804798978
 42
0.0073640874174249
 10
1731.461884655323
 20
518.3874790541617
 42
0.0194185739168057
 10
1733.283927974999
 20
517.2359100548805
 42
0.0229547400386702
 10
1735.669386039012
 20
515.9973532759308
 42
0.0229547400386702
  0
POLYLINE
  5
1B21
330
1F
100
AcDbEntity
  8
NOSNÉ KONSTRUKCE
100
AcDb2dPolyline
 66
     1
 10
0.0
 20
0.0
 30
0.0
  0
VERTEX
  5
1B22
330
1B21
100
AcDbEntity
  8
NOSNÉ KONSTRUKCE
100
AcDbVertex
100
AcDb2dVertex
 10
1722.270713299461
 20
540.9973532759308
 30
0.0
 42
0.0072417954699014
  0
VERTEX
  5
1B23
330
1B21
100
AcDbEntity
  8
NOSNÉ KONSTRUKCE
100
AcDbVertex
100
AcDb2dVertex
 10
1722.326283667302
 20
540.5859480646563
 30
0.0
 42
0.0707158694326265
  0
VERTEX
  5
1B24
330
1B21
100
AcDbEntity
  8
NOSNÉ KONSTRUKCE
100
AcDbVertex
100
AcDb2dVertex
 10
1722.857410183723
 20
538.6498446120627
 30
0.0
 42
0.033952657250207
  0
VERTEX
  5
1B25
330
1B21
100
AcDbEntity
  8
NOSNÉ KONSTRUKCE
100
AcDbVertex
100
AcDb2dVertex
 10
1725.106066023131
 20
534.296806886889
 30
0.0
 42
0.0571374688189033
  0
VERTEX
  5
1B26
330
1B21
100
AcDbEntity
  8
NOSNÉ KONSTRUKCE
100
AcDbVertex
100
AcDb2dVertex
 10
1726.892222782983
 20
531.9898826032027
 30
0.0
 42
0.0274923553235744
  0
VERTEX
  5
1B27
330
1B21
100
AcDbEntity
  8
NOSNÉ KONSTRUKCE
100
AcDbVertex
100
AcDb2dVertex
 10
1729.489528513536
 20
529.6048072800681
 30
0.0
 42
0.0255412025538677
  0
VERTEX
  5
1B28
330
1B21
100
AcDbEntity
  8
NOSNÉ KONSTRUKCE
100
AcDbVertex
100
AcDb2dVertex
 10
1732.540958551247
 20
527.3480936030487
 30
0.0
 42
0.0272796991712396
  0
VERTEX
  5
1B29
330
1B21
100
AcDbEntity
  8
NOSNÉ KONSTRUKCE
100
AcDbVertex
100
AcDb2dVertex
 10
1736.653957704432
 20
524.9317577213864
 30
0.0
 42
0.056967459841729
  0
VERTEX
  5
1B2A
330
1B21
100
AcDbEntity
  8
NOSNÉ KONSTRUKCE
100
AcDbVertex
100
AcDb2dVertex
 10
1738.794904985164
 20
524.119021886187
 30
0.0
 42
0.0373408083348504
  0
VERTEX
  5
1B2B
330
1B21
100
AcDbEntity
  8
NOSNÉ KONSTRUKCE
100
AcDbVertex
100
AcDb2dVertex
 10
1739.017259360637
 20
524.0798563452358
 30
0.0
 42
0.0052305969362967
  0
VERTEX
  5
1B2C
330
1B21
100
AcDbEntity
  8
NOSNÉ KONSTRUKCE
100
AcDbVertex
100
AcDb2dVertex
 10
1739.363219134399
 20
524.0488993783315
 30
0.0
  0
SEQEND
  5
1B2D
330
1B21
100
AcDbEntity
  8
NOSNÉ KONSTRUKCE
  0
LWPOLYLINE
  5
1B2E
330
1F
100
AcDbEntity
  8
NOSNÉ KONSTRUKCE
100
AcDbPolyline
 90
        4
 70
     0
 43
0.0
 10
1689.366053985747
 20
515.9973532759308
 10
1739.363219134399
 20
515.9973532759308
 10
1739.363219134399
 20
540.9973532759308
 10
1689.366053985747
 20
540.9973532759308
  0
LWPOLYLINE
  5
1B2F
330
1F
100
AcDbEntity
  8
NOSNÉ KONSTRUKCE
100
AcDbPolyline
 90
        4
 70
     0
 43
0.0
 10
1689.366053985747
 20
530.7820320688756
 42
0.0067781046155075
 10
1691.359062425449
 20
520.6686600934649
 42
0.0219777111230329
 10
1692.265174927433
 20
517.1505468376294
 42
0.0092752982622242
 10
1692.640401889376
 20
515.9973532759308
  0
LWPOLYLINE
  5
1B30
330
1F
100
AcDbEntity
  8
NOSNÉ KONSTRUKCE
100
AcDbPolyline
 90
        3
 70
     0
 43
0.0
 10
1713.362244051454
 20
534.4981837066757
 10
1693.365991619462
 20
525.2821546561558
 10
1689.366053985747
 20
524.6367571808137
  0
LINE
  5
1B31
330
1F
100
AcDbEntity
  8
NOSNÉ KONSTRUKCE
100
AcDbLine
 10
1689.366053985747
 20
540.9973532759308
 30
0.0
 11
1689.366053985747
 21
515.9973532759308
 31
0.0
  0
LWPOLYLINE
  5
1B32
330
1F
100
AcDbEntity
  8
NOSNÉ KONSTRUKCE
100
AcDbPolyline
 90
        4
 70
     0
 43
0.0
 10
1664.366053985747
 20
565.9945184245848
 10
1664.366053985747
 20
515.9973532759308
 10
1689.366053985747
 20
515.9973532759308
 10
1689.366053985747
 20
565.9945184245848
  0
POLYLINE
  5
1B33
330
1F
100
AcDbEntity
  8
NOSNÉ KONSTRUKCE
100
AcDb2dPolyline
 66
     1
 10
0.0
 20
0.0
 30
0.0
  0
VERTEX
  5
1B34
330
1B33
100
AcDbEntity
  8
NOSNÉ KONSTRUKCE
100
AcDbVertex
100
AcDb2dVertex
 10
1689.366053985747
 20
525.8618080901328
 30
0.0
 42
0.0064239028828688
  0
VERTEX
  5
1B35
330
1B33
100
AcDbEntity
  8
NOSNÉ KONSTRUKCE
100
AcDbVertex
100
AcDb2dVertex
 10
1689.146940326397
 20
525.8229396499523
 30
0.0
 42
0.0832048017309575
  0
VERTEX
  5
1B36
330
1B33
100
AcDbEntity
  8
NOSNÉ KONSTRUKCE
100
AcDbVertex
100
AcDb2dVertex
 10
1686.816726746742
 20
525.0387570472708
 30
0.0
 42
0.0336767237692336
  0
VERTEX
  5
1B37
330
1B33
100
AcDbEntity
  8
NOSNÉ KONSTRUKCE
100
AcDbVertex
100
AcDb2dVertex
 10
1684.088452227282
 20
523.335940488349
 30
0.0
 42
0.0844635135812105
  0
VERTEX
  5
1B38
330
1B33
100
AcDbEntity
  8
NOSNÉ KONSTRUKCE
100
AcDbVertex
100
AcDb2dVertex
 10
1683.184030622286
 20
522.4161307284561
 30
0.0
 42
0.0495829410719565
  0
VERTEX
  5
1B39
330
1B33
100
AcDbEntity
  8
NOSNÉ KONSTRUKCE
100
AcDbVertex
100
AcDb2dVertex
 10
1682.207381114974
 20
520.6674522911021
 30
0.0
 42
0.0322692699774654
  0
VERTEX
  5
1B3A
330
1B33
100
AcDbEntity
  8
NOSNÉ KONSTRUKCE
100
AcDbVertex
100
AcDb2dVertex
 10
1681.165857613573
 20
517.7760981100114
 30
0.0
 42
0.0276160659512937
  0
VERTEX
  5
1B3B
330
1B33
100
AcDbEntity
  8
NOSNÉ KONSTRUKCE
100
AcDbVertex
100
AcDb2dVertex
 10
1680.969122184628
 20
516.9205216717241
 30
0.0
 42
0.0126891984598699
  0
VERTEX
  5
1B3C
330
1B33
100
AcDbEntity
  8
NOSNÉ KONSTRUKCE
100
AcDbVertex
100
AcDb2dVertex
 10
1680.833919795087
 20
515.9973532759308
 30
0.0
  0
SEQEND
  5
1B3D
330
1B33
100
AcDbEntity
  8
NOSNÉ KONSTRUKCE
  0
POLYLINE
  5
1B3E
330
1F
100
AcDbEntity
  8
NOSNÉ KONSTRUKCE
100
AcDb2dPolyline
 66
     1
 10
0.0
 20
0.0
 30
0.0
  0
VERTEX
  5
1B3F
330
1B3E
100
AcDbEntity
  8
NOSNÉ KONSTRUKCE
100
AcDbVertex
100
AcDb2dVertex
 10
1689.366053985747
 20
533.0898591108693
 30
0.0
 42
0.0072417954699014
  0
VERTEX
  5
1B40
330
1B3E
100
AcDbEntity
  8
NOSNÉ KONSTRUKCE
100
AcDbVertex
100
AcDb2dVertex
 10
1688.954648774472
 20
533.0342887430274
 30
0.0
 42
0.0707158694326265
  0
VERTEX
  5
1B41
330
1B3E
100
AcDbEntity
  8
NOSNÉ KONSTRUKCE
100
AcDbVertex
100
AcDb2dVertex
 10
1687.018545321879
 20
532.5031622266074
 30
0.0
 42
0.033952657250207
  0
VERTEX
  5
1B42
330
1B3E
100
AcDbEntity
  8
NOSNÉ KONSTRUKCE
100
AcDbVertex
100
AcDb2dVertex
 10
1682.665507596705
 20
530.2545063871989
 30
0.0
 42
0.0571374688189033
  0
VERTEX
  5
1B43
330
1B3E
100
AcDbEntity
  8
NOSNÉ KONSTRUKCE
100
AcDbVertex
100
AcDb2dVertex
 10
1680.358583313019
 20
528.4683496273469
 30
0.0
 42
0.0274923553235744
  0
VERTEX
  5
1B44
330
1B3E
100
AcDbEntity
  8
NOSNÉ KONSTRUKCE
100
AcDbVertex
100
AcDb2dVertex
 10
1677.973507989884
 20
525.8710438967941
 30
0.0
 42
0.0255412025538677
  0
VERTEX
  5
1B45
330
1B3E
100
AcDbEntity
  8
NOSNÉ KONSTRUKCE
100
AcDbVertex
100
AcDb2dVertex
 10
1675.716794312865
 20
522.8196138590833
 30
0.0
 42
0.0272796991712396
  0
VERTEX
  5
1B46
330
1B3E
100
AcDbEntity
  8
NOSNÉ KONSTRUKCE
100
AcDbVertex
100
AcDb2dVertex
 10
1673.300458431203
 20
518.7066147058981
 30
0.0
 42
0.056967459841729
  0
VERTEX
  5
1B47
330
1B3E
100
AcDbEntity
  8
NOSNÉ KONSTRUKCE
100
AcDbVertex
100
AcDb2dVertex
 10
1672.487722596003
 20
516.5656674251663
 30
0.0
 42
0.0373408083348504
  0
VERTEX
  5
1B48
330
1B3E
100
AcDbEntity
  8
NOSNÉ KONSTRUKCE
100
AcDbVertex
100
AcDb2dVertex
 10
1672.448557055052
 20
516.3433130496928
 30
0.0
 42
0.0052305969362967
  0
VERTEX
  5
1B49
330
1B3E
100
AcDbEntity
  8
NOSNÉ KONSTRUKCE
100
AcDbVertex
100
AcDb2dVertex
 10
1672.417600088148
 20
515.9973532759308
 30
0.0
  0
SEQEND
  5
1B4A
330
1B3E
100
AcDbEntity
  8
NOSNÉ KONSTRUKCE
  0
LWPOLYLINE
  5
1B4B
330
1F
100
AcDbEntity
  8
NOSNÉ KONSTRUKCE
100
AcDbPolyline
 90
       10
 70
     0
 43
0.0
 10
1689.366053985747
 20
540.0396371345528
 42
0.0168162630274194
 10
1687.675015833628
 20
539.9046115554888
 42
0.0575155827655532
 10
1684.57539117291
 20
539.2245792751459
 42
0.0310289133982999
 10
1677.330363648265
 20
536.2217779303177
 42
0.0882970623535771
 10
1675.089994597466
 20
534.5845560102247
 42
0.0171636441953577
 10
1672.57607724222
 20
531.7711919483667
 42
0.0157521173632038
 10
1670.044581189714
 20
528.5323371113304
 42
0.0073640874174249
 10
1666.756179763978
 20
523.8986877550091
 42
0.0194185739168057
 10
1665.604610764697
 20
522.0766444353325
 42
0.0229547400386702
 10
1664.366053985747
 20
519.6911863713189
 42
0.0229547400386702
  0
LWPOLYLINE
  5
1B4C
330
1F
100
AcDbEntity
  8
NOSNÉ KONSTRUKCE
100
AcDbPolyline
 90
        3
 70
     0
 43
0.0
 10
1683.848723290228
 20
522.7057507336326
 10
1675.46498242226
 20
539.4609683533603
 10
1667.283680721163
 20
547.628073002485
  0
LWPOLYLINE
  5
1B4D
330
1F
100
AcDbEntity
  8
NOSNÉ KONSTRUKCE
100
AcDbPolyline
 90
        6
 70
     0
 43
0.0
 10
1689.366053985747
 20
557.5309117381052
 42
0.0128837512779302
 10
1686.032889164001
 20
557.2461197778798
 42
0.0351641677647434
 10
1682.429179709662
 20
556.6183600563568
 42
0.0187319685742942
 10
1670.670942367519
 20
553.234344175366
 42
0.0582629403736403
 10
1667.091108168587
 20
551.5748443072848
 42
0.0146402521923566
 10
1664.366053985747
 20
549.7904363257007
  0
LWPOLYLINE
  5
1B4E
330
1F
100
AcDbEntity
  8
NOSNÉ KONSTRUKCE
100
AcDbPolyline
 90
        8
 70
     0
 43
0.0
 10
1689.366053985747
 20
548.906696358063
 42
0.0120721047703142
 10
1687.632165847003
 20
548.837713668025
 42
0.044358077361292
 10
1684.936365828586
 20
548.4420859333518
 42
0.0188067511131767
 10
1677.69413665328
 20
546.4222624849685
 42
0.0457786284636091
 10
1674.8455262704
 20
545.2142395953528
 42
0.0295006114745606
 10
1670.918627056997
 20
542.7981791410534
 42
0.0258674098621065
 10
1666.772846978244
 20
539.5655038270892
 42
0.0093759062953949
 10
1664.366053985747
 20
537.399691647433
 42
0.0093759062953949
  0
LWPOLYLINE
  5
1B4F
330
1F
100
AcDbEntity
  8
NOSNÉ KONSTRUKCE
100
AcDbPolyline
 90
        3
 70
     0
 43
0.0
 10
1682.866884416492
 20
541.9983283588776
 10
1673.650855365972
 20
561.9945807908703
 10
1673.00545789063
 20
565.9945184245848
  0
LINE
  5
1B50
330
1F
100
AcDbEntity
  8
NOSNÉ KONSTRUKCE
100
AcDbLine
 10
1689.366053985747
 20
565.9945184245848
 30
0.0
 11
1664.366053985747
 21
565.9945184245848
 31
0.0
  0
LWPOLYLINE
  5
1B51
330
1F
100
AcDbEntity
  8
NOSNÉ KONSTRUKCE
100
AcDbPolyline
 90
        4
 70
     0
 43
0.0
 10
1679.150732778692
 20
565.9945184245848
 42
0.0067781046155075
 10
1669.037360803281
 20
564.0015099848828
 42
0.0219777111230329
 10
1665.519247547446
 20
563.0953974828994
 42
0.0092752982622242
 10
1664.366053985747
 20
562.720170520954
  0
LWPOLYLINE
  5
1B52
330
1F
100
AcDbEntity
  8
NOSNÉ KONSTRUKCE
100
AcDbPolyline
 90
        6
 70
     0
 43
0.0
 10
1697.829660672226
 20
540.9973532759308
 42
0.0128837512779302
 10
1698.114452632452
 20
537.6641884541846
 42
0.0351641677647434
 10
1698.742212353975
 20
534.0604789998455
 42
0.0187319685742942
 10
1702.126228234966
 20
522.3022416577028
 42
0.0582629403736403
 10
1703.785728103047
 20
518.7224074587707
 42
0.0146402521923566
 10
1705.570136084629
 20
515.9973532759308
  0
LWPOLYLINE
  5
1B53
330
1F
100
AcDbEntity
  8
NOSNÉ KONSTRUKCE
100
AcDbPolyline
 90
        8
 70
     0
 43
0.0
 10
1706.453876052269
 20
540.9973532759308
 42
0.0120721047703142
 10
1706.522858742307
 20
539.2634651371868
 42
0.044358077361292
 10
1706.91848647698
 20
536.56766511877
 42
0.0188067511131767
 10
1708.938309925363
 20
529.3254359434635
 42
0.0457786284636091
 10
1710.146332814979
 20
526.4768255605836
 42
0.0295006114745606
 10
1712.562393269279
 20
522.5499263471816
 42
0.0258674098621065
 10
1715.795068583243
 20
518.4041462684276
 42
0.0093759062953949
 10
1717.960880762898
 20
515.9973532759308
 42
0.0093759062953949
  0
LWPOLYLINE
  5
1B54
330
1F
100
AcDbEntity
  8
NOSNÉ KONSTRUKCE
100
AcDbPolyline
 90
        7
 70
     0
 43
0.0
 10
1734.848450654716
 20
540.9973532759308
 42
0.0203924744732807
 10
1735.750534639128
 20
539.9842232467768
 42
0.0273961979096945
 10
1736.600398989324
 20
539.1960468727506
 42
0.0243529190212958
 10
1737.763519481744
 20
538.322287528083
 42
0.0398020282482987
 10
1738.538478019304
 20
537.8826587846365
 42
0.104168275620852
 10
1738.924889155644
 20
537.7926423244594
 42
0.007272956268647
 10
1739.363219134399
 20
537.7741889731646
 42
0.007272956268647
  0
LINE
  5
1B55
330
1F
100
AcDbEntity
  8
PROFILY
100
AcDbLine
 10
1691.884657120575
 20
543.820468539749
 30
0.0
 11
1691.884657120575
 21
1037.398304489301
 31
0.0
  0
LINE
  5
1B56
330
1F
100
AcDbEntity
  8
PROFILY
100
AcDbLine
 10
1691.884657120575
 20
1037.398304489301
 30
0.0
 11
1689.884657120575
 21
1037.398304489301
 31
0.0
  0
LINE
  5
1B57
330
1F
100
AcDbEntity
  8
PROFILY
100
AcDbLine
 10
1689.884657120575
 20
1037.398304489301
 30
0.0
 11
1689.884657120576
 21
541.8204685397491
 31
0.0
  0
LINE
  5
1B58
330
1F
100
AcDbEntity
  8
PROFILY
100
AcDbLine
 10
2238.457090778199
 20
543.6835154824298
 30
0.0
 11
2238.4570907782
 21
541.6835154196491
 31
0.0
  0
HATCH
  5
1B59
330
1F
100
AcDbEntity
  8
PROFILY
100
AcDbHatch
 10
0.0
 20
0.0
 30
0.0
210
0.0
220
0.0
230
1.0
  2
SOLID
 70
     1
 71
     0
 91
        1
 92
        7
 72
     0
 73
     1
 93
        4
 10
1691.884657120578
 20
695.0717235515972
 10
1689.884657120576
 20
695.0717235515972
 10
1689.884657120576
 20
675.8893684070486
 10
1691.884657120577
 20
675.8893684070486
 97
        0
 75
     0
 76
     1
 47
0.0801976285649081
 98
        1
 10
1691.546984050281
 20
681.7307842996547
  0
HATCH
  5
1B5A
330
1F
100
AcDbEntity
  8
PROFILY
100
AcDbHatch
 10
0.0
 20
0.0
 30
0.0
210
0.0
220
0.0
230
1.0
  2
SOLID
 70
     1
 71
     0
 91
        1
 92
        7
 72
     0
 73
     1
 93
        4
 10
1691.884657120578
 20
662.6203001296949
 10
1689.884657120576
 20
662.6203001296949
 10
1689.884657120576
 20
643.4379449851462
 10
1691.884657120577
 20
643.4379449851462
 97
        0
 75
     0
 76
     1
 47
0.0801976285649081
 98
        1
 10
1691.546984050281
 20
649.2793608777524
  0
HATCH
  5
1B5B
330
1F
100
AcDbEntity
  8
PROFILY
100
AcDbHatch
 10
0.0
 20
0.0
 30
0.0
210
0.0
220
0.0
230
1.0
  2
SOLID
 70
     1
 71
     0
 91
        1
 92
        7
 72
     0
 73
     1
 93
        4
 10
1691.884657120578
 20
729.3212514452593
 10
1689.884657120576
 20
729.3212514452593
 10
1689.884657120576
 20
710.1388963007106
 10
1691.884657120577
 20
710.1388963007106
 97
        0
 75
     0
 76
     1
 47
0.0801976285649081
 98
        1
 10
1691.546984050281
 20
715.9803121933168
  0
HATCH
  5
1B5C
330
1F
100
AcDbEntity
  8
PROFILY
100
AcDbHatch
 10
0.0
 20
0.0
 30
0.0
210
0.0
220
0.0
230
1.0
  2
SOLID
 70
     1
 71
     0
 91
        1
 92
        7
 72
     0
 73
     1
 93
        4
 10
1691.884657120578
 20
795.3823337224299
 10
1689.884657120576
 20
795.3823337224299
 10
1689.884657120576
 20
776.1999785778812
 10
1691.884657120577
 20
776.1999785778812
 97
        0
 75
     0
 76
     1
 47
0.0801976285649081
 98
        1
 10
1691.546984050281
 20
782.0413944704873
  0
HATCH
  5
1B5D
330
1F
100
AcDbEntity
  8
PROFILY
100
AcDbHatch
 10
0.0
 20
0.0
 30
0.0
210
0.0
220
0.0
230
1.0
  2
SOLID
 70
     1
 71
     0
 91
        1
 92
        7
 72
     0
 73
     1
 93
        4
 10
1691.884657120578
 20
761.7611899367171
 10
1689.884657120576
 20
761.7611899367171
 10
1689.884657120576
 20
742.5788347921684
 10
1691.884657120577
 20
742.5788347921684
 97
        0
 75
     0
 76
     1
 47
0.0801976285649081
 98
        1
 10
1691.546984050281
 20
748.4202506847745
  0
LINE
  5
1B5E
330
1F
100
AcDbEntity
  8
PROFILY
100
AcDbLine
 10
1689.884657120576
 20
541.6453820262526
 30
0.0
 11
1689.884657120576
 21
866.8001093710396
 31
0.0
  0
HATCH
  5
1B5F
330
1F
100
AcDbEntity
  8
PROFILY
100
AcDbHatch
 10
0.0
 20
0.0
 30
0.0
210
0.0
220
0.0
230
1.0
  2
SOLID
 70
     1
 71
     0
 91
        1
 92
        7
 72
     0
 73
     1
 93
        4
 10
1691.884657120578
 20
830.2126030643252
 10
1689.884657120576
 20
830.2126030643252
 10
1689.884657120576
 20
811.0302479197766
 10
1691.884657120577
 20
811.0302479197766
 97
        0
 75
     0
 76
     1
 47
0.0801976285649081
 98
        1
 10
1691.546984050281
 20
816.8716638123829
  0
HATCH
  5
1B60
330
1F
100
AcDbEntity
  8
PROFILY
100
AcDbHatch
 10
0.0
 20
0.0
 30
0.0
210
0.0
220
0.0
230
1.0
  2
SOLID
 70
     1
 71
     0
 91
        1
 92
        7
 72
     0
 73
     1
 93
        4
 10
1691.884657120578
 20
866.8006212085952
 10
1689.884657120576
 20
866.8006212085952
 10
1689.884657120576
 20
847.6182660640466
 10
1691.884657120577
 20
847.6182660640466
 97
        0
 75
     0
 76
     1
 47
0.0801976285649081
 98
        1
 10
1691.546984050281
 20
853.4596819566527
  0
LWPOLYLINE
  5
1B61
330
1F
100
AcDbEntity
  8
PROFILY
100
AcDbPolyline
 90
        4
 70
     1
 43
0.0
 10
1691.884657120577
 20
847.6177542264908
 10
1691.884657120577
 20
866.8001093710396
 10
1689.884657120576
 20
866.8001093710396
 10
1689.884657120576
 20
847.6177542264908
  0
HATCH
  5
1B62
330
1F
100
AcDbEntity
  8
PROFILY
100
AcDbHatch
 10
0.0
 20
0.0
 30
0.0
210
0.0
220
0.0
230
1.0
  2
SOLID
 70
     1
 71
     0
 91
        1
 92
        7
 72
     0
 73
     1
 93
        4
 10
1691.884657120578
 20
596.8436084921618
 10
1689.884657120576
 20
596.8436084921618
 10
1689.884657120576
 20
577.6612533476131
 10
1691.884657120577
 20
577.6612533476131
 97
        0
 75
     0
 76
     1
 47
0.0801976285649081
 98
        1
 10
1691.546984050281
 20
583.5026692402193
  0
HATCH
  5
1B63
330
1F
100
AcDbEntity
  8
PROFILY
100
AcDbHatch
 10
0.0
 20
0.0
 30
0.0
210
0.0
220
0.0
230
1.0
  2
SOLID
 70
     1
 71
     0
 91
        1
 92
        7
 72
     0
 73
     1
 93
        4
 10
1691.884657120578
 20
561.0028236842977
 10
1689.884657120576
 20
561.0028236842977
 10
1689.884657120576
 20
541.8204685397491
 10
1691.884657120577
 20
541.8204685397491
 97
        0
 75
     0
 76
     1
 47
0.0801976285649081
 98
        1
 10
1691.546984050281
 20
547.6618844323552
  0
LWPOLYLINE
  5
1B64
330
1F
100
AcDbEntity
  8
PROFILY
100
AcDbPolyline
 90
        4
 70
     1
 43
0.0
 10
1691.884657120577
 20
541.8204685397491
 10
1691.884657120577
 20
561.0028236842977
 10
1689.884657120576
 20
561.0028236842977
 10
1689.884657120576
 20
541.8204685397491
  0
HATCH
  5
1B65
330
1F
100
AcDbEntity
  8
PROFILY
100
AcDbHatch
 10
0.0
 20
0.0
 30
0.0
210
0.0
220
0.0
230
1.0
  2
SOLID
 70
     1
 71
     0
 91
        1
 92
        7
 72
     0
 73
     1
 93
        4
 10
1691.884657120578
 20
630.5298599525108
 10
1689.884657120576
 20
630.5298599525108
 10
1689.884657120576
 20
611.3475048079622
 10
1691.884657120577
 20
611.3475048079622
 97
        0
 75
     0
 76
     1
 47
0.0801976285649081
 98
        1
 10
1691.546984050281
 20
617.1889207005683
  0
LWPOLYLINE
  5
1B66
330
1F
100
AcDbEntity
  8
PROFILY
100
AcDbPolyline
 90
        4
 70
     1
 43
0.0
 10
1691.884657120577
 20
922.3253653941632
 10
1691.884657120577
 20
941.5077205387119
 10
1689.884657120576
 20
941.5077205387119
 10
1689.884657120576
 20
922.3253653941632
  0
HATCH
  5
1B67
330
1F
100
AcDbEntity
  8
PROFILY
100
AcDbHatch
 10
0.0
 20
0.0
 30
0.0
210
0.0
220
0.0
230
1.0
  2
SOLID
 70
     1
 71
     0
 91
        1
 92
        7
 72
     0
 73
     1
 93
        4
 10
1691.884657120578
 20
941.5082323762677
 10
1689.884657120576
 20
941.5082323762677
 10
1689.884657120576
 20
922.3258772317191
 10
1691.884657120577
 20
922.3258772317191
 97
        0
 75
     0
 76
     1
 47
0.0801976285649081
 98
        1
 10
1691.546984050281
 20
928.1672931243251
  0
HATCH
  5
1B68
330
1F
100
AcDbEntity
  8
PROFILY
100
AcDbHatch
 10
0.0
 20
0.0
 30
0.0
210
0.0
220
0.0
230
1.0
  2
SOLID
 70
     1
 71
     0
 91
        1
 92
        7
 72
     0
 73
     1
 93
        4
 10
1691.884657120578
 20
904.9202142319977
 10
1689.884657120576
 20
904.9202142319977
 10
1689.884657120576
 20
885.7378590874491
 10
1691.884657120577
 20
885.7378590874491
 97
        0
 75
     0
 76
     1
 47
0.0801976285649081
 98
        1
 10
1691.546984050281
 20
891.5792749800553
  0
LWPOLYLINE
  5
1B69
330
1F
100
AcDbEntity
  8
PROFILY
100
AcDbPolyline
 90
        4
 70
     1
 43
0.0
 10
1691.884657120577
 20
997.5645704284165
 10
1691.884657120577
 20
1016.746925572965
 10
1689.884657120576
 20
1016.746925572965
 10
1689.884657120576
 20
997.5645704284165
  0
HATCH
  5
1B6A
330
1F
100
AcDbEntity
  8
PROFILY
100
AcDbHatch
 10
0.0
 20
0.0
 30
0.0
210
0.0
220
0.0
230
1.0
  2
SOLID
 70
     1
 71
     0
 91
        1
 92
        7
 72
     0
 73
     1
 93
        4
 10
1691.884657120578
 20
1016.74743741052
 10
1689.884657120576
 20
1016.74743741052
 10
1689.884657120576
 20
997.5650822659723
 10
1691.884657120577
 20
997.5650822659723
 97
        0
 75
     0
 76
     1
 47
0.0801976285649081
 98
        1
 10
1691.546984050281
 20
1003.406498158578
  0
HATCH
  5
1B6B
330
1F
100
AcDbEntity
  8
PROFILY
100
AcDbHatch
 10
0.0
 20
0.0
 30
0.0
210
0.0
220
0.0
230
1.0
  2
SOLID
 70
     1
 71
     0
 91
        1
 92
        7
 72
     0
 73
     1
 93
        4
 10
1691.884657120578
 20
980.1594192662509
 10
1689.884657120576
 20
980.1594192662509
 10
1689.884657120576
 20
960.9770641217023
 10
1691.884657120577
 20
960.9770641217023
 97
        0
 75
     0
 76
     1
 47
0.0801976285649081
 98
        1
 10
1691.546984050281
 20
966.8184800143086
  0
HATCH
  5
1B6C
330
1F
100
AcDbEntity
  8
PROFILY
100
AcDbHatch
 10
0.0
 20
0.0
 30
0.0
210
0.0
220
0.0
230
1.0
  2
SOLID
 70
     1
 71
     0
 91
        1
 92
        7
 72
     0
 73
     1
 93
        4
 10
2128.223594149555
 20
543.7111363675308
 10
2128.223093015417
 20
541.7111364303131
 10
2109.040738473039
 20
541.7159428968302
 10
2109.041239607179
 20
543.715942834046
 97
        0
 75
     0
 76
     1
 47
0.0801976285649081
 98
        1
 10
2114.882570706661
 20
543.3768061078885
  0
HATCH
  5
1B6D
330
1F
100
AcDbEntity
  8
PROFILY
100
AcDbHatch
 10
0.0
 20
0.0
 30
0.0
210
0.0
220
0.0
230
1.0
  2
SOLID
 70
     1
 71
     0
 91
        1
 92
        7
 72
     0
 73
     1
 93
        4
 10
2164.811611145259
 20
543.7019686150438
 10
2164.811110011119
 20
541.7019686778262
 10
2145.628755468741
 20
541.7067751443414
 10
2145.629256602879
 20
543.7067750815572
 97
        0
 75
     0
 76
     1
 47
0.0801976285649081
 98
        1
 10
2151.470587702361
 20
543.3676383554016
  0
LWPOLYLINE
  5
1B6E
330
1F
100
AcDbEntity
  8
PROFILY
100
AcDbPolyline
 90
        4
 70
     1
 43
0.0
 10
2145.62874476534
 20
543.7067752098069
 10
2164.81109930772
 20
543.7019687432917
 10
2164.81059817358
 20
541.7019688060759
 10
2145.628243631202
 20
541.7067752725911
  0
HATCH
  5
1B6F
330
1F
100
AcDbEntity
  8
PROFILY
100
AcDbHatch
 10
0.0
 20
0.0
 30
0.0
210
0.0
220
0.0
230
1.0
  2
SOLID
 70
     1
 71
     0
 91
        1
 92
        7
 72
     0
 73
     1
 93
        4
 10
2089.572408472907
 20
543.7208210821649
 10
2089.571907338769
 20
541.7208211449474
 10
2070.389552796391
 20
541.7256276114644
 10
2070.390053930531
 20
543.7256275486801
 97
        0
 75
     0
 76
     1
 47
0.0801976285649081
 98
        1
 10
2076.231385030013
 20
543.3864908225228
  0
HATCH
  5
1B70
330
1F
100
AcDbEntity
  8
PROFILY
100
AcDbHatch
 10
0.0
 20
0.0
 30
0.0
210
0.0
220
0.0
230
1.0
  2
SOLID
 70
     1
 71
     0
 91
        1
 92
        7
 72
     0
 73
     1
 93
        4
 10
2052.984391477207
 20
543.7299888346537
 10
2052.983890343067
 20
541.7299888974362
 10
2033.801535800689
 20
541.7347953639514
 10
2033.802036934829
 20
543.7347953011672
 97
        0
 75
     0
 76
     1
 47
0.0801976285649081
 98
        1
 10
2039.643368034311
 20
543.3956585750116
  0
LWPOLYLINE
  5
1B71
330
1F
100
AcDbEntity
  8
PROFILY
100
AcDbPolyline
 90
        4
 70
     1
 43
0.0
 10
1995.681933270535
 20
543.7443469441336
 10
2014.864287812913
 20
543.7395404776184
 10
2014.863786678773
 20
541.7395405404026
 10
1995.681432136395
 20
541.7443470069179
  0
HATCH
  5
1B72
330
1F
100
AcDbEntity
  8
PROFILY
100
AcDbHatch
 10
0.0
 20
0.0
 30
0.0
210
0.0
220
0.0
230
1.0
  2
SOLID
 70
     1
 71
     0
 91
        1
 92
        7
 72
     0
 73
     1
 93
        4
 10
2014.864799650452
 20
543.7395403493706
 10
2014.864298516312
 20
541.7395404121529
 10
1995.681943973934
 20
541.7443468786682
 10
1995.682445108075
 20
543.7443468158839
 97
        0
 75
     0
 76
     1
 47
0.0801976285649081
 98
        1
 10
2001.523776207557
 20
543.4052100897283
  0
HATCH
  5
1B73
330
1F
100
AcDbEntity
  8
PROFILY
100
AcDbHatch
 10
0.0
 20
0.0
 30
0.0
210
0.0
220
0.0
230
1.0
  2
SOLID
 70
     1
 71
     0
 91
        1
 92
        7
 72
     0
 73
     1
 93
        4
 10
1978.27678265475
 20
543.7487081018575
 10
1978.27628152061
 20
541.74870816464
 10
1959.093926978234
 20
541.7535146311552
 10
1959.094428112372
 20
543.7535145683709
 97
        0
 75
     0
 76
     1
 47
0.0801976285649081
 98
        1
 10
1964.935759211854
 20
543.4143778422153
  0
HATCH
  5
1B74
330
1F
100
AcDbEntity
  8
PROFILY
100
AcDbHatch
 10
0.0
 20
0.0
 30
0.0
210
0.0
220
0.0
230
1.0
  2
SOLID
 70
     1
 71
     0
 91
        1
 92
        7
 72
     0
 73
     1
 93
        4
 10
1909.825371675963
 20
543.7658597718532
 10
1909.824870541825
 20
541.7658598346356
 10
1890.642515999448
 20
541.7706663011508
 10
1890.643017133585
 20
543.7706662383666
 97
        0
 75
     0
 76
     1
 47
0.0801976285649081
 98
        1
 10
1896.484348233068
 20
543.431529512211
  0
HATCH
  5
1B75
330
1F
100
AcDbEntity
  8
PROFILY
100
AcDbHatch
 10
0.0
 20
0.0
 30
0.0
210
0.0
220
0.0
230
1.0
  2
SOLID
 70
     1
 71
     0
 91
        1
 92
        7
 72
     0
 73
     1
 93
        4
 10
1943.446514406244
 20
543.7574354203793
 10
1943.446013272106
 20
541.7574354831617
 10
1924.263658729726
 20
541.762241949677
 10
1924.264159863866
 20
543.7622418868927
 97
        0
 75
     0
 76
     1
 47
0.0801976285649081
 98
        1
 10
1930.105490963348
 20
543.4231051607371
  0
HATCH
  5
1B76
330
1F
100
AcDbEntity
  8
PROFILY
100
AcDbHatch
 10
0.0
 20
0.0
 30
0.0
210
0.0
220
0.0
230
1.0
  2
SOLID
 70
     1
 71
     0
 91
        1
 92
        7
 72
     0
 73
     1
 93
        4
 10
1877.385434202858
 20
543.7739881521779
 10
1877.38493306872
 20
541.7739882149603
 10
1858.202578526342
 20
541.7787946814756
 10
1858.20307966048
 20
543.7787946186913
 97
        0
 75
     0
 76
     1
 47
0.0801976285649081
 98
        1
 10
1864.044410759964
 20
543.4396578925356
  0
HATCH
  5
1B77
330
1F
100
AcDbEntity
  8
PROFILY
100
AcDbHatch
 10
0.0
 20
0.0
 30
0.0
210
0.0
220
0.0
230
1.0
  2
SOLID
 70
     1
 71
     0
 91
        1
 92
        7
 72
     0
 73
     1
 93
        4
 10
1843.135907384355
 20
543.7825699560148
 10
1843.135406250216
 20
541.7825700187973
 10
1823.953051707839
 20
541.7873764853143
 10
1823.953552841977
 20
543.78737642253
 97
        0
 75
     0
 76
     1
 47
0.0801976285649081
 98
        1
 10
1829.794883941459
 20
543.4482396963726
  0
HATCH
  5
1B78
330
1F
100
AcDbEntity
  8
PROFILY
100
AcDbHatch
 10
0.0
 20
0.0
 30
0.0
210
0.0
220
0.0
230
1.0
  2
SOLID
 70
     1
 71
     0
 91
        1
 92
        7
 72
     0
 73
     1
 93
        4
 10
1778.594045811362
 20
543.7987420216418
 10
1778.593544677223
 20
541.7987420844242
 10
1759.411190134845
 20
541.8035485509395
 10
1759.411691268985
 20
543.8035484881551
 97
        0
 75
     0
 76
     1
 47
0.0801976285649081
 98
        1
 10
1765.253022368467
 20
543.4644117619995
  0
HATCH
  5
1B79
330
1F
100
AcDbEntity
  8
PROFILY
100
AcDbHatch
 10
0.0
 20
0.0
 30
0.0
210
0.0
220
0.0
230
1.0
  2
SOLID
 70
     1
 71
     0
 91
        1
 92
        7
 72
     0
 73
     1
 93
        4
 10
1810.684484981165
 20
543.7907012140844
 10
1810.683983847027
 20
541.7907012768669
 10
1791.501629304649
 20
541.7955077433839
 10
1791.502130438787
 20
543.7955076805997
 97
        0
 75
     0
 76
     1
 47
0.0801976285649081
 98
        1
 10
1797.343461538271
 20
543.456370954444
  0
HATCH
  5
1B7A
330
1F
100
AcDbEntity
  8
PROFILY
100
AcDbHatch
 10
0.0
 20
0.0
 30
0.0
210
0.0
220
0.0
230
1.0
  2
SOLID
 70
     1
 71
     0
 91
        1
 92
        7
 72
     0
 73
     1
 93
        4
 10
1744.907795408488
 20
543.807182686955
 10
1744.90729427435
 20
541.8071827497374
 10
1725.724939731972
 20
541.8119892162526
 10
1725.725440866113
 20
543.8119891534683
 97
        0
 75
     0
 76
     1
 47
0.0801976285649081
 98
        1
 10
1731.566771965594
 20
543.4728524273127
  0
HATCH
  5
1B7B
330
1F
100
AcDbEntity
  8
PROFILY
100
AcDbHatch
 10
0.0
 20
0.0
 30
0.0
210
0.0
220
0.0
230
1.0
  2
SOLID
 70
     1
 71
     0
 91
        1
 92
        7
 72
     0
 73
     1
 93
        4
 10
1709.067011725736
 20
543.8161632073756
 10
1709.066510591597
 20
541.8161632701581
 10
1689.884156049221
 20
541.8209697366733
 10
1689.884657183359
 20
543.8209696738891
 97
        0
 75
     0
 76
     1
 47
0.0801976285649081
 98
        1
 10
1695.725988282841
 20
543.4818329477334
  0
LINE
  5
1B7C
330
1F
100
AcDbEntity
  8
PROFILY
100
AcDbLine
 10
1691.884657120575
 20
543.820468539749
 30
0.0
 11
2238.457090778199
 21
543.6835154824298
 31
0.0
  0
LINE
  5
1B7D
330
1F
100
AcDbEntity
  8
PROFILY
100
AcDbLine
 10
1689.709069541221
 20
541.8210136075891
 30
0.0
 11
2238.4570907782
 21
541.6835154196491
 31
0.0
  0
HATCH
  5
1B7E
330
1F
100
AcDbEntity
  8
PROFILY
100
AcDbHatch
 10
0.0
 20
0.0
 30
0.0
210
0.0
220
0.0
230
1.0
  2
SOLID
 70
     1
 71
     0
 91
        1
 92
        7
 72
     0
 73
     1
 93
        4
 10
2199.383711420761
 20
543.7019686150438
 10
2199.38321028662
 20
541.7019686778262
 10
2180.200855744243
 20
541.7067751443414
 10
2180.201356878381
 20
543.7067750815572
 97
        0
 75
     0
 76
     1
 47
0.0801976285649081
 98
        1
 10
2186.042687977863
 20
543.3676383554016
  0
HATCH
  5
1B7F
330
1F
100
AcDbEntity
  8
PROFILY
100
AcDbHatch
 10
0.0
 20
0.0
 30
0.0
210
0.0
220
0.0
230
1.0
  2
SOLID
 70
     1
 71
     0
 91
        1
 92
        7
 72
     0
 73
     1
 93
        4
 10
2237.666947620867
 20
543.7019686150438
 10
2237.666446486727
 20
541.7019686778262
 10
2218.484091944349
 20
541.7067751443414
 10
2218.484593078487
 20
543.7067750815572
 97
        0
 75
     0
 76
     1
 47
0.0801976285649081
 98
        1
 10
2224.325924177969
 20
543.3676383554016
  0
LINE
  5
1B80
330
1F
100
AcDbEntity
  8
SPOJOVACÍ
100
AcDbLine
 10
1689.886478346105
 20
497.999798007268
 30
0.0
 11
1689.886478346105
 21
497.9950519135186
 31
0.0
  0
LINE
  5
1B81
330
1F
100
AcDbEntity
  8
SPOJOVACÍ
100
AcDbLine
 10
1687.988040846105
 20
498.8703415372224
 30
0.0
 11
1687.988040846107
 21
497.4864257460089
 31
0.0
  0
LINE
  5
1B82
330
1F
100
AcDbEntity
  8
SPOJOVACÍ
100
AcDbLine
 10
1702.226322096104
 20
497.4864257460089
 30
0.0
 11
1702.226322096105
 21
498.8703415372224
 31
0.0
  0
LINE
  5
1B83
330
1F
100
AcDbEntity
  8
SPOJOVACÍ
100
AcDbLine
 10
1695.107181471106
 20
497.4864257460089
 30
0.0
 11
1687.988040846105
 21
497.4864257460089
 31
0.0
  0
LINE
  5
1B84
330
1F
100
AcDbEntity
  8
SPOJOVACÍ
100
AcDbLine
 10
1691.27121329404
 20
497.4864257460089
 30
0.0
 11
1702.226322096105
 21
497.4864257460089
 31
0.0
  0
ELLIPSE
  5
1B85
330
1F
100
AcDbEntity
  8
SPOJOVACÍ
100
AcDbEllipse
 10
1695.107181471106
 20
496.9371312987082
 30
0.0
 11
-7.321312510456553
 21
0.0000000000000004
 31
0.0
210
0.0
220
0.0
230
1.0
 40
0.3214803388886193
 41
-0.2355512395776302
 42
3.377143893167422
  0
HATCH
  5
1B86
330
1F
100
AcDbEntity
  8
SPOJOVACÍ
100
AcDbHatch
 10
0.0
 20
0.0
 30
0.0
210
0.0
220
0.0
230
1.0
  2
ANSI37
 70
     0
 71
     0
 91
        1
 92
        7
 72
     0
 73
     1
 93
        6
 10
1695.107181471106
 20
497.4864257460089
 10
1702.226322096104
 20
497.4864257460089
 10
1702.226322096107
 20
498.8703415372233
 10
1695.107181471106
 20
498.8703415372224
 10
1687.988040846105
 20
498.8703415372224
 10
1687.988040846109
 20
497.4864257460089
 97
        0
 75
     0
 76
     1
 52
0.0
 41
0.9
 77
     0
 78
     2
 53
45.00000000000001
 43
-8387.754130599779
 44
-3343.359873906325
 45
-2.020557627240559
 46
2.020557627240559
 79
     0
 53
135.0
 43
-8387.754130599779
 44
-3343.359873906325
 45
-2.020557627240559
 46
-2.020557627240559
 79
     0
 47
0.0246402553748132
 98
        1
 10
1694.706335809419
 20
497.9573771879791
  0
LINE
  5
1B87
330
1F
100
AcDbEntity
  8
SPOJOVACÍ
100
AcDbLine
 10
1687.988040846105
 20
498.8703415372224
 30
0.0
 11
1695.107181471106
 21
498.8703415372224
 31
0.0
  0
LINE
  5
1B88
330
1F
100
AcDbEntity
  8
SPOJOVACÍ
100
AcDbLine
 10
1695.107181471106
 20
498.8703415372224
 30
0.0
 11
1702.226322096105
 21
498.8703415372224
 31
0.0
  0
ELLIPSE
  5
1B89
330
1F
100
AcDbEntity
  8
SPOJOVACÍ
100
AcDbEllipse
 10
1645.910550606876
 20
546.3832370997137
 30
0.0
 11
0.0000000000000018
 21
7.321312510456553
 31
0.0
210
0.0
220
0.0
230
1.0
 40
0.3214803388886193
 41
-0.2355512395776302
 42
3.377143893167422
  0
HATCH
  5
1B8A
330
1F
100
AcDbEntity
  8
SPOJOVACÍ
100
AcDbHatch
 10
0.0
 20
0.0
 30
0.0
210
0.0
220
0.0
230
1.0
  2
ANSI37
 70
     0
 71
     0
 91
        1
 92
        7
 72
     0
 73
     1
 93
        6
 10
1646.459845054177
 20
546.3832370997137
 10
1646.459845054178
 20
539.2640964747156
 10
1647.84376084539
 20
539.2640964747138
 10
1647.84376084539
 20
546.3832370997137
 10
1647.843760845392
 20
553.5023777247138
 10
1646.459845054177
 20
553.5023777247119
 97
        0
 75
     0
 76
     1
 52
-90.00000000000001
 41
0.9
 77
     0
 78
     2
 53
315.0
 43
-2194.386454598155
 44
10629.24454917059
 45
2.02055762724056
 46
2.020557627240558
 79
     0
 53
44.99999999999999
 43
-2194.386454598155
 44
10629.24454917059
 45
-2.020557627240558
 46
2.02055762724056
 79
     0
 47
0.0246402553748132
 98
        1
 10
1646.930796496147
 20
546.7840827614004
  0
LINE
  5
1B8B
330
1F
100
AcDbEntity
  8
SPOJOVACÍ
100
AcDbLine
 10
1646.459845054177
 20
550.219205276779
 30
0.0
 11
1646.459845054177
 21
539.2640964747138
 31
0.0
  0
LINE
  5
1B8C
330
1F
100
AcDbEntity
  8
SPOJOVACÍ
100
AcDbLine
 10
1646.459845054177
 20
539.2640964747156
 30
0.0
 11
1647.84376084539
 21
539.2640964747138
 31
0.0
  0
LINE
  5
1B8D
330
1F
100
AcDbEntity
  8
SPOJOVACÍ
100
AcDbLine
 10
1646.973217315436
 20
551.6039402247137
 30
0.0
 11
1646.968471221686
 21
551.6039402247137
 31
0.0
  0
LINE
  5
1B8E
330
1F
100
AcDbEntity
  8
SPOJOVACÍ
100
AcDbLine
 10
1647.84376084539
 20
553.5023777247138
 30
0.0
 11
1647.84376084539
 21
546.3832370997137
 31
0.0
  0
LINE
  5
1B8F
330
1F
100
AcDbEntity
  8
SPOJOVACÍ
100
AcDbLine
 10
1647.84376084539
 20
553.5023777247138
 30
0.0
 11
1646.459845054177
 21
553.5023777247119
 31
0.0
  0
LINE
  5
1B90
330
1F
100
AcDbEntity
  8
SPOJOVACÍ
100
AcDbLine
 10
1646.973217315436
 20
551.6039402247137
 30
0.0
 11
1646.968471221686
 21
551.6039402247137
 31
0.0
  0
LINE
  5
1B91
330
1F
100
AcDbEntity
  8
SPOJOVACÍ
100
AcDbLine
 10
1646.459845054177
 20
546.3832370997137
 30
0.0
 11
1646.459845054177
 21
553.5023777247138
 31
0.0
  0
LINE
  5
1B92
330
1F
100
AcDbEntity
  8
SPOJOVACÍ
100
AcDbLine
 10
1647.84376084539
 20
546.3832370997137
 30
0.0
 11
1647.84376084539
 21
539.2640964747138
 31
0.0
  0
HATCH
  5
1B93
330
1F
100
AcDbEntity
  8
STAVBA OBRYS
100
AcDbHatch
 10
0.0
 20
0.0
 30
0.0
210
0.0
220
0.0
230
1.0
  2
BRICK
 70
     0
 71
     0
 91
        1
 92
        7
 72
     1
 73
     1
 93
       27
 10
2220.046534236043
 20
862.873217366136
 42
0.0
 10
2012.551340011813
 20
862.873217366136
 42
0.0
 10
2012.551340011815
 20
1037.675136171869
 42
0.0
 10
1775.95846943717
 20
1038.721289709279
 42
0.0
 10
1775.958469437167
 20
902.1969186358479
 42
0.0
 10
1858.030669062897
 20
902.1969186358479
 42
0.0
 10
1861.819530204456
 20
895.6344186358478
 42
0.0
 10
1858.030669062899
 20
889.0719186358479
 42
0.0
 10
1775.958469437167
 20
889.0719186358479
 42
0.0
 10
1775.958469437167
 20
793.5300806662439
 42
0.0
 10
1830.980743062816
 20
758.5374106916892
 42
-0.7504443238550776
 10
1833.285506597295
 20
757.8666097626987
 42
-1.0
 10
1830.785506597295
 20
757.8666097626987
 42
-0.1425670458322046
 10
1830.980743062816
 20
758.5374106916892
 42
0.0
 10
1775.958469437165
 20
793.5300806662439
 42
0.0
 10
1775.958469437165
 20
627.873217366136
 42
0.0
 10
1804.839549829569
 20
627.8732173661369
 42
0.0
 10
1804.839549829567
 20
710.2882786741397
 42
0.0
 10
1811.402049829569
 20
714.0771398156971
 42
0.0
 10
1817.964549829569
 20
710.2882786741416
 42
0.0
 10
1817.964549829565
 20
627.873217366136
 42
0.0
 10
2157.286057501481
 20
627.873217366136
 42
0.0
 10
2157.286057501483
 20
710.2882786741416
 42
0.0
 10
2163.848557501482
 20
714.077139815698
 42
0.0
 10
2170.411057501481
 20
710.2882786741425
 42
0.0
 10
2170.411057501481
 20
627.873217366136
 42
0.0
 10
2232.956316065422
 20
627.873217366136
 42
0.0
 97
        0
 75
     0
 76
     1
 52
0.0
 41
10.0
 77
     0
 78
     3
 53
0.0
 43
-11380.68065044702
 44
-3058.283360877403
 45
0.0
 46
63.5
 79
     0
 53
90.0
 43
-11380.68065044702
 44
-3058.283360877403
 45
-127.0
 46
0.0000000000000078
 79
     2
 49
63.5
 49
-63.5
 53
90.0
 43
-11317.18065044702
 44
-3058.283360877403
 45
-127.0
 46
0.0000000000000078
 79
     2
 49
-63.5
 49
63.5
 47
0.790326209828927
 98
        1
 10
1963.697377090432
 20
750.9691292959383
  0
LINE
  5
1B94
330
1F
100
AcDbEntity
  8
POPIS
100
AcDbLine
 10
1498.300442264465
 20
562.6234485681766
 30
0.0
 11
1678.151437125615
 21
562.6234485681766
 31
0.0
  0
TEXT
  5
1B95
330
1F
100
AcDbEntity
  8
POPIS
100
AcDbText
 10
1457.765006969914
 20
549.180107118806
 30
0.0
 40
25.0
  1
04
 41
0.7
  7
SIMPLEX7
100
AcDbText
  0
INSERT
  5
1B96
330
1F
100
AcDbEntity
  8
POPIS
100
AcDbBlockReference
  2
E_PUNKT
 10
1678.27129283261
 20
562.4577373860488
 30
0.0
  0
LWPOLYLINE
  5
1B97
330
1F
100
AcDbEntity
  8
NOSNÉ KONSTRUKCE
100
AcDbPolyline
 90
        3
 70
     0
 43
0.0
 10
1683.848723290228
 20
994.2866840329703
 10
1675.46498242226
 20
1011.041901652698
 10
1667.283680721163
 20
1019.209006301822
  0
LWPOLYLINE
  5
1B98
330
1F
100
AcDbEntity
  8
NOSNÉ KONSTRUKCE
100
AcDbPolyline
 90
       10
 70
     0
 43
0.0
 10
1689.366053985747
 20
1011.62057043389
 42
0.0168162630274194
 10
1687.675015833628
 20
1011.485544854826
 42
0.0575155827655532
 10
1684.57539117291
 20
1010.805512574483
 42
0.0310289133982999
 10
1677.330363648265
 20
1007.802711229655
 42
0.0882970623535771
 10
1675.089994597466
 20
1006.165489309562
 42
0.0171636441953577
 10
1672.57607724222
 20
1003.352125247704
 42
0.0157521173632038
 10
1670.044581189714
 20
1000.113270410668
 42
0.0073640874174249
 10
1666.756179763978
 20
995.4796210543468
 42
0.0194185739168057
 10
1665.604610764697
 20
993.6575777346702
 42
0.0229547400386702
 10
1664.366053985747
 20
991.2721196706566
 42
0.0229547400386702
  0
POLYLINE
  5
1B99
330
1F
100
AcDbEntity
  8
NOSNÉ KONSTRUKCE
100
AcDb2dPolyline
 66
     1
 10
0.0
 20
0.0
 30
0.0
  0
VERTEX
  5
1B9A
330
1B99
100
AcDbEntity
  8
NOSNÉ KONSTRUKCE
100
AcDbVertex
100
AcDb2dVertex
 10
1689.366053985747
 20
1004.670792410207
 30
0.0
 42
0.0072417954699014
  0
VERTEX
  5
1B9B
330
1B99
100
AcDbEntity
  8
NOSNÉ KONSTRUKCE
100
AcDbVertex
100
AcDb2dVertex
 10
1688.954648774472
 20
1004.615222042364
 30
0.0
 42
0.0707158694326265
  0
VERTEX
  5
1B9C
330
1B99
100
AcDbEntity
  8
NOSNÉ KONSTRUKCE
100
AcDbVertex
100
AcDb2dVertex
 10
1687.018545321879
 20
1004.084095525945
 30
0.0
 42
0.033952657250207
  0
VERTEX
  5
1B9D
330
1B99
100
AcDbEntity
  8
NOSNÉ KONSTRUKCE
100
AcDbVertex
100
AcDb2dVertex
 10
1682.665507596705
 20
1001.835439686536
 30
0.0
 42
0.0571374688189033
  0
VERTEX
  5
1B9E
330
1B99
100
AcDbEntity
  8
NOSNÉ KONSTRUKCE
100
AcDbVertex
100
AcDb2dVertex
 10
1680.358583313019
 20
1000.049282926684
 30
0.0
 42
0.0274923553235744
  0
VERTEX
  5
1B9F
330
1B99
100
AcDbEntity
  8
NOSNÉ KONSTRUKCE
100
AcDbVertex
100
AcDb2dVertex
 10
1677.973507989884
 20
997.4519771961318
 30
0.0
 42
0.0255412025538677
  0
VERTEX
  5
1BA0
330
1B99
100
AcDbEntity
  8
NOSNÉ KONSTRUKCE
100
AcDbVertex
100
AcDb2dVertex
 10
1675.716794312865
 20
994.400547158421
 30
0.0
 42
0.0272796991712396
  0
VERTEX
  5
1BA1
330
1B99
100
AcDbEntity
  8
NOSNÉ KONSTRUKCE
100
AcDbVertex
100
AcDb2dVertex
 10
1673.300458431203
 20
990.2875480052356
 30
0.0
 42
0.056967459841729
  0
VERTEX
  5
1BA2
330
1B99
100
AcDbEntity
  8
NOSNÉ KONSTRUKCE
100
AcDbVertex
100
AcDb2dVertex
 10
1672.487722596003
 20
988.1466007245039
 30
0.0
 42
0.0373408083348504
  0
VERTEX
  5
1BA3
330
1B99
100
AcDbEntity
  8
NOSNÉ KONSTRUKCE
100
AcDbVertex
100
AcDb2dVertex
 10
1672.448557055052
 20
987.9242463490305
 30
0.0
 42
0.0052305969362967
  0
VERTEX
  5
1BA4
330
1B99
100
AcDbEntity
  8
NOSNÉ KONSTRUKCE
100
AcDbVertex
100
AcDb2dVertex
 10
1672.417600088148
 20
987.5782865752684
 30
0.0
  0
SEQEND
  5
1BA5
330
1B99
100
AcDbEntity
  8
NOSNÉ KONSTRUKCE
  0
POLYLINE
  5
1BA6
330
1F
100
AcDbEntity
  8
NOSNÉ KONSTRUKCE
100
AcDb2dPolyline
 66
     1
 10
0.0
 20
0.0
 30
0.0
  0
VERTEX
  5
1BA7
330
1BA6
100
AcDbEntity
  8
NOSNÉ KONSTRUKCE
100
AcDbVertex
100
AcDb2dVertex
 10
1689.366053985747
 20
997.4427413894705
 30
0.0
 42
0.0064239028828688
  0
VERTEX
  5
1BA8
330
1BA6
100
AcDbEntity
  8
NOSNÉ KONSTRUKCE
100
AcDbVertex
100
AcDb2dVertex
 10
1689.146940326397
 20
997.40387294929
 30
0.0
 42
0.0832048017309575
  0
VERTEX
  5
1BA9
330
1BA6
100
AcDbEntity
  8
NOSNÉ KONSTRUKCE
100
AcDbVertex
100
AcDb2dVertex
 10
1686.816726746742
 20
996.6196903466084
 30
0.0
 42
0.0336767237692336
  0
VERTEX
  5
1BAA
330
1BA6
100
AcDbEntity
  8
NOSNÉ KONSTRUKCE
100
AcDbVertex
100
AcDb2dVertex
 10
1684.088452227282
 20
994.9168737876867
 30
0.0
 42
0.0844635135812105
  0
VERTEX
  5
1BAB
330
1BA6
100
AcDbEntity
  8
NOSNÉ KONSTRUKCE
100
AcDbVertex
100
AcDb2dVertex
 10
1683.184030622286
 20
993.9970640277937
 30
0.0
 42
0.0495829410719565
  0
VERTEX
  5
1BAC
330
1BA6
100
AcDbEntity
  8
NOSNÉ KONSTRUKCE
100
AcDbVertex
100
AcDb2dVertex
 10
1682.207381114974
 20
992.2483855904397
 30
0.0
 42
0.0322692699774654
  0
VERTEX
  5
1BAD
330
1BA6
100
AcDbEntity
  8
NOSNÉ KONSTRUKCE
100
AcDbVertex
100
AcDb2dVertex
 10
1681.165857613573
 20
989.3570314093491
 30
0.0
 42
0.0276160659512937
  0
VERTEX
  5
1BAE
330
1BA6
100
AcDbEntity
  8
NOSNÉ KONSTRUKCE
100
AcDbVertex
100
AcDb2dVertex
 10
1680.969122184628
 20
988.5014549710618
 30
0.0
 42
0.0126891984598699
  0
VERTEX
  5
1BAF
330
1BA6
100
AcDbEntity
  8
NOSNÉ KONSTRUKCE
100
AcDbVertex
100
AcDb2dVertex
 10
1680.833919795087
 20
987.5782865752684
 30
0.0
  0
SEQEND
  5
1BB0
330
1BA6
100
AcDbEntity
  8
NOSNÉ KONSTRUKCE
  0
LWPOLYLINE
  5
1BB1
330
1F
100
AcDbEntity
  8
NOSNÉ KONSTRUKCE
100
AcDbPolyline
 90
        4
 70
     0
 43
0.0
 10
1664.366053985747
 20
1037.575451723922
 10
1664.366053985747
 20
987.5782865752684
 10
1689.366053985747
 20
987.5782865752684
 10
1689.366053985747
 20
1037.575451723922
  0
LWPOLYLINE
  5
1BB2
330
1F
100
AcDbEntity
  8
NOSNÉ KONSTRUKCE
100
AcDbPolyline
 90
        8
 70
     0
 43
0.0
 10
1689.366053985747
 20
1020.4876296574
 42
0.0120721047703142
 10
1687.632165847003
 20
1020.418646967362
 42
0.044358077361292
 10
1684.936365828586
 20
1020.023019232689
 42
0.0188067511131767
 10
1677.69413665328
 20
1018.003195784306
 42
0.0457786284636091
 10
1674.8455262704
 20
1016.79517289469
 42
0.0295006114745606
 10
1670.918627056997
 20
1014.379112440391
 42
0.0258674098621065
 10
1666.772846978244
 20
1011.146437126426
 42
0.0093759062953949
 10
1664.366053985747
 20
1008.98062494677
 42
0.0093759062953949
  0
LWPOLYLINE
  5
1BB3
330
1F
100
AcDbEntity
  8
NOSNÉ KONSTRUKCE
100
AcDbPolyline
 90
        6
 70
     0
 43
0.0
 10
1689.366053985747
 20
1029.111845037442
 42
0.0128837512779302
 10
1686.032889164001
 20
1028.827053077217
 42
0.0351641677647434
 10
1682.429179709662
 20
1028.199293355694
 42
0.0187319685742942
 10
1670.670942367519
 20
1024.815277474703
 42
0.0582629403736403
 10
1667.091108168587
 20
1023.155777606622
 42
0.0146402521923566
 10
1664.366053985747
 20
1021.371369625038
  0
LWPOLYLINE
  5
1BB4
330
1F
100
AcDbEntity
  8
NOSNÉ KONSTRUKCE
100
AcDbPolyline
 90
        3
 70
     0
 43
0.0
 10
1682.866884416492
 20
1013.579261658215
 10
1673.650855365972
 20
1033.575514090207
 10
1673.00545789063
 20
1037.575451723922
  0
LWPOLYLINE
  5
1BB5
330
1F
100
AcDbEntity
  8
NOSNÉ KONSTRUKCE
100
AcDbPolyline
 90
        4
 70
     0
 43
0.0
 10
1679.150732778692
 20
1037.575451723922
 42
0.0067781046155075
 10
1669.037360803281
 20
1035.58244328422
 42
0.0219777111230329
 10
1665.519247547446
 20
1034.676330782237
 42
0.0092752982622242
 10
1664.366053985747
 20
1034.301103820291
  0
LINE
  5
1BB6
330
1F
100
AcDbEntity
  8
NOSNÉ KONSTRUKCE
100
AcDbLine
 10
1689.366053985747
 20
1037.575451723922
 30
0.0
 11
1664.366053985747
 21
1037.575451723922
 31
0.0
  0
LINE
  5
1BB7
330
1F
100
AcDbEntity
  8
SPOJOVACÍ
100
AcDbLine
 10
1650.441785194147
 20
1015.638493506996
 30
0.0
 11
1650.441785194147
 21
1008.519352881996
 31
0.0
  0
LINE
  5
1BB8
330
1F
100
AcDbEntity
  8
SPOJOVACÍ
100
AcDbLine
 10
1649.057869402934
 20
1015.638493506996
 30
0.0
 11
1649.057869402934
 21
1022.757634131996
 31
0.0
  0
LINE
  5
1BB9
330
1F
100
AcDbEntity
  8
SPOJOVACÍ
100
AcDbLine
 10
1649.571241664193
 20
1020.859196631996
 30
0.0
 11
1649.566495570444
 21
1020.859196631996
 31
0.0
  0
LINE
  5
1BBA
330
1F
100
AcDbEntity
  8
SPOJOVACÍ
100
AcDbLine
 10
1650.441785194147
 20
1022.757634131996
 30
0.0
 11
1649.057869402934
 21
1022.757634131995
 31
0.0
  0
LINE
  5
1BBB
330
1F
100
AcDbEntity
  8
SPOJOVACÍ
100
AcDbLine
 10
1650.441785194147
 20
1022.757634131996
 30
0.0
 11
1650.441785194147
 21
1015.638493506996
 31
0.0
  0
LINE
  5
1BBC
330
1F
100
AcDbEntity
  8
SPOJOVACÍ
100
AcDbLine
 10
1649.571241664193
 20
1020.859196631996
 30
0.0
 11
1649.566495570444
 21
1020.859196631996
 31
0.0
  0
LINE
  5
1BBD
330
1F
100
AcDbEntity
  8
SPOJOVACÍ
100
AcDbLine
 10
1649.057869402934
 20
1008.519352881998
 30
0.0
 11
1650.441785194147
 21
1008.519352881996
 31
0.0
  0
LINE
  5
1BBE
330
1F
100
AcDbEntity
  8
SPOJOVACÍ
100
AcDbLine
 10
1649.057869402934
 20
1019.474461684062
 30
0.0
 11
1649.057869402934
 21
1008.519352881996
 31
0.0
  0
HATCH
  5
1BBF
330
1F
100
AcDbEntity
  8
SPOJOVACÍ
100
AcDbHatch
 10
0.0
 20
0.0
 30
0.0
210
0.0
220
0.0
230
1.0
  2
ANSI37
 70
     0
 71
     0
 91
        1
 92
        7
 72
     0
 73
     1
 93
        6
 10
1649.057869402934
 20
1015.638493506996
 10
1649.057869402936
 20
1008.519352881998
 10
1650.441785194147
 20
1008.519352881996
 10
1650.441785194147
 20
1015.638493506996
 10
1650.441785194149
 20
1022.757634131996
 10
1649.057869402934
 20
1022.757634131995
 97
        0
 75
     0
 76
     1
 52
-90.00000000000001
 41
0.9
 77
     0
 78
     2
 53
315.0
 43
-2191.788430249397
 44
11098.49980557787
 45
2.02055762724056
 46
2.020557627240558
 79
     0
 53
44.99999999999999
 43
-2191.788430249397
 44
11098.49980557787
 45
-2.020557627240558
 46
2.02055762724056
 79
     0
 47
0.0246402553748132
 98
        1
 10
1649.528820844904
 20
1016.039339168683
  0
ELLIPSE
  5
1BC0
330
1F
100
AcDbEntity
  8
SPOJOVACÍ
100
AcDbEllipse
 10
1648.508574955633
 20
1015.638493506996
 30
0.0
 11
0.0000000000000018
 21
7.321312510456553
 31
0.0
210
0.0
220
0.0
230
1.0
 40
0.3214803388886193
 41
-0.2355512395776302
 42
3.377143893167422
  0
LINE
  5
1BC1
330
1F
100
AcDbEntity
  8
SPOJOVACÍ
100
AcDbLine
 10
1679.203044313281
 20
1018.416259733371
 30
0.0
 11
1650.43605454042
 21
1018.416259733371
 31
0.0
  0
LINE
  5
1BC2
330
1F
100
AcDbEntity
  8
SPOJOVACÍ
100
AcDbLine
 10
1679.203044313281
 20
1012.73231927557
 30
0.0
 11
1650.43605454042
 21
1012.73231927557
 31
0.0
  0
LINE
  5
1BC3
330
1F
100
AcDbEntity
  8
SPOJOVACÍ
100
AcDbLine
 10
1673.09274336492
 20
1012.73231927557
 30
0.0
 11
1674.615750620413
 21
1018.416259733371
 31
0.0
  0
LINE
  5
1BC4
330
1F
100
AcDbEntity
  8
SPOJOVACÍ
100
AcDbLine
 10
1654.108368364922
 20
1012.73231927557
 30
0.0
 11
1655.631375620417
 21
1018.416259733371
 31
0.0
  0
LINE
  5
1BC5
330
1F
100
AcDbEntity
  8
SPOJOVACÍ
100
AcDbLine
 10
1652.526337114924
 20
1012.73231927557
 30
0.0
 11
1654.049344370415
 21
1018.416259733371
 31
0.0
  0
LINE
  5
1BC6
330
1F
100
AcDbEntity
  8
SPOJOVACÍ
100
AcDbLine
 10
1658.854462114922
 20
1012.73231927557
 30
0.0
 11
1660.377469370417
 21
1018.416259733371
 31
0.0
  0
LINE
  5
1BC7
330
1F
100
AcDbEntity
  8
SPOJOVACÍ
100
AcDbLine
 10
1657.27243086492
 20
1012.73231927557
 30
0.0
 11
1658.795438120417
 21
1018.416259733371
 31
0.0
  0
LINE
  5
1BC8
330
1F
100
AcDbEntity
  8
SPOJOVACÍ
100
AcDbLine
 10
1655.690399614922
 20
1012.73231927557
 30
0.0
 11
1657.213406870417
 21
1018.416259733371
 31
0.0
  0
LINE
  5
1BC9
330
1F
100
AcDbEntity
  8
SPOJOVACÍ
100
AcDbLine
 10
1660.436493364922
 20
1012.73231927557
 30
0.0
 11
1661.959500620417
 21
1018.416259733371
 31
0.0
  0
LINE
  5
1BCA
330
1F
100
AcDbEntity
  8
SPOJOVACÍ
100
AcDbLine
 10
1662.018524614922
 20
1012.73231927557
 30
0.0
 11
1663.541531870415
 21
1018.416259733371
 31
0.0
  0
LINE
  5
1BCB
330
1F
100
AcDbEntity
  8
SPOJOVACÍ
100
AcDbLine
 10
1663.600555864924
 20
1012.73231927557
 30
0.0
 11
1665.123563120415
 21
1018.416259733371
 31
0.0
  0
LINE
  5
1BCC
330
1F
100
AcDbEntity
  8
SPOJOVACÍ
100
AcDbLine
 10
1665.182587114922
 20
1012.73231927557
 30
0.0
 11
1666.705594370417
 21
1018.416259733371
 31
0.0
  0
LINE
  5
1BCD
330
1F
100
AcDbEntity
  8
SPOJOVACÍ
100
AcDbLine
 10
1668.346649614922
 20
1012.73231927557
 30
0.0
 11
1669.869656870415
 21
1018.416259733371
 31
0.0
  0
LINE
  5
1BCE
330
1F
100
AcDbEntity
  8
SPOJOVACÍ
100
AcDbLine
 10
1666.764618364922
 20
1012.73231927557
 30
0.0
 11
1668.287625620415
 21
1018.416259733371
 31
0.0
  0
LINE
  5
1BCF
330
1F
100
AcDbEntity
  8
SPOJOVACÍ
100
AcDbLine
 10
1669.928680864918
 20
1012.73231927557
 30
0.0
 11
1671.451688120415
 21
1018.416259733371
 31
0.0
  0
LINE
  5
1BD0
330
1F
100
AcDbEntity
  8
SPOJOVACÍ
100
AcDbLine
 10
1671.51071211492
 20
1012.73231927557
 30
0.0
 11
1673.033719370415
 21
1018.416259733371
 31
0.0
  0
LINE
  5
1BD1
330
1F
100
AcDbEntity
  8
SPOJOVACÍ
100
AcDbLine
 10
1674.674774614922
 20
1012.73231927557
 30
0.0
 11
1676.197781870413
 21
1018.416259733371
 31
0.0
  0
LINE
  5
1BD2
330
1F
100
AcDbEntity
  8
SPOJOVACÍ
100
AcDbLine
 10
1676.256805864922
 20
1012.73231927557
 30
0.0
 11
1677.779813120413
 21
1018.416259733371
 31
0.0
  0
LINE
  5
1BD3
330
1F
100
AcDbEntity
  8
SPOJOVACÍ
100
AcDbLine
 10
1677.838837114918
 20
1012.73231927557
 30
0.0
 11
1679.361844370415
 21
1018.416259733371
 31
0.0
  0
LINE
  5
1BD4
330
1F
100
AcDbEntity
  8
SPOJOVACÍ
100
AcDbLine
 10
1679.42086836492
 20
1012.73231927557
 30
0.0
 11
1680.494669932611
 21
1016.739801283436
 31
0.0
  0
LINE
  5
1BD5
330
1F
100
AcDbEntity
  8
SPOJOVACÍ
100
AcDbLine
 10
1681.392637235884
 20
1015.574289504469
 30
0.0
 11
1679.203044313281
 21
1012.73231927557
 31
0.0
  0
LINE
  5
1BD6
330
1F
100
AcDbEntity
  8
SPOJOVACÍ
100
AcDbLine
 10
1681.392637235884
 20
1015.574289504469
 30
0.0
 11
1679.203044313281
 21
1018.416259733371
 31
0.0
  0
LWPOLYLINE
  5
1BD7
330
1F
100
AcDbEntity
  8
NOSNÉ KONSTRUKCE
100
AcDbPolyline
 90
        7
 70
     0
 43
0.0
 10
2229.990006309664
 20
540.9973532759308
 42
0.0203924744732807
 10
2230.892090294076
 20
539.9842232467768
 42
0.0273961979096945
 10
2231.741954644272
 20
539.1960468727506
 42
0.0243529190212958
 10
2232.905075136691
 20
538.322287528083
 42
0.0398020282482987
 10
2233.680033674251
 20
537.8826587846365
 42
0.104168275620852
 10
2234.066444810591
 20
537.7926423244594
 42
0.007272956268647
 10
2234.504774789346
 20
537.7741889731646
 42
0.007272956268647
  0
LWPOLYLINE
  5
1BD8
330
1F
100
AcDbEntity
  8
NOSNÉ KONSTRUKCE
100
AcDbPolyline
 90
        8
 70
     0
 43
0.0
 10
2201.595431707216
 20
540.9973532759308
 42
0.0120721047703142
 10
2201.664414397254
 20
539.2634651371868
 42
0.044358077361292
 10
2202.060042131927
 20
536.56766511877
 42
0.0188067511131767
 10
2204.079865580311
 20
529.3254359434635
 42
0.0457786284636091
 10
2205.287888469926
 20
526.4768255605836
 42
0.0295006114745606
 10
2207.703948924226
 20
522.5499263471816
 42
0.0258674098621065
 10
2210.93662423819
 20
518.4041462684276
 42
0.0093759062953949
 10
2213.102436417845
 20
515.9973532759308
 42
0.0093759062953949
  0
LWPOLYLINE
  5
1BD9
330
1F
100
AcDbEntity
  8
NOSNÉ KONSTRUKCE
100
AcDbPolyline
 90
        6
 70
     0
 43
0.0
 10
2192.971216327173
 20
540.9973532759308
 42
0.0128837512779302
 10
2193.256008287399
 20
537.6641884541846
 42
0.0351641677647434
 10
2193.883768008923
 20
534.0604789998455
 42
0.0187319685742942
 10
2197.267783889913
 20
522.3022416577028
 42
0.0582629403736403
 10
2198.927283757994
 20
518.7224074587707
 42
0.0146402521923566
 10
2200.711691739577
 20
515.9973532759308
  0
LINE
  5
1BDA
330
1F
100
AcDbEntity
  8
NOSNÉ KONSTRUKCE
100
AcDbLine
 10
2184.507609640694
 20
540.9973532759308
 30
0.0
 11
2184.507609640694
 21
515.9973532759308
 31
0.0
  0
LWPOLYLINE
  5
1BDB
330
1F
100
AcDbEntity
  8
NOSNÉ KONSTRUKCE
100
AcDbPolyline
 90
        3
 70
     0
 43
0.0
 10
2208.503799706402
 20
534.4981837066757
 10
2188.507547274409
 20
525.2821546561558
 10
2184.507609640694
 20
524.6367571808137
  0
LWPOLYLINE
  5
1BDC
330
1F
100
AcDbEntity
  8
NOSNÉ KONSTRUKCE
100
AcDbPolyline
 90
        4
 70
     0
 43
0.0
 10
2184.507609640694
 20
530.7820320688756
 42
0.0067781046155075
 10
2186.500618080396
 20
520.6686600934649
 42
0.0219777111230329
 10
2187.40673058238
 20
517.1505468376294
 42
0.0092752982622242
 10
2187.781957544323
 20
515.9973532759308
  0
LWPOLYLINE
  5
1BDD
330
1F
100
AcDbEntity
  8
NOSNÉ KONSTRUKCE
100
AcDbPolyline
 90
        4
 70
     0
 43
0.0
 10
2184.507609640694
 20
515.9973532759308
 10
2234.504774789346
 20
515.9973532759308
 10
2234.504774789346
 20
540.9973532759308
 10
2184.507609640694
 20
540.9973532759308
  0
POLYLINE
  5
1BDE
330
1F
100
AcDbEntity
  8
NOSNÉ KONSTRUKCE
100
AcDb2dPolyline
 66
     1
 10
0.0
 20
0.0
 30
0.0
  0
VERTEX
  5
1BDF
330
1BDE
100
AcDbEntity
  8
NOSNÉ KONSTRUKCE
100
AcDbVertex
100
AcDb2dVertex
 10
2217.412268954408
 20
540.9973532759308
 30
0.0
 42
0.0072417954699014
  0
VERTEX
  5
1BE0
330
1BDE
100
AcDbEntity
  8
NOSNÉ KONSTRUKCE
100
AcDbVertex
100
AcDb2dVertex
 10
2217.46783932225
 20
540.5859480646563
 30
0.0
 42
0.0707158694326265
  0
VERTEX
  5
1BE1
330
1BDE
100
AcDbEntity
  8
NOSNÉ KONSTRUKCE
100
AcDbVertex
100
AcDb2dVertex
 10
2217.99896583867
 20
538.6498446120627
 30
0.0
 42
0.033952657250207
  0
VERTEX
  5
1BE2
330
1BDE
100
AcDbEntity
  8
NOSNÉ KONSTRUKCE
100
AcDbVertex
100
AcDb2dVertex
 10
2220.247621678078
 20
534.296806886889
 30
0.0
 42
0.0571374688189033
  0
VERTEX
  5
1BE3
330
1BDE
100
AcDbEntity
  8
NOSNÉ KONSTRUKCE
100
AcDbVertex
100
AcDb2dVertex
 10
2222.03377843793
 20
531.9898826032027
 30
0.0
 42
0.0274923553235744
  0
VERTEX
  5
1BE4
330
1BDE
100
AcDbEntity
  8
NOSNÉ KONSTRUKCE
100
AcDbVertex
100
AcDb2dVertex
 10
2224.631084168483
 20
529.6048072800681
 30
0.0
 42
0.0255412025538677
  0
VERTEX
  5
1BE5
330
1BDE
100
AcDbEntity
  8
NOSNÉ KONSTRUKCE
100
AcDbVertex
100
AcDb2dVertex
 10
2227.682514206194
 20
527.3480936030487
 30
0.0
 42
0.0272796991712396
  0
VERTEX
  5
1BE6
330
1BDE
100
AcDbEntity
  8
NOSNÉ KONSTRUKCE
100
AcDbVertex
100
AcDb2dVertex
 10
2231.795513359379
 20
524.9317577213864
 30
0.0
 42
0.056967459841729
  0
VERTEX
  5
1BE7
330
1BDE
100
AcDbEntity
  8
NOSNÉ KONSTRUKCE
100
AcDbVertex
100
AcDb2dVertex
 10
2233.936460640111
 20
524.119021886187
 30
0.0
 42
0.0373408083348504
  0
VERTEX
  5
1BE8
330
1BDE
100
AcDbEntity
  8
NOSNÉ KONSTRUKCE
100
AcDbVertex
100
AcDb2dVertex
 10
2234.158815015585
 20
524.0798563452358
 30
0.0
 42
0.0052305969362967
  0
VERTEX
  5
1BE9
330
1BDE
100
AcDbEntity
  8
NOSNÉ KONSTRUKCE
100
AcDbVertex
100
AcDb2dVertex
 10
2234.504774789346
 20
524.0488993783315
 30
0.0
  0
SEQEND
  5
1BEA
330
1BDE
100
AcDbEntity
  8
NOSNÉ KONSTRUKCE
  0
LWPOLYLINE
  5
1BEB
330
1F
100
AcDbEntity
  8
NOSNÉ KONSTRUKCE
100
AcDbPolyline
 90
       10
 70
     0
 43
0.0
 10
2210.462490930726
 20
540.9973532759308
 42
0.0168162630274194
 10
2210.59751650979
 20
539.3063151238115
 42
0.0575155827655532
 10
2211.277548790133
 20
536.2066904630942
 42
0.0310289133982999
 10
2214.280350134961
 20
528.9616629384495
 42
0.0882970623535771
 10
2215.917572055054
 20
526.7212938876496
 42
0.0171636441953577
 10
2218.730936116912
 20
524.2073765324043
 42
0.0157521173632038
 10
2221.969790953949
 20
521.6758804798978
 42
0.0073640874174249
 10
2226.60344031027
 20
518.3874790541617
 42
0.0194185739168057
 10
2228.425483629947
 20
517.2359100548805
 42
0.0229547400386702
 10
2230.810941693959
 20
515.9973532759308
 42
0.0229547400386702
  0
LWPOLYLINE
  5
1BEC
330
1F
100
AcDbEntity
  8
NOSNÉ KONSTRUKCE
100
AcDbPolyline
 90
        3
 70
     0
 43
0.0
 10
2227.796377331646
 20
535.4800225804124
 10
2211.041159711919
 20
527.096281712444
 10
2202.874055062794
 20
518.9149800113468
  0
POLYLINE
  5
1BED
330
1F
100
AcDbEntity
  8
NOSNÉ KONSTRUKCE
100
AcDb2dPolyline
 66
     1
 10
0.0
 20
0.0
 30
0.0
  0
VERTEX
  5
1BEE
330
1BED
100
AcDbEntity
  8
NOSNÉ KONSTRUKCE
100
AcDbVertex
100
AcDb2dVertex
 10
2224.640319975144
 20
540.9973532759308
 30
0.0
 42
0.0064239028828688
  0
VERTEX
  5
1BEF
330
1BED
100
AcDbEntity
  8
NOSNÉ KONSTRUKCE
100
AcDbVertex
100
AcDb2dVertex
 10
2224.679188415325
 20
540.7782396165807
 30
0.0
 42
0.0832048017309575
  0
VERTEX
  5
1BF0
330
1BED
100
AcDbEntity
  8
NOSNÉ KONSTRUKCE
100
AcDbVertex
100
AcDb2dVertex
 10
2225.463371018006
 20
538.4480260369259
 30
0.0
 42
0.0336767237692336
  0
VERTEX
  5
1BF1
330
1BED
100
AcDbEntity
  8
NOSNÉ KONSTRUKCE
100
AcDbVertex
100
AcDb2dVertex
 10
2227.166187576928
 20
535.7197515174653
 30
0.0
 42
0.0844635135812105
  0
VERTEX
  5
1BF2
330
1BED
100
AcDbEntity
  8
NOSNÉ KONSTRUKCE
100
AcDbVertex
100
AcDb2dVertex
 10
2228.085997336821
 20
534.8153299124701
 30
0.0
 42
0.0495829410719565
  0
VERTEX
  5
1BF3
330
1BED
100
AcDbEntity
  8
NOSNÉ KONSTRUKCE
100
AcDbVertex
100
AcDb2dVertex
 10
2229.834675774176
 20
533.8386804051574
 30
0.0
 42
0.0322692699774654
  0
VERTEX
  5
1BF4
330
1BED
100
AcDbEntity
  8
NOSNÉ KONSTRUKCE
100
AcDbVertex
100
AcDb2dVertex
 10
2232.726029955266
 20
532.7971569037567
 30
0.0
 42
0.0276160659512937
  0
VERTEX
  5
1BF5
330
1BED
100
AcDbEntity
  8
NOSNÉ KONSTRUKCE
100
AcDbVertex
100
AcDb2dVertex
 10
2233.581606393553
 20
532.6004214748122
 30
0.0
 42
0.0126891984598699
  0
VERTEX
  5
1BF6
330
1BED
100
AcDbEntity
  8
NOSNÉ KONSTRUKCE
100
AcDbVertex
100
AcDb2dVertex
 10
2234.504774789346
 20
532.4652190852707
 30
0.0
  0
SEQEND
  5
1BF7
330
1BED
100
AcDbEntity
  8
NOSNÉ KONSTRUKCE
  0
LINE
  5
1BF8
330
1F
100
AcDbEntity
  8
SPOJOVACÍ
100
AcDbLine
 10
2211.424375965701
 20
523.32588383365
 30
0.0
 11
2205.740435507899
 21
524.8488910891414
 31
0.0
  0
LINE
  5
1BF9
330
1F
100
AcDbEntity
  8
SPOJOVACÍ
100
AcDbLine
 10
2211.424375965701
 20
524.90791508365
 30
0.0
 11
2205.740435507899
 21
526.4309223391414
 31
0.0
  0
LINE
  5
1BFA
330
1F
100
AcDbEntity
  8
SPOJOVACÍ
100
AcDbLine
 10
2211.424375965701
 20
526.4899463336482
 30
0.0
 11
2205.740435507899
 21
528.0129535891433
 31
0.0
  0
LINE
  5
1BFB
330
1F
100
AcDbEntity
  8
SPOJOVACÍ
100
AcDbLine
 10
2211.424375965701
 20
528.0719775836492
 30
0.0
 11
2207.416893957835
 21
529.145779151338
 31
0.0
  0
LINE
  5
1BFC
330
1F
100
AcDbEntity
  8
SPOJOVACÍ
100
AcDbLine
 10
2208.582405736799
 20
530.0437464546125
 30
0.0
 11
2211.424375965701
 21
527.8541535320096
 31
0.0
  0
LINE
  5
1BFD
330
1F
100
AcDbEntity
  8
SPOJOVACÍ
100
AcDbLine
 10
2208.582405736799
 20
530.0437464546125
 30
0.0
 11
2205.740435507899
 21
527.8541535320096
 31
0.0
  0
LINE
  5
1BFE
330
1F
100
AcDbEntity
  8
SPOJOVACÍ
100
AcDbLine
 10
2211.424375965701
 20
512.2516650836518
 30
0.0
 11
2205.740435507899
 21
513.7746723391432
 31
0.0
  0
LINE
  5
1BFF
330
1F
100
AcDbEntity
  8
SPOJOVACÍ
100
AcDbLine
 10
2211.424375965701
 20
513.8336963336501
 30
0.0
 11
2205.740435507899
 21
515.3567035891451
 31
0.0
  0
LINE
  5
1C00
330
1F
100
AcDbEntity
  8
SPOJOVACÍ
100
AcDbLine
 10
2211.424375965701
 20
516.99775883365
 30
0.0
 11
2205.740435507899
 21
518.5207660891433
 31
0.0
  0
LINE
  5
1C01
330
1F
100
AcDbEntity
  8
SPOJOVACÍ
100
AcDbLine
 10
2211.424375965701
 20
515.41572758365
 30
0.0
 11
2205.740435507899
 21
516.9387348391433
 31
0.0
  0
LINE
  5
1C02
330
1F
100
AcDbEntity
  8
SPOJOVACÍ
100
AcDbLine
 10
2211.424375965701
 20
518.5797900836473
 30
0.0
 11
2205.740435507899
 21
520.1027973391433
 31
0.0
  0
LINE
  5
1C03
330
1F
100
AcDbEntity
  8
SPOJOVACÍ
100
AcDbLine
 10
2211.424375965701
 20
520.1618213336492
 30
0.0
 11
2205.740435507899
 21
521.6848285891432
 31
0.0
  0
LINE
  5
1C04
330
1F
100
AcDbEntity
  8
SPOJOVACÍ
100
AcDbLine
 10
2211.424375965701
 20
521.7438525836492
 30
0.0
 11
2205.740435507899
 21
523.2668598391414
 31
0.0
  0
LINE
  5
1C05
330
1F
100
AcDbEntity
  8
SPOJOVACÍ
100
AcDbLine
 10
2208.785766779317
 20
499.0901164192769
 30
0.0
 11
2215.904907404316
 21
499.0901164192769
 31
0.0
  0
LINE
  5
1C06
330
1F
100
AcDbEntity
  8
SPOJOVACÍ
100
AcDbLine
 10
2201.666626154316
 20
499.0901164192769
 30
0.0
 11
2208.785766779317
 21
499.0901164192769
 31
0.0
  0
HATCH
  5
1C07
330
1F
100
AcDbEntity
  8
SPOJOVACÍ
100
AcDbHatch
 10
0.0
 20
0.0
 30
0.0
210
0.0
220
0.0
230
1.0
  2
ANSI37
 70
     0
 71
     0
 91
        1
 92
        7
 72
     0
 73
     1
 93
        6
 10
2208.785766779317
 20
497.7062006280634
 10
2215.904907404314
 20
497.7062006280634
 10
2215.904907404316
 20
499.0901164192769
 10
2208.785766779317
 20
499.0901164192769
 10
2201.666626154316
 20
499.0901164192769
 10
2201.666626154318
 20
497.7062006280634
 97
        0
 75
     0
 76
     1
 52
0.0
 41
0.9
 77
     0
 78
     2
 53
45.00000000000001
 43
-7874.075545291567
 44
-3343.140099024271
 45
-2.020557627240559
 46
2.020557627240559
 79
     0
 53
135.0
 43
-7874.075545291567
 44
-3343.140099024271
 45
-2.020557627240559
 46
-2.020557627240559
 79
     0
 47
0.0246402553748132
 98
        1
 10
2208.38492111763
 20
498.1771520700335
  0
ELLIPSE
  5
1C08
330
1F
100
AcDbEntity
  8
SPOJOVACÍ
100
AcDbEllipse
 10
2208.785766779317
 20
497.1569061807627
 30
0.0
 11
-7.321312510456553
 21
0.0000000000000004
 31
0.0
210
0.0
220
0.0
230
1.0
 40
0.3214803388886193
 41
-0.2355512395776302
 42
3.377143893167422
  0
LINE
  5
1C09
330
1F
100
AcDbEntity
  8
SPOJOVACÍ
100
AcDbLine
 10
2204.949798602251
 20
497.7062006280634
 30
0.0
 11
2215.904907404316
 21
497.7062006280634
 31
0.0
  0
LINE
  5
1C0A
330
1F
100
AcDbEntity
  8
SPOJOVACÍ
100
AcDbLine
 10
2208.785766779317
 20
497.7062006280634
 30
0.0
 11
2201.666626154316
 21
497.7062006280634
 31
0.0
  0
LINE
  5
1C0B
330
1F
100
AcDbEntity
  8
SPOJOVACÍ
100
AcDbLine
 10
2215.904907404314
 20
497.7062006280634
 30
0.0
 11
2215.904907404316
 21
499.0901164192769
 31
0.0
  0
LINE
  5
1C0C
330
1F
100
AcDbEntity
  8
SPOJOVACÍ
100
AcDbLine
 10
2201.666626154316
 20
499.0901164192769
 30
0.0
 11
2201.666626154318
 21
497.7062006280634
 31
0.0
  0
LINE
  5
1C0D
330
1F
100
AcDbEntity
  8
SPOJOVACÍ
100
AcDbLine
 10
2203.565063654317
 20
498.2195728893225
 30
0.0
 11
2203.565063654317
 21
498.214826795573
 31
0.0
  0
LINE
  5
1C0E
330
1F
100
AcDbEntity
  8
SPOJOVACÍ
100
AcDbLine
 10
2205.740435507899
 20
527.8541535320096
 30
0.0
 11
2205.740435507899
 21
499.0871637591485
 31
0.0
  0
LINE
  5
1C0F
330
1F
100
AcDbEntity
  8
SPOJOVACÍ
100
AcDbLine
 10
2211.424375965701
 20
527.8541535320096
 30
0.0
 11
2211.424375965701
 21
499.0871637591485
 31
0.0
  0
LINE
  5
1C10
330
1F
100
AcDbEntity
  8
SPOJOVACÍ
100
AcDbLine
 10
2211.424375965701
 20
502.7594775836501
 30
0.0
 11
2205.740435507899
 21
504.2824848391441
 31
0.0
  0
LINE
  5
1C11
330
1F
100
AcDbEntity
  8
SPOJOVACÍ
100
AcDbLine
 10
2211.424375965701
 20
501.1774463336519
 30
0.0
 11
2205.740435507899
 21
502.7004535891433
 31
0.0
  0
LINE
  5
1C12
330
1F
100
AcDbEntity
  8
SPOJOVACÍ
100
AcDbLine
 10
2211.424375965701
 20
507.50557133365
 30
0.0
 11
2205.740435507899
 21
509.0285785891451
 31
0.0
  0
LINE
  5
1C13
330
1F
100
AcDbEntity
  8
SPOJOVACÍ
100
AcDbLine
 10
2211.424375965701
 20
505.9235400836492
 30
0.0
 11
2205.740435507899
 21
507.4465473391451
 31
0.0
  0
LINE
  5
1C14
330
1F
100
AcDbEntity
  8
SPOJOVACÍ
100
AcDbLine
 10
2211.424375965701
 20
504.3415088336501
 30
0.0
 11
2205.740435507899
 21
505.8645160891451
 31
0.0
  0
LINE
  5
1C15
330
1F
100
AcDbEntity
  8
SPOJOVACÍ
100
AcDbLine
 10
2211.424375965701
 20
509.08760258365
 30
0.0
 11
2205.740435507899
 21
510.6106098391442
 31
0.0
  0
LINE
  5
1C16
330
1F
100
AcDbEntity
  8
SPOJOVACÍ
100
AcDbLine
 10
2211.424375965701
 20
510.6696338336519
 30
0.0
 11
2205.740435507899
 21
512.1926410891433
 31
0.0
  0
INSERT
  5
1C17
330
1F
100
AcDbEntity
  8
POPIS
100
AcDbBlockReference
  2
E_PUNKT
 10
1690.40846298171
 20
852.2993762827614
 30
0.0
  0
TEXT
  5
1C18
330
1F
100
AcDbEntity
  8
POPIS
100
AcDbText
 10
1587.93522398134
 20
326.7591779395293
 30
0.0
 40
25.0
  1
Nerezový vrut s podložkou (np. SFS, EJOT)
 41
0.7
  7
SIMPLEX7
100
AcDbText
  0
TEXT
  5
1C19
330
1F
100
AcDbEntity
  8
POPIS
100
AcDbText
 10
1587.93522398134
 20
292.8089896948072
 30
0.0
 40
25.0
  1
Vzduchová mezera - min. 25 mm
 41
0.7
  7
SIMPLEX7
100
AcDbText
  0
TEXT
  5
1C1A
330
1F
100
AcDbEntity
  8
POPIS
100
AcDbText
 10
1587.93522398134
 20
363.3541895551575
 30
0.0
 40
25.0
  1
Deska CETRIS   (BASIC,FINISH,LASUR)
 41
0.7
  7
SIMPLEX7
100
AcDbText
  0
TEXT
  5
1C1B
330
1F
100
AcDbEntity
  8
POPIS
100
AcDbText
 10
1533.591520821591
 20
185.6791182913671
 30
0.0
 40
25.0
  1
06
 41
0.85
  7
SIMPLEX7
100
AcDbText
  0
TEXT
  5
1C1C
330
1F
100
AcDbEntity
  8
POPIS
100
AcDbText
 10
1533.591520821591
 20
76.79865950828617
 30
0.0
 40
25.0
  1
09
 41
0.85
  7
SIMPLEX7
100
AcDbText
  0
TEXT
  5
1C1D
330
1F
100
AcDbEntity
  8
POPIS
100
AcDbText
 10
1533.591520821591
 20
147.4957784488419
 30
0.0
 40
25.0
  1
07
 41
0.85
  7
SIMPLEX7
100
AcDbText
  0
TEXT
  5
1C1E
330
1F
100
AcDbEntity
  8
POPIS
100
AcDbText
 10
1533.591520821591
 20
112.0536213121581
 30
0.0
 40
25.0
  1
08
 41
0.85
  7
SIMPLEX7
100
AcDbText
  0
TEXT
  5
1C1F
330
1F
100
AcDbEntity
  8
POPIS
100
AcDbText
 10
1533.591520821591
 20
326.7591779395293
 30
0.0
 40
25.0
  1
02
 41
0.85
  7
SIMPLEX7
100
AcDbText
  0
TEXT
  5
1C20
330
1F
100
AcDbEntity
  8
POPIS
100
AcDbText
 10
1533.591520821591
 20
292.8089896948072
 30
0.0
 40
25.0
  1
03
 41
0.85
  7
SIMPLEX7
100
AcDbText
  0
TEXT
  5
1C21
330
1F
100
AcDbEntity
  8
POPIS
100
AcDbText
 10
1533.591520821591
 20
221.2980069894561
 30
0.0
 40
25.0
  1
05
 41
0.85
  7
SIMPLEX7
100
AcDbText
  0
TEXT
  5
1C22
330
1F
100
AcDbEntity
  8
POPIS
100
AcDbText
 10
1533.591520821591
 20
257.4048284766445
 30
0.0
 40
25.0
  1
04
 41
0.85
  7
SIMPLEX7
100
AcDbText
  0
TEXT
  5
1C23
330
1F
100
AcDbEntity
  8
POPIS
100
AcDbText
 10
1533.595166096419
 20
365.3998427287938
 30
0.0
 40
25.0
  1
01
 41
0.85
  7
SIMPLEX7
100
AcDbText
  0
CIRCLE
  5
1C24
330
1F
100
AcDbEntity
  8
POPIS
100
AcDbCircle
 10
1760.954144573449
 20
395.7463461352449
 30
0.0
 40
11.13656048292026
  0
TEXT
  5
1C25
330
1F
100
AcDbEntity
  8
POPIS
100
AcDbText
 10
1756.571861063127
 20
389.6361847672992
 30
0.0
 40
12.0
  1
R
 41
0.85
  7
SIMPLEX7
100
AcDbText
  0
TEXT
  5
1C26
330
1F
100
AcDbEntity
  8
POPIS
100
AcDbText
 10
1484.199430818341
 20
1180.854433018338
 30
0.0
 40
50.0
  1
VNĚJŠÍ ROH
 41
0.85
  7
SIMPLEX7
100
AcDbText
  0
TEXT
  5
1C27
330
1F
100
AcDbEntity
  8
POPIS
100
AcDbText
 10
1484.199430818341
 20
1126.229689992537
 30
0.0
 40
35.0
  1
PŮDORYS-ŘEŠENÍ S ROHOVÝM PROFILEM
 41
0.75
  7
SIMPLEX7
100
AcDbText
  0
LINE
  5
1C28
330
1F
100
AcDbEntity
  8
PROFILY
100
AcDbLine
 10
1791.506096610314
 20
-41.06928961470612
 30
0.0
 11
1837.638415058288
 21
-41.06928961470702
 31
0.0
  0
LINE
  5
1C29
330
1F
100
AcDbEntity
  8
PROFILY
100
AcDbLine
 10
1837.638415058286
 20
-43.40295916974492
 30
0.0
 11
1792.229931886945
 21
-43.40295916974492
 31
0.0
  0
LINE
  5
1C2A
330
1F
100
AcDbEntity
  8
PROFILY
100
AcDbLine
 10
1783.814642745167
 20
-38.6420850716945
 30
0.0
 11
1770.975515515869
 21
-38.6420850716945
 31
0.0
  0
LINE
  5
1C2B
330
1F
100
AcDbEntity
  8
PROFILY
100
AcDbLine
 10
1770.975515515869
 20
-38.6420850716945
 30
0.0
 11
1770.975515515869
 21
-58.32792733805717
 31
0.0
  0
LINE
  5
1C2C
330
1F
100
AcDbEntity
  8
PROFILY
100
AcDbLine
 10
1770.975515515869
 20
-58.32792733805717
 30
0.0
 11
1790.661357782234
 21
-58.32792733805717
 31
0.0
  0
LINE
  5
1C2D
330
1F
100
AcDbEntity
  8
PROFILY
100
AcDbLine
 10
1790.661357782234
 20
-58.32792733805717
 30
0.0
 11
1790.661357782234
 21
-45.48880010875428
 31
0.0
  0
LINE
  5
1C2E
330
1F
100
AcDbEntity
  8
PROFILY
100
AcDbLine
 10
1784.451308239681
 20
-40.64208507169451
 30
0.0
 11
1772.975515515869
 21
-40.64208507169451
 31
0.0
  0
LINE
  5
1C2F
330
1F
100
AcDbEntity
  8
PROFILY
100
AcDbLine
 10
1772.975515515869
 20
-40.64208507169451
 30
0.0
 11
1772.975515515869
 21
-56.32792733805718
 31
0.0
  0
LINE
  5
1C30
330
1F
100
AcDbEntity
  8
PROFILY
100
AcDbLine
 10
1772.975515515869
 20
-56.32792733805718
 30
0.0
 11
1788.661357782234
 21
-56.32792733805718
 31
0.0
  0
LINE
  5
1C31
330
1F
100
AcDbEntity
  8
PROFILY
100
AcDbLine
 10
1788.661357782234
 20
-56.32792733805718
 30
0.0
 11
1788.661357782236
 21
-44.85213461423836
 31
0.0
  0
LINE
  5
1C32
330
1F
100
AcDbEntity
  8
PROFILY
100
AcDbLine
 10
1783.814642745167
 20
-38.6420850716945
 30
0.0
 11
1785.900483684185
 21
-37.07351096697539
 31
0.0
  0
LINE
  5
1C33
330
1F
100
AcDbEntity
  8
PROFILY
100
AcDbLine
 10
1784.451308239681
 20
-40.64208507169451
 30
0.0
 11
1788.245757062707
 21
-37.78862004752364
 31
0.0
  0
LINE
  5
1C34
330
1F
100
AcDbEntity
  8
PROFILY
100
AcDbLine
 10
1788.661357782236
 20
-44.85213461423836
 30
0.0
 11
1791.506096610314
 21
-41.06928961470612
 31
0.0
  0
LINE
  5
1C35
330
1F
100
AcDbEntity
  8
PROFILY
100
AcDbLine
 10
1790.661357782234
 20
-45.48880010875428
 30
0.0
 11
1792.229931886945
 21
-43.40295916974492
 31
0.0
  0
LINE
  5
1C36
330
1F
100
AcDbEntity
  8
PROFILY
100
AcDbLine
 10
1785.900483684187
 20
8.334972204355381
 30
0.0
 11
1785.900483684185
 21
-37.07351096697539
 31
0.0
  0
LINE
  5
1C37
330
1F
100
AcDbEntity
  8
PROFILY
100
AcDbLine
 10
1788.245757062707
 20
-37.78862004752364
 30
0.0
 11
1788.245757062707
 21
8.334972204355381
 31
0.0
  0
HATCH
  5
1C38
330
1F
100
AcDbEntity
  8
PROFILY
100
AcDbHatch
 10
0.0
 20
0.0
 30
0.0
210
0.0
220
0.0
230
1.0
  2
SOLID
 70
     1
 71
     0
 91
        1
 92
        7
 72
     0
 73
     1
 93
       18
 10
1791.506096610314
 20
-41.06928961470612
 10
1788.661357782234
 20
-44.85213461423927
 10
1788.661357782234
 20
-56.32792733805718
 10
1772.975515515869
 20
-56.32792733805718
 10
1772.975515515866
 20
-40.64208507169451
 10
1784.451308239683
 20
-40.64208507169451
 10
1788.245757062707
 20
-37.78862004752364
 10
1788.245757062707
 20
8.334972204355381
 10
1785.900483684187
 20
8.334972204355381
 10
1785.900483684185
 20
-37.0735109669763
 10
1783.814642745164
 20
-38.6420850716945
 10
1770.975515515869
 20
-38.6420850716945
 10
1770.975515515869
 20
-58.32792733805717
 10
1790.661357782236
 20
-58.32792733805717
 10
1790.661357782234
 20
-45.48880010875246
 10
1792.229931886945
 20
-43.40295916974492
 10
1837.638415058286
 20
-43.40295916974492
 10
1837.638415058288
 20
-41.06928961470612
 97
        0
 75
     0
 76
     1
 47
0.1846483013704088
 98
        1
 10
1796.901447538565
 20
-41.97516977745681
  0
LINE
  5
1C39
330
1F
100
AcDbEntity
  8
PROFILY
100
AcDbLine
 10
1651.734087159519
 20
-41.06928961470521
 30
0.0
 11
1651.734087159518
 21
8.33497220435629
 31
0.0
  0
LINE
  5
1C3A
330
1F
100
AcDbEntity
  8
PROFILY
100
AcDbLine
 10
1649.388813780998
 20
8.33497220435629
 30
0.0
 11
1649.388813780998
 21
-43.402959169744
 31
0.0
  0
LINE
  5
1C3B
330
1F
100
AcDbEntity
  8
PROFILY
100
AcDbLine
 10
1701.126745155102
 20
-43.40295916974492
 30
0.0
 11
1649.388813780998
 21
-43.402959169744
 31
0.0
  0
LINE
  5
1C3C
330
1F
100
AcDbEntity
  8
PROFILY
100
AcDbLine
 10
1651.734087159519
 20
-41.06928961470521
 30
0.0
 11
1701.126745155102
 21
-41.06928961470521
 31
0.0
  0
LINE
  5
1C3D
330
1F
100
AcDbEntity
  8
PROFILY
100
AcDbLine
 10
1701.126745155102
 20
-41.06928961470521
 30
0.0
 11
1701.126745155102
 21
-43.40295916974492
 31
0.0
  0
LINE
  5
1C3E
330
1F
100
AcDbEntity
  8
PROFILY
100
AcDbLine
 10
1651.734087159519
 20
8.33497220435629
 30
0.0
 11
1649.388813780999
 21
8.33497220435629
 31
0.0
  0
LINE
  5
1C3F
330
1F
100
AcDbEntity
  8
PROFILY
100
AcDbLine
 10
1837.638415058288
 20
-41.06928961470612
 30
0.0
 11
1837.638415058288
 21
-43.40295916974492
 31
0.0
  0
LINE
  5
1C40
330
1F
100
AcDbEntity
  8
PROFILY
100
AcDbLine
 10
1788.245757062705
 20
8.334972204355381
 30
0.0
 11
1785.900483684185
 21
8.334972204355381
 31
0.0
  0
TEXT
  5
1C41
330
1F
100
AcDbEntity
  8
POPIS
100
AcDbText
 10
1736.799178972406
 20
40.41080487651789
 30
0.0
 40
25.0
  1
- profil PROTECTOR 3528 (9080,3623,3504)
 41
0.7
  7
SIMPLEX7
100
AcDbText
  0
TEXT
  5
1C42
330
1F
100
AcDbEntity
  8
POPIS
100
AcDbText
 10
1588.139533181386
 20
76.74025538063734
 30
0.0
 40
25.0
  1
Rohový profil - klempířský výrobek
 41
0.7
  7
SIMPLEX7
100
AcDbText
  0
HATCH
  5
1C43
330
1F
100
AcDbEntity
  8
PROFILY
100
AcDbHatch
 10
0.0
 20
0.0
 30
0.0
210
0.0
220
0.0
230
1.0
  2
SOLID
 70
     1
 71
     0
 91
        1
 92
        7
 72
     0
 73
     1
 93
        6
 10
1651.734087159518
 20
8.33497220435629
 10
1649.388813780998
 20
8.33497220435629
 10
1649.388813780998
 20
-43.40295916974492
 10
1701.126745155102
 20
-43.40295916974492
 10
1701.126745155102
 20
-41.06928961470521
 10
1651.734087159519
 20
-41.06928961470612
 97
        0
 75
     0
 76
     1
 47
0.2354572531917518
 98
        1
 10
1650.281480294931
 20
-31.43928983777141
  0
LINE
  5
1C44
330
1F
100
AcDbEntity
  8
PROFILY
100
AcDbLine
 10
1900.152469914898
 20
8.334972204355381
 30
0.0
 11
1897.807196536378
 21
8.334972204355381
 31
0.0
  0
LINE
  5
1C45
330
1F
100
AcDbEntity
  8
PROFILY
100
AcDbLine
 10
1949.54512791048
 20
-41.06928961470612
 30
0.0
 11
1949.54512791048
 21
-43.40295916974492
 31
0.0
  0
LINE
  5
1C46
330
1F
100
AcDbEntity
  8
PROFILY
100
AcDbLine
 10
1900.1524699149
 20
-37.78862004752364
 30
0.0
 11
1900.1524699149
 21
8.334972204355381
 31
0.0
  0
LINE
  5
1C47
330
1F
100
AcDbEntity
  8
PROFILY
100
AcDbLine
 10
1897.80719653638
 20
8.334972204355381
 30
0.0
 11
1897.807196536378
 21
-37.07351096697539
 31
0.0
  0
LINE
  5
1C48
330
1F
100
AcDbEntity
  8
PROFILY
100
AcDbLine
 10
1884.882228368063
 20
-56.32792733805718
 30
0.0
 11
1897.807196536378
 21
-56.32792733805718
 31
0.0
  0
LINE
  5
1C49
330
1F
100
AcDbEntity
  8
PROFILY
100
AcDbLine
 10
1884.882228368061
 20
-43.40295916974492
 30
0.0
 11
1884.882228368063
 21
-56.32792733805718
 31
0.0
  0
LINE
  5
1C4A
330
1F
100
AcDbEntity
  8
PROFILY
100
AcDbLine
 10
1882.882228368062
 20
-58.32792733805717
 30
0.0
 11
1900.152469914898
 21
-58.32792733805717
 31
0.0
  0
LINE
  5
1C4B
330
1F
100
AcDbEntity
  8
PROFILY
100
AcDbLine
 10
1882.882228368064
 20
-41.06928961470612
 30
0.0
 11
1882.882228368062
 21
-58.32792733805717
 31
0.0
  0
LINE
  5
1C4C
330
1F
100
AcDbEntity
  8
PROFILY
100
AcDbLine
 10
1949.545127910479
 20
-43.40295916974492
 30
0.0
 11
1904.136644739138
 21
-43.40295916974492
 31
0.0
  0
LINE
  5
1C4D
330
1F
100
AcDbEntity
  8
PROFILY
100
AcDbLine
 10
1903.412809462507
 20
-41.06928961470612
 30
0.0
 11
1949.54512791048
 21
-41.06928961470702
 31
0.0
  0
LINE
  5
1C4E
330
1F
100
AcDbEntity
  8
PROFILY
100
AcDbLine
 10
1904.136644739138
 20
-43.40295916974492
 30
0.0
 11
1884.882228368061
 21
-43.40295916974492
 31
0.0
  0
LINE
  5
1C4F
330
1F
100
AcDbEntity
  8
PROFILY
100
AcDbLine
 10
1900.1524699149
 20
-37.78862004752364
 30
0.0
 11
1900.152469914898
 21
-58.32792733805717
 31
0.0
  0
LINE
  5
1C50
330
1F
100
AcDbEntity
  8
PROFILY
100
AcDbLine
 10
1897.807196536378
 20
-37.07351096697539
 30
0.0
 11
1897.807196536378
 21
-56.32792733805718
 31
0.0
  0
LINE
  5
1C51
330
1F
100
AcDbEntity
  8
PROFILY
100
AcDbLine
 10
1903.412809462507
 20
-41.06928961470612
 30
0.0
 11
1882.882228368064
 21
-41.06928961470612
 31
0.0
  0
HATCH
  5
1C52
330
1F
100
AcDbEntity
  8
PROFILY
100
AcDbHatch
 10
0.0
 20
0.0
 30
0.0
210
0.0
220
0.0
230
1.0
  2
SOLID
 70
     1
 71
     0
 91
        4
 92
        7
 72
     0
 73
     1
 93
        6
 10
1900.1524699149
 20
8.334972204355381
 10
1897.807196536378
 20
8.334972204355381
 10
1897.807196536378
 20
-37.07351096697539
 10
1897.807196536377
 20
-41.06928961470612
 10
1900.152469914898
 20
-41.06928961470612
 10
1900.1524699149
 20
-37.78862004752364
 97
        0
 92
        7
 72
     0
 73
     1
 93
        4
 10
1900.1524699149
 20
-41.06928961470612
 10
1897.807196536378
 20
-41.06928961470612
 10
1897.807196536378
 20
-43.40295916974492
 10
1900.1524699149
 20
-43.40295916974492
 97
        0
 92
        7
 72
     0
 73
     1
 93
       10
 10
1900.152469914898
 20
-43.40295916974492
 10
1897.807196536377
 20
-43.40295916974492
 10
1897.807196536378
 20
-56.32792733805718
 10
1884.882228368063
 20
-56.32792733805718
 10
1884.882228368061
 20
-43.40295916974492
 10
1897.807196536378
 20
-43.40295916974492
 10
1897.807196536378
 20
-41.06928961470612
 10
1882.882228368064
 20
-41.06928961470612
 10
1882.882228368062
 20
-58.32792733805717
 10
1900.152469914898
 20
-58.32792733805717
 97
        0
 92
        7
 72
     0
 73
     1
 93
        6
 10
1949.54512791048
 20
-41.06928961470794
 10
1903.412809462507
 20
-41.06928961470612
 10
1900.1524699149
 20
-41.06928961470612
 10
1900.1524699149
 20
-43.40295916974492
 10
1904.136644739138
 20
-43.40295916974492
 10
1949.545127910479
 20
-43.40295916974492
 97
        0
 75
     0
 76
     1
 47
0.1559045317109681
 98
        4
 10
1899.086295109899
 20
-23.27497382539286
 10
1899.086295109899
 20
-42.91893777568612
 10
1899.710243978249
 20
-45.41343761025337
 10
1902.050112045605
 20
-42.13944361853783
  0
HATCH
  5
1C53
330
1F
100
AcDbEntity
  8
PROFILY
100
AcDbHatch
 10
0.0
 20
0.0
 30
0.0
210
0.0
220
0.0
230
1.0
  2
SOLID
 70
     1
 71
     0
 91
        4
 92
        7
 72
     0
 73
     1
 93
        6
 10
2007.183445823196
 20
8.334972204355381
 10
2004.838172444674
 20
8.334972204355381
 10
2004.838172444674
 20
-37.07351096697539
 10
2004.838172444672
 20
-41.06928961470612
 10
2007.183445823194
 20
-41.06928961470612
 10
2007.183445823196
 20
-37.78862004752364
 97
        0
 92
        7
 72
     0
 73
     1
 93
        4
 10
2007.183445823196
 20
-41.06928961470612
 10
2004.838172444674
 20
-41.06928961470612
 10
2004.838172444674
 20
-43.40295916974492
 10
2007.183445823196
 20
-43.40295916974492
 97
        0
 92
        7
 72
     0
 73
     1
 93
       10
 10
2007.183445823194
 20
-43.40295916974492
 10
2004.838172444672
 20
-43.40295916974492
 10
2004.838172444674
 20
-56.32792733805718
 10
1991.913204276358
 20
-56.32792733805718
 10
1991.913204276356
 20
-43.40295916974492
 10
2004.838172444674
 20
-43.40295916974492
 10
2004.838172444674
 20
-41.06928961470612
 10
1989.91320427636
 20
-41.06928961470612
 10
1989.913204276358
 20
-58.32792733805717
 10
2007.183445823194
 20
-58.32792733805717
 97
        0
 92
        7
 72
     0
 73
     1
 93
        6
 10
2056.576103818776
 20
-41.06928961470794
 10
2010.443785370803
 20
-41.06928961470612
 10
2007.183445823196
 20
-41.06928961470612
 10
2007.183445823196
 20
-43.40295916974492
 10
2011.167620647433
 20
-43.40295916974492
 10
2056.576103818775
 20
-43.40295916974492
 97
        0
 75
     0
 76
     1
 47
0.1559045317109681
 98
        4
 10
2006.117271018195
 20
-23.27497382539286
 10
2006.117271018195
 20
-42.91893777568612
 10
2006.741219886545
 20
-45.41343761025337
 10
2009.081087953901
 20
-42.13944361853783
  0
LINE
  5
1C54
330
1F
100
AcDbEntity
  8
PROFILY
100
AcDbLine
 10
2010.443785370803
 20
-41.06928961470612
 30
0.0
 11
1989.91320427636
 21
-41.06928961470612
 31
0.0
  0
LINE
  5
1C55
330
1F
100
AcDbEntity
  8
PROFILY
100
AcDbLine
 10
2004.838172444674
 20
-37.07351096697539
 30
0.0
 11
2004.838172444674
 21
-56.32792733805718
 31
0.0
  0
LINE
  5
1C56
330
1F
100
AcDbEntity
  8
PROFILY
100
AcDbLine
 10
2007.183445823196
 20
-37.78862004752364
 30
0.0
 11
2007.183445823194
 21
-58.32792733805717
 31
0.0
  0
LINE
  5
1C57
330
1F
100
AcDbEntity
  8
PROFILY
100
AcDbLine
 10
2011.167620647433
 20
-43.40295916974492
 30
0.0
 11
1991.913204276356
 21
-43.40295916974492
 31
0.0
  0
LINE
  5
1C58
330
1F
100
AcDbEntity
  8
PROFILY
100
AcDbLine
 10
2010.443785370803
 20
-41.06928961470612
 30
0.0
 11
2056.576103818776
 21
-41.06928961470702
 31
0.0
  0
LINE
  5
1C59
330
1F
100
AcDbEntity
  8
PROFILY
100
AcDbLine
 10
2056.576103818775
 20
-43.40295916974492
 30
0.0
 11
2011.167620647433
 21
-43.40295916974492
 31
0.0
  0
LINE
  5
1C5A
330
1F
100
AcDbEntity
  8
PROFILY
100
AcDbLine
 10
1989.91320427636
 20
-41.06928961470612
 30
0.0
 11
1989.913204276358
 21
-58.32792733805717
 31
0.0
  0
LINE
  5
1C5B
330
1F
100
AcDbEntity
  8
PROFILY
100
AcDbLine
 10
1989.913204276358
 20
-58.32792733805717
 30
0.0
 11
2007.183445823194
 21
-58.32792733805717
 31
0.0
  0
LINE
  5
1C5C
330
1F
100
AcDbEntity
  8
PROFILY
100
AcDbLine
 10
1991.913204276356
 20
-43.40295916974492
 30
0.0
 11
1991.913204276358
 21
-56.32792733805718
 31
0.0
  0
LINE
  5
1C5D
330
1F
100
AcDbEntity
  8
PROFILY
100
AcDbLine
 10
1991.913204276358
 20
-56.32792733805718
 30
0.0
 11
2004.838172444674
 21
-56.32792733805718
 31
0.0
  0
LINE
  5
1C5E
330
1F
100
AcDbEntity
  8
PROFILY
100
AcDbLine
 10
2004.838172444676
 20
8.334972204355381
 30
0.0
 11
2004.838172444674
 21
-37.07351096697539
 31
0.0
  0
LINE
  5
1C5F
330
1F
100
AcDbEntity
  8
PROFILY
100
AcDbLine
 10
2007.183445823196
 20
-37.78862004752364
 30
0.0
 11
2007.183445823196
 21
8.334972204355381
 31
0.0
  0
LINE
  5
1C60
330
1F
100
AcDbEntity
  8
PROFILY
100
AcDbLine
 10
2056.576103818776
 20
-41.06928961470612
 30
0.0
 11
2056.576103818776
 21
-43.40295916974492
 31
0.0
  0
LINE
  5
1C61
330
1F
100
AcDbEntity
  8
PROFILY
100
AcDbLine
 10
2007.183445823194
 20
8.334972204355381
 30
0.0
 11
2004.838172444674
 21
8.334972204355381
 31
0.0
  0
LINE
  5
1C62
330
1F
100
AcDbEntity
  8
PROFILY
100
AcDbLine
 10
1991.913204276356
 20
-43.40295916974492
 30
0.0
 11
1991.913204276356
 21
-33.81681369114949
 31
0.0
  0
LINE
  5
1C63
330
1F
100
AcDbEntity
  8
PROFILY
100
AcDbLine
 10
1991.913204276356
 20
-33.81681369114949
 30
0.0
 11
1989.91320427636
 21
-33.81681369114949
 31
0.0
  0
LINE
  5
1C64
330
1F
100
AcDbEntity
  8
PROFILY
100
AcDbLine
 10
1989.91320427636
 20
-41.06928961470612
 30
0.0
 11
1989.91320427636
 21
-33.81681369114949
 31
0.0
  0
LINE
  5
1C65
330
1F
100
AcDbEntity
  8
PROFILY
100
AcDbLine
 10
2007.183445823194
 20
-58.32792733805717
 30
0.0
 11
2015.33146224838
 21
-58.32792733805717
 31
0.0
  0
LINE
  5
1C66
330
1F
100
AcDbEntity
  8
PROFILY
100
AcDbLine
 10
2004.838172444674
 20
-56.32792733805718
 30
0.0
 11
2015.331462248382
 21
-56.32792733805718
 31
0.0
  0
LINE
  5
1C67
330
1F
100
AcDbEntity
  8
PROFILY
100
AcDbLine
 10
2015.331462248382
 20
-56.32792733805718
 30
0.0
 11
2015.33146224838
 21
-58.32792733805717
 31
0.0
  0
HATCH
  5
1C68
330
1F
100
AcDbEntity
  8
PROFILY
100
AcDbHatch
 10
0.0
 20
0.0
 30
0.0
210
0.0
220
0.0
230
1.0
  2
SOLID
 70
     1
 71
     0
 91
        2
 92
        7
 72
     0
 73
     1
 93
        4
 10
1991.913204276356
 20
-33.81681369114949
 10
1989.91320427636
 20
-33.81681369114949
 10
1989.91320427636
 20
-41.06928961470612
 10
1991.913204276356
 20
-41.06928961470612
 97
        0
 92
        7
 72
     0
 73
     1
 93
        4
 10
2015.331462248382
 20
-56.32792733805718
 10
2007.183445823196
 20
-56.32792733805718
 10
2007.183445823194
 20
-58.32792733805717
 10
2015.33146224838
 20
-58.32792733805717
 97
        0
 75
     0
 76
     1
 47
0.0821320457837406
 98
        2
 10
1990.924845768731
 20
-37.0548407171459
 10
2010.318638379026
 20
-57.66998682415715
  0
TEXT
  5
1C69
330
1F
100
AcDbEntity
  8
POPIS
100
AcDbText
 10
1424.443862252693
 20
802.4838480212469
 30
0.0
 40
25.0
  1
06,07
 41
0.7
  7
SIMPLEX7
100
AcDbText
  0
LINE
  5
1CB2
330
1F
100
AcDbEntity
  8
POPIS
100
AcDbLine
 10
1495.683233343866
 20
602.9217980353268
 30
0.0
 11
1597.319732467686
 21
602.9217980353268
 31
0.0
  0
TEXT
  5
1CB3
330
1F
100
AcDbEntity
  8
POPIS
100
AcDbText
 10
1455.147798049315
 20
589.4784565859563
 30
0.0
 40
25.0
  1
10
 41
0.7
  7
SIMPLEX7
100
AcDbText
  0
LINE
  5
1CB4
330
1F
100
AcDbEntity
  8
POPIS
100
AcDbLine
 10
1660.759076293162
 20
567.2167847832293
 30
0.0
 11
1602.388788878132
 21
601.5418135288
 31
0.0
  0
INSERT
  5
1CB5
330
1F
100
AcDbEntity
  8
POPIS
100
AcDbBlockReference
  2
E_PUNKT
 10
1660.742519463459
 20
566.9917460535539
 30
0.0
 41
-1.0
  0
LINE
  5
1CB6
330
1F
100
AcDbEntity
  8
PROFILY
  6
DASHED
370
    40
100
AcDbLine
 10
1660.839420006087
 20
565.3369871549162
 30
0.0
 11
1660.839420006087
 21
515.3398220062604
 31
0.0
  0
LINE
  5
1CB7
330
1F
100
AcDbEntity
  8
PROFILY
100
AcDbLine
 10
1661.039420006087
 20
565.3369871549162
 30
0.0
 11
1661.039420006087
 21
515.3398220062604
 31
0.0
  0
LINE
  5
1CB8
330
1F
100
AcDbEntity
  8
PROFILY
100
AcDbLine
 10
1660.639420006086
 20
565.3235310815041
 30
0.0
 11
1660.639420006086
 21
515.3263659328484
 31
0.0
  0
LINE
  5
1CB9
330
1F
100
AcDbEntity
  8
PROFILY
  6
DASHED
370
    40
100
AcDbLine
 10
1733.290752166422
 20
515.6458965427382
 30
0.0
 11
1683.293587017767
 21
515.6458965427382
 31
0.0
  0
LINE
  5
1CBA
330
1F
100
AcDbEntity
  8
PROFILY
100
AcDbLine
 10
1733.27729609301
 20
515.8458965427382
 30
0.0
 11
1683.280130944354
 21
515.8458965427382
 31
0.0
  0
LINE
  5
1CBB
330
1F
100
AcDbEntity
  8
PROFILY
100
AcDbLine
 10
1733.290752166422
 20
515.4458965427381
 30
0.0
 11
1683.293587017767
 21
515.4458965427381
 31
0.0
  0
TEXT
  5
1CBC
330
1F
100
AcDbEntity
  8
POPIS
100
AcDbText
 10
1706.371571723719
 20
443.7738750674355
 30
0.0
 40
25.0
  1
25
 41
0.7
  7
SIMPLEX7
100
AcDbText
  0
LINE
  5
1CBD
330
1F
100
AcDbEntity
  8
POPIS
100
AcDbLine
 10
1732.60783303459
 20
436.9416703354097
 30
0.0
 11
1661.665732325455
 21
436.9416703354097
 31
0.0
  0
LINE
  5
1CBE
330
1F
100
AcDbEntity
  8
POPIS
100
AcDbLine
 10
1665.955575139193
 20
465.7357379583106
 30
0.0
 11
1665.955575139193
 21
424.4416703354097
 31
0.0
  0
INSERT
  5
1CBF
330
1F
100
AcDbEntity
  8
POPIS
100
AcDbBlockReference
  2
_ArchTick
 10
1665.896889629109
 20
436.9416703354098
 30
0.0
 41
15.0
 42
15.0
 43
15.0
 50
180.0
  0
LINE
  5
1CC0
330
1F
100
AcDbEntity
  8
POPIS
100
AcDbLine
 10
1696.238454123003
 20
467.9246801913129
 30
0.0
 11
1696.238454123003
 21
424.4416703354097
 31
0.0
  0
INSERT
  5
1CC1
330
1F
100
AcDbEntity
  8
POPIS
100
AcDbBlockReference
  2
_ArchTick
 10
1696.238454123003
 20
436.9416703354098
 30
0.0
 41
15.0
 42
15.0
 43
15.0
  0
TEXT
  5
1CC2
330
1F
100
AcDbEntity
  8
POPIS
100
AcDbText
 10
1584.587340630019
 20
-93.45355385575885
 30
0.0
 40
25.0
  1
Podkladní EPDM páska tl.1 mm
 41
0.7
  7
SIMPLEX7
100
AcDbText
  0
TEXT
  5
1CC3
330
1F
100
AcDbEntity
  8
POPIS
100
AcDbText
 10
1530.243637470276
 20
-93.45355385575885
 30
0.0
 40
25.0
  1
10
 41
0.85
  7
SIMPLEX7
100
AcDbText
  0
ARC
  5
1CC4
330
1F
100
AcDbEntity
  8
POPIS
100
AcDbCircle
 10
1597.319732467686
 20
592.9217980353269
 30
0.0
 40
10.0
100
AcDbArc
 50
59.5420650358158
 51
90.0
  0
LINE
  5
1CC5
330
1F
100
AcDbEntity
  8
PROFILY
  6
DASHED
370
    40
100
AcDbLine
 10
2233.153370090573
 20
513.7152013693571
 30
0.0
 11
2183.156204941917
 21
513.7152013693571
 31
0.0
  0
LINE
  5
1CC6
330
1F
100
AcDbEntity
  8
PROFILY
100
AcDbLine
 10
2233.139914017161
 20
513.9152013693571
 30
0.0
 11
2183.142748868506
 21
513.9152013693571
 31
0.0
  0
LINE
  5
1CC7
330
1F
100
AcDbEntity
  8
PROFILY
100
AcDbLine
 10
2233.153370090573
 20
513.5152013693571
 30
0.0
 11
2183.156204941917
 21
513.5152013693571
 31
0.0
  0
LINE
  5
1CC8
330
1F
100
AcDbEntity
  8
PROFILY
  6
DASHED
370
    40
100
AcDbLine
 10
1661.900789155303
 20
1037.41031626023
 30
0.0
 11
1661.900789155303
 21
987.4131511115747
 31
0.0
  0
LINE
  5
1CC9
330
1F
100
AcDbEntity
  8
PROFILY
100
AcDbLine
 10
1662.100789155303
 20
1037.41031626023
 30
0.0
 11
1662.100789155303
 21
987.4131511115747
 31
0.0
  0
LINE
  5
1CCA
330
1F
100
AcDbEntity
  8
PROFILY
100
AcDbLine
 10
1661.700789155303
 20
1037.396860186818
 30
0.0
 11
1661.700789155303
 21
987.3996950381627
 31
0.0
  0
ENDSEC
  0
SECTION
  2
OBJECTS
  0
DICTIONARY
  5
C
330
0
100
AcDbDictionary
281
     1
  3
ACAD_GROUP
350
D
  3
ACAD_LAYOUT
350
1A
  3
ACAD_MLINESTYLE
350
17
  3
ACAD_PLOTSETTINGS
350
19
  3
ACAD_PLOTSTYLENAME
350
E
  3
AcDbVariableDictionary
350
1CCE
  0
DICTIONARY
  5
189B
330
1F
100
AcDbDictionary
280
     1
281
     1
  3
ACAD_LAYOUTSELFREF
360
18D7
  0
DICTIONARY
  5
189D
330
1B
100
AcDbDictionary
280
     1
281
     1
  3
ACAD_LAYOUTSELFREF
360
18D6
  0
DICTIONARY
  5
189F
330
23
100
AcDbDictionary
280
     1
281
     1
  3
ACAD_LAYOUTSELFREF
360
18D8
  0
DICTIONARY
  5
D
102
{ACAD_REACTORS
330
C
102
}
330
C
100
AcDbDictionary
281
     1
  0
DICTIONARY
  5
1A
102
{ACAD_REACTORS
330
C
102
}
330
C
100
AcDbDictionary
281
     1
  3
Model
350
22
  3
Rozvržení1
350
1E
  3
Rozvržení2
350
26
  0
DICTIONARY
  5
17
102
{ACAD_REACTORS
330
C
102
}
330
C
100
AcDbDictionary
281
     1
  3
Standard
350
18
  0
DICTIONARY
  5
19
102
{ACAD_REACTORS
330
C
102
}
330
C
100
AcDbDictionary
281
     1
  0
ACDBDICTIONARYWDFLT
  5
E
102
{ACAD_REACTORS
330
C
102
}
330
C
100
AcDbDictionary
281
     1
  3
Normal
350
F
100
AcDbDictionaryWithDefault
340
F
  0
DICTIONARY
  5
1CCE
102
{ACAD_REACTORS
330
C
102
}
330
C
100
AcDbDictionary
281
     1
  3
DIMASSOC
350
1CCF
  0
XRECORD
  5
18D7
102
{ACAD_REACTORS
330
189B
102
}
330
189B
100
AcDbXrecord
280
     1
340
1F
  0
XRECORD
  5
18D6
102
{ACAD_REACTORS
330
189D
102
}
330
189D
100
AcDbXrecord
280
     1
340
1B
  0
XRECORD
  5
18D8
102
{ACAD_REACTORS
330
189F
102
}
330
189F
100
AcDbXrecord
280
     1
340
23
  0
LAYOUT
  5
22
102
{ACAD_REACTORS
330
1A
102
}
330
1A
100
AcDbPlotSettings
  1

  2
HP DeskJet 690C
  4

  6

 40
0.0
 41
0.0
 42
0.0
 43
0.0
 44
0.0
 45
0.0
 46
0.0
 47
0.0
 48
0.0
 49
0.0
140
0.0
141
0.0
142
1.0
143
1.0
 70
  1712
 72
     0
 73
     0
 74
     0
  7
monochrome.ctb
 75
     0
147
1.0
148
0.0
149
0.0
100
AcDbLayout
  1
Model
 70
     1
 71
     0
 10
0.0
 20
0.0
 11
12.0
 21
9.0
 12
0.0
 22
0.0
 32
0.0
 14
0.0
 24
0.0
 34
0.0
 15
0.0
 25
0.0
 35
0.0
146
0.0
 13
0.0
 23
0.0
 33
0.0
 16
1.0
 26
0.0
 36
0.0
 17
0.0
 27
1.0
 37
0.0
 76
     0
330
1F
  0
LAYOUT
  5
1E
102
{ACAD_REACTORS
330
1A
102
}
330
1A
100
AcDbPlotSettings
  1

  2
HP DeskJet 690C
  4

  6

 40
0.0
 41
0.0
 42
0.0
 43
0.0
 44
0.0
 45
0.0
 46
0.0
 47
0.0
 48
0.0
 49
0.0
140
0.0
141
0.0
142
1.0
143
1.0
 70
   688
 72
     0
 73
     0
 74
     5
  7
monochrome.ctb
 75
    16
147
1.0
148
0.0
149
0.0
100
AcDbLayout
  1
Rozvržení1
 70
     1
 71
     1
 10
0.0
 20
0.0
 11
420.0
 21
297.0
 12
0.0
 22
0.0
 32
0.0
 14
1.000000000000000E+20
 24
1.000000000000000E+20
 34
1.000000000000000E+20
 15
-1.000000000000000E+20
 25
-1.000000000000000E+20
 35
-1.000000000000000E+20
146
0.0
 13
0.0
 23
0.0
 33
0.0
 16
1.0
 26
0.0
 36
0.0
 17
0.0
 27
1.0
 37
0.0
 76
     0
330
1B
  0
LAYOUT
  5
26
102
{ACAD_REACTORS
330
1A
102
}
330
1A
100
AcDbPlotSettings
  1

  2
HP DeskJet 690C
  4

  6

 40
0.0
 41
0.0
 42
0.0
 43
0.0
 44
0.0
 45
0.0
 46
0.0
 47
0.0
 48
0.0
 49
0.0
140
0.0
141
0.0
142
1.0
143
1.0
 70
   688
 72
     0
 73
     0
 74
     5
  7
monochrome.ctb
 75
    16
147
1.0
148
0.0
149
0.0
100
AcDbLayout
  1
Rozvržení2
 70
     1
 71
     2
 10
0.0
 20
0.0
 11
12.0
 21
9.0
 12
0.0
 22
0.0
 32
0.0
 14
0.0
 24
0.0
 34
0.0
 15
0.0
 25
0.0
 35
0.0
146
0.0
 13
0.0
 23
0.0
 33
0.0
 16
1.0
 26
0.0
 36
0.0
 17
0.0
 27
1.0
 37
0.0
 76
     0
330
23
  0
MLINESTYLE
  5
18
102
{ACAD_REACTORS
330
17
102
}
330
17
100
AcDbMlineStyle
  2
STANDARD
 70
     0
  3

 62
   256
 51
90.0
 52
90.0
 71
     2
 49
0.5
 62
   256
  6
BYLAYER
 49
-0.5
 62
   256
  6
BYLAYER
  0
ACDBPLACEHOLDER
  5
F
102
{ACAD_REACTORS
330
E
102
}
330
E
  0
DICTIONARYVAR
  5
1CCF
102
{ACAD_REACTORS
330
1CCE
102
}
330
1CCE
100
DictionaryVariables
280
     0
  1
1
  0
ENDSEC
  0
EOF
