  0
SECTION
  2
HEADER
  9
$ACADVER
  1
AC1015
  9
$ACADMAINTVER
 70
    14
  9
$DWGCODEPAGE
  3
ANSI_1250
  9
$INSBASE
 10
0.0
 20
0.0
 30
0.0
  9
$EXTMIN
 10
1742.106715730902
 20
52.09363736366777
 30
-0.0000000000112498
  9
$EXTMAX
 10
2557.582492652873
 20
1236.609979187752
 30
0.0000000000002956
  9
$LIMMIN
 10
0.0
 20
0.0
  9
$LIMMAX
 10
420.0
 20
297.0
  9
$ORTHOMODE
 70
     0
  9
$REGENMODE
 70
     1
  9
$FILLMODE
 70
     1
  9
$QTEXTMODE
 70
     0
  9
$MIRRTEXT
 70
     1
  9
$LTSCALE
 40
1.0
  9
$ATTMODE
 70
     1
  9
$TEXTSIZE
 40
2.5
  9
$TRACEWID
 40
1.0
  9
$TEXTSTYLE
  7
Standard
  9
$CLAYER
  8
POPIS
  9
$CELTYPE
  6
ByLayer
  9
$CECOLOR
 62
   256
  9
$CELTSCALE
 40
1.0
  9
$DISPSILH
 70
     0
  9
$DIMSCALE
 40
1.0
  9
$DIMASZ
 40
2.5
  9
$DIMEXO
 40
0.625
  9
$DIMDLI
 40
3.75
  9
$DIMRND
 40
0.0
  9
$DIMDLE
 40
0.0
  9
$DIMEXE
 40
1.25
  9
$DIMTP
 40
0.0
  9
$DIMTM
 40
0.0
  9
$DIMTXT
 40
2.5
  9
$DIMCEN
 40
2.5
  9
$DIMTSZ
 40
0.0
  9
$DIMTOL
 70
     0
  9
$DIMLIM
 70
     0
  9
$DIMTIH
 70
     0
  9
$DIMTOH
 70
     0
  9
$DIMSE1
 70
     0
  9
$DIMSE2
 70
     0
  9
$DIMTAD
 70
     1
  9
$DIMZIN
 70
     8
  9
$DIMBLK
  1

  9
$DIMASO
 70
     1
  9
$DIMSHO
 70
     1
  9
$DIMPOST
  1

  9
$DIMAPOST
  1

  9
$DIMALT
 70
     0
  9
$DIMALTD
 70
     3
  9
$DIMALTF
 40
0.03937007874016
  9
$DIMLFAC
 40
1.0
  9
$DIMTOFL
 70
     1
  9
$DIMTVP
 40
0.0
  9
$DIMTIX
 70
     0
  9
$DIMSOXD
 70
     0
  9
$DIMSAH
 70
     0
  9
$DIMBLK1
  1

  9
$DIMBLK2
  1

  9
$DIMSTYLE
  2
ISO-25
  9
$DIMCLRD
 70
     0
  9
$DIMCLRE
 70
     0
  9
$DIMCLRT
 70
     0
  9
$DIMTFAC
 40
1.0
  9
$DIMGAP
 40
0.625
  9
$DIMJUST
 70
     0
  9
$DIMSD1
 70
     0
  9
$DIMSD2
 70
     0
  9
$DIMTOLJ
 70
     0
  9
$DIMTZIN
 70
     8
  9
$DIMALTZ
 70
     0
  9
$DIMALTTZ
 70
     0
  9
$DIMUPT
 70
     0
  9
$DIMDEC
 70
     2
  9
$DIMTDEC
 70
     2
  9
$DIMALTU
 70
     2
  9
$DIMALTTD
 70
     3
  9
$DIMTXSTY
  7
Standard
  9
$DIMAUNIT
 70
     0
  9
$DIMADEC
 70
     0
  9
$DIMALTRND
 40
0.0
  9
$DIMAZIN
 70
     0
  9
$DIMDSEP
 70
    44
  9
$DIMATFIT
 70
     3
  9
$DIMFRAC
 70
     0
  9
$DIMLDRBLK
  1

  9
$DIMLUNIT
 70
     2
  9
$DIMLWD
 70
    -2
  9
$DIMLWE
 70
    -2
  9
$DIMTMOVE
 70
     0
  9
$LUNITS
 70
     2
  9
$LUPREC
 70
     4
  9
$SKETCHINC
 40
1.0
  9
$FILLETRAD
 40
10.0
  9
$AUNITS
 70
     0
  9
$AUPREC
 70
     0
  9
$MENU
  1
.
  9
$ELEVATION
 40
0.0
  9
$PELEVATION
 40
0.0
  9
$THICKNESS
 40
0.0
  9
$LIMCHECK
 70
     0
  9
$CHAMFERA
 40
10.0
  9
$CHAMFERB
 40
10.0
  9
$CHAMFERC
 40
20.0
  9
$CHAMFERD
 40
0.0
  9
$SKPOLY
 70
     0
  9
$TDCREATE
 40
2452339.360978703
  9
$TDUCREATE
 40
2452339.319312037
  9
$TDUPDATE
 40
2455610.261187905
  9
$TDUUPDATE
 40
2455610.219521238
  9
$TDINDWG
 40
0.0128325231
  9
$TDUSRTIMER
 40
0.0128318287
  9
$USRTIMER
 70
     1
  9
$ANGBASE
 50
0.0
  9
$ANGDIR
 70
     0
  9
$PDMODE
 70
     0
  9
$PDSIZE
 40
0.0
  9
$PLINEWID
 40
0.0
  9
$SPLFRAME
 70
     0
  9
$SPLINETYPE
 70
     6
  9
$SPLINESEGS
 70
     8
  9
$HANDSEED
  5
23B0
  9
$SURFTAB1
 70
     6
  9
$SURFTAB2
 70
     6
  9
$SURFTYPE
 70
     6
  9
$SURFU
 70
     6
  9
$SURFV
 70
     6
  9
$UCSBASE
  2

  9
$UCSNAME
  2

  9
$UCSORG
 10
0.0
 20
0.0
 30
0.0
  9
$UCSXDIR
 10
1.0
 20
0.0
 30
0.0
  9
$UCSYDIR
 10
0.0
 20
1.0
 30
0.0
  9
$UCSORTHOREF
  2

  9
$UCSORTHOVIEW
 70
     0
  9
$UCSORGTOP
 10
0.0
 20
0.0
 30
0.0
  9
$UCSORGBOTTOM
 10
0.0
 20
0.0
 30
0.0
  9
$UCSORGLEFT
 10
0.0
 20
0.0
 30
0.0
  9
$UCSORGRIGHT
 10
0.0
 20
0.0
 30
0.0
  9
$UCSORGFRONT
 10
0.0
 20
0.0
 30
0.0
  9
$UCSORGBACK
 10
0.0
 20
0.0
 30
0.0
  9
$PUCSBASE
  2

  9
$PUCSNAME
  2

  9
$PUCSORG
 10
0.0
 20
0.0
 30
0.0
  9
$PUCSXDIR
 10
1.0
 20
0.0
 30
0.0
  9
$PUCSYDIR
 10
0.0
 20
1.0
 30
0.0
  9
$PUCSORTHOREF
  2

  9
$PUCSORTHOVIEW
 70
     0
  9
$PUCSORGTOP
 10
0.0
 20
0.0
 30
0.0
  9
$PUCSORGBOTTOM
 10
0.0
 20
0.0
 30
0.0
  9
$PUCSORGLEFT
 10
0.0
 20
0.0
 30
0.0
  9
$PUCSORGRIGHT
 10
0.0
 20
0.0
 30
0.0
  9
$PUCSORGFRONT
 10
0.0
 20
0.0
 30
0.0
  9
$PUCSORGBACK
 10
0.0
 20
0.0
 30
0.0
  9
$USERI1
 70
     0
  9
$USERI2
 70
     0
  9
$USERI3
 70
     0
  9
$USERI4
 70
     0
  9
$USERI5
 70
     0
  9
$USERR1
 40
0.0
  9
$USERR2
 40
0.0
  9
$USERR3
 40
0.0
  9
$USERR4
 40
0.0
  9
$USERR5
 40
0.0
  9
$WORLDVIEW
 70
     1
  9
$SHADEDGE
 70
     3
  9
$SHADEDIF
 70
    70
  9
$TILEMODE
 70
     1
  9
$MAXACTVP
 70
    48
  9
$PINSBASE
 10
0.0
 20
0.0
 30
0.0
  9
$PLIMCHECK
 70
     0
  9
$PEXTMIN
 10
1.000000000000000E+20
 20
1.000000000000000E+20
 30
1.000000000000000E+20
  9
$PEXTMAX
 10
-1.000000000000000E+20
 20
-1.000000000000000E+20
 30
-1.000000000000000E+20
  9
$PLIMMIN
 10
0.0
 20
0.0
  9
$PLIMMAX
 10
420.0
 20
297.0
  9
$UNITMODE
 70
     0
  9
$VISRETAIN
 70
     1
  9
$PLINEGEN
 70
     0
  9
$PSLTSCALE
 70
     1
  9
$TREEDEPTH
 70
  3020
  9
$CMLSTYLE
  2
Standard
  9
$CMLJUST
 70
     0
  9
$CMLSCALE
 40
20.0
  9
$PROXYGRAPHICS
 70
     1
  9
$MEASUREMENT
 70
     1
  9
$CELWEIGHT
370
    -1
  9
$ENDCAPS
280
     0
  9
$JOINSTYLE
280
     0
  9
$LWDISPLAY
290
     0
  9
$INSUNITS
 70
     4
  9
$HYPERLINKBASE
  1

  9
$STYLESHEET
  1

  9
$XEDIT
290
     1
  9
$CEPSNTYPE
380
     0
  9
$PSTYLEMODE
290
     1
  9
$FINGERPRINTGUID
  2
{9C079773-E80E-4585-A7F4-852C8B38093D}
  9
$VERSIONGUID
  2
{B85AFEDE-D6FB-4829-9C51-5B8E0EA0BD0C}
  9
$EXTNAMES
290
     1
  9
$PSVPSCALE
 40
0.0
  9
$OLESTARTUP
290
     0
  0
ENDSEC
  0
SECTION
  2
CLASSES
  0
CLASS
  1
ACDBDICTIONARYWDFLT
  2
AcDbDictionaryWithDefault
  3
AutoCAD 2000
 90
        0
280
     0
281
     0
  0
CLASS
  1
ACDBPLACEHOLDER
  2
AcDbPlaceHolder
  3
AutoCAD 2000
 90
        0
280
     0
281
     0
  0
CLASS
  1
LAYOUT
  2
AcDbLayout
  3
AutoCAD 2000
 90
        0
280
     0
281
     0
  0
CLASS
  1
LONG_TRANSACTION
  2
AcDbLongTransaction
  3
AutoCAD 2000
 90
    32768
280
     0
281
     0
  0
CLASS
  1
LWPOLYLINE
  2
AcDbPolyline
  3
AutoCAD 2000
 90
    32768
280
     0
281
     1
  0
CLASS
  1
HATCH
  2
AcDbHatch
  3
AutoCAD 2000
 90
    32768
280
     0
281
     1
  0
CLASS
  1
XRECORD
  2
AcDbXrecord
  3
AutoCAD 2000
 90
    32768
280
     0
281
     0
  0
CLASS
  1
DICTIONARYVAR
  2
AcDbDictionaryVar
  3
AutoCAD 2000
 90
        0
280
     0
281
     0
  0
ENDSEC
  0
SECTION
  2
TABLES
  0
TABLE
  2
VPORT
  5
8
330
0
100
AcDbSymbolTable
 70
     2
  0
VPORT
  5
23AF
330
8
100
AcDbSymbolTableRecord
100
AcDbViewportTableRecord
  2
*Active
 70
     0
 10
0.0
 20
0.0
 11
1.0
 21
1.0
 12
2149.844604191887
 22
644.35180827571
 13
0.0
 23
0.0
 14
10.0
 24
10.0
 15
10.0
 25
10.0
 16
0.0
 26
0.0
 36
1.0
 17
0.0
 27
0.0
 37
0.0
 40
1193.215360246293
 41
2.031862745098039
 42
50.0
 43
0.0
 44
0.0
 50
0.0
 51
0.0
 71
     0
 72
   100
 73
     1
 74
     3
 75
     0
 76
     0
 77
     0
 78
     0
281
     0
 65
     1
110
0.0
120
0.0
130
0.0
111
1.0
121
0.0
131
0.0
112
0.0
122
1.0
132
0.0
 79
     0
146
0.0
  0
ENDTAB
  0
TABLE
  2
LTYPE
  5
5
330
0
100
AcDbSymbolTable
 70
     4
  0
LTYPE
  5
14
330
5
100
AcDbSymbolTableRecord
100
AcDbLinetypeTableRecord
  2
ByBlock
 70
     0
  3

 72
    65
 73
     0
 40
0.0
  0
LTYPE
  5
15
330
5
100
AcDbSymbolTableRecord
100
AcDbLinetypeTableRecord
  2
ByLayer
 70
     0
  3

 72
    65
 73
     0
 40
0.0
  0
LTYPE
  5
16
330
5
100
AcDbSymbolTableRecord
100
AcDbLinetypeTableRecord
  2
Continuous
 70
     0
  3
Solid line
 72
    65
 73
     0
 40
0.0
  0
LTYPE
  5
3F
330
5
100
AcDbSymbolTableRecord
100
AcDbLinetypeTableRecord
  2
IZOLACE
 70
     0
  3
Izolace SSSSSSSSSSSSSSSSSSSSSSSSSSSSSSSSSSSSSSS
 72
    65
 73
     4
 40
10.16253999999999
 49
0.00254
 74
     0
 49
-2.54
 74
     4
 75
   134
340
4A
 46
2.54
 50
0.0
 44
-2.54
 45
0.0
 49
-5.08
 74
     4
 75
   134
340
4A
 46
2.54
 50
180.0
 44
2.54
 45
0.0
 49
-2.54
 74
     0
  0
LTYPE
  5
40
330
5
100
AcDbSymbolTableRecord
100
AcDbLinetypeTableRecord
  2
DASHED
 70
     0
  3
Dashed __ __ __ __ __ __ __ __ __ __ __ __ __ _
 72
    65
 73
     2
 40
19.04999999999999
 49
12.7
 74
     0
 49
-6.349999999999999
 74
     0
  0
LTYPE
  5
41
330
5
100
AcDbSymbolTableRecord
100
AcDbLinetypeTableRecord
  2
DASHDOT2
 70
     0
  3
Dash dot (.5x) _._._._._._._._._._._._._._._.
 72
    65
 73
     4
 40
12.7
 49
6.349999999999999
 74
     0
 49
-3.174999999999999
 74
     0
 49
0.0
 74
     0
 49
-3.174999999999999
 74
     0
  0
ENDTAB
  0
TABLE
  2
LAYER
  5
2
330
0
100
AcDbSymbolTable
 70
     8
  0
LAYER
  5
10
330
2
100
AcDbSymbolTableRecord
100
AcDbLayerTableRecord
  2
0
 70
     0
 62
     7
  6
Continuous
370
    -3
390
F
  0
LAYER
  5
42
330
2
100
AcDbSymbolTableRecord
100
AcDbLayerTableRecord
  2
POPIS
 70
     0
 62
    30
  6
Continuous
370
    -3
390
F
  0
LAYER
  5
43
330
2
100
AcDbSymbolTableRecord
100
AcDbLayerTableRecord
  2
SPOJOVACÍ
 70
     0
 62
   180
  6
Continuous
370
    -3
390
F
  0
LAYER
  5
44
330
2
100
AcDbSymbolTableRecord
100
AcDbLayerTableRecord
  2
CETRIS
 70
     0
 62
     1
  6
Continuous
370
    -3
390
F
  0
LAYER
  5
45
330
2
100
AcDbSymbolTableRecord
100
AcDbLayerTableRecord
  2
NOSNÉ KONSTRUKCE
 70
     0
 62
    33
  6
Continuous
370
    -3
390
F
  0
LAYER
  5
46
330
2
100
AcDbSymbolTableRecord
100
AcDbLayerTableRecord
  2
PROFILY
 70
     0
 62
    73
  6
Continuous
370
    -3
390
F
  0
LAYER
  5
47
330
2
100
AcDbSymbolTableRecord
100
AcDbLayerTableRecord
  2
STAVBA OBRYS
 70
     0
 62
     6
  6
Continuous
370
    -3
390
F
  0
LAYER
  5
48
330
2
100
AcDbSymbolTableRecord
100
AcDbLayerTableRecord
  2
Defpoints
 70
     0
 62
     7
  6
Continuous
290
     0
370
    -3
390
F
  0
ENDTAB
  0
TABLE
  2
STYLE
  5
3
330
0
100
AcDbSymbolTable
 70
     3
  0
STYLE
  5
11
330
3
100
AcDbSymbolTableRecord
100
AcDbTextStyleTableRecord
  2
Standard
 70
     0
 40
0.0
 41
1.0
 50
0.0
 71
     0
 42
2.5
  3
txt
  4

  0
STYLE
  5
49
330
3
100
AcDbSymbolTableRecord
100
AcDbTextStyleTableRecord
  2
SIMPLEX7
 70
     0
 40
0.0
 41
0.85
 50
0.0
 71
     0
 42
102.0
  3
ARIAL.TTF
  4

1001
ACAD
1000
Arial CE
1071
    60962
  0
STYLE
  5
4A
330
3
100
AcDbSymbolTableRecord
100
AcDbTextStyleTableRecord
  2

 70
     1
 40
0.0
 41
1.0
 50
0.0
 71
     0
 42
2.5
  3
ltypeshp.shx
  4

  0
ENDTAB
  0
TABLE
  2
VIEW
  5
6
330
0
100
AcDbSymbolTable
 70
     0
  0
ENDTAB
  0
TABLE
  2
UCS
  5
7
330
0
100
AcDbSymbolTable
 70
     0
  0
ENDTAB
  0
TABLE
  2
APPID
  5
9
330
0
100
AcDbSymbolTable
 70
     1
  0
APPID
  5
12
330
9
100
AcDbSymbolTableRecord
100
AcDbRegAppTableRecord
  2
ACAD
 70
     0
  0
ENDTAB
  0
TABLE
  2
DIMSTYLE
  5
A
330
0
100
AcDbSymbolTable
 70
     1
100
AcDbDimStyleTable
 71
     0
  0
DIMSTYLE
105
27
330
A
100
AcDbSymbolTableRecord
100
AcDbDimStyleTableRecord
  2
ISO-25
 70
     0
 41
2.5
 42
0.625
 43
3.75
 44
1.25
 73
     0
 74
     0
 77
     1
 78
     8
140
2.5
141
2.5
143
0.03937007874016
147
0.625
171
     3
172
     1
271
     2
272
     2
274
     3
278
    44
283
     0
284
     8
340
11
  0
ENDTAB
  0
TABLE
  2
BLOCK_RECORD
  5
1
330
0
100
AcDbSymbolTable
 70
     3
  0
BLOCK_RECORD
  5
1F
102
{ACAD_XDICTIONARY
360
231B
102
}
330
1
100
AcDbSymbolTableRecord
100
AcDbBlockTableRecord
  2
*Model_Space
340
22
  0
BLOCK_RECORD
  5
1B
102
{ACAD_XDICTIONARY
360
231D
102
}
330
1
100
AcDbSymbolTableRecord
100
AcDbBlockTableRecord
  2
*Paper_Space
340
1E
  0
BLOCK_RECORD
  5
23
102
{ACAD_XDICTIONARY
360
231F
102
}
330
1
100
AcDbSymbolTableRecord
100
AcDbBlockTableRecord
  2
*Paper_Space0
340
26
  0
BLOCK_RECORD
  5
2B
330
1
100
AcDbSymbolTableRecord
100
AcDbBlockTableRecord
  2
E_PUNKT
340
0
102
{BLKREFS
331
21A6
331
2227
331
22C3
331
2307
331
230A
331
230B
331
2380
102
}
  0
BLOCK_RECORD
  5
2360
330
1
100
AcDbSymbolTableRecord
100
AcDbBlockTableRecord
  2
_ArchTick
340
0
102
{BLKREFS
331
2388
331
2389
102
}
  0
ENDTAB
  0
ENDSEC
  0
SECTION
  2
BLOCKS
  0
BLOCK
  5
20
330
1F
100
AcDbEntity
  8
0
100
AcDbBlockBegin
  2
*Model_Space
 70
     0
 10
0.0
 20
0.0
 30
0.0
  3
*Model_Space
  1

  0
ENDBLK
  5
21
330
1F
100
AcDbEntity
  8
0
100
AcDbBlockEnd
  0
BLOCK
  5
1C
330
1B
100
AcDbEntity
 67
     1
  8
0
100
AcDbBlockBegin
  2
*Paper_Space
 70
     0
 10
0.0
 20
0.0
 30
0.0
  3
*Paper_Space
  1

  0
ENDBLK
  5
1D
330
1B
100
AcDbEntity
 67
     1
  8
0
100
AcDbBlockEnd
  0
BLOCK
  5
24
330
23
100
AcDbEntity
  8
0
100
AcDbBlockBegin
  2
*Paper_Space0
 70
     0
 10
0.0
 20
0.0
 30
0.0
  3
*Paper_Space0
  1

  0
ENDBLK
  5
25
330
23
100
AcDbEntity
  8
0
100
AcDbBlockEnd
  0
BLOCK
  5
2D
330
2B
100
AcDbEntity
  8
0
100
AcDbBlockBegin
  2
E_PUNKT
 70
     0
 10
0.0
 20
0.0
 30
0.0
  3
E_PUNKT
  1

  0
LWPOLYLINE
  5
2C
330
2B
100
AcDbEntity
  8
POPIS
100
AcDbPolyline
 90
        2
 70
     1
 43
2.5
 10
1.27761037562675
 20
0.0290683308725193
 42
-1.0
 10
-1.222389624373249
 20
0.0290683308725193
 42
-1.0
  0
ENDBLK
  5
2E
330
2B
100
AcDbEntity
  8
0
100
AcDbBlockEnd
  0
BLOCK
  5
2362
330
2360
100
AcDbEntity
  8
0
100
AcDbBlockBegin
  2
_ArchTick
 70
     0
 10
0.0
 20
0.0
 30
0.0
  3
_ArchTick
  1

  0
LWPOLYLINE
  5
2361
330
2360
100
AcDbEntity
  8
0
  6
ByBlock
 62
     0
100
AcDbPolyline
 90
        2
 70
     0
 43
0.15
 10
-0.5
 20
-0.5
 10
0.5
 20
0.5
  0
ENDBLK
  5
2363
330
2360
100
AcDbEntity
  8
0
100
AcDbBlockEnd
  0
ENDSEC
  0
SECTION
  2
ENTITIES
  0
INSERT
  5
21A6
330
1F
100
AcDbEntity
  8
POPIS
100
AcDbBlockReference
  2
E_PUNKT
 10
2008.130031589279
 20
844.7320148817484
 30
0.0
  0
LINE
  5
21A7
330
1F
100
AcDbEntity
  8
SPOJOVACÍ
100
AcDbLine
 10
2529.14594457327
 20
506.6261165136888
 30
0.0
 11
2523.462004115467
 21
508.1491237691802
 31
0.0
  0
LINE
  5
21A8
330
1F
100
AcDbEntity
  8
SPOJOVACÍ
100
AcDbLine
 10
2529.14594457327
 20
505.044085263687
 30
0.0
 11
2523.462004115467
 21
506.5670925191811
 31
0.0
  0
LINE
  5
21A9
330
1F
100
AcDbEntity
  8
SPOJOVACÍ
100
AcDbLine
 10
2529.14594457327
 20
500.2979915136871
 30
0.0
 11
2523.462004115467
 21
501.8209987691821
 31
0.0
  0
LINE
  5
21AA
330
1F
100
AcDbEntity
  8
SPOJOVACÍ
100
AcDbLine
 10
2529.14594457327
 20
501.8800227636861
 30
0.0
 11
2523.462004115467
 21
503.4030300191821
 31
0.0
  0
LINE
  5
21AB
330
1F
100
AcDbEntity
  8
SPOJOVACÍ
100
AcDbLine
 10
2529.14594457327
 20
503.462054013687
 30
0.0
 11
2523.462004115467
 21
504.9850612691821
 31
0.0
  0
LINE
  5
21AC
330
1F
100
AcDbEntity
  8
SPOJOVACÍ
100
AcDbLine
 10
2529.14594457327
 20
497.1339290136889
 30
0.0
 11
2523.462004115467
 21
498.6569362691803
 31
0.0
  0
LINE
  5
21AD
330
1F
100
AcDbEntity
  8
SPOJOVACÍ
100
AcDbLine
 10
2529.14594457327
 20
498.7159602636871
 30
0.0
 11
2523.462004115467
 21
500.2389675191811
 31
0.0
  0
LINE
  5
21AE
330
1F
100
AcDbEntity
  8
SPOJOVACÍ
100
AcDbLine
 10
2529.14594457327
 20
523.8106362120466
 30
0.0
 11
2529.14594457327
 21
495.0436464391855
 31
0.0
  0
LINE
  5
21AF
330
1F
100
AcDbEntity
  8
SPOJOVACÍ
100
AcDbLine
 10
2523.462004115467
 20
523.8106362120466
 30
0.0
 11
2523.462004115467
 21
495.0436464391855
 31
0.0
  0
LINE
  5
21B0
330
1F
100
AcDbEntity
  8
SPOJOVACÍ
100
AcDbLine
 10
2521.286632261885
 20
494.1760555693595
 30
0.0
 11
2521.286632261885
 21
494.17130947561
 31
0.0
  0
LINE
  5
21B1
330
1F
100
AcDbEntity
  8
SPOJOVACÍ
100
AcDbLine
 10
2519.388194761885
 20
495.0465990993138
 30
0.0
 11
2519.388194761887
 21
493.6626833081004
 31
0.0
  0
LINE
  5
21B2
330
1F
100
AcDbEntity
  8
SPOJOVACÍ
100
AcDbLine
 10
2533.626476011884
 20
493.6626833081004
 30
0.0
 11
2533.626476011885
 21
495.0465990993138
 31
0.0
  0
LINE
  5
21B3
330
1F
100
AcDbEntity
  8
SPOJOVACÍ
100
AcDbLine
 10
2526.507335386885
 20
493.6626833081004
 30
0.0
 11
2519.388194761885
 21
493.6626833081004
 31
0.0
  0
LINE
  5
21B4
330
1F
100
AcDbEntity
  8
SPOJOVACÍ
100
AcDbLine
 10
2522.67136720982
 20
493.6626833081004
 30
0.0
 11
2533.626476011885
 21
493.6626833081004
 31
0.0
  0
ELLIPSE
  5
21B5
330
1F
100
AcDbEntity
  8
SPOJOVACÍ
100
AcDbEllipse
 10
2526.507335386885
 20
493.1133888607996
 30
0.0
 11
-7.321312510456553
 21
0.0000000000000004
 31
0.0
210
0.0
220
0.0
230
1.0
 40
0.3214803388886193
 41
-0.2355512395776302
 42
3.377143893167422
  0
HATCH
  5
21B6
330
1F
100
AcDbEntity
  8
SPOJOVACÍ
100
AcDbHatch
 10
0.0
 20
0.0
 30
0.0
210
0.0
220
0.0
230
1.0
  2
ANSI37
 70
     0
 71
     0
 91
        1
 92
        7
 72
     0
 73
     1
 93
        6
 10
2526.507335386885
 20
493.6626833081004
 10
2533.626476011882
 20
493.6626833081004
 10
2533.626476011887
 20
495.0465990993138
 10
2526.507335386885
 20
495.0465990993138
 10
2519.388194761887
 20
495.0465990993138
 10
2519.388194761887
 20
493.6626833081004
 97
        0
 75
     0
 76
     1
 52
0.0
 41
0.9
 77
     0
 78
     2
 53
45.00000000000001
 43
-7556.353976683998
 44
-3347.183616344233
 45
-2.020557627240559
 46
2.020557627240559
 79
     0
 53
135.0
 43
-7556.353976683998
 44
-3347.183616344233
 45
-2.020557627240559
 46
-2.020557627240559
 79
     0
 47
0.0246402553748132
 98
        1
 10
2526.106489725199
 20
494.1336347500705
  0
LINE
  5
21B7
330
1F
100
AcDbEntity
  8
SPOJOVACÍ
100
AcDbLine
 10
2519.388194761885
 20
495.0465990993138
 30
0.0
 11
2526.507335386885
 21
495.0465990993138
 31
0.0
  0
LINE
  5
21B8
330
1F
100
AcDbEntity
  8
SPOJOVACÍ
100
AcDbLine
 10
2526.507335386885
 20
495.0465990993138
 30
0.0
 11
2533.626476011885
 21
495.0465990993138
 31
0.0
  0
LINE
  5
21B9
330
1F
100
AcDbEntity
  8
SPOJOVACÍ
100
AcDbLine
 10
2529.14594457327
 20
517.7003352636861
 30
0.0
 11
2523.462004115467
 21
519.2233425191784
 31
0.0
  0
LINE
  5
21BA
330
1F
100
AcDbEntity
  8
SPOJOVACÍ
100
AcDbLine
 10
2529.14594457327
 20
516.1183040136861
 30
0.0
 11
2523.462004115467
 21
517.6413112691802
 31
0.0
  0
LINE
  5
21BB
330
1F
100
AcDbEntity
  8
SPOJOVACÍ
100
AcDbLine
 10
2529.14594457327
 20
514.5362727636843
 30
0.0
 11
2523.462004115467
 21
516.0592800191802
 31
0.0
  0
LINE
  5
21BC
330
1F
100
AcDbEntity
  8
SPOJOVACÍ
100
AcDbLine
 10
2529.14594457327
 20
511.372210263687
 30
0.0
 11
2523.462004115467
 21
512.8952175191803
 31
0.0
  0
LINE
  5
21BD
330
1F
100
AcDbEntity
  8
SPOJOVACÍ
100
AcDbLine
 10
2529.14594457327
 20
512.954241513687
 30
0.0
 11
2523.462004115467
 21
514.4772487691803
 31
0.0
  0
LINE
  5
21BE
330
1F
100
AcDbEntity
  8
SPOJOVACÍ
100
AcDbLine
 10
2529.14594457327
 20
509.790179013687
 30
0.0
 11
2523.462004115467
 21
511.3131862691821
 31
0.0
  0
LINE
  5
21BF
330
1F
100
AcDbEntity
  8
SPOJOVACÍ
100
AcDbLine
 10
2529.14594457327
 20
508.2081477636888
 30
0.0
 11
2523.462004115467
 21
509.7311550191802
 31
0.0
  0
LINE
  5
21C0
330
1F
100
AcDbEntity
  8
SPOJOVACÍ
100
AcDbLine
 10
2526.303974344369
 20
526.0002291346495
 30
0.0
 11
2523.462004115467
 21
523.8106362120466
 31
0.0
  0
LINE
  5
21C1
330
1F
100
AcDbEntity
  8
SPOJOVACÍ
100
AcDbLine
 10
2526.303974344369
 20
526.0002291346495
 30
0.0
 11
2529.14594457327
 21
523.8106362120466
 31
0.0
  0
LINE
  5
21C2
330
1F
100
AcDbEntity
  8
SPOJOVACÍ
100
AcDbLine
 10
2529.14594457327
 20
524.0284602636861
 30
0.0
 11
2525.138462565403
 21
525.102261831375
 31
0.0
  0
LINE
  5
21C3
330
1F
100
AcDbEntity
  8
SPOJOVACÍ
100
AcDbLine
 10
2529.14594457327
 20
522.4464290136852
 30
0.0
 11
2523.462004115467
 21
523.9694362691802
 31
0.0
  0
LINE
  5
21C4
330
1F
100
AcDbEntity
  8
SPOJOVACÍ
100
AcDbLine
 10
2529.14594457327
 20
520.864397763687
 30
0.0
 11
2523.462004115467
 21
522.3874050191784
 31
0.0
  0
LINE
  5
21C5
330
1F
100
AcDbEntity
  8
SPOJOVACÍ
100
AcDbLine
 10
2529.14594457327
 20
519.282366513687
 30
0.0
 11
2523.462004115467
 21
520.8053737691784
 31
0.0
  0
LWPOLYLINE
  5
21C6
330
1F
100
AcDbEntity
  8
NOSNÉ KONSTRUKCE
100
AcDbPolyline
 90
        9
 70
     0
 43
0.0
 10
2542.361888582713
 20
533.4299918749179
 42
0.0064239028828688
 10
2542.400757022894
 20
533.2108782155678
 42
0.0832048017309575
 10
2543.184939625575
 20
530.880664635913
 42
0.0336767237692336
 10
2544.887756184497
 20
528.1523901164523
 42
0.0844635135812105
 10
2545.80756594439
 20
527.2479685114571
 42
0.0495829410719565
 10
2547.556244381744
 20
526.2713190041445
 42
0.0322692699774654
 10
2550.447598562834
 20
525.2297955027438
 42
0.0276160659512937
 10
2551.303175001122
 20
525.0330600737993
 42
0.0126891984598699
 10
2552.226343396915
 20
524.8978576842578
  0
LWPOLYLINE
  5
21D1
330
1F
100
AcDbEntity
  8
NOSNÉ KONSTRUKCE
100
AcDbPolyline
 90
        3
 70
     0
 43
0.0
 10
2545.517945939215
 20
527.9126611793994
 10
2528.762728319488
 20
519.5289203114311
 10
2520.595623670363
 20
511.3476186103339
  0
LWPOLYLINE
  5
21D2
330
1F
100
AcDbEntity
  8
NOSNÉ KONSTRUKCE
100
AcDbPolyline
 90
       10
 70
     0
 43
0.0
 10
2528.184059538295
 20
533.4299918749179
 42
0.0168162630274194
 10
2528.31908511736
 20
531.7389537227986
 42
0.0575155827655532
 10
2528.999117397702
 20
528.6393290620813
 42
0.0310289133982999
 10
2532.00191874253
 20
521.3943015374366
 42
0.0882970623535771
 10
2533.639140662623
 20
519.1539324866367
 42
0.0171636441953577
 10
2536.452504724481
 20
516.6400151313914
 42
0.0157521173632038
 10
2539.691359561517
 20
514.1085190788849
 42
0.0073640874174249
 10
2544.325008917839
 20
510.8201176531488
 42
0.0194185739168057
 10
2546.147052237516
 20
509.6685486538676
 42
0.0229547400386702
 10
2548.532510301528
 20
508.4299918749179
 42
0.0229547400386702
  0
LWPOLYLINE
  5
21D3
330
1F
100
AcDbEntity
  8
NOSNÉ KONSTRUKCE
100
AcDbPolyline
 90
       11
 70
     0
 43
0.0
 10
2535.133837561977
 20
533.4299918749179
 42
0.0072417954699014
 10
2535.189407929819
 20
533.0185866636433
 42
0.0707158694326265
 10
2535.720534446239
 20
531.0824832110497
 42
0.033952657250207
 10
2537.969190285647
 20
526.7294454858761
 42
0.0571374688189033
 10
2539.755347045499
 20
524.4225212021897
 42
0.0274923553235744
 10
2542.352652776052
 20
522.0374458790551
 42
0.0255412025538677
 10
2545.404082813763
 20
519.7807322020358
 42
0.0272796991712396
 10
2549.517081966948
 20
517.3643963203735
 42
0.056967459841729
 10
2551.65802924768
 20
516.5516604851741
 42
0.0373408083348504
 10
2551.880383623153
 20
516.5124949442229
 42
0.0052305969362967
 10
2552.226343396915
 20
516.4815379773186
  0
LWPOLYLINE
  5
21E0
330
1F
100
AcDbEntity
  8
NOSNÉ KONSTRUKCE
100
AcDbPolyline
 90
        4
 70
     0
 43
0.0
 10
2502.229178248263
 20
508.4299918749179
 10
2552.226343396915
 20
508.4299918749179
 10
2552.226343396915
 20
533.4299918749179
 10
2502.229178248263
 20
533.4299918749179
  0
LWPOLYLINE
  5
21E1
330
1F
100
AcDbEntity
  8
NOSNÉ KONSTRUKCE
100
AcDbPolyline
 90
        4
 70
     0
 43
0.0
 10
2502.229178248263
 20
523.2146706678626
 42
0.0067781046155075
 10
2504.222186687965
 20
513.101298692452
 42
0.0219777111230329
 10
2505.128299189948
 20
509.5831854366165
 42
0.0092752982622242
 10
2505.503526151892
 20
508.4299918749179
  0
LWPOLYLINE
  5
21E2
330
1F
100
AcDbEntity
  8
NOSNÉ KONSTRUKCE
100
AcDbPolyline
 90
        3
 70
     0
 43
0.0
 10
2526.225368313971
 20
526.9308223056627
 10
2506.229115881978
 20
517.7147932551429
 10
2502.229178248263
 20
517.0693957798007
  0
LINE
  5
21E3
330
1F
100
AcDbEntity
  8
NOSNÉ KONSTRUKCE
100
AcDbLine
 10
2502.229178248263
 20
533.4299918749179
 30
0.0
 11
2502.229178248263
 21
508.4299918749179
 31
0.0
  0
LWPOLYLINE
  5
21E4
330
1F
100
AcDbEntity
  8
NOSNÉ KONSTRUKCE
100
AcDbPolyline
 90
        6
 70
     0
 43
0.0
 10
2510.692784934742
 20
533.4299918749179
 42
0.0128837512779302
 10
2510.977576894968
 20
530.0968270531716
 42
0.0351641677647434
 10
2511.605336616491
 20
526.4931175988326
 42
0.0187319685742942
 10
2514.989352497482
 20
514.7348802566898
 42
0.0582629403736403
 10
2516.648852365563
 20
511.1550460577578
 42
0.0146402521923566
 10
2518.433260347145
 20
508.4299918749179
  0
LWPOLYLINE
  5
21E5
330
1F
100
AcDbEntity
  8
NOSNÉ KONSTRUKCE
100
AcDbPolyline
 90
        8
 70
     0
 43
0.0
 10
2519.317000314785
 20
533.4299918749179
 42
0.0120721047703142
 10
2519.385983004823
 20
531.6961037361738
 42
0.044358077361292
 10
2519.781610739496
 20
529.000303717757
 42
0.0188067511131767
 10
2521.80143418788
 20
521.7580745424506
 42
0.0457786284636091
 10
2523.009457077495
 20
518.9094641595707
 42
0.0295006114745606
 10
2525.425517531795
 20
514.9825649461686
 42
0.0258674098621065
 10
2528.658192845758
 20
510.8367848674147
 42
0.0093759062953949
 10
2530.824005025414
 20
508.4299918749179
 42
0.0093759062953949
  0
LWPOLYLINE
  5
21E6
330
1F
100
AcDbEntity
  8
NOSNÉ KONSTRUKCE
100
AcDbPolyline
 90
        7
 70
     0
 43
0.0
 10
2547.711574917232
 20
533.4299918749179
 42
0.0203924744732807
 10
2548.613658901645
 20
532.4168618457638
 42
0.0273961979096945
 10
2549.46352325184
 20
531.6286854717377
 42
0.0243529190212958
 10
2550.62664374426
 20
530.75492612707
 42
0.0398020282482987
 10
2551.40160228182
 20
530.3152973836236
 42
0.104168275620852
 10
2551.78801341816
 20
530.2252809234464
 42
0.007272956268647
 10
2552.226343396915
 20
530.2068275721516
 42
0.007272956268647
  0
LINE
  5
21E7
330
1F
100
AcDbEntity
  8
SPOJOVACÍ
100
AcDbLine
 10
1999.114205843453
 20
1008.006928103457
 30
0.0
 11
1996.92461292085
 21
1010.848898332358
 31
0.0
  0
LINE
  5
21E8
330
1F
100
AcDbEntity
  8
SPOJOVACÍ
100
AcDbLine
 10
1999.114205843453
 20
1008.006928103457
 30
0.0
 11
1996.92461292085
 21
1005.164957874557
 31
0.0
  0
LINE
  5
21E9
330
1F
100
AcDbEntity
  8
SPOJOVACÍ
100
AcDbLine
 10
1997.142436972489
 20
1005.164957874557
 30
0.0
 11
1998.21623854018
 21
1009.172439882423
 31
0.0
  0
LINE
  5
21EA
330
1F
100
AcDbEntity
  8
SPOJOVACÍ
100
AcDbLine
 10
1995.560405722487
 20
1005.164957874557
 30
0.0
 11
1997.083412977984
 21
1010.848898332358
 31
0.0
  0
LINE
  5
21EB
330
1F
100
AcDbEntity
  8
SPOJOVACÍ
100
AcDbLine
 10
1993.97837447249
 20
1005.164957874557
 30
0.0
 11
1995.501381727982
 21
1010.848898332358
 31
0.0
  0
LINE
  5
21EC
330
1F
100
AcDbEntity
  8
SPOJOVACÍ
100
AcDbLine
 10
1992.39634322249
 20
1005.164957874557
 30
0.0
 11
1993.919350477982
 21
1010.848898332358
 31
0.0
  0
LINE
  5
21ED
330
1F
100
AcDbEntity
  8
SPOJOVACÍ
100
AcDbLine
 10
1989.232280722489
 20
1005.164957874557
 30
0.0
 11
1990.755287977984
 21
1010.848898332358
 31
0.0
  0
LINE
  5
21EE
330
1F
100
AcDbEntity
  8
SPOJOVACÍ
100
AcDbLine
 10
1987.650249472487
 20
1005.164957874557
 30
0.0
 11
1989.173256727984
 21
1010.848898332358
 31
0.0
  0
LINE
  5
21EF
330
1F
100
AcDbEntity
  8
SPOJOVACÍ
100
AcDbLine
 10
1984.486186972491
 20
1005.164957874557
 30
0.0
 11
1986.009194227984
 21
1010.848898332358
 31
0.0
  0
LINE
  5
21F0
330
1F
100
AcDbEntity
  8
SPOJOVACÍ
100
AcDbLine
 10
1986.068218222491
 20
1005.164957874557
 30
0.0
 11
1987.591225477984
 21
1010.848898332358
 31
0.0
  0
LINE
  5
21F1
330
1F
100
AcDbEntity
  8
SPOJOVACÍ
100
AcDbLine
 10
1982.90415572249
 20
1005.164957874557
 30
0.0
 11
1984.427162977986
 21
1010.848898332358
 31
0.0
  0
LINE
  5
21F2
330
1F
100
AcDbEntity
  8
SPOJOVACÍ
100
AcDbLine
 10
1981.322124472493
 20
1005.164957874557
 30
0.0
 11
1982.845131727984
 21
1010.848898332358
 31
0.0
  0
LINE
  5
21F3
330
1F
100
AcDbEntity
  8
SPOJOVACÍ
100
AcDbLine
 10
1979.740093222491
 20
1005.164957874557
 30
0.0
 11
1981.263100477984
 21
1010.848898332358
 31
0.0
  0
LINE
  5
21F4
330
1F
100
AcDbEntity
  8
SPOJOVACÍ
100
AcDbLine
 10
1978.15806197249
 20
1005.164957874557
 30
0.0
 11
1979.681069227986
 21
1010.848898332358
 31
0.0
  0
LINE
  5
21F5
330
1F
100
AcDbEntity
  8
SPOJOVACÍ
100
AcDbLine
 10
1973.411968222491
 20
1005.164957874557
 30
0.0
 11
1974.934975477986
 21
1010.848898332358
 31
0.0
  0
LINE
  5
21F6
330
1F
100
AcDbEntity
  8
SPOJOVACÍ
100
AcDbLine
 10
1974.993999472489
 20
1005.164957874557
 30
0.0
 11
1976.517006727986
 21
1010.848898332358
 31
0.0
  0
LINE
  5
21F7
330
1F
100
AcDbEntity
  8
SPOJOVACÍ
100
AcDbLine
 10
1976.57603072249
 20
1005.164957874557
 30
0.0
 11
1978.099037977986
 21
1010.848898332358
 31
0.0
  0
LINE
  5
21F8
330
1F
100
AcDbEntity
  8
SPOJOVACÍ
100
AcDbLine
 10
1970.247905722492
 20
1005.164957874557
 30
0.0
 11
1971.770912977984
 21
1010.848898332358
 31
0.0
  0
LINE
  5
21F9
330
1F
100
AcDbEntity
  8
SPOJOVACÍ
100
AcDbLine
 10
1971.829936972491
 20
1005.164957874557
 30
0.0
 11
1973.352944227985
 21
1010.848898332358
 31
0.0
  0
LINE
  5
21FA
330
1F
100
AcDbEntity
  8
SPOJOVACÍ
100
AcDbLine
 10
1990.814311972489
 20
1005.164957874557
 30
0.0
 11
1992.337319227982
 21
1010.848898332358
 31
0.0
  0
LINE
  5
21FB
330
1F
100
AcDbEntity
  8
SPOJOVACÍ
100
AcDbLine
 10
1996.92461292085
 20
1005.164957874557
 30
0.0
 11
1968.157623147989
 21
1005.164957874557
 31
0.0
  0
LINE
  5
21FC
330
1F
100
AcDbEntity
  8
SPOJOVACÍ
100
AcDbLine
 10
1996.92461292085
 20
1010.848898332358
 30
0.0
 11
1968.157623147989
 21
1010.848898332358
 31
0.0
  0
ELLIPSE
  5
21FD
330
1F
100
AcDbEntity
  8
SPOJOVACÍ
100
AcDbEllipse
 10
1966.230143563202
 20
1008.071132105983
 30
0.0
 11
0.0000000000000018
 21
7.321312510456553
 31
0.0
210
0.0
220
0.0
230
1.0
 40
0.3214803388886193
 41
-0.2355512395776302
 42
3.377143893167422
  0
HATCH
  5
21FE
330
1F
100
AcDbEntity
  8
SPOJOVACÍ
100
AcDbHatch
 10
0.0
 20
0.0
 30
0.0
210
0.0
220
0.0
230
1.0
  2
ANSI37
 70
     0
 71
     0
 91
        1
 92
        7
 72
     0
 73
     1
 93
        6
 10
1966.779438010503
 20
1008.071132105983
 10
1966.779438010505
 20
1000.951991480985
 10
1968.163353801716
 20
1000.951991480983
 10
1968.163353801716
 20
1008.071132105983
 10
1968.163353801718
 20
1015.190272730983
 10
1966.779438010503
 20
1015.190272730982
 97
        0
 75
     0
 76
     1
 52
-90.00000000000001
 41
0.9
 77
     0
 78
     2
 53
315.0
 43
-1874.066861641829
 44
11090.93244417686
 45
2.02055762724056
 46
2.020557627240558
 79
     0
 53
44.99999999999999
 43
-1874.066861641829
 44
11090.93244417686
 45
-2.020557627240558
 46
2.02055762724056
 79
     0
 47
0.0246402553748132
 98
        1
 10
1967.250389452473
 20
1008.47197776767
  0
LINE
  5
21FF
330
1F
100
AcDbEntity
  8
SPOJOVACÍ
100
AcDbLine
 10
1966.779438010503
 20
1011.907100283049
 30
0.0
 11
1966.779438010503
 21
1000.951991480983
 31
0.0
  0
LINE
  5
2200
330
1F
100
AcDbEntity
  8
SPOJOVACÍ
100
AcDbLine
 10
1966.779438010503
 20
1000.951991480985
 30
0.0
 11
1968.163353801716
 21
1000.951991480983
 31
0.0
  0
LINE
  5
2201
330
1F
100
AcDbEntity
  8
SPOJOVACÍ
100
AcDbLine
 10
1967.292810271762
 20
1013.291835230984
 30
0.0
 11
1967.288064178013
 21
1013.291835230984
 31
0.0
  0
LINE
  5
2202
330
1F
100
AcDbEntity
  8
SPOJOVACÍ
100
AcDbLine
 10
1968.163353801716
 20
1015.190272730983
 30
0.0
 11
1968.163353801716
 21
1008.071132105983
 31
0.0
  0
LINE
  5
2203
330
1F
100
AcDbEntity
  8
SPOJOVACÍ
100
AcDbLine
 10
1968.163353801716
 20
1015.190272730983
 30
0.0
 11
1966.779438010503
 21
1015.190272730982
 31
0.0
  0
LINE
  5
2204
330
1F
100
AcDbEntity
  8
SPOJOVACÍ
100
AcDbLine
 10
1967.292810271762
 20
1013.291835230984
 30
0.0
 11
1967.288064178013
 21
1013.291835230984
 31
0.0
  0
LINE
  5
2205
330
1F
100
AcDbEntity
  8
SPOJOVACÍ
100
AcDbLine
 10
1966.779438010503
 20
1008.071132105983
 30
0.0
 11
1966.779438010503
 21
1015.190272730983
 31
0.0
  0
LINE
  5
2206
330
1F
100
AcDbEntity
  8
SPOJOVACÍ
100
AcDbLine
 10
1968.163353801716
 20
1008.071132105983
 30
0.0
 11
1968.163353801716
 21
1000.951991480983
 31
0.0
  0
LINE
  5
2207
330
1F
100
AcDbEntity
  8
NOSNÉ KONSTRUKCE
100
AcDbLine
 10
2007.087622593316
 20
1030.008090322909
 30
0.0
 11
1982.087622593316
 21
1030.008090322909
 31
0.0
  0
LWPOLYLINE
  5
2208
330
1F
100
AcDbEntity
  8
NOSNÉ KONSTRUKCE
100
AcDbPolyline
 90
        4
 70
     0
 43
0.0
 10
1996.872301386261
 20
1030.008090322909
 42
0.0067781046155075
 10
1986.75892941085
 20
1028.015081883207
 42
0.0219777111230329
 10
1983.240816155015
 20
1027.108969381224
 42
0.0092752982622242
 10
1982.087622593316
 20
1026.733742419278
  0
LWPOLYLINE
  5
2209
330
1F
100
AcDbEntity
  8
NOSNÉ KONSTRUKCE
100
AcDbPolyline
 90
        3
 70
     0
 43
0.0
 10
2000.58845302406
 20
1006.011900257202
 10
1991.372423973541
 20
1026.008152689195
 10
1990.727026498198
 20
1030.008090322909
  0
LWPOLYLINE
  5
220A
330
1F
100
AcDbEntity
  8
NOSNÉ KONSTRUKCE
100
AcDbPolyline
 90
        6
 70
     0
 43
0.0
 10
2007.087622593316
 20
1021.54448363643
 42
0.0128837512779302
 10
2003.75445777157
 20
1021.259691676204
 42
0.0351641677647434
 10
2000.15074831723
 20
1020.631931954681
 42
0.0187319685742942
 10
1988.392510975088
 20
1017.24791607369
 42
0.0582629403736403
 10
1984.812676776155
 20
1015.588416205609
 42
0.0146402521923566
 10
1982.087622593316
 20
1013.804008224025
  0
LWPOLYLINE
  5
220B
330
1F
100
AcDbEntity
  8
NOSNÉ KONSTRUKCE
100
AcDbPolyline
 90
        8
 70
     0
 43
0.0
 10
2007.087622593316
 20
1012.920268256387
 42
0.0120721047703142
 10
2005.353734454572
 20
1012.851285566349
 42
0.044358077361292
 10
2002.657934436155
 20
1012.455657831676
 42
0.0188067511131767
 10
1995.415705260849
 20
1010.435834383293
 42
0.0457786284636091
 10
1992.567094877968
 20
1009.227811493677
 42
0.0295006114745606
 10
1988.640195664566
 20
1006.811751039378
 42
0.0258674098621065
 10
1984.494415585812
 20
1003.579075725414
 42
0.0093759062953949
 10
1982.087622593316
 20
1001.413263545757
 42
0.0093759062953949
  0
LWPOLYLINE
  5
220C
330
1F
100
AcDbEntity
  8
NOSNÉ KONSTRUKCE
100
AcDbPolyline
 90
        4
 70
     0
 43
0.0
 10
1982.087622593316
 20
1030.008090322909
 10
1982.087622593316
 20
980.0109251742556
 10
2007.087622593316
 20
980.0109251742556
 10
2007.087622593316
 20
1030.008090322909
  0
LWPOLYLINE
  5
220D
330
1F
100
AcDbEntity
  8
NOSNÉ KONSTRUKCE
100
AcDbPolyline
 90
        9
 70
     0
 43
0.0
 10
2007.087622593316
 20
989.8753799884575
 42
0.0064239028828688
 10
2006.868508933965
 20
989.836511548277
 42
0.0832048017309575
 10
2004.538295354311
 20
989.0523289455954
 42
0.0336767237692336
 10
2001.81002083485
 20
987.3495123866737
 42
0.0844635135812105
 10
2000.905599229855
 20
986.4297026267809
 42
0.0495829410719565
 10
1999.928949722542
 20
984.6810241894267
 42
0.0322692699774654
 10
1998.887426221142
 20
981.7896700083361
 42
0.0276160659512937
 10
1998.690690792197
 20
980.9340935700488
 42
0.0126891984598699
 10
1998.555488402655
 20
980.0109251742556
  0
LWPOLYLINE
  5
2218
330
1F
100
AcDbEntity
  8
NOSNÉ KONSTRUKCE
100
AcDbPolyline
 90
       11
 70
     0
 43
0.0
 10
2007.087622593316
 20
997.103431009194
 42
0.0072417954699014
 10
2006.676217382041
 20
997.0478606413522
 42
0.0707158694326265
 10
2004.740113929448
 20
996.5167341249321
 42
0.033952657250207
 10
2000.387076204274
 20
994.2680782855235
 42
0.0571374688189033
 10
1998.080151920587
 20
992.4819215256716
 42
0.0274923553235744
 10
1995.695076597453
 20
989.8846157951188
 42
0.0255412025538677
 10
1993.438362920434
 20
986.833185757408
 42
0.0272796991712396
 10
1991.022027038772
 20
982.7201866042228
 42
0.056967459841729
 10
1990.209291203572
 20
980.5792393234909
 42
0.0373408083348504
 10
1990.170125662621
 20
980.3568849480175
 42
0.0052305969362967
 10
1990.139168695717
 20
980.0109251742556
  0
LWPOLYLINE
  5
2225
330
1F
100
AcDbEntity
  8
NOSNÉ KONSTRUKCE
100
AcDbPolyline
 90
       10
 70
     0
 43
0.0
 10
2007.087622593316
 20
1004.053209032877
 42
0.0168162630274194
 10
2005.396584441196
 20
1003.918183453813
 42
0.0575155827655532
 10
2002.296959780479
 20
1003.23815117347
 42
0.0310289133982999
 10
1995.051932255835
 20
1000.235349828642
 42
0.0882970623535771
 10
1992.811563205035
 20
998.5981279085494
 42
0.0171636441953577
 10
1990.297645849789
 20
995.7847638466914
 42
0.0157521173632038
 10
1987.766149797283
 20
992.545909009655
 42
0.0073640874174249
 10
1984.477748371547
 20
987.9122596533338
 42
0.0194185739168057
 10
1983.326179372266
 20
986.0902163336573
 42
0.0229547400386702
 10
1982.087622593316
 20
983.7047582696436
 42
0.0229547400386702
  0
LWPOLYLINE
  5
2226
330
1F
100
AcDbEntity
  8
NOSNÉ KONSTRUKCE
100
AcDbPolyline
 90
        3
 70
     0
 43
0.0
 10
2001.570291897797
 20
986.7193226319573
 10
1993.186551029829
 20
1003.474540251685
 10
1985.005249328732
 20
1011.641644900809
  0
INSERT
  5
2227
330
1F
100
AcDbEntity
  8
POPIS
100
AcDbBlockReference
  2
E_PUNKT
 10
1995.992861440178
 20
554.8903759850359
 30
0.0
  0
TEXT
  5
2228
330
1F
100
AcDbEntity
  8
POPIS
100
AcDbText
 10
1775.486575577483
 20
541.6127457177931
 30
0.0
 40
25.0
  1
04
 41
0.7
  7
SIMPLEX7
100
AcDbText
  0
LINE
  5
2229
330
1F
100
AcDbEntity
  8
POPIS
100
AcDbLine
 10
1816.022010872034
 20
555.0560871671637
 30
0.0
 11
1995.873005733184
 21
555.0560871671637
 31
0.0
  0
HATCH
  5
222A
330
1F
100
AcDbEntity
  8
STAVBA OBRYS
100
AcDbHatch
 10
0.0
 20
0.0
 30
0.0
210
0.0
220
0.0
230
1.0
  2
BRICK
 70
     0
 71
     0
 91
        1
 92
        7
 72
     1
 73
     1
 93
       27
 10
2537.768102843612
 20
855.3058559651232
 42
0.0
 10
2330.272908619382
 20
855.3058559651232
 42
0.0
 10
2330.272908619384
 20
1030.107774770856
 42
0.0
 10
2093.680038044739
 20
1031.153928308266
 42
0.0
 10
2093.680038044735
 20
894.6295572348349
 42
0.0
 10
2175.752237670466
 20
894.6295572348349
 42
0.0
 10
2179.541098812025
 20
888.0670572348348
 42
0.0
 10
2175.752237670468
 20
881.5045572348349
 42
0.0
 10
2093.680038044735
 20
881.5045572348349
 42
0.0
 10
2093.680038044735
 20
785.962719265231
 42
0.0
 10
2148.702311670385
 20
750.9700492906763
 42
-0.7504443238550776
 10
2151.007075204864
 20
750.2992483616858
 42
-1.0
 10
2148.507075204864
 20
750.2992483616858
 42
-0.1425670458322046
 10
2148.702311670385
 20
750.9700492906763
 42
0.0
 10
2093.680038044734
 20
785.962719265231
 42
0.0
 10
2093.680038044734
 20
620.3058559651231
 42
0.0
 10
2122.561118437138
 20
620.305855965124
 42
0.0
 10
2122.561118437136
 20
702.7209172731268
 42
0.0
 10
2129.123618437138
 20
706.5097784146842
 42
0.0
 10
2135.686118437138
 20
702.7209172731286
 42
0.0
 10
2135.686118437134
 20
620.3058559651231
 42
0.0
 10
2475.00762610905
 20
620.3058559651231
 42
0.0
 10
2475.007626109051
 20
702.7209172731286
 42
0.0
 10
2481.570126109051
 20
706.5097784146851
 42
0.0
 10
2488.13262610905
 20
702.7209172731295
 42
0.0
 10
2488.13262610905
 20
620.3058559651231
 42
0.0
 10
2550.677884672991
 20
620.3058559651231
 42
0.0
 97
        0
 75
     0
 76
     1
 52
0.0
 41
10.0
 77
     0
 78
     3
 53
0.0
 43
-11062.95908183945
 44
-3065.850722278415
 45
0.0
 46
63.5
 79
     0
 53
90.0
 43
-11062.95908183945
 44
-3065.850722278415
 45
-127.0
 46
0.0000000000000078
 79
     2
 49
63.5
 49
-63.5
 53
90.0
 43
-10999.45908183945
 44
-3065.850722278415
 45
-127.0
 46
0.0000000000000078
 79
     2
 49
-63.5
 49
63.5
 47
0.790326209828927
 98
        1
 10
2281.418945698001
 20
743.4017678949253
  0
LINE
  5
222B
330
1F
100
AcDbEntity
  8
SPOJOVACÍ
100
AcDbLine
 10
1968.163353801716
 20
525.729309253858
 30
0.0
 11
1968.163353801716
 21
518.6101686288579
 31
0.0
  0
LINE
  5
222C
330
1F
100
AcDbEntity
  8
SPOJOVACÍ
100
AcDbLine
 10
1966.779438010503
 20
525.729309253858
 30
0.0
 11
1966.779438010503
 21
532.8484498788579
 31
0.0
  0
LINE
  5
222D
330
1F
100
AcDbEntity
  8
SPOJOVACÍ
100
AcDbLine
 10
1967.292810271762
 20
530.950012378858
 30
0.0
 11
1967.288064178013
 21
530.950012378858
 31
0.0
  0
LINE
  5
222E
330
1F
100
AcDbEntity
  8
SPOJOVACÍ
100
AcDbLine
 10
1968.163353801716
 20
532.8484498788579
 30
0.0
 11
1966.779438010503
 21
532.8484498788562
 31
0.0
  0
LINE
  5
222F
330
1F
100
AcDbEntity
  8
SPOJOVACÍ
100
AcDbLine
 10
1968.163353801716
 20
532.8484498788579
 30
0.0
 11
1968.163353801716
 21
525.729309253858
 31
0.0
  0
LINE
  5
2230
330
1F
100
AcDbEntity
  8
SPOJOVACÍ
100
AcDbLine
 10
1967.292810271762
 20
530.950012378858
 30
0.0
 11
1967.288064178013
 21
530.950012378858
 31
0.0
  0
LINE
  5
2231
330
1F
100
AcDbEntity
  8
SPOJOVACÍ
100
AcDbLine
 10
1966.779438010503
 20
518.6101686288598
 30
0.0
 11
1968.163353801716
 21
518.6101686288579
 31
0.0
  0
LINE
  5
2232
330
1F
100
AcDbEntity
  8
SPOJOVACÍ
100
AcDbLine
 10
1966.779438010503
 20
529.5652774309233
 30
0.0
 11
1966.779438010503
 21
518.6101686288579
 31
0.0
  0
HATCH
  5
2233
330
1F
100
AcDbEntity
  8
SPOJOVACÍ
100
AcDbHatch
 10
0.0
 20
0.0
 30
0.0
210
0.0
220
0.0
230
1.0
  2
ANSI37
 70
     0
 71
     0
 91
        1
 92
        7
 72
     0
 73
     1
 93
        6
 10
1966.779438010503
 20
525.729309253858
 10
1966.779438010505
 20
518.6101686288598
 10
1968.163353801716
 20
518.6101686288579
 10
1968.163353801716
 20
525.729309253858
 10
1968.163353801718
 20
532.8484498788579
 10
1966.779438010503
 20
532.8484498788562
 97
        0
 75
     0
 76
     1
 52
-90.00000000000001
 41
0.9
 77
     0
 78
     2
 53
315.0
 43
-1874.066861641829
 44
10608.59062132474
 45
2.02055762724056
 46
2.020557627240558
 79
     0
 53
44.99999999999999
 43
-1874.066861641829
 44
10608.59062132474
 45
-2.020557627240558
 46
2.02055762724056
 79
     0
 47
0.0246402553748132
 98
        1
 10
1967.250389452473
 20
526.1301549155446
  0
ELLIPSE
  5
2234
330
1F
100
AcDbEntity
  8
SPOJOVACÍ
100
AcDbEllipse
 10
1966.230143563202
 20
525.729309253858
 30
0.0
 11
0.0000000000000018
 21
7.321312510456553
 31
0.0
210
0.0
220
0.0
230
1.0
 40
0.3214803388886193
 41
-0.2355512395776302
 42
3.377143893167422
  0
LINE
  5
2235
330
1F
100
AcDbEntity
  8
SPOJOVACÍ
100
AcDbLine
 10
2022.204284975413
 20
495.0465990993138
 30
0.0
 11
2029.323425600413
 21
495.0465990993138
 31
0.0
  0
LINE
  5
2236
330
1F
100
AcDbEntity
  8
SPOJOVACÍ
100
AcDbLine
 10
2015.085144350413
 20
495.0465990993138
 30
0.0
 11
2022.204284975413
 21
495.0465990993138
 31
0.0
  0
HATCH
  5
2237
330
1F
100
AcDbEntity
  8
SPOJOVACÍ
100
AcDbHatch
 10
0.0
 20
0.0
 30
0.0
210
0.0
220
0.0
230
1.0
  2
ANSI37
 70
     0
 71
     0
 91
        1
 92
        7
 72
     0
 73
     1
 93
        6
 10
2022.204284975413
 20
493.6626833081004
 10
2029.323425600409
 20
493.6626833081004
 10
2029.323425600413
 20
495.0465990993138
 10
2022.204284975413
 20
495.0465990993138
 10
2015.085144350411
 20
495.0465990993138
 10
2015.085144350415
 20
493.6626833081004
 97
        0
 75
     0
 76
     1
 52
0.0
 41
0.9
 77
     0
 78
     2
 53
45.00000000000001
 43
-8060.657027095471
 44
-3347.183616344233
 45
-2.020557627240559
 46
2.020557627240559
 79
     0
 53
135.0
 43
-8060.657027095471
 44
-3347.183616344233
 45
-2.020557627240559
 46
-2.020557627240559
 79
     0
 47
0.0246402553748132
 98
        1
 10
2021.803439313726
 20
494.1336347500705
  0
ELLIPSE
  5
2238
330
1F
100
AcDbEntity
  8
SPOJOVACÍ
100
AcDbEllipse
 10
2022.204284975413
 20
493.1133888607996
 30
0.0
 11
-7.321312510456553
 21
0.0000000000000004
 31
0.0
210
0.0
220
0.0
230
1.0
 40
0.3214803388886193
 41
-0.2355512395776302
 42
3.377143893167422
  0
LINE
  5
2239
330
1F
100
AcDbEntity
  8
SPOJOVACÍ
100
AcDbLine
 10
2018.368316798348
 20
493.6626833081004
 30
0.0
 11
2029.323425600413
 21
493.6626833081004
 31
0.0
  0
LINE
  5
223A
330
1F
100
AcDbEntity
  8
SPOJOVACÍ
100
AcDbLine
 10
2022.204284975413
 20
493.6626833081004
 30
0.0
 11
2015.085144350413
 21
493.6626833081004
 31
0.0
  0
LINE
  5
223B
330
1F
100
AcDbEntity
  8
SPOJOVACÍ
100
AcDbLine
 10
2029.323425600411
 20
493.6626833081004
 30
0.0
 11
2029.323425600413
 21
495.0465990993138
 31
0.0
  0
LINE
  5
223C
330
1F
100
AcDbEntity
  8
SPOJOVACÍ
100
AcDbLine
 10
2015.085144350413
 20
495.0465990993138
 30
0.0
 11
2015.085144350415
 21
493.6626833081004
 31
0.0
  0
LINE
  5
223D
330
1F
100
AcDbEntity
  8
SPOJOVACÍ
100
AcDbLine
 10
2016.983581850413
 20
494.1760555693595
 30
0.0
 11
2016.983581850413
 21
494.17130947561
 31
0.0
  0
HATCH
  5
223E
330
1F
100
AcDbEntity
  8
PROFILY
100
AcDbHatch
 10
0.0
 20
0.0
 30
0.0
210
0.0
220
0.0
230
1.0
  2
SOLID
 70
     1
 71
     0
 91
        1
 92
        7
 72
     0
 73
     1
 93
        4
 10
2555.388516228436
 20
536.1346072140309
 10
2555.388015094296
 20
534.1346072768133
 10
2536.205660551918
 20
534.1394137433285
 10
2536.206161686056
 20
536.1394136805443
 97
        0
 75
     0
 76
     1
 47
0.0801976285649081
 98
        1
 10
2542.047492785538
 20
535.8002769543886
  0
HATCH
  5
223F
330
1F
100
AcDbEntity
  8
PROFILY
100
AcDbHatch
 10
0.0
 20
0.0
 30
0.0
210
0.0
220
0.0
230
1.0
  2
SOLID
 70
     1
 71
     0
 91
        1
 92
        7
 72
     0
 73
     1
 93
        4
 10
2517.105280028329
 20
536.1346072140309
 10
2517.104778894189
 20
534.1346072768133
 10
2497.922424351812
 20
534.1394137433285
 10
2497.92292548595
 20
536.1394136805443
 97
        0
 75
     0
 76
     1
 47
0.0801976285649081
 98
        1
 10
2503.764256585432
 20
535.8002769543886
  0
LINE
  5
2240
330
1F
100
AcDbEntity
  8
PROFILY
100
AcDbLine
 10
2007.43063814879
 20
534.2536522065761
 30
0.0
 11
2556.17865938577
 21
534.1161540186362
 31
0.0
  0
LINE
  5
2241
330
1F
100
AcDbEntity
  8
PROFILY
100
AcDbLine
 10
2009.606225728143
 20
536.2531071387361
 30
0.0
 11
2556.178659385768
 21
536.1161540814168
 31
0.0
  0
HATCH
  5
2242
330
1F
100
AcDbEntity
  8
PROFILY
100
AcDbHatch
 10
0.0
 20
0.0
 30
0.0
210
0.0
220
0.0
230
1.0
  2
SOLID
 70
     1
 71
     0
 91
        1
 92
        7
 72
     0
 73
     1
 93
        4
 10
2026.788580333305
 20
536.2488018063627
 10
2026.788079199165
 20
534.2488018691451
 10
2007.605724656789
 20
534.2536083356604
 10
2007.606225790928
 20
536.2536082728761
 97
        0
 75
     0
 76
     1
 47
0.0801976285649081
 98
        1
 10
2013.447556890409
 20
535.9144715467205
  0
HATCH
  5
2243
330
1F
100
AcDbEntity
  8
PROFILY
100
AcDbHatch
 10
0.0
 20
0.0
 30
0.0
210
0.0
220
0.0
230
1.0
  2
SOLID
 70
     1
 71
     0
 91
        1
 92
        7
 72
     0
 73
     1
 93
        4
 10
2062.629364016057
 20
536.239821285942
 10
2062.628862881919
 20
534.2398213487244
 10
2043.446508339541
 20
534.2446278152396
 10
2043.447009473681
 20
536.2446277524554
 97
        0
 75
     0
 76
     1
 47
0.0801976285649081
 98
        1
 10
2049.288340573163
 20
535.9054910262998
  0
HATCH
  5
2244
330
1F
100
AcDbEntity
  8
PROFILY
100
AcDbHatch
 10
0.0
 20
0.0
 30
0.0
210
0.0
220
0.0
230
1.0
  2
SOLID
 70
     1
 71
     0
 91
        1
 92
        7
 72
     0
 73
     1
 93
        4
 10
2128.406053588733
 20
536.2233398130715
 10
2128.405552454595
 20
534.223339875854
 10
2109.223197912217
 20
534.2281463423709
 10
2109.223699046356
 20
536.2281462795867
 97
        0
 75
     0
 76
     1
 47
0.0801976285649081
 98
        1
 10
2115.06503014584
 20
535.8890095534311
  0
HATCH
  5
2245
330
1F
100
AcDbEntity
  8
PROFILY
100
AcDbHatch
 10
0.0
 20
0.0
 30
0.0
210
0.0
220
0.0
230
1.0
  2
SOLID
 70
     1
 71
     0
 91
        1
 92
        7
 72
     0
 73
     1
 93
        4
 10
2096.315614418931
 20
536.2313806206288
 10
2096.315113284791
 20
534.2313806834113
 10
2077.132758742413
 20
534.2361871499265
 10
2077.133259876553
 20
536.2361870871422
 97
        0
 75
     0
 76
     1
 47
0.0801976285649081
 98
        1
 10
2082.974590976035
 20
535.8970503609866
  0
HATCH
  5
2246
330
1F
100
AcDbEntity
  8
PROFILY
100
AcDbHatch
 10
0.0
 20
0.0
 30
0.0
210
0.0
220
0.0
230
1.0
  2
SOLID
 70
     1
 71
     0
 91
        1
 92
        7
 72
     0
 73
     1
 93
        4
 10
2160.857475991924
 20
536.2152085550019
 10
2160.856974857785
 20
534.2152086177843
 10
2141.674620315408
 20
534.2200150843013
 10
2141.675121449546
 20
536.2200150215171
 97
        0
 75
     0
 76
     1
 47
0.0801976285649081
 98
        1
 10
2147.516452549028
 20
535.8808782953596
  0
HATCH
  5
2247
330
1F
100
AcDbEntity
  8
PROFILY
100
AcDbHatch
 10
0.0
 20
0.0
 30
0.0
210
0.0
220
0.0
230
1.0
  2
SOLID
 70
     1
 71
     0
 91
        1
 92
        7
 72
     0
 73
     1
 93
        4
 10
2195.107002810427
 20
536.2066267511649
 10
2195.106501676288
 20
534.2066268139474
 10
2175.924147133911
 20
534.2114332804626
 10
2175.924648268049
 20
536.2114332176783
 97
        0
 75
     0
 76
     1
 47
0.0801976285649081
 98
        1
 10
2181.765979367532
 20
535.8722964915227
  0
HATCH
  5
2248
330
1F
100
AcDbEntity
  8
PROFILY
100
AcDbHatch
 10
0.0
 20
0.0
 30
0.0
210
0.0
220
0.0
230
1.0
  2
SOLID
 70
     1
 71
     0
 91
        1
 92
        7
 72
     0
 73
     1
 93
        4
 10
2261.168083013813
 20
536.1900740193664
 10
2261.167581879675
 20
534.1900740821488
 10
2241.985227337295
 20
534.194880548664
 10
2241.985728471435
 20
536.1948804858798
 97
        0
 75
     0
 76
     1
 47
0.0801976285649081
 98
        1
 10
2247.827059570917
 20
535.8557437597242
  0
HATCH
  5
2249
330
1F
100
AcDbEntity
  8
PROFILY
100
AcDbHatch
 10
0.0
 20
0.0
 30
0.0
210
0.0
220
0.0
230
1.0
  2
SOLID
 70
     1
 71
     0
 91
        1
 92
        7
 72
     0
 73
     1
 93
        4
 10
2227.546940283532
 20
536.1984983708403
 10
2227.546439149394
 20
534.1984984336227
 10
2208.364084607016
 20
534.2033049001379
 10
2208.364585741154
 20
536.2033048373537
 97
        0
 75
     0
 76
     1
 47
0.0801976285649081
 98
        1
 10
2214.205916840636
 20
535.864168111198
  0
HATCH
  5
224A
330
1F
100
AcDbEntity
  8
PROFILY
100
AcDbHatch
 10
0.0
 20
0.0
 30
0.0
210
0.0
220
0.0
230
1.0
  2
SOLID
 70
     1
 71
     0
 91
        1
 92
        7
 72
     0
 73
     1
 93
        4
 10
2295.998351262319
 20
536.1813467008446
 10
2295.997850128179
 20
534.181346763627
 10
2276.815495585803
 20
534.1861532301423
 10
2276.815996719941
 20
536.186153167358
 97
        0
 75
     0
 76
     1
 47
0.0801976285649081
 98
        1
 10
2282.657327819423
 20
535.8470164412024
  0
HATCH
  5
224B
330
1F
100
AcDbEntity
  8
PROFILY
100
AcDbHatch
 10
0.0
 20
0.0
 30
0.0
210
0.0
220
0.0
230
1.0
  2
SOLID
 70
     1
 71
     0
 91
        1
 92
        7
 72
     0
 73
     1
 93
        4
 10
2332.586368258021
 20
536.1721789483576
 10
2332.585867123881
 20
534.17217901114
 10
2313.403512581503
 20
534.1769854776552
 10
2313.404013715643
 20
536.176985414871
 97
        0
 75
     0
 76
     1
 47
0.0801976285649081
 98
        1
 10
2319.245344815125
 20
535.8378486887154
  0
LWPOLYLINE
  5
224C
330
1F
100
AcDbEntity
  8
PROFILY
100
AcDbPolyline
 90
        4
 70
     1
 43
0.0
 10
2313.403501878104
 20
536.1769855431207
 10
2332.585856420481
 20
536.1721790766055
 10
2332.585355286342
 20
534.1721791393897
 10
2313.403000743964
 20
534.1769856059049
  0
HATCH
  5
224D
330
1F
100
AcDbEntity
  8
PROFILY
100
AcDbHatch
 10
0.0
 20
0.0
 30
0.0
210
0.0
220
0.0
230
1.0
  2
SOLID
 70
     1
 71
     0
 91
        1
 92
        7
 72
     0
 73
     1
 93
        4
 10
2370.705960084776
 20
536.1626274336408
 10
2370.705458950636
 20
534.1626274964233
 10
2351.523104408258
 20
534.1674339629385
 10
2351.523605542398
 20
536.1674339001543
 97
        0
 75
     0
 76
     1
 47
0.0801976285649081
 98
        1
 10
2357.36493664188
 20
535.8282971739986
  0
HATCH
  5
224E
330
1F
100
AcDbEntity
  8
PROFILY
100
AcDbHatch
 10
0.0
 20
0.0
 30
0.0
210
0.0
220
0.0
230
1.0
  2
SOLID
 70
     1
 71
     0
 91
        1
 92
        7
 72
     0
 73
     1
 93
        4
 10
2407.293977080476
 20
536.153459681152
 10
2407.293475946338
 20
534.1534597439345
 10
2388.11112140396
 20
534.1582662104515
 10
2388.1116225381
 20
536.1582661476672
 97
        0
 75
     0
 76
     1
 47
0.0801976285649081
 98
        1
 10
2393.952953637582
 20
535.8191294215098
  0
LWPOLYLINE
  5
224F
330
1F
100
AcDbEntity
  8
PROFILY
100
AcDbPolyline
 90
        4
 70
     1
 43
0.0
 10
2463.350313372909
 20
536.1394138087939
 10
2482.532667915288
 20
536.1346073422787
 10
2482.532166781148
 20
534.134607405063
 10
2463.349812238771
 20
534.1394138715782
  0
HATCH
  5
2250
330
1F
100
AcDbEntity
  8
PROFILY
100
AcDbHatch
 10
0.0
 20
0.0
 30
0.0
210
0.0
220
0.0
230
1.0
  2
SOLID
 70
     1
 71
     0
 91
        1
 92
        7
 72
     0
 73
     1
 93
        4
 10
2482.533179752827
 20
536.1346072140309
 10
2482.532678618687
 20
534.1346072768133
 10
2463.35032407631
 20
534.1394137433285
 10
2463.350825210448
 20
536.1394136805443
 97
        0
 75
     0
 76
     1
 47
0.0801976285649081
 98
        1
 10
2469.19215630993
 20
535.8002769543886
  0
HATCH
  5
2251
330
1F
100
AcDbEntity
  8
PROFILY
100
AcDbHatch
 10
0.0
 20
0.0
 30
0.0
210
0.0
220
0.0
230
1.0
  2
SOLID
 70
     1
 71
     0
 91
        1
 92
        7
 72
     0
 73
     1
 93
        4
 10
2445.945162757124
 20
536.1437749665178
 10
2445.944661622986
 20
534.1437750293002
 10
2426.762307080608
 20
534.1485814958173
 10
2426.762808214748
 20
536.1485814330331
 97
        0
 75
     0
 76
     1
 47
0.0801976285649081
 98
        1
 10
2432.60413931423
 20
535.8094447068756
  0
HATCH
  5
2252
330
1F
100
AcDbEntity
  8
PROFILY
100
AcDbHatch
 10
0.0
 20
0.0
 30
0.0
210
0.0
220
0.0
230
1.0
  2
SOLID
 70
     1
 71
     0
 91
        1
 92
        7
 72
     0
 73
     1
 93
        4
 10
2009.606225728147
 20
972.5920578652381
 10
2007.606225728145
 20
972.5920578652381
 10
2007.606225728145
 20
953.4097027206895
 10
2009.606225728145
 20
953.4097027206895
 97
        0
 75
     0
 76
     1
 47
0.0801976285649081
 98
        1
 10
2009.26855265785
 20
959.2511186132956
  0
HATCH
  5
2253
330
1F
100
AcDbEntity
  8
PROFILY
100
AcDbHatch
 10
0.0
 20
0.0
 30
0.0
210
0.0
220
0.0
230
1.0
  2
SOLID
 70
     1
 71
     0
 91
        1
 92
        7
 72
     0
 73
     1
 93
        4
 10
2009.606225728147
 20
1009.180076009507
 10
2007.606225728145
 20
1009.180076009507
 10
2007.606225728145
 20
989.9977208649593
 10
2009.606225728145
 20
989.9977208649593
 97
        0
 75
     0
 76
     1
 47
0.0801976285649081
 98
        1
 10
2009.26855265785
 20
995.8391367575655
  0
LWPOLYLINE
  5
2254
330
1F
100
AcDbEntity
  8
PROFILY
100
AcDbPolyline
 90
        4
 70
     1
 43
0.0
 10
2009.606225728145
 20
989.9972090274037
 10
2009.606225728145
 20
1009.179564171952
 10
2007.606225728145
 20
1009.179564171952
 10
2007.606225728145
 20
989.9972090274037
  0
HATCH
  5
2255
330
1F
100
AcDbEntity
  8
PROFILY
100
AcDbHatch
 10
0.0
 20
0.0
 30
0.0
210
0.0
220
0.0
230
1.0
  2
SOLID
 70
     1
 71
     0
 91
        1
 92
        7
 72
     0
 73
     1
 93
        4
 10
2009.606225728147
 20
897.3528528309849
 10
2007.606225728145
 20
897.3528528309849
 10
2007.606225728145
 20
878.1704976864361
 10
2009.606225728145
 20
878.1704976864361
 97
        0
 75
     0
 76
     1
 47
0.0801976285649081
 98
        1
 10
2009.26855265785
 20
884.0119135790423
  0
HATCH
  5
2256
330
1F
100
AcDbEntity
  8
PROFILY
100
AcDbHatch
 10
0.0
 20
0.0
 30
0.0
210
0.0
220
0.0
230
1.0
  2
SOLID
 70
     1
 71
     0
 91
        1
 92
        7
 72
     0
 73
     1
 93
        4
 10
2009.606225728147
 20
933.9408709752547
 10
2007.606225728145
 20
933.9408709752547
 10
2007.606225728145
 20
914.7585158307061
 10
2009.606225728145
 20
914.7585158307061
 97
        0
 75
     0
 76
     1
 47
0.0801976285649081
 98
        1
 10
2009.26855265785
 20
920.5999317233121
  0
LWPOLYLINE
  5
2257
330
1F
100
AcDbEntity
  8
PROFILY
100
AcDbPolyline
 90
        4
 70
     1
 43
0.0
 10
2009.606225728145
 20
914.7580039931504
 10
2009.606225728145
 20
933.940359137699
 10
2007.606225728145
 20
933.940359137699
 10
2007.606225728145
 20
914.7580039931504
  0
HATCH
  5
2258
330
1F
100
AcDbEntity
  8
PROFILY
100
AcDbHatch
 10
0.0
 20
0.0
 30
0.0
210
0.0
220
0.0
230
1.0
  2
SOLID
 70
     1
 71
     0
 91
        1
 92
        7
 72
     0
 73
     1
 93
        4
 10
2009.606225728147
 20
622.9624985514979
 10
2007.606225728145
 20
622.9624985514979
 10
2007.606225728145
 20
603.7801434069493
 10
2009.606225728145
 20
603.7801434069493
 97
        0
 75
     0
 76
     1
 47
0.0801976285649081
 98
        1
 10
2009.26855265785
 20
609.6215592995554
  0
LWPOLYLINE
  5
2259
330
1F
100
AcDbEntity
  8
PROFILY
100
AcDbPolyline
 90
        4
 70
     1
 43
0.0
 10
2009.606225728145
 20
534.2531071387361
 10
2009.606225728145
 20
553.4354622832847
 10
2007.606225728145
 20
553.4354622832847
 10
2007.606225728145
 20
534.2531071387361
  0
HATCH
  5
225A
330
1F
100
AcDbEntity
  8
PROFILY
100
AcDbHatch
 10
0.0
 20
0.0
 30
0.0
210
0.0
220
0.0
230
1.0
  2
SOLID
 70
     1
 71
     0
 91
        1
 92
        7
 72
     0
 73
     1
 93
        4
 10
2009.606225728147
 20
553.4354622832847
 10
2007.606225728145
 20
553.4354622832847
 10
2007.606225728145
 20
534.2531071387361
 10
2009.606225728145
 20
534.2531071387361
 97
        0
 75
     0
 76
     1
 47
0.0801976285649081
 98
        1
 10
2009.26855265785
 20
540.0945230313423
  0
HATCH
  5
225B
330
1F
100
AcDbEntity
  8
PROFILY
100
AcDbHatch
 10
0.0
 20
0.0
 30
0.0
210
0.0
220
0.0
230
1.0
  2
SOLID
 70
     1
 71
     0
 91
        1
 92
        7
 72
     0
 73
     1
 93
        4
 10
2009.606225728147
 20
589.2762470911488
 10
2007.606225728145
 20
589.2762470911488
 10
2007.606225728145
 20
570.0938919466002
 10
2009.606225728145
 20
570.0938919466002
 97
        0
 75
     0
 76
     1
 47
0.0801976285649081
 98
        1
 10
2009.26855265785
 20
575.9353078392064
  0
LWPOLYLINE
  5
225C
330
1F
100
AcDbEntity
  8
PROFILY
100
AcDbPolyline
 90
        4
 70
     1
 43
0.0
 10
2009.606225728145
 20
840.050392825478
 10
2009.606225728145
 20
859.2327479700266
 10
2007.606225728145
 20
859.2327479700266
 10
2007.606225728145
 20
840.050392825478
  0
HATCH
  5
225D
330
1F
100
AcDbEntity
  8
PROFILY
100
AcDbHatch
 10
0.0
 20
0.0
 30
0.0
210
0.0
220
0.0
230
1.0
  2
SOLID
 70
     1
 71
     0
 91
        1
 92
        7
 72
     0
 73
     1
 93
        4
 10
2009.606225728147
 20
859.2332598075822
 10
2007.606225728145
 20
859.2332598075822
 10
2007.606225728145
 20
840.0509046630336
 10
2009.606225728145
 20
840.0509046630336
 97
        0
 75
     0
 76
     1
 47
0.0801976285649081
 98
        1
 10
2009.26855265785
 20
845.8923205556398
  0
HATCH
  5
225E
330
1F
100
AcDbEntity
  8
PROFILY
100
AcDbHatch
 10
0.0
 20
0.0
 30
0.0
210
0.0
220
0.0
230
1.0
  2
SOLID
 70
     1
 71
     0
 91
        1
 92
        7
 72
     0
 73
     1
 93
        4
 10
2009.606225728147
 20
822.6452416633124
 10
2007.606225728145
 20
822.6452416633124
 10
2007.606225728145
 20
803.4628865187638
 10
2009.606225728145
 20
803.4628865187638
 97
        0
 75
     0
 76
     1
 47
0.0801976285649081
 98
        1
 10
2009.26855265785
 20
809.3043024113699
  0
LINE
  5
225F
330
1F
100
AcDbEntity
  8
PROFILY
100
AcDbLine
 10
2007.606225728145
 20
534.0780206252397
 30
0.0
 11
2007.606225728145
 21
859.2327479700266
 31
0.0
  0
HATCH
  5
2260
330
1F
100
AcDbEntity
  8
PROFILY
100
AcDbHatch
 10
0.0
 20
0.0
 30
0.0
210
0.0
220
0.0
230
1.0
  2
SOLID
 70
     1
 71
     0
 91
        1
 92
        7
 72
     0
 73
     1
 93
        4
 10
2009.606225728147
 20
754.1938285357041
 10
2007.606225728145
 20
754.1938285357041
 10
2007.606225728145
 20
735.0114733911555
 10
2009.606225728145
 20
735.0114733911555
 97
        0
 75
     0
 76
     1
 47
0.0801976285649081
 98
        1
 10
2009.26855265785
 20
740.8528892837616
  0
HATCH
  5
2261
330
1F
100
AcDbEntity
  8
PROFILY
100
AcDbHatch
 10
0.0
 20
0.0
 30
0.0
210
0.0
220
0.0
230
1.0
  2
SOLID
 70
     1
 71
     0
 91
        1
 92
        7
 72
     0
 73
     1
 93
        4
 10
2009.606225728147
 20
787.8149723214169
 10
2007.606225728145
 20
787.8149723214169
 10
2007.606225728145
 20
768.6326171768683
 10
2009.606225728145
 20
768.6326171768683
 97
        0
 75
     0
 76
     1
 47
0.0801976285649081
 98
        1
 10
2009.26855265785
 20
774.4740330694744
  0
HATCH
  5
2262
330
1F
100
AcDbEntity
  8
PROFILY
100
AcDbHatch
 10
0.0
 20
0.0
 30
0.0
210
0.0
220
0.0
230
1.0
  2
SOLID
 70
     1
 71
     0
 91
        1
 92
        7
 72
     0
 73
     1
 93
        4
 10
2009.606225728147
 20
721.7538900442463
 10
2007.606225728145
 20
721.7538900442463
 10
2007.606225728145
 20
702.5715348996977
 10
2009.606225728145
 20
702.5715348996977
 97
        0
 75
     0
 76
     1
 47
0.0801976285649081
 98
        1
 10
2009.26855265785
 20
708.4129507923039
  0
HATCH
  5
2263
330
1F
100
AcDbEntity
  8
PROFILY
100
AcDbHatch
 10
0.0
 20
0.0
 30
0.0
210
0.0
220
0.0
230
1.0
  2
SOLID
 70
     1
 71
     0
 91
        1
 92
        7
 72
     0
 73
     1
 93
        4
 10
2009.606225728147
 20
655.0529387286819
 10
2007.606225728145
 20
655.0529387286819
 10
2007.606225728145
 20
635.8705835841333
 10
2009.606225728145
 20
635.8705835841333
 97
        0
 75
     0
 76
     1
 47
0.0801976285649081
 98
        1
 10
2009.26855265785
 20
641.7119994767395
  0
HATCH
  5
2264
330
1F
100
AcDbEntity
  8
PROFILY
100
AcDbHatch
 10
0.0
 20
0.0
 30
0.0
210
0.0
220
0.0
230
1.0
  2
SOLID
 70
     1
 71
     0
 91
        1
 92
        7
 72
     0
 73
     1
 93
        4
 10
2009.606225728147
 20
687.5043621505843
 10
2007.606225728145
 20
687.5043621505843
 10
2007.606225728145
 20
668.3220070060356
 10
2009.606225728145
 20
668.3220070060356
 97
        0
 75
     0
 76
     1
 47
0.0801976285649081
 98
        1
 10
2009.26855265785
 20
674.1634228986417
  0
LINE
  5
2265
330
1F
100
AcDbEntity
  8
PROFILY
100
AcDbLine
 10
2556.178659385768
 20
536.1161540814168
 30
0.0
 11
2556.17865938577
 21
534.1161540186362
 31
0.0
  0
LINE
  5
2266
330
1F
100
AcDbEntity
  8
PROFILY
100
AcDbLine
 10
2007.606225728144
 20
1029.830943088288
 30
0.0
 11
2007.606225728145
 21
534.2531071387361
 31
0.0
  0
LINE
  5
2267
330
1F
100
AcDbEntity
  8
PROFILY
100
AcDbLine
 10
2009.606225728143
 20
1029.830943088288
 30
0.0
 11
2007.606225728144
 21
1029.830943088288
 31
0.0
  0
LINE
  5
2268
330
1F
100
AcDbEntity
  8
PROFILY
100
AcDbLine
 10
2009.606225728143
 20
536.2531071387361
 30
0.0
 11
2009.606225728143
 21
1029.830943088288
 31
0.0
  0
LWPOLYLINE
  5
2269
330
1F
100
AcDbEntity
  8
NOSNÉ KONSTRUKCE
100
AcDbPolyline
 90
        7
 70
     0
 43
0.0
 10
2052.570019262285
 20
533.4299918749179
 42
0.0203924744732807
 10
2053.472103246698
 20
532.4168618457638
 42
0.0273961979096945
 10
2054.321967596893
 20
531.6286854717377
 42
0.0243529190212958
 10
2055.485088089312
 20
530.75492612707
 42
0.0398020282482987
 10
2056.260046626873
 20
530.3152973836236
 42
0.104168275620852
 10
2056.646457763213
 20
530.2252809234464
 42
0.007272956268647
 10
2057.084787741968
 20
530.2068275721516
 42
0.007272956268647
  0
LWPOLYLINE
  5
226A
330
1F
100
AcDbEntity
  8
NOSNÉ KONSTRUKCE
100
AcDbPolyline
 90
        8
 70
     0
 43
0.0
 10
2024.175444659837
 20
533.4299918749179
 42
0.0120721047703142
 10
2024.244427349875
 20
531.6961037361738
 42
0.044358077361292
 10
2024.640055084549
 20
529.000303717757
 42
0.0188067511131767
 10
2026.659878532932
 20
521.7580745424506
 42
0.0457786284636091
 10
2027.867901422548
 20
518.9094641595707
 42
0.0295006114745606
 10
2030.283961876847
 20
514.9825649461686
 42
0.0258674098621065
 10
2033.516637190811
 20
510.8367848674147
 42
0.0093759062953949
 10
2035.682449370467
 20
508.4299918749179
 42
0.0093759062953949
  0
LWPOLYLINE
  5
226B
330
1F
100
AcDbEntity
  8
NOSNÉ KONSTRUKCE
100
AcDbPolyline
 90
        6
 70
     0
 43
0.0
 10
2015.551229279795
 20
533.4299918749179
 42
0.0128837512779302
 10
2015.836021240021
 20
530.0968270531716
 42
0.0351641677647434
 10
2016.463780961544
 20
526.4931175988326
 42
0.0187319685742942
 10
2019.847796842535
 20
514.7348802566898
 42
0.0582629403736403
 10
2021.507296710616
 20
511.1550460577578
 42
0.0146402521923566
 10
2023.291704692198
 20
508.4299918749179
  0
LWPOLYLINE
  5
226C
330
1F
100
AcDbEntity
  8
NOSNÉ KONSTRUKCE
100
AcDbPolyline
 90
        4
 70
     0
 43
0.0
 10
1996.872301386261
 20
558.4271570235719
 42
0.0067781046155075
 10
1986.75892941085
 20
556.4341485838699
 42
0.0219777111230329
 10
1983.240816155015
 20
555.5280360818865
 42
0.0092752982622242
 10
1982.087622593316
 20
555.1528091199411
  0
LINE
  5
226D
330
1F
100
AcDbEntity
  8
NOSNÉ KONSTRUKCE
100
AcDbLine
 10
2007.087622593316
 20
558.4271570235719
 30
0.0
 11
1982.087622593316
 21
558.4271570235719
 31
0.0
  0
LWPOLYLINE
  5
226E
330
1F
100
AcDbEntity
  8
NOSNÉ KONSTRUKCE
100
AcDbPolyline
 90
        3
 70
     0
 43
0.0
 10
2000.58845302406
 20
534.4309669578647
 10
1991.372423973541
 20
554.4272193898573
 10
1990.727026498198
 20
558.4271570235719
  0
LWPOLYLINE
  5
226F
330
1F
100
AcDbEntity
  8
NOSNÉ KONSTRUKCE
100
AcDbPolyline
 90
        8
 70
     0
 43
0.0
 10
2007.087622593316
 20
541.3393349570501
 42
0.0120721047703142
 10
2005.353734454572
 20
541.2703522670121
 42
0.044358077361292
 10
2002.657934436155
 20
540.8747245323389
 42
0.0188067511131767
 10
1995.415705260849
 20
538.8549010839556
 42
0.0457786284636091
 10
1992.567094877968
 20
537.6468781943399
 42
0.0295006114745606
 10
1988.640195664566
 20
535.2308177400405
 42
0.0258674098621065
 10
1984.494415585812
 20
531.9981424260763
 42
0.0093759062953949
 10
1982.087622593316
 20
529.83233024642
 42
0.0093759062953949
  0
LWPOLYLINE
  5
2270
330
1F
100
AcDbEntity
  8
NOSNÉ KONSTRUKCE
100
AcDbPolyline
 90
        6
 70
     0
 43
0.0
 10
2007.087622593316
 20
549.9635503370923
 42
0.0128837512779302
 10
2003.75445777157
 20
549.6787583768669
 42
0.0351641677647434
 10
2000.15074831723
 20
549.0509986553438
 42
0.0187319685742942
 10
1988.392510975088
 20
545.6669827743531
 42
0.0582629403736403
 10
1984.812676776155
 20
544.0074829062718
 42
0.0146402521923566
 10
1982.087622593316
 20
542.2230749246877
  0
LWPOLYLINE
  5
2271
330
1F
100
AcDbEntity
  8
NOSNÉ KONSTRUKCE
100
AcDbPolyline
 90
        3
 70
     0
 43
0.0
 10
2001.570291897797
 20
515.1383893326197
 10
1993.186551029829
 20
531.8936069523474
 10
1985.005249328732
 20
540.0607116014721
  0
LWPOLYLINE
  5
2272
330
1F
100
AcDbEntity
  8
NOSNÉ KONSTRUKCE
100
AcDbPolyline
 90
       10
 70
     0
 43
0.0
 10
2007.087622593316
 20
532.4722757335398
 42
0.0168162630274194
 10
2005.396584441196
 20
532.3372501544759
 42
0.0575155827655532
 10
2002.296959780479
 20
531.657217874133
 42
0.0310289133982999
 10
1995.051932255835
 20
528.6544165293048
 42
0.0882970623535771
 10
1992.811563205035
 20
527.0171946092118
 42
0.0171636441953577
 10
1990.297645849789
 20
524.2038305473538
 42
0.0157521173632038
 10
1987.766149797283
 20
520.9649757103175
 42
0.0073640874174249
 10
1984.477748371547
 20
516.3313263539962
 42
0.0194185739168057
 10
1983.326179372266
 20
514.5092830343196
 42
0.0229547400386702
 10
1982.087622593316
 20
512.123824970306
 42
0.0229547400386702
  0
LWPOLYLINE
  5
2273
330
1F
100
AcDbEntity
  8
NOSNÉ KONSTRUKCE
100
AcDbPolyline
 90
       11
 70
     0
 43
0.0
 10
2007.087622593316
 20
525.5224977098564
 42
0.0072417954699014
 10
2006.676217382041
 20
525.4669273420145
 42
0.0707158694326265
 10
2004.740113929448
 20
524.9358008255945
 42
0.033952657250207
 10
2000.387076204274
 20
522.6871449861859
 42
0.0571374688189033
 10
1998.080151920587
 20
520.9009882263339
 42
0.0274923553235744
 10
1995.695076597453
 20
518.3036824957812
 42
0.0255412025538677
 10
1993.438362920434
 20
515.2522524580704
 42
0.0272796991712396
 10
1991.022027038772
 20
511.1392533048851
 42
0.056967459841729
 10
1990.209291203572
 20
508.9983060241534
 42
0.0373408083348504
 10
1990.170125662621
 20
508.7759516486799
 42
0.0052305969362967
 10
1990.139168695717
 20
508.4299918749179
  0
LWPOLYLINE
  5
2280
330
1F
100
AcDbEntity
  8
NOSNÉ KONSTRUKCE
100
AcDbPolyline
 90
        9
 70
     0
 43
0.0
 10
2007.087622593316
 20
518.2944466891199
 42
0.0064239028828688
 10
2006.868508933965
 20
518.2555782489393
 42
0.0832048017309575
 10
2004.538295354311
 20
517.4713956462579
 42
0.0336767237692336
 10
2001.81002083485
 20
515.7685790873361
 42
0.0844635135812105
 10
2000.905599229855
 20
514.8487693274432
 42
0.0495829410719565
 10
1999.928949722542
 20
513.1000908900891
 42
0.0322692699774654
 10
1998.887426221142
 20
510.2087367089985
 42
0.0276160659512937
 10
1998.690690792197
 20
509.3531602707112
 42
0.0126891984598699
 10
1998.555488402655
 20
508.4299918749179
  0
LWPOLYLINE
  5
228B
330
1F
100
AcDbEntity
  8
NOSNÉ KONSTRUKCE
100
AcDbPolyline
 90
        4
 70
     0
 43
0.0
 10
1982.087622593316
 20
558.4271570235719
 10
1982.087622593316
 20
508.4299918749179
 10
2007.087622593316
 20
508.4299918749179
 10
2007.087622593316
 20
558.4271570235719
  0
LINE
  5
228C
330
1F
100
AcDbEntity
  8
NOSNÉ KONSTRUKCE
100
AcDbLine
 10
2007.087622593316
 20
533.4299918749179
 30
0.0
 11
2007.087622593316
 21
508.4299918749179
 31
0.0
  0
LWPOLYLINE
  5
228D
330
1F
100
AcDbEntity
  8
NOSNÉ KONSTRUKCE
100
AcDbPolyline
 90
        3
 70
     0
 43
0.0
 10
2031.083812659023
 20
526.9308223056627
 10
2011.08756022703
 20
517.7147932551429
 10
2007.087622593316
 20
517.0693957798007
  0
LWPOLYLINE
  5
228E
330
1F
100
AcDbEntity
  8
NOSNÉ KONSTRUKCE
100
AcDbPolyline
 90
        4
 70
     0
 43
0.0
 10
2007.087622593316
 20
523.2146706678626
 42
0.0067781046155075
 10
2009.080631033018
 20
513.101298692452
 42
0.0219777111230329
 10
2009.986743535001
 20
509.5831854366165
 42
0.0092752982622242
 10
2010.361970496945
 20
508.4299918749179
  0
LWPOLYLINE
  5
228F
330
1F
100
AcDbEntity
  8
NOSNÉ KONSTRUKCE
100
AcDbPolyline
 90
        4
 70
     0
 43
0.0
 10
2007.087622593316
 20
508.4299918749179
 10
2057.084787741968
 20
508.4299918749179
 10
2057.084787741968
 20
533.4299918749179
 10
2007.087622593316
 20
533.4299918749179
  0
LWPOLYLINE
  5
2290
330
1F
100
AcDbEntity
  8
NOSNÉ KONSTRUKCE
100
AcDbPolyline
 90
       11
 70
     0
 43
0.0
 10
2039.992281907029
 20
533.4299918749179
 42
0.0072417954699014
 10
2040.047852274871
 20
533.0185866636433
 42
0.0707158694326265
 10
2040.578978791292
 20
531.0824832110497
 42
0.033952657250207
 10
2042.8276346307
 20
526.7294454858761
 42
0.0571374688189033
 10
2044.613791390552
 20
524.4225212021897
 42
0.0274923553235744
 10
2047.211097121105
 20
522.0374458790551
 42
0.0255412025538677
 10
2050.262527158815
 20
519.7807322020358
 42
0.0272796991712396
 10
2054.375526312001
 20
517.3643963203735
 42
0.056967459841729
 10
2056.516473592732
 20
516.5516604851741
 42
0.0373408083348504
 10
2056.738827968206
 20
516.5124949442229
 42
0.0052305969362967
 10
2057.084787741968
 20
516.4815379773186
  0
LWPOLYLINE
  5
229D
330
1F
100
AcDbEntity
  8
NOSNÉ KONSTRUKCE
100
AcDbPolyline
 90
       10
 70
     0
 43
0.0
 10
2033.042503883348
 20
533.4299918749179
 42
0.0168162630274194
 10
2033.177529462412
 20
531.7389537227986
 42
0.0575155827655532
 10
2033.857561742755
 20
528.6393290620813
 42
0.0310289133982999
 10
2036.860363087583
 20
521.3943015374366
 42
0.0882970623535771
 10
2038.497585007676
 20
519.1539324866367
 42
0.0171636441953577
 10
2041.310949069534
 20
516.6400151313914
 42
0.0157521173632038
 10
2044.549803906571
 20
514.1085190788849
 42
0.0073640874174249
 10
2049.183453262891
 20
510.8201176531488
 42
0.0194185739168057
 10
2051.005496582568
 20
509.6685486538676
 42
0.0229547400386702
 10
2053.390954646581
 20
508.4299918749179
 42
0.0229547400386702
  0
LWPOLYLINE
  5
229E
330
1F
100
AcDbEntity
  8
NOSNÉ KONSTRUKCE
100
AcDbPolyline
 90
        3
 70
     0
 43
0.0
 10
2050.376390284268
 20
527.9126611793994
 10
2033.62117266454
 20
519.5289203114311
 10
2025.454068015416
 20
511.3476186103339
  0
LWPOLYLINE
  5
229F
330
1F
100
AcDbEntity
  8
NOSNÉ KONSTRUKCE
100
AcDbPolyline
 90
        9
 70
     0
 43
0.0
 10
2047.220332927766
 20
533.4299918749179
 42
0.0064239028828688
 10
2047.259201367947
 20
533.2108782155678
 42
0.0832048017309575
 10
2048.043383970628
 20
530.880664635913
 42
0.0336767237692336
 10
2049.74620052955
 20
528.1523901164523
 42
0.0844635135812105
 10
2050.666010289443
 20
527.2479685114571
 42
0.0495829410719565
 10
2052.414688726797
 20
526.2713190041445
 42
0.0322692699774654
 10
2055.306042907888
 20
525.2297955027438
 42
0.0276160659512937
 10
2056.161619346175
 20
525.0330600737993
 42
0.0126891984598699
 10
2057.084787741968
 20
524.8978576842578
  0
SOLID
  5
22AA
330
1F
100
AcDbEntity
  8
CETRIS
100
AcDbTrace
 10
2556.864287260533
 20
507.6932163956648
 30
0.0
 11
2557.525021754983
 21
495.6657004974072
 31
0.0
 12
1991.112021663025
 22
507.6657004974144
 32
0.0
 13
1991.112021663025
 23
495.6657004974145
 33
0.0
  0
LINE
  5
22AB
330
1F
100
AcDbEntity
  8
STAVBA OBRYS
100
AcDbLine
 10
2093.680038044734
 20
620.3058559651231
 30
0.0
 11
2551.205092131319
 21
620.3058559651231
 31
0.0
  0
LINE
  5
22AC
330
1F
100
AcDbEntity
  8
STAVBA OBRYS
  6
IZOLACE
 48
4.0
100
AcDbLine
 10
2553.655179575386
 20
579.1392263017328
 30
0.0
 11
2010.008625112989
 21
578.3383120303946
 31
0.0
  0
LINE
  5
22AD
330
1F
100
AcDbEntity
  8
STAVBA OBRYS
100
AcDbLine
 10
2010.008625112989
 20
536.9773047156491
 30
0.0
 11
2556.164503159571
 21
536.9773047156491
 31
0.0
  0
SOLID
  5
22AE
330
1F
100
AcDbEntity
  8
CETRIS
100
AcDbTrace
 10
1968.688388013632
 20
1031.706609614803
 30
0.0
 11
1980.714337750308
 21
1031.653433921778
 31
0.0
 12
1968.7143377503
 22
495.6657004974145
 32
0.0
 13
1980.7143377503
 23
495.6657004974145
 33
0.0
  0
LINE
  5
22AF
330
1F
100
AcDbEntity
  8
STAVBA OBRYS
100
AcDbLine
 10
2093.680038044734
 20
620.3058559651231
 30
0.0
 11
2093.680038044739
 21
1031.153928308265
 31
0.0
  0
LINE
  5
22B0
330
1F
100
AcDbEntity
  8
STAVBA OBRYS
  6
IZOLACE
 48
4.0
100
AcDbLine
 10
2051.936404702667
 20
619.0187540276451
 30
0.0
 11
2051.330842786735
 21
1030.063557312618
 31
0.0
  0
LINE
  5
22B1
330
1F
100
AcDbEntity
  8
STAVBA OBRYS
100
AcDbLine
 10
2010.008625112989
 20
1030.063557312618
 30
0.0
 11
2010.008625112989
 21
536.9773047156491
 31
0.0
  0
LINE
  5
22B2
330
1F
100
AcDbEntity
  8
POPIS
100
AcDbLine
 10
1814.98667179853
 20
808.3598280696046
 30
0.0
 11
2064.359057714696
 21
808.3598280696037
 31
0.0
  0
LINE
  5
22B3
330
1F
100
AcDbEntity
  8
SPOJOVACÍ
100
AcDbLine
 10
1996.92461292085
 20
528.5070754802323
 30
0.0
 11
1968.157623147989
 21
528.5070754802323
 31
0.0
  0
LINE
  5
22B4
330
1F
100
AcDbEntity
  8
SPOJOVACÍ
100
AcDbLine
 10
1996.92461292085
 20
522.8231350224318
 30
0.0
 11
1968.157623147989
 21
522.8231350224318
 31
0.0
  0
LINE
  5
22B5
330
1F
100
AcDbEntity
  8
SPOJOVACÍ
100
AcDbLine
 10
1990.814311972489
 20
522.8231350224318
 30
0.0
 11
1992.337319227982
 21
528.5070754802323
 31
0.0
  0
LINE
  5
22B6
330
1F
100
AcDbEntity
  8
SPOJOVACÍ
100
AcDbLine
 10
1971.829936972491
 20
522.8231350224318
 30
0.0
 11
1973.352944227985
 21
528.5070754802323
 31
0.0
  0
LINE
  5
22B7
330
1F
100
AcDbEntity
  8
SPOJOVACÍ
100
AcDbLine
 10
1970.247905722492
 20
522.8231350224318
 30
0.0
 11
1971.770912977984
 21
528.5070754802323
 31
0.0
  0
LINE
  5
22B8
330
1F
100
AcDbEntity
  8
SPOJOVACÍ
100
AcDbLine
 10
1976.57603072249
 20
522.8231350224318
 30
0.0
 11
1978.099037977986
 21
528.5070754802323
 31
0.0
  0
LINE
  5
22B9
330
1F
100
AcDbEntity
  8
SPOJOVACÍ
100
AcDbLine
 10
1974.993999472489
 20
522.8231350224318
 30
0.0
 11
1976.517006727986
 21
528.5070754802323
 31
0.0
  0
LINE
  5
22BA
330
1F
100
AcDbEntity
  8
SPOJOVACÍ
100
AcDbLine
 10
1973.411968222491
 20
522.8231350224318
 30
0.0
 11
1974.934975477986
 21
528.5070754802323
 31
0.0
  0
LINE
  5
22BB
330
1F
100
AcDbEntity
  8
SPOJOVACÍ
100
AcDbLine
 10
1978.15806197249
 20
522.8231350224318
 30
0.0
 11
1979.681069227986
 21
528.5070754802323
 31
0.0
  0
LINE
  5
22BC
330
1F
100
AcDbEntity
  8
SPOJOVACÍ
100
AcDbLine
 10
1979.740093222491
 20
522.8231350224318
 30
0.0
 11
1981.263100477984
 21
528.5070754802323
 31
0.0
  0
LINE
  5
22BD
330
1F
100
AcDbEntity
  8
SPOJOVACÍ
100
AcDbLine
 10
1981.322124472493
 20
522.8231350224318
 30
0.0
 11
1982.845131727984
 21
528.5070754802323
 31
0.0
  0
LINE
  5
22BE
330
1F
100
AcDbEntity
  8
SPOJOVACÍ
100
AcDbLine
 10
1982.90415572249
 20
522.8231350224318
 30
0.0
 11
1984.427162977986
 21
528.5070754802323
 31
0.0
  0
LINE
  5
22BF
330
1F
100
AcDbEntity
  8
SPOJOVACÍ
100
AcDbLine
 10
1986.068218222491
 20
522.8231350224318
 30
0.0
 11
1987.591225477984
 21
528.5070754802323
 31
0.0
  0
LINE
  5
22C0
330
1F
100
AcDbEntity
  8
SPOJOVACÍ
100
AcDbLine
 10
1984.486186972491
 20
522.8231350224318
 30
0.0
 11
1986.009194227984
 21
528.5070754802323
 31
0.0
  0
LINE
  5
22C1
330
1F
100
AcDbEntity
  8
SPOJOVACÍ
100
AcDbLine
 10
1987.650249472487
 20
522.8231350224318
 30
0.0
 11
1989.173256727984
 21
528.5070754802323
 31
0.0
  0
LINE
  5
22C2
330
1F
100
AcDbEntity
  8
SPOJOVACÍ
100
AcDbLine
 10
1989.232280722489
 20
522.8231350224318
 30
0.0
 11
1990.755287977984
 21
528.5070754802323
 31
0.0
  0
INSERT
  5
22C3
330
1F
100
AcDbEntity
  8
POPIS
100
AcDbBlockReference
  2
E_PUNKT
 10
1962.095055280383
 20
524.755631529842
 30
0.0
  0
LINE
  5
22C4
330
1F
100
AcDbEntity
  8
SPOJOVACÍ
100
AcDbLine
 10
2019.158953703995
 20
523.8106362120466
 30
0.0
 11
2019.158953703995
 21
495.0436464391855
 31
0.0
  0
LINE
  5
22C5
330
1F
100
AcDbEntity
  8
SPOJOVACÍ
100
AcDbLine
 10
2024.842894161797
 20
523.8106362120466
 30
0.0
 11
2024.842894161797
 21
495.0436464391855
 31
0.0
  0
LINE
  5
22C6
330
1F
100
AcDbEntity
  8
SPOJOVACÍ
100
AcDbLine
 10
2024.842894161797
 20
519.282366513687
 30
0.0
 11
2019.158953703995
 21
520.8053737691784
 31
0.0
  0
LINE
  5
22C7
330
1F
100
AcDbEntity
  8
SPOJOVACÍ
100
AcDbLine
 10
2024.842894161797
 20
520.864397763687
 30
0.0
 11
2019.158953703995
 21
522.3874050191784
 31
0.0
  0
LINE
  5
22C8
330
1F
100
AcDbEntity
  8
SPOJOVACÍ
100
AcDbLine
 10
2024.842894161797
 20
522.4464290136852
 30
0.0
 11
2019.158953703995
 21
523.9694362691802
 31
0.0
  0
LINE
  5
22C9
330
1F
100
AcDbEntity
  8
SPOJOVACÍ
100
AcDbLine
 10
2024.842894161797
 20
524.0284602636861
 30
0.0
 11
2020.835412153931
 21
525.102261831375
 31
0.0
  0
LINE
  5
22CA
330
1F
100
AcDbEntity
  8
SPOJOVACÍ
100
AcDbLine
 10
2022.000923932896
 20
526.0002291346495
 30
0.0
 11
2024.842894161797
 21
523.8106362120466
 31
0.0
  0
LINE
  5
22CB
330
1F
100
AcDbEntity
  8
SPOJOVACÍ
100
AcDbLine
 10
2022.000923932896
 20
526.0002291346495
 30
0.0
 11
2019.158953703995
 21
523.8106362120466
 31
0.0
  0
LINE
  5
22CC
330
1F
100
AcDbEntity
  8
SPOJOVACÍ
100
AcDbLine
 10
2024.842894161797
 20
498.7159602636871
 30
0.0
 11
2019.158953703995
 21
500.2389675191811
 31
0.0
  0
LINE
  5
22CD
330
1F
100
AcDbEntity
  8
SPOJOVACÍ
100
AcDbLine
 10
2024.842894161797
 20
497.1339290136889
 30
0.0
 11
2019.158953703995
 21
498.6569362691803
 31
0.0
  0
LINE
  5
22CE
330
1F
100
AcDbEntity
  8
SPOJOVACÍ
100
AcDbLine
 10
2024.842894161797
 20
503.462054013687
 30
0.0
 11
2019.158953703995
 21
504.9850612691821
 31
0.0
  0
LINE
  5
22CF
330
1F
100
AcDbEntity
  8
SPOJOVACÍ
100
AcDbLine
 10
2024.842894161797
 20
501.8800227636861
 30
0.0
 11
2019.158953703995
 21
503.4030300191821
 31
0.0
  0
LINE
  5
22D0
330
1F
100
AcDbEntity
  8
SPOJOVACÍ
100
AcDbLine
 10
2024.842894161797
 20
500.2979915136871
 30
0.0
 11
2019.158953703995
 21
501.8209987691821
 31
0.0
  0
LINE
  5
22D1
330
1F
100
AcDbEntity
  8
SPOJOVACÍ
100
AcDbLine
 10
2024.842894161797
 20
505.044085263687
 30
0.0
 11
2019.158953703995
 21
506.5670925191811
 31
0.0
  0
LINE
  5
22D2
330
1F
100
AcDbEntity
  8
SPOJOVACÍ
100
AcDbLine
 10
2024.842894161797
 20
506.6261165136888
 30
0.0
 11
2019.158953703995
 21
508.1491237691802
 31
0.0
  0
LINE
  5
22D3
330
1F
100
AcDbEntity
  8
SPOJOVACÍ
100
AcDbLine
 10
2024.842894161797
 20
508.2081477636888
 30
0.0
 11
2019.158953703995
 21
509.7311550191802
 31
0.0
  0
LINE
  5
22D4
330
1F
100
AcDbEntity
  8
SPOJOVACÍ
100
AcDbLine
 10
2024.842894161797
 20
509.790179013687
 30
0.0
 11
2019.158953703995
 21
511.3131862691821
 31
0.0
  0
LINE
  5
22D5
330
1F
100
AcDbEntity
  8
SPOJOVACÍ
100
AcDbLine
 10
2024.842894161797
 20
512.954241513687
 30
0.0
 11
2019.158953703995
 21
514.4772487691803
 31
0.0
  0
LINE
  5
22D6
330
1F
100
AcDbEntity
  8
SPOJOVACÍ
100
AcDbLine
 10
2024.842894161797
 20
511.372210263687
 30
0.0
 11
2019.158953703995
 21
512.8952175191803
 31
0.0
  0
LINE
  5
22D7
330
1F
100
AcDbEntity
  8
SPOJOVACÍ
100
AcDbLine
 10
2024.842894161797
 20
514.5362727636843
 30
0.0
 11
2019.158953703995
 21
516.0592800191802
 31
0.0
  0
LINE
  5
22D8
330
1F
100
AcDbEntity
  8
SPOJOVACÍ
100
AcDbLine
 10
2024.842894161797
 20
516.1183040136861
 30
0.0
 11
2019.158953703995
 21
517.6413112691802
 31
0.0
  0
LINE
  5
22D9
330
1F
100
AcDbEntity
  8
SPOJOVACÍ
100
AcDbLine
 10
2024.842894161797
 20
517.7003352636861
 30
0.0
 11
2019.158953703995
 21
519.2233425191784
 31
0.0
  0
LINE
  5
22DA
330
1F
100
AcDbEntity
  8
SPOJOVACÍ
100
AcDbLine
 10
1992.39634322249
 20
522.8231350224318
 30
0.0
 11
1993.919350477982
 21
528.5070754802323
 31
0.0
  0
LINE
  5
22DB
330
1F
100
AcDbEntity
  8
SPOJOVACÍ
100
AcDbLine
 10
1993.97837447249
 20
522.8231350224318
 30
0.0
 11
1995.501381727982
 21
528.5070754802323
 31
0.0
  0
LINE
  5
22DC
330
1F
100
AcDbEntity
  8
SPOJOVACÍ
100
AcDbLine
 10
1995.560405722487
 20
522.8231350224318
 30
0.0
 11
1997.083412977984
 21
528.5070754802323
 31
0.0
  0
LINE
  5
22DD
330
1F
100
AcDbEntity
  8
SPOJOVACÍ
100
AcDbLine
 10
1997.142436972489
 20
522.8231350224318
 30
0.0
 11
1998.21623854018
 21
526.8306170302971
 31
0.0
  0
LINE
  5
22DE
330
1F
100
AcDbEntity
  8
SPOJOVACÍ
100
AcDbLine
 10
1999.114205843453
 20
525.6651052513311
 30
0.0
 11
1996.92461292085
 21
522.8231350224318
 31
0.0
  0
LINE
  5
22DF
330
1F
100
AcDbEntity
  8
SPOJOVACÍ
100
AcDbLine
 10
1999.114205843453
 20
525.6651052513311
 30
0.0
 11
1996.92461292085
 21
528.5070754802323
 31
0.0
  0
LINE
  5
22E0
330
1F
100
AcDbEntity
  8
STAVBA OBRYS
100
AcDbLine
 10
2093.680038044734
 20
620.3058559651231
 30
0.0
 11
2010.008625112989
 21
620.3058559651231
 31
0.0
  0
LINE
  5
22E1
330
1F
100
AcDbEntity
  8
STAVBA OBRYS
100
AcDbLine
 10
2330.272908619382
 20
1030.107774770856
 30
0.0
 11
2330.272908619382
 21
855.3058559651232
 31
0.0
  0
LINE
  5
22E2
330
1F
100
AcDbEntity
  8
STAVBA OBRYS
100
AcDbLine
 10
2330.272908619382
 20
855.3058559651232
 30
0.0
 11
2537.76810284361
 21
855.3058559651232
 31
0.0
  0
LINE
  5
22E3
330
1F
100
AcDbEntity
  8
STAVBA OBRYS
  6
DASHED
100
AcDbLine
 10
2175.752237670468
 20
894.6295572348349
 30
0.0
 11
2015.381906437843
 21
894.6295572348367
 31
0.0
  0
LINE
  5
22E4
330
1F
100
AcDbEntity
  8
STAVBA OBRYS
  6
DASHED
100
AcDbLine
 10
2175.752237670468
 20
881.5045572348349
 30
0.0
 11
2015.381906437843
 21
881.5045572348367
 31
0.0
  0
LINE
  5
22E5
330
1F
100
AcDbEntity
  8
STAVBA OBRYS
  6
DASHDOT2
100
AcDbLine
 10
1981.623661936168
 20
888.0670572348348
 30
0.0
 11
2194.400151002267
 21
888.0670572348348
 31
0.0
  0
LWPOLYLINE
  5
22E6
330
1F
100
AcDbEntity
  8
STAVBA OBRYS
  6
DASHED
100
AcDbPolyline
 90
        4
 70
     1
 43
0.0
 10
2010.008625112989
 20
863.0072712253227
 10
2015.381906437843
 20
863.0072712253227
 10
2015.381906437843
 20
913.1268432443453
 10
2010.008625112989
 20
913.1268432443453
  0
LINE
  5
22E7
330
1F
100
AcDbEntity
  8
STAVBA OBRYS
  6
DASHED
100
AcDbLine
 10
2179.541098812025
 20
888.0670572348348
 30
0.0
 11
2175.752237670468
 21
881.5045572348349
 31
0.0
  0
LINE
  5
22E8
330
1F
100
AcDbEntity
  8
STAVBA OBRYS
  6
DASHED
100
AcDbLine
 10
2179.541098812025
 20
888.0670572348348
 30
0.0
 11
2175.752237670468
 21
894.6295572348349
 31
0.0
  0
LINE
  5
22E9
330
1F
100
AcDbEntity
  8
STAVBA OBRYS
  6
DASHED
100
AcDbLine
 10
2122.561118437138
 20
702.7209172731277
 30
0.0
 11
2122.561118437136
 21
542.3505860405025
 31
0.0
  0
LINE
  5
22EA
330
1F
100
AcDbEntity
  8
STAVBA OBRYS
  6
DASHED
100
AcDbLine
 10
2135.686118437138
 20
702.7209172731277
 30
0.0
 11
2135.686118437136
 21
542.3505860405025
 31
0.0
  0
LINE
  5
22EB
330
1F
100
AcDbEntity
  8
STAVBA OBRYS
  6
DASHDOT2
100
AcDbLine
 10
2129.123618437136
 20
508.5923415388283
 30
0.0
 11
2129.123618437138
 21
721.3688306049266
 31
0.0
  0
LWPOLYLINE
  5
22EC
330
1F
100
AcDbEntity
  8
STAVBA OBRYS
  6
DASHED
100
AcDbPolyline
 90
        4
 70
     1
 43
0.0
 10
2154.183404446649
 20
536.9773047156491
 10
2154.183404446649
 20
542.3505860405025
 10
2104.063832427626
 20
542.3505860405025
 10
2104.063832427626
 20
536.9773047156491
  0
LINE
  5
22ED
330
1F
100
AcDbEntity
  8
STAVBA OBRYS
  6
DASHED
100
AcDbLine
 10
2129.123618437138
 20
706.5097784146842
 30
0.0
 11
2135.686118437138
 21
702.7209172731277
 31
0.0
  0
LINE
  5
22EE
330
1F
100
AcDbEntity
  8
STAVBA OBRYS
  6
DASHED
100
AcDbLine
 10
2129.123618437138
 20
706.5097784146842
 30
0.0
 11
2122.561118437138
 21
702.7209172731277
 31
0.0
  0
TEXT
  5
22EF
330
1F
100
AcDbEntity
  8
POPIS
100
AcDbText
 10
1804.49546848062
 20
240.1816374718405
 30
0.0
 40
25.0
  1
04
 41
0.85
  7
SIMPLEX7
100
AcDbText
  0
TEXT
  5
22F0
330
1F
100
AcDbEntity
  8
POPIS
100
AcDbText
 10
1858.83917164037
 20
240.1816374718405
 30
0.0
 40
25.0
  1
Svislá dřevěné lať 50x25 (100x25), impregnovaná
 41
0.7
  7
SIMPLEX7
100
AcDbText
  0
TEXT
  5
22F1
330
1F
100
AcDbEntity
  8
POPIS
100
AcDbText
 10
1858.83917164037
 20
130.2725874440379
 30
0.0
 40
25.0
  1
Tepelná izolace (np. ORSIL, ROCKWOOL, ISOVER, NOBASIL)
 41
0.7
  7
SIMPLEX7
100
AcDbText
  0
TEXT
  5
22F2
330
1F
100
AcDbEntity
  8
POPIS
100
AcDbText
 10
1858.83917164037
 20
168.4559272865631
 30
0.0
 40
25.0
  1
Vodorovná dřevěná lať š=100 mm (tloušťka dle izolace)
 41
0.7
  7
SIMPLEX7
100
AcDbText
  0
TEXT
  5
22F3
330
1F
100
AcDbEntity
  8
POPIS
100
AcDbText
 10
1858.83917164037
 20
204.0748159846521
 30
0.0
 40
25.0
  1
Pojistná fólie - parozábrana
 41
0.7
  7
SIMPLEX7
100
AcDbText
  0
TEXT
  5
22F4
330
1F
100
AcDbEntity
  8
POPIS
100
AcDbText
 10
1858.83917164037
 20
94.83043030735416
 30
0.0
 40
25.0
  1
Talířová hmoždinka
 41
0.7
  7
SIMPLEX7
100
AcDbText
  0
TEXT
  5
22F5
330
1F
100
AcDbEntity
  8
POPIS
100
AcDbText
 10
1804.49546848062
 20
130.2725874440379
 30
0.0
 40
25.0
  1
07
 41
0.85
  7
SIMPLEX7
100
AcDbText
  0
TEXT
  5
22F6
330
1F
100
AcDbEntity
  8
POPIS
100
AcDbText
 10
1804.49546848062
 20
168.4559272865631
 30
0.0
 40
25.0
  1
06
 41
0.85
  7
SIMPLEX7
100
AcDbText
  0
TEXT
  5
22F7
330
1F
100
AcDbEntity
  8
POPIS
100
AcDbText
 10
1804.49546848062
 20
204.0748159846521
 30
0.0
 40
25.0
  1
05
 41
0.85
  7
SIMPLEX7
100
AcDbText
  0
TEXT
  5
22F8
330
1F
100
AcDbEntity
  8
POPIS
100
AcDbText
 10
1804.49546848062
 20
94.83043030735416
 30
0.0
 40
25.0
  1
08
 41
0.85
  7
SIMPLEX7
100
AcDbText
  0
TEXT
  5
22F9
330
1F
100
AcDbEntity
  8
POPIS
100
AcDbText
 10
1858.83917164037
 20
309.5359869347253
 30
0.0
 40
25.0
  1
Nerezový vrut s podložkou (np. SFS, EJOT)
 41
0.7
  7
SIMPLEX7
100
AcDbText
  0
TEXT
  5
22FA
330
1F
100
AcDbEntity
  8
POPIS
100
AcDbText
 10
1858.83917164037
 20
275.5857986900032
 30
0.0
 40
25.0
  1
Vzduchová mezera - min. 25 mm
 41
0.7
  7
SIMPLEX7
100
AcDbText
  0
TEXT
  5
22FB
330
1F
100
AcDbEntity
  8
POPIS
100
AcDbText
 10
1858.83917164037
 20
346.1309985503535
 30
0.0
 40
25.0
  1
Deska CETRIS   (BASIC,FINISH,DOLOMIT)
 41
0.7
  7
SIMPLEX7
100
AcDbText
  0
TEXT
  5
22FC
330
1F
100
AcDbEntity
  8
POPIS
100
AcDbText
 10
1804.49546848062
 20
275.5857986900032
 30
0.0
 40
25.0
  1
03
 41
0.85
  7
SIMPLEX7
100
AcDbText
  0
TEXT
  5
22FD
330
1F
100
AcDbEntity
  8
POPIS
100
AcDbText
 10
1804.49546848062
 20
309.5359869347253
 30
0.0
 40
25.0
  1
02
 41
0.85
  7
SIMPLEX7
100
AcDbText
  0
TEXT
  5
22FE
330
1F
100
AcDbEntity
  8
POPIS
100
AcDbText
 10
1804.499113755449
 20
348.1766517239898
 30
0.0
 40
25.0
  1
01
 41
0.85
  7
SIMPLEX7
100
AcDbText
  0
LINE
  5
22FF
330
1F
100
AcDbEntity
  8
POPIS
100
AcDbLine
 10
1814.98667179853
 20
938.5850314039249
 30
0.0
 11
1997.30198785844
 21
938.5850314039249
 31
0.0
  0
LINE
  5
2300
330
1F
100
AcDbEntity
  8
POPIS
100
AcDbLine
 10
1814.98667179853
 20
998.4776545862764
 30
0.0
 11
1977.823202253853
 21
998.4776545862755
 31
0.0
  0
TEXT
  5
2301
330
1F
100
AcDbEntity
  8
POPIS
100
AcDbText
 10
1774.451236503979
 20
925.1416899545542
 30
0.0
 40
25.0
  1
03
 41
0.7
  7
SIMPLEX7
100
AcDbText
  0
TEXT
  5
2302
330
1F
100
AcDbEntity
  8
POPIS
100
AcDbText
 10
1776.683020700808
 20
985.0343131369058
 30
0.0
 40
25.0
  1
01
 41
0.7
  7
SIMPLEX7
100
AcDbText
  0
LINE
  5
2303
330
1F
100
AcDbEntity
  8
POPIS
100
AcDbLine
 10
1814.98667179853
 20
651.7551194772327
 30
0.0
 11
2129.123618437138
 21
651.7551194772327
 31
0.0
  0
TEXT
  5
2304
330
1F
100
AcDbEntity
  8
POPIS
100
AcDbText
 10
1774.451236503979
 20
638.3117780278621
 30
0.0
 40
25.0
  1
08
 41
0.7
  7
SIMPLEX7
100
AcDbText
  0
LINE
  5
2305
330
1F
100
AcDbEntity
  8
POPIS
100
AcDbLine
 10
1816.022010872034
 20
524.7027560163419
 30
0.0
 11
1962.14317633489
 21
524.7027560163419
 31
0.0
  0
TEXT
  5
2306
330
1F
100
AcDbEntity
  8
POPIS
100
AcDbText
 10
1775.486575577483
 20
511.2594145669714
 30
0.0
 40
25.0
  1
02
 41
0.7
  7
SIMPLEX7
100
AcDbText
  0
INSERT
  5
2307
330
1F
100
AcDbEntity
  8
POPIS
100
AcDbBlockReference
  2
E_PUNKT
 10
2128.764322382971
 20
651.8356465243846
 30
0.0
  0
LINE
  5
2308
330
1F
100
AcDbEntity
  8
POPIS
100
AcDbLine
 10
1814.98667179853
 20
844.8425767637877
 30
0.0
 11
2007.606225728144
 21
844.8425767637868
 31
0.0
  0
TEXT
  5
2309
330
1F
100
AcDbEntity
  8
POPIS
100
AcDbText
 10
1775.009185455262
 20
831.3992353144172
 30
0.0
 40
25.0
  1
05
 41
0.7
  7
SIMPLEX7
100
AcDbText
  0
INSERT
  5
230A
330
1F
100
AcDbEntity
  8
POPIS
100
AcDbBlockReference
  2
E_PUNKT
 10
2063.595405348051
 20
808.1360109373139
 30
0.0
  0
INSERT
  5
230B
330
1F
100
AcDbEntity
  8
POPIS
100
AcDbBlockReference
  2
E_PUNKT
 10
1997.274377482813
 20
938.5559630730526
 30
0.0
  0
TEXT
  5
230C
330
1F
100
AcDbEntity
  8
POPIS
100
AcDbText
 10
1804.499113755449
 20
1173.287071617325
 30
0.0
 40
50.0
  1
VNĚJŠÍ ROH
 41
0.85
  7
SIMPLEX7
100
AcDbText
  0
TEXT
  5
230D
330
1F
100
AcDbEntity
  8
POPIS
100
AcDbText
 10
2026.162328204482
 20
372.9856626626774
 30
0.0
 40
12.0
  1
R
 41
0.85
  7
SIMPLEX7
100
AcDbText
  0
CIRCLE
  5
230E
330
1F
100
AcDbEntity
  8
POPIS
100
AcDbCircle
 10
2030.544611714804
 20
379.0958240306231
 30
0.0
 40
11.13656048292026
  0
LINE
  5
230F
330
1F
100
AcDbEntity
  8
STAVBA OBRYS
  6
DASHDOT2
100
AcDbLine
 10
2481.570126109049
 20
508.5923415388283
 30
0.0
 11
2481.570126109051
 21
721.3688306049266
 31
0.0
  0
LINE
  5
2310
330
1F
100
AcDbEntity
  8
STAVBA OBRYS
  6
DASHED
100
AcDbLine
 10
2475.007626109051
 20
702.7209172731277
 30
0.0
 11
2475.00762610905
 21
542.3505860405025
 31
0.0
  0
LINE
  5
2311
330
1F
100
AcDbEntity
  8
STAVBA OBRYS
  6
DASHED
100
AcDbLine
 10
2488.132626109051
 20
702.7209172731277
 30
0.0
 11
2488.13262610905
 21
542.3505860405025
 31
0.0
  0
LINE
  5
2312
330
1F
100
AcDbEntity
  8
STAVBA OBRYS
  6
DASHED
100
AcDbLine
 10
2481.570126109051
 20
706.5097784146842
 30
0.0
 11
2488.132626109051
 21
702.7209172731277
 31
0.0
  0
LINE
  5
2313
330
1F
100
AcDbEntity
  8
STAVBA OBRYS
  6
DASHED
100
AcDbLine
 10
2481.570126109051
 20
706.5097784146842
 30
0.0
 11
2475.007626109051
 21
702.7209172731277
 31
0.0
  0
LWPOLYLINE
  5
2314
330
1F
100
AcDbEntity
  8
STAVBA OBRYS
  6
DASHED
100
AcDbPolyline
 90
        4
 70
     1
 43
0.0
 10
2506.629912118563
 20
536.9773047156491
 10
2506.629912118563
 20
542.3505860405025
 10
2456.51034009954
 20
542.3505860405025
 10
2456.51034009954
 20
536.9773047156491
  0
TEXT
  5
2315
330
1F
100
AcDbEntity
  8
POPIS
100
AcDbText
 10
1804.499113755449
 20
1118.662328591524
 30
0.0
 40
35.0
  1
PŮDORYS-ŘEŠENÍ S PŘESAHEM
 41
0.75
  7
SIMPLEX7
100
AcDbText
  0
LINE
  5
2316
330
1F
100
AcDbEntity
  8
STAVBA OBRYS
100
AcDbLine
 10
2340.272908619382
 20
1030.063557312618
 30
0.0
 11
2340.272908619382
 21
865.3058559651231
 31
0.0
  0
LINE
  5
2317
330
1F
100
AcDbEntity
  8
STAVBA OBRYS
100
AcDbLine
 10
2340.272908619382
 20
865.3058559651231
 30
0.0
 11
2537.21875042534
 21
865.3058559651231
 31
0.0
  0
HATCH
  5
2318
330
1F
100
AcDbEntity
  8
STAVBA OBRYS
100
AcDbHatch
 10
0.0
 20
0.0
 30
0.0
210
0.0
220
0.0
230
1.0
  2
AR-SAND
 70
     0
 71
     0
 91
        1
 92
        7
 72
     0
 73
     1
 93
        6
 10
2537.218750425338
 20
865.3058559651231
 10
2340.272908619382
 20
865.3058559651231
 10
2340.27290861938
 20
1030.063557312618
 10
2330.272908619382
 20
1030.063557312618
 10
2330.27290861938
 20
855.3058559651232
 10
2537.218750425338
 20
855.3058559651232
 97
        0
 75
     0
 76
     1
 52
0.0
 41
0.1
 77
     0
 78
     4
 53
37.5
 43
-8193.549346942381
 44
2039.672928974164
 45
-0.1600031295984046
 46
4.894132373293423
 79
     6
 49
0.0
 49
-3.8608
 49
0.0
 49
-4.318
 49
0.0
 49
-4.1275
 53
7.499999999999999
 43
-8193.549346942381
 44
2039.672928974164
 45
4.495232831380026
 46
7.168251005683543
 79
     6
 49
0.0
 49
-2.0828
 49
0.0
 49
-3.4798
 49
0.0
 49
-1.3335
 53
327.4999999999999
 43
-8196.673546942383
 44
2039.672928974164
 45
7.909923702414579
 46
0.0143718467854569
 79
     6
 49
0.0
 49
-1.27
 49
0.0
 49
-4.572
 49
0.0
 49
-5.969
 53
317.5
 43
-8196.673546942383
 44
2039.672928974164
 45
7.635564524722972
 46
2.229293232572162
 79
     6
 49
0.0
 49
-0.635
 49
0.0
 49
-2.997199999999999
 49
0.0
 49
-3.429
 47
0.8733352055991284
 98
        1
 10
2424.885471819149
 20
863.3762772368296
  0
TEXT
  5
2319
330
1F
100
AcDbEntity
  8
POPIS
100
AcDbText
 10
1742.165430860262
 20
794.916486620234
 30
0.0
 40
25.0
  1
06,07
 41
0.7
  7
SIMPLEX7
100
AcDbText
  0
LINE
  5
237A
330
1F
100
AcDbEntity
  8
PROFILY
  6
DASHED
370
    40
100
AcDbLine
 10
1981.178197534255
 20
557.5296622517575
 30
0.0
 11
1981.178197534255
 21
507.5324971031018
 31
0.0
  0
LINE
  5
237B
330
1F
100
AcDbEntity
  8
PROFILY
100
AcDbLine
 10
1981.378197534255
 20
557.5296622517575
 30
0.0
 11
1981.378197534255
 21
507.5324971031018
 31
0.0
  0
LINE
  5
237C
330
1F
100
AcDbEntity
  8
PROFILY
100
AcDbLine
 10
1980.978197534255
 20
557.5162061783455
 30
0.0
 11
1980.978197534255
 21
507.5190410296897
 31
0.0
  0
LINE
  5
237D
330
1F
100
AcDbEntity
  8
PROFILY
100
AcDbLine
 10
2053.62952969459
 20
507.6385716395796
 30
0.0
 11
2003.632364545935
 21
507.6385716395796
 31
0.0
  0
LINE
  5
237E
330
1F
100
AcDbEntity
  8
PROFILY
  6
DASHED
370
    40
100
AcDbLine
 10
2053.62952969459
 20
507.8385716395796
 30
0.0
 11
2003.632364545935
 21
507.8385716395796
 31
0.0
  0
LINE
  5
237F
330
1F
100
AcDbEntity
  8
PROFILY
100
AcDbLine
 10
2053.616073621178
 20
508.0385716395796
 30
0.0
 11
2003.618908472523
 21
508.0385716395796
 31
0.0
  0
INSERT
  5
2380
330
1F
100
AcDbEntity
  8
POPIS
100
AcDbBlockReference
  2
E_PUNKT
 10
1981.081296991627
 20
559.1844211503953
 30
0.0
 41
-1.0
  0
LINE
  5
2384
330
1F
100
AcDbEntity
  8
POPIS
100
AcDbLine
 10
2022.841309194271
 20
461.8242623473463
 30
0.0
 11
2022.841309194271
 21
418.3412524914431
 31
0.0
  0
TEXT
  5
2385
330
1F
100
AcDbEntity
  8
POPIS
100
AcDbText
 10
2032.974426794987
 20
437.6734572234689
 30
0.0
 40
25.0
  1
25
 41
0.7
  7
SIMPLEX7
100
AcDbText
  0
LINE
  5
2386
330
1F
100
AcDbEntity
  8
POPIS
100
AcDbLine
 10
1992.558430210461
 20
459.635320114344
 30
0.0
 11
1992.558430210461
 21
418.3412524914431
 31
0.0
  0
LINE
  5
2387
330
1F
100
AcDbEntity
  8
POPIS
100
AcDbLine
 10
2059.210688105858
 20
430.8412524914431
 30
0.0
 11
1988.268587396722
 21
430.8412524914431
 31
0.0
  0
INSERT
  5
2388
330
1F
100
AcDbEntity
  8
POPIS
100
AcDbBlockReference
  2
_ArchTick
 10
1992.499744700376
 20
430.8412524914432
 30
0.0
 41
15.0
 42
15.0
 43
15.0
 50
180.0
  0
INSERT
  5
2389
330
1F
100
AcDbEntity
  8
POPIS
100
AcDbBlockReference
  2
_ArchTick
 10
2022.841309194271
 20
430.8412524914432
 30
0.0
 41
15.0
 42
15.0
 43
15.0
  0
TEXT
  5
238A
330
1F
100
AcDbEntity
  8
POPIS
100
AcDbText
 10
1860.348017475215
 20
59.49889697321305
 30
0.0
 40
25.0
  1
Podkladní EPDM páska tl.1 mm
 41
0.7
  7
SIMPLEX7
100
AcDbText
  0
TEXT
  5
238B
330
1F
100
AcDbEntity
  8
POPIS
100
AcDbText
 10
1806.004314315473
 20
59.49889697321305
 30
0.0
 40
25.0
  1
09
 41
0.85
  7
SIMPLEX7
100
AcDbText
  0
LINE
  5
238C
330
1F
100
AcDbEntity
  8
POPIS
100
AcDbLine
 10
1816.022010872034
 20
595.1144731321683
 30
0.0
 11
1917.658509995854
 21
595.1144731321683
 31
0.0
  0
TEXT
  5
238D
330
1F
100
AcDbEntity
  8
POPIS
100
AcDbText
 10
1775.486575577483
 20
581.6711316827977
 30
0.0
 40
25.0
  1
09
 41
0.7
  7
SIMPLEX7
100
AcDbText
  0
LINE
  5
238E
330
1F
100
AcDbEntity
  8
POPIS
100
AcDbLine
 10
1981.09785382133
 20
559.4094598800706
 30
0.0
 11
1922.7275664063
 21
593.7344886256414
 31
0.0
  0
ARC
  5
238F
330
1F
100
AcDbEntity
  8
POPIS
100
AcDbCircle
 10
1917.658509995854
 20
585.1144731321682
 30
0.0
 40
10.0
100
AcDbArc
 50
59.5420650358157
 51
90.0
  0
LINE
  5
23A3
330
1F
100
AcDbEntity
  8
PROFILY
100
AcDbLine
 10
1981.381844963819
 20
1029.942262225652
 30
0.0
 11
1981.381844963819
 21
979.9450970769965
 31
0.0
  0
LINE
  5
23A4
330
1F
100
AcDbEntity
  8
PROFILY
100
AcDbLine
 10
1981.781844963819
 20
1029.955718299064
 30
0.0
 11
1981.781844963819
 21
979.9585531504085
 31
0.0
  0
LINE
  5
23A5
330
1F
100
AcDbEntity
  8
PROFILY
  6
DASHED
370
    40
100
AcDbLine
 10
1981.581844963819
 20
1029.955718299064
 30
0.0
 11
1981.581844963819
 21
979.9585531504085
 31
0.0
  0
LINE
  5
23A6
330
1F
100
AcDbEntity
  8
PROFILY
  6
DASHED
370
    40
100
AcDbLine
 10
2552.219075071242
 20
508.105066071987
 30
0.0
 11
2502.221909922587
 21
508.105066071987
 31
0.0
  0
LINE
  5
23A7
330
1F
100
AcDbEntity
  8
PROFILY
100
AcDbLine
 10
2552.20561899783
 20
508.305066071987
 30
0.0
 11
2502.208453849174
 21
508.305066071987
 31
0.0
  0
LINE
  5
23A8
330
1F
100
AcDbEntity
  8
PROFILY
100
AcDbLine
 10
2552.219075071242
 20
507.905066071987
 30
0.0
 11
2502.221909922587
 21
507.905066071987
 31
0.0
  0
ENDSEC
  0
SECTION
  2
OBJECTS
  0
DICTIONARY
  5
C
330
0
100
AcDbDictionary
281
     1
  3
ACAD_GROUP
350
D
  3
ACAD_LAYOUT
350
1A
  3
ACAD_MLINESTYLE
350
17
  3
ACAD_PLOTSETTINGS
350
19
  3
ACAD_PLOTSTYLENAME
350
E
  3
AcDbVariableDictionary
350
2392
  0
DICTIONARY
  5
231B
330
1F
100
AcDbDictionary
280
     1
281
     1
  3
ACAD_LAYOUTSELFREF
360
2357
  0
DICTIONARY
  5
231D
330
1B
100
AcDbDictionary
280
     1
281
     1
  3
ACAD_LAYOUTSELFREF
360
2356
  0
DICTIONARY
  5
231F
330
23
100
AcDbDictionary
280
     1
281
     1
  3
ACAD_LAYOUTSELFREF
360
2358
  0
DICTIONARY
  5
D
102
{ACAD_REACTORS
330
C
102
}
330
C
100
AcDbDictionary
281
     1
  0
DICTIONARY
  5
1A
102
{ACAD_REACTORS
330
C
102
}
330
C
100
AcDbDictionary
281
     1
  3
Model
350
22
  3
Rozvržení1
350
1E
  3
Rozvržení2
350
26
  0
DICTIONARY
  5
17
102
{ACAD_REACTORS
330
C
102
}
330
C
100
AcDbDictionary
281
     1
  3
Standard
350
18
  0
DICTIONARY
  5
19
102
{ACAD_REACTORS
330
C
102
}
330
C
100
AcDbDictionary
281
     1
  0
ACDBDICTIONARYWDFLT
  5
E
102
{ACAD_REACTORS
330
C
102
}
330
C
100
AcDbDictionary
281
     1
  3
Normal
350
F
100
AcDbDictionaryWithDefault
340
F
  0
DICTIONARY
  5
2392
102
{ACAD_REACTORS
330
C
102
}
330
C
100
AcDbDictionary
281
     1
  3
DIMASSOC
350
2393
  0
XRECORD
  5
2357
102
{ACAD_REACTORS
330
231B
102
}
330
231B
100
AcDbXrecord
280
     1
340
1F
  0
XRECORD
  5
2356
102
{ACAD_REACTORS
330
231D
102
}
330
231D
100
AcDbXrecord
280
     1
340
1B
  0
XRECORD
  5
2358
102
{ACAD_REACTORS
330
231F
102
}
330
231F
100
AcDbXrecord
280
     1
340
23
  0
LAYOUT
  5
22
102
{ACAD_REACTORS
330
1A
102
}
330
1A
100
AcDbPlotSettings
  1

  2
HP DeskJet 690C
  4

  6

 40
0.0
 41
0.0
 42
0.0
 43
0.0
 44
0.0
 45
0.0
 46
0.0
 47
0.0
 48
0.0
 49
0.0
140
0.0
141
0.0
142
1.0
143
1.0
 70
  1712
 72
     0
 73
     0
 74
     0
  7
monochrome.ctb
 75
     0
147
1.0
148
0.0
149
0.0
100
AcDbLayout
  1
Model
 70
     1
 71
     0
 10
0.0
 20
0.0
 11
12.0
 21
9.0
 12
0.0
 22
0.0
 32
0.0
 14
0.0
 24
0.0
 34
0.0
 15
0.0
 25
0.0
 35
0.0
146
0.0
 13
0.0
 23
0.0
 33
0.0
 16
1.0
 26
0.0
 36
0.0
 17
0.0
 27
1.0
 37
0.0
 76
     0
330
1F
  0
LAYOUT
  5
1E
102
{ACAD_REACTORS
330
1A
102
}
330
1A
100
AcDbPlotSettings
  1

  2
HP DeskJet 690C
  4

  6

 40
0.0
 41
0.0
 42
0.0
 43
0.0
 44
0.0
 45
0.0
 46
0.0
 47
0.0
 48
0.0
 49
0.0
140
0.0
141
0.0
142
1.0
143
1.0
 70
   688
 72
     0
 73
     0
 74
     5
  7
monochrome.ctb
 75
    16
147
1.0
148
0.0
149
0.0
100
AcDbLayout
  1
Rozvržení1
 70
     1
 71
     1
 10
0.0
 20
0.0
 11
420.0
 21
297.0
 12
0.0
 22
0.0
 32
0.0
 14
1.000000000000000E+20
 24
1.000000000000000E+20
 34
1.000000000000000E+20
 15
-1.000000000000000E+20
 25
-1.000000000000000E+20
 35
-1.000000000000000E+20
146
0.0
 13
0.0
 23
0.0
 33
0.0
 16
1.0
 26
0.0
 36
0.0
 17
0.0
 27
1.0
 37
0.0
 76
     0
330
1B
  0
LAYOUT
  5
26
102
{ACAD_REACTORS
330
1A
102
}
330
1A
100
AcDbPlotSettings
  1

  2
HP DeskJet 690C
  4

  6

 40
0.0
 41
0.0
 42
0.0
 43
0.0
 44
0.0
 45
0.0
 46
0.0
 47
0.0
 48
0.0
 49
0.0
140
0.0
141
0.0
142
1.0
143
1.0
 70
   688
 72
     0
 73
     0
 74
     5
  7
monochrome.ctb
 75
    16
147
1.0
148
0.0
149
0.0
100
AcDbLayout
  1
Rozvržení2
 70
     1
 71
     2
 10
0.0
 20
0.0
 11
12.0
 21
9.0
 12
0.0
 22
0.0
 32
0.0
 14
0.0
 24
0.0
 34
0.0
 15
0.0
 25
0.0
 35
0.0
146
0.0
 13
0.0
 23
0.0
 33
0.0
 16
1.0
 26
0.0
 36
0.0
 17
0.0
 27
1.0
 37
0.0
 76
     0
330
23
  0
MLINESTYLE
  5
18
102
{ACAD_REACTORS
330
17
102
}
330
17
100
AcDbMlineStyle
  2
STANDARD
 70
     0
  3

 62
   256
 51
90.0
 52
90.0
 71
     2
 49
0.5
 62
   256
  6
BYLAYER
 49
-0.5
 62
   256
  6
BYLAYER
  0
ACDBPLACEHOLDER
  5
F
102
{ACAD_REACTORS
330
E
102
}
330
E
  0
DICTIONARYVAR
  5
2393
102
{ACAD_REACTORS
330
2392
102
}
330
2392
100
DictionaryVariables
280
     0
  1
1
  0
ENDSEC
  0
EOF
