  0
SECTION
  2
HEADER
  9
$ACADVER
  1
AC1015
  9
$ACADMAINTVER
 70
    14
  9
$DWGCODEPAGE
  3
ANSI_1250
  9
$INSBASE
 10
0.0
 20
0.0
 30
0.0
  9
$EXTMIN
 10
1094.512098799667
 20
-210.0351279200927
 30
-0.0015258207003583
  9
$EXTMAX
 10
1925.721419043893
 20
1327.860510647847
 30
0.0000000349246037
  9
$LIMMIN
 10
0.0
 20
0.0
  9
$LIMMAX
 10
420.0
 20
297.0
  9
$ORTHOMODE
 70
     1
  9
$REGENMODE
 70
     1
  9
$FILLMODE
 70
     1
  9
$QTEXTMODE
 70
     0
  9
$MIRRTEXT
 70
     1
  9
$LTSCALE
 40
1.0
  9
$ATTMODE
 70
     1
  9
$TEXTSIZE
 40
2.5
  9
$TRACEWID
 40
1.0
  9
$TEXTSTYLE
  7
Standard
  9
$CLAYER
  8
0
  9
$CELTYPE
  6
ByLayer
  9
$CECOLOR
 62
   256
  9
$CELTSCALE
 40
1.0
  9
$DISPSILH
 70
     0
  9
$DIMSCALE
 40
1.0
  9
$DIMASZ
 40
2.5
  9
$DIMEXO
 40
0.625
  9
$DIMDLI
 40
3.75
  9
$DIMRND
 40
0.0
  9
$DIMDLE
 40
0.0
  9
$DIMEXE
 40
1.25
  9
$DIMTP
 40
0.0
  9
$DIMTM
 40
0.0
  9
$DIMTXT
 40
2.5
  9
$DIMCEN
 40
2.5
  9
$DIMTSZ
 40
0.0
  9
$DIMTOL
 70
     0
  9
$DIMLIM
 70
     0
  9
$DIMTIH
 70
     0
  9
$DIMTOH
 70
     0
  9
$DIMSE1
 70
     0
  9
$DIMSE2
 70
     0
  9
$DIMTAD
 70
     1
  9
$DIMZIN
 70
     8
  9
$DIMBLK
  1

  9
$DIMASO
 70
     1
  9
$DIMSHO
 70
     1
  9
$DIMPOST
  1

  9
$DIMAPOST
  1

  9
$DIMALT
 70
     0
  9
$DIMALTD
 70
     3
  9
$DIMALTF
 40
0.03937007874016
  9
$DIMLFAC
 40
1.0
  9
$DIMTOFL
 70
     1
  9
$DIMTVP
 40
0.0
  9
$DIMTIX
 70
     0
  9
$DIMSOXD
 70
     0
  9
$DIMSAH
 70
     0
  9
$DIMBLK1
  1

  9
$DIMBLK2
  1

  9
$DIMSTYLE
  2
ISO-25
  9
$DIMCLRD
 70
     0
  9
$DIMCLRE
 70
     0
  9
$DIMCLRT
 70
     0
  9
$DIMTFAC
 40
1.0
  9
$DIMGAP
 40
0.625
  9
$DIMJUST
 70
     0
  9
$DIMSD1
 70
     0
  9
$DIMSD2
 70
     0
  9
$DIMTOLJ
 70
     0
  9
$DIMTZIN
 70
     8
  9
$DIMALTZ
 70
     0
  9
$DIMALTTZ
 70
     0
  9
$DIMUPT
 70
     0
  9
$DIMDEC
 70
     2
  9
$DIMTDEC
 70
     2
  9
$DIMALTU
 70
     2
  9
$DIMALTTD
 70
     3
  9
$DIMTXSTY
  7
Standard
  9
$DIMAUNIT
 70
     0
  9
$DIMADEC
 70
     0
  9
$DIMALTRND
 40
0.0
  9
$DIMAZIN
 70
     0
  9
$DIMDSEP
 70
    44
  9
$DIMATFIT
 70
     3
  9
$DIMFRAC
 70
     0
  9
$DIMLDRBLK
  1

  9
$DIMLUNIT
 70
     2
  9
$DIMLWD
 70
    -2
  9
$DIMLWE
 70
    -2
  9
$DIMTMOVE
 70
     0
  9
$LUNITS
 70
     2
  9
$LUPREC
 70
     4
  9
$SKETCHINC
 40
1.0
  9
$FILLETRAD
 40
10.0
  9
$AUNITS
 70
     0
  9
$AUPREC
 70
     0
  9
$MENU
  1
.
  9
$ELEVATION
 40
0.0
  9
$PELEVATION
 40
0.0
  9
$THICKNESS
 40
0.0
  9
$LIMCHECK
 70
     0
  9
$CHAMFERA
 40
10.0
  9
$CHAMFERB
 40
10.0
  9
$CHAMFERC
 40
20.0
  9
$CHAMFERD
 40
0.0
  9
$SKPOLY
 70
     0
  9
$TDCREATE
 40
2452339.360978703
  9
$TDUCREATE
 40
2452339.319312037
  9
$TDUPDATE
 40
2455610.260444109
  9
$TDUUPDATE
 40
2455610.218777442
  9
$TDINDWG
 40
0.0063581713
  9
$TDUSRTIMER
 40
0.0063574769
  9
$USRTIMER
 70
     1
  9
$ANGBASE
 50
0.0
  9
$ANGDIR
 70
     0
  9
$PDMODE
 70
     0
  9
$PDSIZE
 40
0.0
  9
$PLINEWID
 40
0.0
  9
$SPLFRAME
 70
     0
  9
$SPLINETYPE
 70
     6
  9
$SPLINESEGS
 70
     8
  9
$HANDSEED
  5
15E2
  9
$SURFTAB1
 70
     6
  9
$SURFTAB2
 70
     6
  9
$SURFTYPE
 70
     6
  9
$SURFU
 70
     6
  9
$SURFV
 70
     6
  9
$UCSBASE
  2

  9
$UCSNAME
  2

  9
$UCSORG
 10
0.0
 20
0.0
 30
0.0
  9
$UCSXDIR
 10
1.0
 20
0.0
 30
0.0
  9
$UCSYDIR
 10
0.0
 20
1.0
 30
0.0
  9
$UCSORTHOREF
  2

  9
$UCSORTHOVIEW
 70
     0
  9
$UCSORGTOP
 10
0.0
 20
0.0
 30
0.0
  9
$UCSORGBOTTOM
 10
0.0
 20
0.0
 30
0.0
  9
$UCSORGLEFT
 10
0.0
 20
0.0
 30
0.0
  9
$UCSORGRIGHT
 10
0.0
 20
0.0
 30
0.0
  9
$UCSORGFRONT
 10
0.0
 20
0.0
 30
0.0
  9
$UCSORGBACK
 10
0.0
 20
0.0
 30
0.0
  9
$PUCSBASE
  2

  9
$PUCSNAME
  2

  9
$PUCSORG
 10
0.0
 20
0.0
 30
0.0
  9
$PUCSXDIR
 10
1.0
 20
0.0
 30
0.0
  9
$PUCSYDIR
 10
0.0
 20
1.0
 30
0.0
  9
$PUCSORTHOREF
  2

  9
$PUCSORTHOVIEW
 70
     0
  9
$PUCSORGTOP
 10
0.0
 20
0.0
 30
0.0
  9
$PUCSORGBOTTOM
 10
0.0
 20
0.0
 30
0.0
  9
$PUCSORGLEFT
 10
0.0
 20
0.0
 30
0.0
  9
$PUCSORGRIGHT
 10
0.0
 20
0.0
 30
0.0
  9
$PUCSORGFRONT
 10
0.0
 20
0.0
 30
0.0
  9
$PUCSORGBACK
 10
0.0
 20
0.0
 30
0.0
  9
$USERI1
 70
     0
  9
$USERI2
 70
     0
  9
$USERI3
 70
     0
  9
$USERI4
 70
     0
  9
$USERI5
 70
     0
  9
$USERR1
 40
0.0
  9
$USERR2
 40
0.0
  9
$USERR3
 40
0.0
  9
$USERR4
 40
0.0
  9
$USERR5
 40
0.0
  9
$WORLDVIEW
 70
     1
  9
$SHADEDGE
 70
     3
  9
$SHADEDIF
 70
    70
  9
$TILEMODE
 70
     1
  9
$MAXACTVP
 70
    48
  9
$PINSBASE
 10
0.0
 20
0.0
 30
0.0
  9
$PLIMCHECK
 70
     0
  9
$PEXTMIN
 10
1.000000000000000E+20
 20
1.000000000000000E+20
 30
1.000000000000000E+20
  9
$PEXTMAX
 10
-1.000000000000000E+20
 20
-1.000000000000000E+20
 30
-1.000000000000000E+20
  9
$PLIMMIN
 10
0.0
 20
0.0
  9
$PLIMMAX
 10
420.0
 20
297.0
  9
$UNITMODE
 70
     0
  9
$VISRETAIN
 70
     1
  9
$PLINEGEN
 70
     0
  9
$PSLTSCALE
 70
     1
  9
$TREEDEPTH
 70
  3020
  9
$CMLSTYLE
  2
Standard
  9
$CMLJUST
 70
     0
  9
$CMLSCALE
 40
20.0
  9
$PROXYGRAPHICS
 70
     1
  9
$MEASUREMENT
 70
     1
  9
$CELWEIGHT
370
    -1
  9
$ENDCAPS
280
     0
  9
$JOINSTYLE
280
     0
  9
$LWDISPLAY
290
     0
  9
$INSUNITS
 70
     4
  9
$HYPERLINKBASE
  1

  9
$STYLESHEET
  1

  9
$XEDIT
290
     1
  9
$CEPSNTYPE
380
     0
  9
$PSTYLEMODE
290
     1
  9
$FINGERPRINTGUID
  2
{9C079773-E80E-4585-A7F4-852C8B38093D}
  9
$VERSIONGUID
  2
{637C1313-0DEA-4191-8730-20E97EAD53E2}
  9
$EXTNAMES
290
     1
  9
$PSVPSCALE
 40
0.0
  9
$OLESTARTUP
290
     0
  0
ENDSEC
  0
SECTION
  2
CLASSES
  0
CLASS
  1
ACDBDICTIONARYWDFLT
  2
AcDbDictionaryWithDefault
  3
AutoCAD 2000
 90
        0
280
     0
281
     0
  0
CLASS
  1
ACDBPLACEHOLDER
  2
AcDbPlaceHolder
  3
AutoCAD 2000
 90
        0
280
     0
281
     0
  0
CLASS
  1
LAYOUT
  2
AcDbLayout
  3
AutoCAD 2000
 90
        0
280
     0
281
     0
  0
CLASS
  1
LONG_TRANSACTION
  2
AcDbLongTransaction
  3
AutoCAD 2000
 90
    32768
280
     0
281
     0
  0
CLASS
  1
LWPOLYLINE
  2
AcDbPolyline
  3
AutoCAD 2000
 90
    32768
280
     0
281
     1
  0
CLASS
  1
HATCH
  2
AcDbHatch
  3
AutoCAD 2000
 90
    32768
280
     0
281
     1
  0
CLASS
  1
XRECORD
  2
AcDbXrecord
  3
AutoCAD 2000
 90
    32768
280
     0
281
     0
  0
CLASS
  1
DICTIONARYVAR
  2
AcDbDictionaryVar
  3
AutoCAD 2000
 90
        0
280
     0
281
     0
  0
ENDSEC
  0
SECTION
  2
TABLES
  0
TABLE
  2
VPORT
  5
8
330
0
100
AcDbSymbolTable
 70
     2
  0
VPORT
  5
15E1
330
8
100
AcDbSymbolTableRecord
100
AcDbViewportTableRecord
  2
*Active
 70
     0
 10
0.0
 20
0.0
 11
1.0
 21
1.0
 12
1510.11675892178
 22
558.9126913638772
 13
0.0
 23
0.0
 14
10.0
 24
10.0
 15
10.0
 25
10.0
 16
0.0
 26
0.0
 36
1.0
 17
0.0
 27
0.0
 37
0.0
 40
1549.189853783861
 41
2.031862745098039
 42
50.0
 43
0.0
 44
0.0
 50
0.0
 51
0.0
 71
     0
 72
   100
 73
     1
 74
     3
 75
     0
 76
     0
 77
     0
 78
     0
281
     0
 65
     1
110
0.0
120
0.0
130
0.0
111
1.0
121
0.0
131
0.0
112
0.0
122
1.0
132
0.0
 79
     0
146
0.0
  0
ENDTAB
  0
TABLE
  2
LTYPE
  5
5
330
0
100
AcDbSymbolTable
 70
     4
  0
LTYPE
  5
14
330
5
100
AcDbSymbolTableRecord
100
AcDbLinetypeTableRecord
  2
ByBlock
 70
     0
  3

 72
    65
 73
     0
 40
0.0
  0
LTYPE
  5
15
330
5
100
AcDbSymbolTableRecord
100
AcDbLinetypeTableRecord
  2
ByLayer
 70
     0
  3

 72
    65
 73
     0
 40
0.0
  0
LTYPE
  5
16
330
5
100
AcDbSymbolTableRecord
100
AcDbLinetypeTableRecord
  2
Continuous
 70
     0
  3
Solid line
 72
    65
 73
     0
 40
0.0
  0
LTYPE
  5
3F
330
5
100
AcDbSymbolTableRecord
100
AcDbLinetypeTableRecord
  2
IZOLACE
 70
     0
  3
Izolace SSSSSSSSSSSSSSSSSSSSSSSSSSSSSSSSSSSSSSS
 72
    65
 73
     4
 40
10.16253999999999
 49
0.00254
 74
     0
 49
-2.54
 74
     4
 75
   134
340
4A
 46
2.54
 50
0.0
 44
-2.54
 45
0.0
 49
-5.08
 74
     4
 75
   134
340
4A
 46
2.54
 50
180.0
 44
2.54
 45
0.0
 49
-2.54
 74
     0
  0
LTYPE
  5
40
330
5
100
AcDbSymbolTableRecord
100
AcDbLinetypeTableRecord
  2
DASHED
 70
     0
  3
Dashed __ __ __ __ __ __ __ __ __ __ __ __ __ _
 72
    65
 73
     2
 40
19.04999999999999
 49
12.7
 74
     0
 49
-6.349999999999999
 74
     0
  0
LTYPE
  5
41
330
5
100
AcDbSymbolTableRecord
100
AcDbLinetypeTableRecord
  2
DASHDOT2
 70
     0
  3
Dash dot (.5x) _._._._._._._._._._._._._._._.
 72
    65
 73
     4
 40
12.7
 49
6.349999999999999
 74
     0
 49
-3.174999999999999
 74
     0
 49
0.0
 74
     0
 49
-3.174999999999999
 74
     0
  0
ENDTAB
  0
TABLE
  2
LAYER
  5
2
330
0
100
AcDbSymbolTable
 70
     8
  0
LAYER
  5
10
330
2
100
AcDbSymbolTableRecord
100
AcDbLayerTableRecord
  2
0
 70
     0
 62
     7
  6
Continuous
370
    -3
390
F
  0
LAYER
  5
42
330
2
100
AcDbSymbolTableRecord
100
AcDbLayerTableRecord
  2
POPIS
 70
     0
 62
    30
  6
Continuous
370
    -3
390
F
  0
LAYER
  5
43
330
2
100
AcDbSymbolTableRecord
100
AcDbLayerTableRecord
  2
SPOJOVACÍ
 70
     0
 62
   180
  6
Continuous
370
    -3
390
F
  0
LAYER
  5
44
330
2
100
AcDbSymbolTableRecord
100
AcDbLayerTableRecord
  2
CETRIS
 70
     0
 62
     1
  6
Continuous
370
    -3
390
F
  0
LAYER
  5
45
330
2
100
AcDbSymbolTableRecord
100
AcDbLayerTableRecord
  2
NOSNÉ KONSTRUKCE
 70
     0
 62
    33
  6
Continuous
370
    -3
390
F
  0
LAYER
  5
46
330
2
100
AcDbSymbolTableRecord
100
AcDbLayerTableRecord
  2
PROFILY
 70
     0
 62
    73
  6
Continuous
370
    -3
390
F
  0
LAYER
  5
47
330
2
100
AcDbSymbolTableRecord
100
AcDbLayerTableRecord
  2
STAVBA OBRYS
 70
     0
 62
     6
  6
Continuous
370
    -3
390
F
  0
LAYER
  5
48
330
2
100
AcDbSymbolTableRecord
100
AcDbLayerTableRecord
  2
Defpoints
 70
     0
 62
     7
  6
Continuous
290
     0
370
    -3
390
F
  0
ENDTAB
  0
TABLE
  2
STYLE
  5
3
330
0
100
AcDbSymbolTable
 70
     3
  0
STYLE
  5
11
330
3
100
AcDbSymbolTableRecord
100
AcDbTextStyleTableRecord
  2
Standard
 70
     0
 40
0.0
 41
1.0
 50
0.0
 71
     0
 42
2.5
  3
txt
  4

  0
STYLE
  5
49
330
3
100
AcDbSymbolTableRecord
100
AcDbTextStyleTableRecord
  2
SIMPLEX7
 70
     0
 40
0.0
 41
0.85
 50
0.0
 71
     0
 42
102.0
  3
ARIAL.TTF
  4

1001
ACAD
1000
Arial CE
1071
    60962
  0
STYLE
  5
4A
330
3
100
AcDbSymbolTableRecord
100
AcDbTextStyleTableRecord
  2

 70
     1
 40
0.0
 41
1.0
 50
0.0
 71
     0
 42
2.5
  3
ltypeshp.shx
  4

  0
ENDTAB
  0
TABLE
  2
VIEW
  5
6
330
0
100
AcDbSymbolTable
 70
     0
  0
ENDTAB
  0
TABLE
  2
UCS
  5
7
330
0
100
AcDbSymbolTable
 70
     0
  0
ENDTAB
  0
TABLE
  2
APPID
  5
9
330
0
100
AcDbSymbolTable
 70
     1
  0
APPID
  5
12
330
9
100
AcDbSymbolTableRecord
100
AcDbRegAppTableRecord
  2
ACAD
 70
     0
  0
ENDTAB
  0
TABLE
  2
DIMSTYLE
  5
A
330
0
100
AcDbSymbolTable
 70
     1
100
AcDbDimStyleTable
 71
     0
  0
DIMSTYLE
105
27
330
A
100
AcDbSymbolTableRecord
100
AcDbDimStyleTableRecord
  2
ISO-25
 70
     0
 41
2.5
 42
0.625
 43
3.75
 44
1.25
 73
     0
 74
     0
 77
     1
 78
     8
140
2.5
141
2.5
143
0.03937007874016
147
0.625
171
     3
172
     1
271
     2
272
     2
274
     3
278
    44
283
     0
284
     8
340
11
  0
ENDTAB
  0
TABLE
  2
BLOCK_RECORD
  5
1
330
0
100
AcDbSymbolTable
 70
     3
  0
BLOCK_RECORD
  5
1F
102
{ACAD_XDICTIONARY
360
156A
102
}
330
1
100
AcDbSymbolTableRecord
100
AcDbBlockTableRecord
  2
*Model_Space
340
22
  0
BLOCK_RECORD
  5
1B
102
{ACAD_XDICTIONARY
360
156C
102
}
330
1
100
AcDbSymbolTableRecord
100
AcDbBlockTableRecord
  2
*Paper_Space
340
1E
  0
BLOCK_RECORD
  5
23
102
{ACAD_XDICTIONARY
360
156E
102
}
330
1
100
AcDbSymbolTableRecord
100
AcDbBlockTableRecord
  2
*Paper_Space0
340
26
  0
BLOCK_RECORD
  5
2B
330
1
100
AcDbSymbolTableRecord
100
AcDbBlockTableRecord
  2
E_PUNKT
340
0
102
{BLKREFS
331
1445
331
1485
331
152E
331
152F
331
1530
331
1531
331
1535
102
}
  0
BLOCK_RECORD
  5
15AF
330
1
100
AcDbSymbolTableRecord
100
AcDbBlockTableRecord
  2
_ArchTick
340
0
102
{BLKREFS
331
15C6
331
15CA
102
}
  0
ENDTAB
  0
ENDSEC
  0
SECTION
  2
BLOCKS
  0
BLOCK
  5
20
330
1F
100
AcDbEntity
  8
0
100
AcDbBlockBegin
  2
*Model_Space
 70
     0
 10
0.0
 20
0.0
 30
0.0
  3
*Model_Space
  1

  0
ENDBLK
  5
21
330
1F
100
AcDbEntity
  8
0
100
AcDbBlockEnd
  0
BLOCK
  5
1C
330
1B
100
AcDbEntity
 67
     1
  8
0
100
AcDbBlockBegin
  2
*Paper_Space
 70
     0
 10
0.0
 20
0.0
 30
0.0
  3
*Paper_Space
  1

  0
ENDBLK
  5
1D
330
1B
100
AcDbEntity
 67
     1
  8
0
100
AcDbBlockEnd
  0
BLOCK
  5
24
330
23
100
AcDbEntity
  8
0
100
AcDbBlockBegin
  2
*Paper_Space0
 70
     0
 10
0.0
 20
0.0
 30
0.0
  3
*Paper_Space0
  1

  0
ENDBLK
  5
25
330
23
100
AcDbEntity
  8
0
100
AcDbBlockEnd
  0
BLOCK
  5
2D
330
2B
100
AcDbEntity
  8
0
100
AcDbBlockBegin
  2
E_PUNKT
 70
     0
 10
0.0
 20
0.0
 30
0.0
  3
E_PUNKT
  1

  0
LWPOLYLINE
  5
2C
330
2B
100
AcDbEntity
  8
POPIS
100
AcDbPolyline
 90
        2
 70
     1
 43
2.5
 10
1.27761037562675
 20
0.0290683308725193
 42
-1.0
 10
-1.222389624373249
 20
0.0290683308725193
 42
-1.0
  0
ENDBLK
  5
2E
330
2B
100
AcDbEntity
  8
0
100
AcDbBlockEnd
  0
BLOCK
  5
15B1
330
15AF
100
AcDbEntity
  8
0
100
AcDbBlockBegin
  2
_ArchTick
 70
     0
 10
0.0
 20
0.0
 30
0.0
  3
_ArchTick
  1

  0
LWPOLYLINE
  5
15B0
330
15AF
100
AcDbEntity
  8
0
  6
ByBlock
 62
     0
100
AcDbPolyline
 90
        2
 70
     0
 43
0.15
 10
-0.5
 20
-0.5
 10
0.5
 20
0.5
  0
ENDBLK
  5
15B2
330
15AF
100
AcDbEntity
  8
0
100
AcDbBlockEnd
  0
ENDSEC
  0
SECTION
  2
ENTITIES
  0
INSERT
  5
1445
330
1F
100
AcDbEntity
  8
POPIS
100
AcDbBlockReference
  2
E_PUNKT
 10
1464.882017783868
 20
796.8867510395989
 30
0.0
 41
-1.0
  0
LINE
  5
1446
330
1F
100
AcDbEntity
  8
POPIS
100
AcDbLine
 10
1465.619704561748
 20
797.5796538565041
 30
0.0
 11
1505.209468468125
 21
854.8378188108722
 31
0.0
  0
TEXT
  5
1447
330
1F
100
AcDbEntity
  8
POPIS
100
AcDbText
 10
1632.815799892589
 20
842.4729071166208
 30
0.0
 40
25.0
  1
09,10
 41
0.7
  7
SIMPLEX7
100
AcDbText
  0
LINE
  5
1448
330
1F
100
AcDbEntity
  8
POPIS
100
AcDbLine
 10
1505.209468468125
 20
854.8378188108722
 30
0.0
 11
1621.517199287704
 21
854.8366050623767
 31
0.0
  0
HATCH
  5
1449
330
1F
100
AcDbEntity
  8
PROFILY
100
AcDbHatch
 10
0.0
 20
0.0
 30
0.0
210
0.0
220
0.0
230
1.0
  2
SOLID
 70
     1
 71
     0
 91
        3
 92
        7
 72
     0
 73
     1
 93
        5
 10
1455.726919201876
 20
853.6141357064765
 10
1453.700851404279
 20
853.6141357064765
 10
1453.381645823353
 20
853.1524727915298
 10
1453.381645823353
 20
843.9349791277276
 10
1455.726919201876
 20
843.9349791277287
 97
        0
 92
        7
 72
     0
 73
     1
 93
        6
 10
1455.726919201876
 20
838.2510386699282
 10
1453.381645823353
 20
838.2510386699282
 10
1453.381645823353
 20
793.3655100584069
 10
1499.135527611059
 20
793.3655100584069
 10
1499.135527611059
 20
795.6991796134457
 10
1455.726919201876
 20
795.6991796134457
 97
        0
 92
        7
 72
     0
 73
     1
 93
        4
 10
1513.875355052526
 20
795.6991796134457
 10
1504.819468068854
 20
795.6991796134457
 10
1504.819468068854
 20
793.365510058406
 10
1513.875355052526
 20
793.3655100584069
 97
        0
 75
     0
 76
     1
 47
0.1528374946228099
 98
        3
 10
1453.472900573241
 20
846.7669218444566
 10
1454.849229941993
 20
824.7583031551471
 10
1511.277067880019
 20
794.8021431193333
  0
LINE
  5
144A
330
1F
100
AcDbEntity
  8
PROFILY
100
AcDbLine
 10
1513.875355052526
 20
793.365510058406
 30
0.0
 11
1453.381645823353
 21
793.3655100584069
 31
0.0
  0
LINE
  5
144B
330
1F
100
AcDbEntity
  8
PROFILY
100
AcDbLine
 10
1513.875355052526
 20
795.6991796134457
 30
0.0
 11
1513.875355052526
 21
793.365510058406
 31
0.0
  0
LINE
  5
144C
330
1F
100
AcDbEntity
  8
PROFILY
100
AcDbLine
 10
1455.726919201876
 20
795.6991796134457
 30
0.0
 11
1513.875355052526
 21
795.6991796134457
 31
0.0
  0
LINE
  5
144D
330
1F
100
AcDbEntity
  8
PROFILY
100
AcDbLine
 10
1455.726919201876
 20
853.6141357064765
 30
0.0
 11
1455.726919201876
 21
795.6991796134457
 31
0.0
  0
LINE
  5
144E
330
1F
100
AcDbEntity
  8
NOSNÉ KONSTRUKCE
100
AcDbLine
 10
1427.555584511971
 20
892.7846439170931
 30
0.0
 11
1452.555584511971
 21
892.7846439170931
 31
0.0
  0
LWPOLYLINE
  5
144F
330
1F
100
AcDbEntity
  8
NOSNÉ KONSTRUKCE
100
AcDbPolyline
 90
        3
 70
     0
 43
0.0
 10
1434.054754081226
 20
867.8135148796823
 10
1443.270783131746
 20
887.809767311675
 10
1443.916180607088
 20
891.8097049453894
  0
LWPOLYLINE
  5
1450
330
1F
100
AcDbEntity
  8
NOSNÉ KONSTRUKCE
100
AcDbPolyline
 90
        4
 70
     0
 43
0.0
 10
1427.555584511971
 20
891.8943194222405
 42
-0.0135911980674878
 10
1447.884277694437
 20
888.1751880650112
 42
-0.0219777111230329
 10
1451.402390950272
 20
887.2690755630278
 42
-0.0092752982622242
 10
1452.555584511971
 20
886.8938486010844
  0
LWPOLYLINE
  5
1451
330
1F
100
AcDbEntity
  8
NOSNÉ KONSTRUKCE
100
AcDbPolyline
 90
        4
 70
     0
 43
0.0
 10
1427.555584511971
 20
882.37382680178
 42
-0.0135911980674878
 10
1447.884277694437
 20
878.6546954445507
 42
-0.0219777111230329
 10
1451.402390950272
 20
877.7485829425673
 42
-0.0092752982622242
 10
1452.555584511971
 20
877.3733559806236
  0
LWPOLYLINE
  5
1452
330
1F
100
AcDbEntity
  8
NOSNÉ KONSTRUKCE
100
AcDbPolyline
 90
        4
 70
     0
 43
0.0
 10
1427.555584511971
 20
873.2910911268005
 42
-0.0135911980674878
 10
1447.884277694437
 20
869.5719597695712
 42
-0.0219777111230329
 10
1451.402390950272
 20
868.6658472675876
 42
-0.0092752982622242
 10
1452.555584511971
 20
868.2906203056441
  0
LWPOLYLINE
  5
1453
330
1F
100
AcDbEntity
  8
NOSNÉ KONSTRUKCE
100
AcDbPolyline
 90
        4
 70
     0
 43
0.0
 10
1427.555584511971
 20
863.989444937138
 42
-0.0135911980674878
 10
1447.884277694437
 20
860.2703135799087
 42
-0.0219777111230329
 10
1451.402390950272
 20
859.3642010779253
 42
-0.0092752982622242
 10
1452.555584511971
 20
858.9889741159819
  0
LWPOLYLINE
  5
1454
330
1F
100
AcDbEntity
  8
NOSNÉ KONSTRUKCE
100
AcDbPolyline
 90
        4
 70
     0
 43
0.0
 10
1427.555584511971
 20
854.3594970593435
 42
-0.0135911980674878
 10
1447.884277694437
 20
850.6403657021142
 42
-0.0219777111230329
 10
1451.402390950272
 20
849.7342532001308
 42
-0.0092752982622242
 10
1452.555584511971
 20
849.3590262381871
  0
LWPOLYLINE
  5
1455
330
1F
100
AcDbEntity
  8
NOSNÉ KONSTRUKCE
100
AcDbPolyline
 90
        3
 70
     0
 43
0.0
 10
1434.054754081226
 20
818.7884538513857
 10
1443.270783131746
 20
838.7847062833785
 10
1443.916180607088
 20
842.7846439170931
  0
LWPOLYLINE
  5
1456
330
1F
100
AcDbEntity
  8
NOSNÉ KONSTRUKCE
100
AcDbPolyline
 90
        3
 70
     0
 43
0.0
 10
1433.072915207489
 20
839.7663750998503
 10
1441.456656075458
 20
856.5215927195781
 10
1449.637957776555
 20
864.6886973687028
  0
LWPOLYLINE
  5
1457
330
1F
100
AcDbEntity
  8
NOSNÉ KONSTRUKCE
100
AcDbPolyline
 90
        8
 70
     0
 43
0.0
 10
1427.555584511971
 20
825.6968218505713
 42
-0.0120721047703142
 10
1429.289472650715
 20
825.6278391605333
 42
-0.044358077361292
 10
1431.985272669132
 20
825.23221142586
 42
-0.0188067511131767
 10
1439.227501844438
 20
823.2123879774768
 42
-0.0457786284636091
 10
1442.076112227318
 20
822.004365087861
 42
-0.0295006114745606
 10
1446.00301144072
 20
819.5883046335616
 42
-0.0258674098621065
 10
1450.148791519474
 20
816.3556293195975
 42
-0.0093759062953949
 10
1452.555584511971
 20
814.1898171399402
 42
-0.0093759062953949
  0
LWPOLYLINE
  5
1458
330
1F
100
AcDbEntity
  8
NOSNÉ KONSTRUKCE
100
AcDbPolyline
 90
        6
 70
     0
 43
0.0
 10
1427.555584511971
 20
834.3210372306161
 42
-0.0128837512779302
 10
1430.888749333717
 20
834.036245270388
 42
-0.0351641677647434
 10
1434.492458788056
 20
833.4084855488649
 42
-0.0187319685742942
 10
1446.250696130199
 20
830.0244696678742
 42
-0.0582629403736403
 10
1449.830530329131
 20
828.364969799793
 42
-0.0146402521923566
 10
1452.555584511971
 20
826.5805618182088
  0
LWPOLYLINE
  5
1459
330
1F
100
AcDbEntity
  8
NOSNÉ KONSTRUKCE
100
AcDbPolyline
 90
        4
 70
     0
 43
0.0
 10
1427.555584511971
 20
844.5107668346205
 42
-0.0135911980674878
 10
1447.884277694437
 20
840.7916354773911
 42
-0.0219777111230329
 10
1451.402390950272
 20
839.8855229754076
 42
-0.0092752982622242
 10
1452.555584511971
 20
839.5102960134641
  0
LWPOLYLINE
  5
145A
330
1F
100
AcDbEntity
  8
NOSNÉ KONSTRUKCE
100
AcDbPolyline
 90
        7
 70
     0
 43
0.0
 10
1427.555584511971
 20
797.3022472481239
 42
-0.0203924744732807
 10
1428.568714541125
 20
796.4001632637114
 42
-0.0273961979096945
 10
1429.356890915151
 20
795.5502989135161
 42
-0.0243529190212958
 10
1430.230650259819
 20
794.3871784210964
 42
-0.0398020282482987
 10
1430.670279003265
 20
793.6122198835359
 42
-0.104168275620852
 10
1430.760295463443
 20
793.2258087471959
 42
-0.007272956268647
 10
1430.778748814737
 20
792.7874787684409
 42
-0.007272956268647
  0
LWPOLYLINE
  5
145B
330
1F
100
AcDbEntity
  8
NOSNÉ KONSTRUKCE
100
AcDbPolyline
 90
        4
 70
     0
 43
0.0
 10
1452.555584511971
 20
892.7846439170931
 10
1452.555584511971
 20
792.7874787684409
 10
1427.555584511971
 20
792.7874787684409
 10
1427.555584511971
 20
892.7846439170931
  0
LWPOLYLINE
  5
145C
330
1F
100
AcDbEntity
  8
NOSNÉ KONSTRUKCE
100
AcDbPolyline
 90
       11
 70
     0
 43
0.0
 10
1427.555584511971
 20
809.8799846033793
 42
-0.0072417954699014
 10
1427.966989723246
 20
809.8244142355357
 42
-0.0707158694326265
 10
1429.903093175839
 20
809.2932877191156
 42
-0.033952657250207
 10
1434.256130901013
 20
807.044631879707
 42
-0.0571374688189033
 10
1436.563055184699
 20
805.2584751198551
 42
-0.0274923553235744
 10
1438.948130507834
 20
802.6611693893023
 42
-0.0255412025538677
 10
1441.204844184853
 20
799.6097393515915
 42
-0.0272796991712396
 10
1443.621180066515
 20
795.4967401984063
 42
-0.056967459841729
 10
1444.433915901715
 20
793.3557929176782
 42
-0.0373408083348504
 10
1444.473081442666
 20
793.1334385422046
 42
-0.0052305969362967
 10
1444.50403840957
 20
792.7874787684409
  0
LWPOLYLINE
  5
1469
330
1F
100
AcDbEntity
  8
NOSNÉ KONSTRUKCE
100
AcDbPolyline
 90
       10
 70
     0
 43
0.0
 10
1427.555584511971
 20
816.8297626270609
 42
-0.0168162630274194
 10
1429.24662266409
 20
816.694737047997
 42
-0.0575155827655532
 10
1432.346247324808
 20
816.0147047676542
 42
-0.0310289133982999
 10
1439.591274849452
 20
813.0119034228259
 42
-0.0882970623535771
 10
1441.831643900252
 20
811.3746815027329
 42
-0.0171636441953577
 10
1444.345561255498
 20
808.5613174408749
 42
-0.0157521173632038
 10
1446.877057308004
 20
805.3224626038385
 42
-0.0073640874174249
 10
1450.16545873374
 20
800.6888132475173
 42
-0.0194185739168057
 10
1451.317027733021
 20
798.8667699278408
 42
-0.0229547400386702
 10
1452.555584511971
 20
796.4813118638298
 42
-0.0229547400386702
  0
LWPOLYLINE
  5
146A
330
1F
100
AcDbEntity
  8
NOSNÉ KONSTRUKCE
100
AcDbPolyline
 90
        3
 70
     0
 43
0.0
 10
1433.072915207489
 20
799.4958762261408
 10
1441.456656075458
 20
816.2510938458686
 10
1449.637957776555
 20
824.4181984949932
  0
LWPOLYLINE
  5
146B
330
1F
100
AcDbEntity
  8
NOSNÉ KONSTRUKCE
100
AcDbPolyline
 90
        9
 70
     0
 43
0.0
 10
1427.555584511971
 20
802.651933582641
 42
-0.0064239028828688
 10
1427.774698171321
 20
802.6130651424642
 42
-0.0832048017309575
 10
1430.104911750976
 20
801.8288825397789
 42
-0.0336767237692336
 10
1432.833186270437
 20
800.1260659808572
 42
-0.0844635135812105
 10
1433.737607875432
 20
799.2062562209643
 42
-0.0495829410719565
 10
1434.714257382744
 20
797.4575777836102
 42
-0.0322692699774654
 10
1435.755780884145
 20
794.5662236025196
 42
-0.0276160659512937
 10
1435.95251631309
 20
793.7106471642359
 42
-0.0126891984598699
 10
1436.087718702631
 20
792.7874787684409
  0
HATCH
  5
1476
330
1F
100
AcDbEntity
  8
STAVBA OBRYS
100
AcDbHatch
 10
0.0
 20
0.0
 30
0.0
210
0.0
220
0.0
230
1.0
  2
AR-SAND
 70
     0
 71
     0
 91
        1
 92
        7
 72
     0
 73
     1
 93
        5
 10
1848.378353387125
 20
445.2203032141802
 10
1562.093130033038
 20
445.2203032141802
 10
1453.428884849506
 20
445.2203032141802
 10
1433.951751645357
 20
435.2203032141801
 10
1848.378353387125
 20
435.2203032141801
 97
        0
 75
     0
 76
     1
 52
0.0
 41
0.1
 77
     0
 78
     4
 53
37.5
 43
-11364.71830525635
 44
2117.209687812843
 45
-0.1600031295984046
 46
4.894132373293423
 79
     6
 49
0.0
 49
-3.8608
 49
0.0
 49
-4.318
 49
0.0
 49
-4.1275
 53
7.499999999999999
 43
-11364.71830525635
 44
2117.209687812843
 45
4.495232831380026
 46
7.168251005683543
 79
     6
 49
0.0
 49
-2.0828
 49
0.0
 49
-3.4798
 49
0.0
 49
-1.3335
 53
327.4999999999999
 43
-11367.84250525635
 44
2117.209687812843
 45
7.909923702414579
 46
0.0143718467854569
 79
     6
 49
0.0
 49
-1.27
 49
0.0
 49
-4.572
 49
0.0
 49
-5.969
 53
317.5
 43
-11367.84250525635
 44
2117.209687812843
 45
7.635564524722972
 46
2.229293232572162
 79
     6
 49
0.0
 49
-0.635
 49
0.0
 49
-2.997199999999999
 49
0.0
 49
-3.429
 47
0.5834618657717786
 98
        1
 10
1583.375612253327
 20
441.4956756575988
  0
HATCH
  5
1477
330
1F
100
AcDbEntity
  8
STAVBA OBRYS
100
AcDbHatch
 10
0.0
 20
0.0
 30
0.0
210
0.0
220
0.0
230
1.0
  2
AR-SAND
 70
     0
 71
     0
 91
        1
 92
        7
 72
     0
 73
     1
 93
        4
 10
1453.428884849502
 20
445.2203032141802
 10
1320.069489639889
 20
445.2203032141802
 10
1326.5779260327
 20
435.2203032141801
 10
1433.951751645357
 20
435.2203032141801
 97
        0
 75
     0
 76
     1
 52
0.0
 41
0.1
 77
     0
 78
     4
 53
37.5
 43
-11364.71830525635
 44
2117.209687812843
 45
-0.1600031295984046
 46
4.894132373293423
 79
     6
 49
0.0
 49
-3.8608
 49
0.0
 49
-4.318
 49
0.0
 49
-4.1275
 53
7.499999999999999
 43
-11364.71830525635
 44
2117.209687812843
 45
4.495232831380026
 46
7.168251005683543
 79
     6
 49
0.0
 49
-2.0828
 49
0.0
 49
-3.4798
 49
0.0
 49
-1.3335
 53
327.4999999999999
 43
-11367.84250525635
 44
2117.209687812843
 45
7.909923702414579
 46
0.0143718467854569
 79
     6
 49
0.0
 49
-1.27
 49
0.0
 49
-4.572
 49
0.0
 49
-5.969
 53
317.5
 43
-11367.84250525635
 44
2117.209687812843
 45
7.635564524722972
 46
2.229293232572162
 79
     6
 49
0.0
 49
-0.635
 49
0.0
 49
-2.997199999999999
 49
0.0
 49
-3.429
 47
0.5834618568729536
 98
        1
 10
1365.903712882846
 20
440.3379345757343
  0
HATCH
  5
1478
330
1F
100
AcDbEntity
  8
STAVBA OBRYS
100
AcDbHatch
 10
0.0
 20
0.0
 30
0.0
210
0.0
220
0.0
230
1.0
  2
AR-SAND
 70
     0
 71
     0
 91
        1
 92
        7
 72
     0
 73
     1
 93
        6
 10
1104.568075946456
 20
776.3311886665774
 10
1094.568075946456
 20
791.6958621402987
 10
1094.568075946449
 20
435.220303214181
 10
1326.5779260327
 20
435.2203032141801
 10
1320.069489639889
 20
445.2203032141802
 10
1104.568075946449
 20
445.2203032141802
 97
        0
 75
     0
 76
     1
 52
0.0
 41
0.1
 77
     0
 78
     4
 53
37.5
 43
-11364.71830525635
 44
2117.209687812843
 45
-0.1600031295984046
 46
4.894132373293423
 79
     6
 49
0.0
 49
-3.8608
 49
0.0
 49
-4.318
 49
0.0
 49
-4.1275
 53
7.499999999999999
 43
-11364.71830525635
 44
2117.209687812843
 45
4.495232831380026
 46
7.168251005683543
 79
     6
 49
0.0
 49
-2.0828
 49
0.0
 49
-3.4798
 49
0.0
 49
-1.3335
 53
327.4999999999999
 43
-11367.84250525635
 44
2117.209687812843
 45
7.909923702414579
 46
0.0143718467854569
 79
     6
 49
0.0
 49
-1.27
 49
0.0
 49
-4.572
 49
0.0
 49
-5.969
 53
317.5
 43
-11367.84250525635
 44
2117.209687812843
 45
7.635564524722972
 46
2.229293232572162
 79
     6
 49
0.0
 49
-0.635
 49
0.0
 49
-2.997199999999999
 49
0.0
 49
-3.429
 47
0.5834618568729536
 98
        1
 10
1100.283619612423
 20
640.4653628810478
  0
HATCH
  5
1479
330
1F
100
AcDbEntity
  8
STAVBA OBRYS
100
AcDbHatch
 10
0.0
 20
0.0
 30
0.0
210
0.0
220
0.0
230
1.0
  2
AR-SAND
 70
     0
 71
     0
 91
        1
 92
        7
 72
     0
 73
     1
 93
        4
 10
1104.568075946463
 20
1148.171421066417
 10
1094.568075946463
 20
1148.171421066417
 10
1094.568075946456
 20
791.6958621402987
 10
1104.568075946456
 20
776.3311886665828
 97
        0
 75
     0
 76
     1
 52
0.0
 41
0.1
 77
     0
 78
     4
 53
37.5
 43
-11364.71830525635
 44
2117.209687812843
 45
-0.1600031295984046
 46
4.894132373293423
 79
     6
 49
0.0
 49
-3.8608
 49
0.0
 49
-4.318
 49
0.0
 49
-4.1275
 53
7.499999999999999
 43
-11364.71830525635
 44
2117.209687812843
 45
4.495232831380026
 46
7.168251005683543
 79
     6
 49
0.0
 49
-2.0828
 49
0.0
 49
-3.4798
 49
0.0
 49
-1.3335
 53
327.4999999999999
 43
-11367.84250525635
 44
2117.209687812843
 45
7.909923702414579
 46
0.0143718467854569
 79
     6
 49
0.0
 49
-1.27
 49
0.0
 49
-4.572
 49
0.0
 49
-5.969
 53
317.5
 43
-11367.84250525635
 44
2117.209687812843
 45
7.635564524722972
 46
2.229293232572162
 79
     6
 49
0.0
 49
-0.635
 49
0.0
 49
-2.997199999999999
 49
0.0
 49
-3.429
 47
0.5761278209259867
 98
        1
 10
1100.721197250536
 20
1068.52791078401
  0
LINE
  5
147A
330
1F
100
AcDbEntity
  8
STAVBA OBRYS
100
AcDbLine
 10
1104.568075946463
 20
1148.171421066417
 30
0.0
 11
1094.568075946463
 21
1148.171421066417
 31
0.0
  0
LINE
  5
147B
330
1F
100
AcDbEntity
  8
STAVBA OBRYS
100
AcDbLine
 10
1094.568075946452
 20
435.2203032141801
 30
0.0
 11
1094.568075946463
 21
1148.171421066417
 31
0.0
  0
LINE
  5
147C
330
1F
100
AcDbEntity
  8
STAVBA OBRYS
100
AcDbLine
 10
1094.568075946452
 20
435.2203032141801
 30
0.0
 11
1848.378353387125
 21
435.2203032141801
 31
0.0
  0
LINE
  5
147D
330
1F
100
AcDbEntity
  8
STAVBA OBRYS
  6
DASHDOT2
100
AcDbLine
 10
1806.069623964013
 20
793.0007339041399
 30
0.0
 11
1806.069623964013
 21
580.2242448380416
 31
0.0
  0
LWPOLYLINE
  5
147E
330
1F
100
AcDbEntity
  8
STAVBA OBRYS
  6
DASHED
100
AcDbPolyline
 90
        4
 70
     1
 43
0.0
 10
1831.129409973525
 20
764.6157707273191
 10
1831.129409973525
 20
759.2424894024657
 10
1781.009837954502
 20
759.2424894024657
 10
1781.009837954502
 20
764.6157707273191
  0
LINE
  5
147F
330
1F
100
AcDbEntity
  8
STAVBA OBRYS
  6
DASHED
100
AcDbLine
 10
1806.069623964013
 20
595.083297028284
 30
0.0
 11
1812.632123964013
 21
598.8721581698405
 31
0.0
  0
LINE
  5
1480
330
1F
100
AcDbEntity
  8
STAVBA OBRYS
  6
DASHED
100
AcDbLine
 10
1806.069623964013
 20
595.083297028284
 30
0.0
 11
1799.507123964013
 21
598.8721581698405
 31
0.0
  0
LINE
  5
1481
330
1F
100
AcDbEntity
  8
STAVBA OBRYS
  6
DASHED
100
AcDbLine
 10
1812.632123964013
 20
598.8721581698405
 30
0.0
 11
1812.632123964013
 21
759.2424894024657
 31
0.0
  0
LINE
  5
1482
330
1F
100
AcDbEntity
  8
STAVBA OBRYS
  6
DASHED
100
AcDbLine
 10
1799.507123964013
 20
598.8721581698405
 30
0.0
 11
1799.507123964013
 21
759.2424894024657
 31
0.0
  0
LINE
  5
1483
330
1F
100
AcDbEntity
  8
POPIS
100
AcDbLine
 10
1505.209468468125
 20
892.2479079468352
 30
0.0
 11
1621.517199287704
 21
892.2466941983397
 31
0.0
  0
TEXT
  5
1484
330
1F
100
AcDbEntity
  8
POPIS
100
AcDbText
 10
1632.815799892589
 20
879.8829962525838
 30
0.0
 40
25.0
  1
02
 41
0.7
  7
SIMPLEX7
100
AcDbText
  0
INSERT
  5
1485
330
1F
100
AcDbEntity
  8
POPIS
100
AcDbBlockReference
  2
E_PUNKT
 10
1439.526938358144
 20
1093.88059481029
 30
0.0
 41
-1.0
  0
LINE
  5
1486
330
1F
100
AcDbEntity
  8
POPIS
100
AcDbLine
 10
1464.64708647339
 20
1128.216190251874
 30
0.0
 11
1618.511938506108
 21
1128.21458456985
 31
0.0
  0
TEXT
  5
1487
330
1F
100
AcDbEntity
  8
POPIS
100
AcDbText
 10
1633.173164793531
 20
1115.850886624095
 30
0.0
 40
25.0
  1
01
 41
0.7
  7
SIMPLEX7
100
AcDbText
  0
LINE
  5
1488
330
1F
100
AcDbEntity
  8
POPIS
100
AcDbLine
 10
1439.288191328237
 20
1094.048799771302
 30
0.0
 11
1618.511938506108
 21
1094.048799771302
 31
0.0
  0
TEXT
  5
1489
330
1F
100
AcDbEntity
  8
POPIS
100
AcDbText
 10
1633.173164793531
 20
1081.685101825546
 30
0.0
 40
25.0
  1
03
 41
0.7
  7
SIMPLEX7
100
AcDbText
  0
LINE
  5
148A
330
1F
100
AcDbEntity
  8
POPIS
100
AcDbLine
 10
1427.036981377144
 20
1058.780869429417
 30
0.0
 11
1618.511938506108
 21
1058.780869429417
 31
0.0
  0
TEXT
  5
148B
330
1F
100
AcDbEntity
  8
POPIS
100
AcDbText
 10
1633.173164793531
 20
1046.417171483661
 30
0.0
 40
25.0
  1
05
 41
0.7
  7
SIMPLEX7
100
AcDbText
  0
TEXT
  5
148C
330
1F
100
AcDbEntity
  8
POPIS
100
AcDbText
 10
1633.173164793531
 20
1009.032159091117
 30
0.0
 40
25.0
  1
06,07
 41
0.7
  7
SIMPLEX7
100
AcDbText
  0
LINE
  5
148D
330
1F
100
AcDbEntity
  8
STAVBA OBRYS
  6
DASHED
100
AcDbLine
 10
1255.299885753815
 20
869.2080190830434
 30
0.0
 11
1259.08874689537
 21
875.7705190830433
 31
0.0
  0
LINE
  5
148E
330
1F
100
AcDbEntity
  8
STAVBA OBRYS
  6
DASHED
100
AcDbLine
 10
1255.299885753815
 20
869.2080190830434
 30
0.0
 11
1259.08874689537
 21
862.6455190830434
 31
0.0
  0
LWPOLYLINE
  5
148F
330
1F
100
AcDbEntity
  8
STAVBA OBRYS
  6
DASHED
100
AcDbPolyline
 90
        4
 70
     1
 43
0.0
 10
1424.670646625408
 20
844.148233073532
 10
1419.297365300554
 20
844.148233073532
 10
1419.297365300554
 20
894.2678050925547
 10
1424.670646625408
 20
894.2678050925547
  0
LINE
  5
1490
330
1F
100
AcDbEntity
  8
STAVBA OBRYS
  6
DASHED
100
AcDbLine
 10
1258.927034067929
 20
875.7705190830433
 30
0.0
 11
1419.297365300554
 21
875.7705190830451
 31
0.0
  0
LINE
  5
1491
330
1F
100
AcDbEntity
  8
STAVBA OBRYS
  6
DASHED
100
AcDbLine
 10
1258.927034067929
 20
862.6455190830434
 30
0.0
 11
1419.297365300554
 21
862.6455190830451
 31
0.0
  0
LINE
  5
1492
330
1F
100
AcDbEntity
  8
STAVBA OBRYS
  6
DASHDOT2
100
AcDbLine
 10
1453.055609802228
 20
869.2080190830443
 30
0.0
 11
1240.27912073613
 21
869.2080190830434
 31
0.0
  0
LINE
  5
1493
330
1F
100
AcDbEntity
  8
STAVBA OBRYS
  6
DASHED
100
AcDbLine
 10
1457.785568743148
 20
595.083297028284
 30
0.0
 11
1451.223068743148
 21
598.8721581698405
 31
0.0
  0
LINE
  5
1494
330
1F
100
AcDbEntity
  8
STAVBA OBRYS
  6
DASHED
100
AcDbLine
 10
1457.785568743148
 20
595.083297028284
 30
0.0
 11
1464.348068743148
 21
598.8721581698405
 31
0.0
  0
LWPOLYLINE
  5
1495
330
1F
100
AcDbEntity
  8
STAVBA OBRYS
  6
DASHED
100
AcDbPolyline
 90
        4
 70
     1
 43
0.0
 10
1482.845354752663
 20
764.6157707273191
 10
1482.845354752663
 20
759.2424894024657
 10
1432.72578273364
 20
759.2424894024657
 10
1432.72578273364
 20
764.6157707273191
  0
LINE
  5
1496
330
1F
100
AcDbEntity
  8
STAVBA OBRYS
  6
DASHDOT2
100
AcDbLine
 10
1457.785568743148
 20
793.0007339041399
 30
0.0
 11
1457.785568743148
 21
580.2242448380416
 31
0.0
  0
LINE
  5
1497
330
1F
100
AcDbEntity
  8
STAVBA OBRYS
  6
DASHED
100
AcDbLine
 10
1451.223068743148
 20
598.8721581698405
 30
0.0
 11
1451.223068743148
 21
759.2424894024657
 31
0.0
  0
LINE
  5
1498
330
1F
100
AcDbEntity
  8
STAVBA OBRYS
  6
DASHED
100
AcDbLine
 10
1464.348068743148
 20
598.8721581698405
 30
0.0
 11
1464.348068743148
 21
759.2424894024657
 31
0.0
  0
LINE
  5
1499
330
1F
100
AcDbEntity
  8
STAVBA OBRYS
100
AcDbLine
 10
1562.093130033038
 20
445.2203032141802
 30
0.0
 11
1848.378353387125
 21
445.2203032141802
 31
0.0
  0
LINE
  5
149A
330
1F
100
AcDbEntity
  8
STAVBA OBRYS
100
AcDbLine
 10
1548.106788327059
 20
680.2203032141801
 30
0.0
 11
1841.087779755188
 21
680.2203032141792
 31
0.0
  0
LINE
  5
149B
330
1F
100
AcDbEntity
  8
STAVBA OBRYS
  6
IZOLACE
 48
4.0
100
AcDbLine
 10
1831.851649772438
 20
722.9037340280915
 30
0.0
 11
1341.160946521101
 21
723.6266323594086
 31
0.0
  0
SOLID
  5
149C
330
1F
100
AcDbEntity
  8
CETRIS
100
AcDbTrace
 10
1840.070368669545
 20
796.6020876746001
 30
0.0
 11
1839.712817017411
 21
808.6176243381565
 31
0.0
 12
1475.369509582983
 22
796.6176243381528
 32
0.0
 13
1475.369509582983
 23
808.6176243381528
 33
0.0
  0
LINE
  5
149D
330
1F
100
AcDbEntity
  8
STAVBA OBRYS
100
AcDbLine
 10
1341.160946521101
 20
764.6157707273191
 30
0.0
 11
1838.576386407815
 21
764.6157707273191
 31
0.0
  0
LINE
  5
149E
330
1F
100
AcDbEntity
  8
STAVBA OBRYS
  6
IZOLACE
 48
4.0
100
AcDbLine
 10
1382.653127532929
 20
764.6157707273191
 30
0.0
 11
1383.218191712386
 21
1148.171421066417
 31
0.0
  0
SOLID
  5
149F
330
1F
100
AcDbEntity
  8
CETRIS
100
AcDbTrace
 10
1468.150961993262
 20
1152.169959339312
 30
0.0
 11
1456.225034721745
 21
1152.470453195429
 31
0.0
 12
1468.225034721753
 22
814.7863812345326
 32
0.0
 13
1456.225034721753
 23
814.7863812345326
 33
0.0
  0
LINE
  5
14A0
330
1F
100
AcDbEntity
  8
STAVBA OBRYS
100
AcDbLine
 10
1104.568075946452
 20
445.2203032141802
 30
0.0
 11
1104.568075946463
 21
1148.171421066417
 31
0.0
  0
LINE
  5
14A1
330
1F
100
AcDbEntity
  8
STAVBA OBRYS
100
AcDbLine
 10
1341.160946521101
 20
1148.171421066417
 30
0.0
 11
1341.160946521101
 21
680.2203032141801
 31
0.0
  0
LINE
  5
14A2
330
1F
100
AcDbEntity
  8
POPIS
100
AcDbLine
 10
1379.566954921207
 20
1021.395857036873
 30
0.0
 11
1618.511938506108
 21
1021.395857036873
 31
0.0
  0
LINE
  5
14A3
330
1F
100
AcDbEntity
  8
STAVBA OBRYS
100
AcDbLine
 10
1104.568075946452
 20
445.2203032141802
 30
0.0
 11
1562.093130033038
 21
445.2203032141802
 31
0.0
  0
LINE
  5
14A4
330
1F
100
AcDbEntity
  8
STAVBA OBRYS
100
AcDbLine
 10
1341.160946521101
 20
680.2203032141801
 30
0.0
 11
1548.106788327059
 21
680.2203032141801
 31
0.0
  0
LINE
  5
14A5
330
1F
100
AcDbEntity
  8
SPOJOVACÍ
100
AcDbLine
 10
1437.88754417226
 20
841.0930088988274
 30
0.0
 11
1440.077137094864
 21
843.9349791277287
 31
0.0
  0
LINE
  5
14A6
330
1F
100
AcDbEntity
  8
SPOJOVACÍ
100
AcDbLine
 10
1437.88754417226
 20
841.0930088988274
 30
0.0
 11
1440.077137094864
 21
838.2510386699282
 31
0.0
  0
LINE
  5
14A7
330
1F
100
AcDbEntity
  8
SPOJOVACÍ
100
AcDbLine
 10
1439.859313043224
 20
838.2510386699282
 30
0.0
 11
1438.785511475533
 21
842.2585206777934
 31
0.0
  0
LINE
  5
14A8
330
1F
100
AcDbEntity
  8
SPOJOVACÍ
100
AcDbLine
 10
1441.441344293228
 20
838.2510386699282
 30
0.0
 11
1439.918337037733
 21
843.9349791277287
 31
0.0
  0
LINE
  5
14A9
330
1F
100
AcDbEntity
  8
SPOJOVACÍ
100
AcDbLine
 10
1443.023375543224
 20
838.2510386699282
 30
0.0
 11
1441.500368287733
 21
843.9349791277287
 31
0.0
  0
LINE
  5
14AA
330
1F
100
AcDbEntity
  8
SPOJOVACÍ
100
AcDbLine
 10
1444.605406793224
 20
838.2510386699282
 30
0.0
 11
1443.082399537733
 21
843.9349791277287
 31
0.0
  0
LINE
  5
14AB
330
1F
100
AcDbEntity
  8
SPOJOVACÍ
100
AcDbLine
 10
1447.769469293224
 20
838.2510386699282
 30
0.0
 11
1446.246462037733
 21
843.9349791277287
 31
0.0
  0
LINE
  5
14AC
330
1F
100
AcDbEntity
  8
SPOJOVACÍ
100
AcDbLine
 10
1449.351500543228
 20
838.2510386699282
 30
0.0
 11
1447.828493287732
 21
843.9349791277287
 31
0.0
  0
LINE
  5
14AD
330
1F
100
AcDbEntity
  8
SPOJOVACÍ
100
AcDbLine
 10
1452.515563043224
 20
838.2510386699282
 30
0.0
 11
1450.992555787733
 21
843.9349791277287
 31
0.0
  0
LINE
  5
14AE
330
1F
100
AcDbEntity
  8
SPOJOVACÍ
100
AcDbLine
 10
1450.933531793224
 20
838.2510386699282
 30
0.0
 11
1449.410524537733
 21
843.9349791277287
 31
0.0
  0
LINE
  5
14AF
330
1F
100
AcDbEntity
  8
SPOJOVACÍ
100
AcDbLine
 10
1454.097594293224
 20
838.2510386699282
 30
0.0
 11
1452.574587037729
 21
843.9349791277287
 31
0.0
  0
LINE
  5
14B0
330
1F
100
AcDbEntity
  8
SPOJOVACÍ
100
AcDbLine
 10
1455.679625543224
 20
838.2510386699282
 30
0.0
 11
1454.156618287733
 21
843.9349791277287
 31
0.0
  0
LINE
  5
14B1
330
1F
100
AcDbEntity
  8
SPOJOVACÍ
100
AcDbLine
 10
1457.261656793224
 20
838.2510386699282
 30
0.0
 11
1455.738649537733
 21
843.9349791277287
 31
0.0
  0
LINE
  5
14B2
330
1F
100
AcDbEntity
  8
SPOJOVACÍ
100
AcDbLine
 10
1458.843688043224
 20
838.2510386699282
 30
0.0
 11
1457.320680787729
 21
843.9349791277287
 31
0.0
  0
LINE
  5
14B3
330
1F
100
AcDbEntity
  8
SPOJOVACÍ
100
AcDbLine
 10
1463.589781793224
 20
838.2510386699282
 30
0.0
 11
1462.066774537729
 21
843.9349791277287
 31
0.0
  0
LINE
  5
14B4
330
1F
100
AcDbEntity
  8
SPOJOVACÍ
100
AcDbLine
 10
1462.007750543224
 20
838.2510386699282
 30
0.0
 11
1460.484743287729
 21
843.9349791277287
 31
0.0
  0
LINE
  5
14B5
330
1F
100
AcDbEntity
  8
SPOJOVACÍ
100
AcDbLine
 10
1460.425719293224
 20
838.2510386699282
 30
0.0
 11
1458.902712037729
 21
843.9349791277287
 31
0.0
  0
LINE
  5
14B6
330
1F
100
AcDbEntity
  8
SPOJOVACÍ
100
AcDbLine
 10
1466.753844293224
 20
838.2510386699282
 30
0.0
 11
1465.230837037733
 21
843.9349791277287
 31
0.0
  0
LINE
  5
14B7
330
1F
100
AcDbEntity
  8
SPOJOVACÍ
100
AcDbLine
 10
1465.171813043224
 20
838.2510386699282
 30
0.0
 11
1463.648805787729
 21
843.9349791277287
 31
0.0
  0
LINE
  5
14B8
330
1F
100
AcDbEntity
  8
SPOJOVACÍ
100
AcDbLine
 10
1446.187438043224
 20
838.2510386699282
 30
0.0
 11
1444.664430787732
 21
843.9349791277287
 31
0.0
  0
LINE
  5
14B9
330
1F
100
AcDbEntity
  8
SPOJOVACÍ
100
AcDbLine
 10
1440.077137094864
 20
838.2510386699282
 30
0.0
 11
1468.844126867724
 21
838.2510386699282
 31
0.0
  0
LINE
  5
14BA
330
1F
100
AcDbEntity
  8
SPOJOVACÍ
100
AcDbLine
 10
1440.077137094864
 20
843.9349791277287
 30
0.0
 11
1468.844126867724
 21
843.9349791277287
 31
0.0
  0
ELLIPSE
  5
14BB
330
1F
100
AcDbEntity
  8
SPOJOVACÍ
100
AcDbEllipse
 10
1470.771606452512
 20
841.1572129013544
 30
0.0
 11
-0.0000000000000018
 21
7.321312510456553
 31
0.0
210
0.0
220
0.0
230
-1.0
 40
0.3214803388886193
 41
-0.2355512395776302
 42
3.377143893167422
  0
HATCH
  5
14BC
330
1F
100
AcDbEntity
  8
SPOJOVACÍ
100
AcDbHatch
 10
0.0
 20
0.0
 30
0.0
210
0.0
220
0.0
230
1.0
  2
ANSI37
 70
     0
 71
     0
 91
        1
 92
        7
 72
     0
 73
     1
 93
        6
 10
1470.222312005212
 20
841.1572129013544
 10
1470.222312005212
 20
834.0380722763562
 10
1468.838396213996
 20
834.0380722763542
 10
1468.838396213996
 20
841.1572129013544
 10
1468.838396213996
 20
848.2763535263543
 10
1470.222312005212
 20
848.2763535263526
 97
        0
 75
     0
 76
     1
 52
-90.00000000000001
 41
0.9
 77
     0
 78
     2
 53
225.0
 43
5311.068611657542
 44
10924.01852497223
 45
-2.02055762724056
 46
2.020557627240558
 79
     0
 53
135.0
 43
5311.068611657542
 44
10924.01852497223
 45
2.020557627240558
 46
2.02055762724056
 79
     0
 47
0.0246402553748132
 98
        1
 10
1469.751360563241
 20
841.558058563041
  0
LINE
  5
14BD
330
1F
100
AcDbEntity
  8
SPOJOVACÍ
100
AcDbLine
 10
1470.222312005212
 20
844.9931810784196
 30
0.0
 11
1470.222312005212
 21
834.0380722763542
 31
0.0
  0
LINE
  5
14BE
330
1F
100
AcDbEntity
  8
SPOJOVACÍ
100
AcDbLine
 10
1470.222312005212
 20
834.0380722763562
 30
0.0
 11
1468.838396213996
 21
834.0380722763542
 31
0.0
  0
LINE
  5
14BF
330
1F
100
AcDbEntity
  8
SPOJOVACÍ
100
AcDbLine
 10
1469.708939743952
 20
846.3779160263543
 30
0.0
 11
1469.713685837702
 21
846.3779160263543
 31
0.0
  0
LINE
  5
14C0
330
1F
100
AcDbEntity
  8
SPOJOVACÍ
100
AcDbLine
 10
1468.838396213996
 20
848.2763535263543
 30
0.0
 11
1468.838396213996
 21
841.1572129013544
 31
0.0
  0
LINE
  5
14C1
330
1F
100
AcDbEntity
  8
SPOJOVACÍ
100
AcDbLine
 10
1468.838396213996
 20
848.2763535263543
 30
0.0
 11
1470.222312005212
 21
848.2763535263526
 31
0.0
  0
LINE
  5
14C2
330
1F
100
AcDbEntity
  8
SPOJOVACÍ
100
AcDbLine
 10
1469.708939743952
 20
846.3779160263543
 30
0.0
 11
1469.713685837702
 21
846.3779160263543
 31
0.0
  0
LINE
  5
14C3
330
1F
100
AcDbEntity
  8
SPOJOVACÍ
100
AcDbLine
 10
1470.222312005212
 20
841.1572129013544
 30
0.0
 11
1470.222312005212
 21
848.2763535263543
 31
0.0
  0
LINE
  5
14C4
330
1F
100
AcDbEntity
  8
SPOJOVACÍ
100
AcDbLine
 10
1468.838396213996
 20
841.1572129013544
 30
0.0
 11
1468.838396213996
 21
834.0380722763542
 31
0.0
  0
HATCH
  5
14C5
330
1F
100
AcDbEntity
  8
PROFILY
100
AcDbHatch
 10
0.0
 20
0.0
 30
0.0
210
0.0
220
0.0
230
1.0
  2
SOLID
 70
     1
 71
     0
 91
        1
 92
        7
 72
     0
 73
     1
 93
        4
 10
1425.03698137714
 20
784.2542892258566
 10
1427.036981377144
 20
784.2542892258566
 10
1427.036981377144
 20
765.0719340813079
 10
1425.036981377143
 20
765.0719340813079
 97
        0
 75
     0
 76
     1
 47
0.0801976285649081
 98
        1
 10
1425.374654447438
 20
770.9133499739141
  0
LINE
  5
14C6
330
1F
100
AcDbEntity
  8
PROFILY
100
AcDbLine
 10
1427.036981377144
 20
1145.14736662198
 30
0.0
 11
1427.036981377144
 21
765.0719340813079
 31
0.0
  0
LINE
  5
14C7
330
1F
100
AcDbEntity
  8
PROFILY
100
AcDbLine
 10
1427.036981377144
 20
764.8968475678116
 30
0.0
 11
1427.036981377144
 21
1090.051574912598
 31
0.0
  0
HATCH
  5
14C8
330
1F
100
AcDbEntity
  8
PROFILY
100
AcDbHatch
 10
0.0
 20
0.0
 30
0.0
210
0.0
220
0.0
230
1.0
  2
SOLID
 70
     1
 71
     0
 91
        1
 92
        7
 72
     0
 73
     1
 93
        4
 10
1425.03698137714
 20
820.0950740337207
 10
1427.036981377144
 20
820.0950740337207
 10
1427.036981377144
 20
800.9127188891721
 10
1425.036981377143
 20
800.9127188891721
 97
        0
 75
     0
 76
     1
 47
0.0801976285649081
 98
        1
 10
1425.374654447438
 20
806.7541347817781
  0
LINE
  5
14C9
330
1F
100
AcDbEntity
  8
PROFILY
100
AcDbLine
 10
1425.036981377143
 20
767.071934081308
 30
0.0
 11
1425.036981377143
 21
1145.165558124373
 31
0.0
  0
HATCH
  5
14CA
330
1F
100
AcDbEntity
  8
PROFILY
100
AcDbHatch
 10
0.0
 20
0.0
 30
0.0
210
0.0
220
0.0
230
1.0
  2
SOLID
 70
     1
 71
     0
 91
        1
 92
        7
 72
     0
 73
     1
 93
        4
 10
1425.03698137714
 20
853.7813254940697
 10
1427.036981377144
 20
853.7813254940697
 10
1427.036981377144
 20
834.5989703495211
 10
1425.036981377143
 20
834.5989703495211
 97
        0
 75
     0
 76
     1
 47
0.0801976285649081
 98
        1
 10
1425.374654447438
 20
840.4403862421272
  0
HATCH
  5
14CB
330
1F
100
AcDbEntity
  8
PROFILY
100
AcDbHatch
 10
0.0
 20
0.0
 30
0.0
210
0.0
220
0.0
230
1.0
  2
SOLID
 70
     1
 71
     0
 91
        1
 92
        7
 72
     0
 73
     1
 93
        4
 10
1425.03698137714
 20
885.8717656712538
 10
1427.036981377144
 20
885.8717656712538
 10
1427.036981377144
 20
866.6894105267051
 10
1425.036981377143
 20
866.6894105267051
 97
        0
 75
     0
 76
     1
 47
0.0801976285649081
 98
        1
 10
1425.374654447438
 20
872.5308264193113
  0
HATCH
  5
14CC
330
1F
100
AcDbEntity
  8
PROFILY
100
AcDbHatch
 10
0.0
 20
0.0
 30
0.0
210
0.0
220
0.0
230
1.0
  2
SOLID
 70
     1
 71
     0
 91
        1
 92
        7
 72
     0
 73
     1
 93
        4
 10
1425.03698137714
 20
918.323189093156
 10
1427.036981377144
 20
918.323189093156
 10
1427.036981377144
 20
899.1408339486074
 10
1425.036981377143
 20
899.1408339486074
 97
        0
 75
     0
 76
     1
 47
0.0801976285649081
 98
        1
 10
1425.374654447438
 20
904.9822498412137
  0
HATCH
  5
14CD
330
1F
100
AcDbEntity
  8
PROFILY
100
AcDbHatch
 10
0.0
 20
0.0
 30
0.0
210
0.0
220
0.0
230
1.0
  2
SOLID
 70
     1
 71
     0
 91
        1
 92
        7
 72
     0
 73
     1
 93
        4
 10
1425.03698137714
 20
952.5727169868183
 10
1427.036981377144
 20
952.5727169868183
 10
1427.036981377144
 20
933.3903618422695
 10
1425.036981377143
 20
933.3903618422695
 97
        0
 75
     0
 76
     1
 47
0.0801976285649081
 98
        1
 10
1425.374654447438
 20
939.2317777348758
  0
HATCH
  5
14CE
330
1F
100
AcDbEntity
  8
PROFILY
100
AcDbHatch
 10
0.0
 20
0.0
 30
0.0
210
0.0
220
0.0
230
1.0
  2
SOLID
 70
     1
 71
     0
 91
        1
 92
        7
 72
     0
 73
     1
 93
        4
 10
1425.03698137714
 20
985.0126554782759
 10
1427.036981377144
 20
985.0126554782759
 10
1427.036981377144
 20
965.8303003337273
 10
1425.036981377143
 20
965.8303003337273
 97
        0
 75
     0
 76
     1
 47
0.0801976285649081
 98
        1
 10
1425.374654447438
 20
971.6717162263334
  0
HATCH
  5
14CF
330
1F
100
AcDbEntity
  8
PROFILY
100
AcDbHatch
 10
0.0
 20
0.0
 30
0.0
210
0.0
220
0.0
230
1.0
  2
SOLID
 70
     1
 71
     0
 91
        1
 92
        7
 72
     0
 73
     1
 93
        4
 10
1425.03698137714
 20
1018.633799263988
 10
1427.036981377144
 20
1018.633799263988
 10
1427.036981377144
 20
999.45144411944
 10
1425.036981377143
 20
999.45144411944
 97
        0
 75
     0
 76
     1
 47
0.0801976285649081
 98
        1
 10
1425.374654447438
 20
1005.292860012046
  0
HATCH
  5
14D0
330
1F
100
AcDbEntity
  8
PROFILY
100
AcDbHatch
 10
0.0
 20
0.0
 30
0.0
210
0.0
220
0.0
230
1.0
  2
SOLID
 70
     1
 71
     0
 91
        1
 92
        7
 72
     0
 73
     1
 93
        4
 10
1425.03698137714
 20
1053.464068605884
 10
1427.036981377144
 20
1053.464068605884
 10
1427.036981377144
 20
1034.281713461335
 10
1425.036981377143
 20
1034.281713461335
 97
        0
 75
     0
 76
     1
 47
0.0801976285649081
 98
        1
 10
1425.374654447438
 20
1040.123129353941
  0
HATCH
  5
14D1
330
1F
100
AcDbEntity
  8
PROFILY
100
AcDbHatch
 10
0.0
 20
0.0
 30
0.0
210
0.0
220
0.0
230
1.0
  2
SOLID
 70
     1
 71
     0
 91
        1
 92
        7
 72
     0
 73
     1
 93
        4
 10
1425.03698137714
 20
1090.052086750154
 10
1427.036981377144
 20
1090.052086750154
 10
1427.036981377144
 20
1070.869731605605
 10
1425.036981377143
 20
1070.869731605605
 97
        0
 75
     0
 76
     1
 47
0.0801976285649081
 98
        1
 10
1425.374654447438
 20
1076.711147498211
  0
LWPOLYLINE
  5
14D2
330
1F
100
AcDbEntity
  8
PROFILY
100
AcDbPolyline
 90
        4
 70
     1
 43
0.0
 10
1425.036981377143
 20
1070.869219768049
 10
1425.036981377143
 20
1090.051574912598
 10
1427.036981377144
 20
1090.051574912598
 10
1427.036981377144
 20
1070.869219768049
  0
HATCH
  5
14D3
330
1F
100
AcDbEntity
  8
PROFILY
100
AcDbHatch
 10
0.0
 20
0.0
 30
0.0
210
0.0
220
0.0
230
1.0
  2
SOLID
 70
     1
 71
     0
 91
        1
 92
        7
 72
     0
 73
     1
 93
        4
 10
1425.03698137714
 20
1128.171679773556
 10
1427.036981377144
 20
1128.171679773556
 10
1427.036981377144
 20
1108.989324629008
 10
1425.036981377143
 20
1108.989324629008
 97
        0
 75
     0
 76
     1
 47
0.0801976285649081
 98
        1
 10
1425.374654447438
 20
1114.830740521614
  0
LINE
  5
14D4
330
1F
100
AcDbEntity
  8
SPOJOVACÍ
100
AcDbLine
 10
1504.819468068858
 20
786.5999642666979
 30
0.0
 11
1499.135527611059
 21
785.0769570112056
 31
0.0
  0
LINE
  5
14D5
330
1F
100
AcDbEntity
  8
SPOJOVACÍ
100
AcDbLine
 10
1504.819468068858
 20
788.1819955166979
 30
0.0
 11
1499.135527611059
 21
786.6589882612038
 31
0.0
  0
LINE
  5
14D6
330
1F
100
AcDbEntity
  8
SPOJOVACÍ
100
AcDbLine
 10
1501.977497839958
 20
778.3000703957346
 30
0.0
 11
1499.135527611059
 21
780.4896633183375
 31
0.0
  0
LINE
  5
14D7
330
1F
100
AcDbEntity
  8
SPOJOVACÍ
100
AcDbLine
 10
1501.977497839958
 20
778.3000703957346
 30
0.0
 11
1504.819468068858
 21
780.4896633183375
 31
0.0
  0
LINE
  5
14D8
330
1F
100
AcDbEntity
  8
SPOJOVACÍ
100
AcDbLine
 10
1504.819468068858
 20
780.2718392666979
 30
0.0
 11
1500.811986060992
 21
779.1980376990091
 31
0.0
  0
LINE
  5
14D9
330
1F
100
AcDbEntity
  8
SPOJOVACÍ
100
AcDbLine
 10
1504.819468068858
 20
781.8538705166989
 30
0.0
 11
1499.135527611059
 21
780.3308632612038
 31
0.0
  0
LINE
  5
14DA
330
1F
100
AcDbEntity
  8
SPOJOVACÍ
100
AcDbLine
 10
1504.819468068858
 20
783.435901766697
 30
0.0
 11
1499.135527611059
 21
781.9128945112056
 31
0.0
  0
LINE
  5
14DB
330
1F
100
AcDbEntity
  8
SPOJOVACÍ
100
AcDbLine
 10
1504.819468068858
 20
785.017933016697
 30
0.0
 11
1499.135527611059
 21
783.4949257612056
 31
0.0
  0
LINE
  5
14DC
330
1F
100
AcDbEntity
  8
SPOJOVACÍ
100
AcDbLine
 10
1504.819468068858
 20
780.4896633183375
 30
0.0
 11
1504.819468068858
 21
809.2566530911986
 31
0.0
  0
LINE
  5
14DD
330
1F
100
AcDbEntity
  8
SPOJOVACÍ
100
AcDbLine
 10
1499.135527611059
 20
780.4896633183375
 30
0.0
 11
1499.135527611059
 21
809.2566530911986
 31
0.0
  0
LWPOLYLINE
  5
14DE
330
1F
100
AcDbEntity
  8
NOSNÉ KONSTRUKCE
100
AcDbPolyline
 90
        9
 70
     0
 43
0.0
 10
1517.688294846423
 20
767.7874787684409
 42
-0.0064239028828688
 10
1517.7271632866
 20
768.006592427791
 42
-0.0832048017309575
 10
1518.511345889285
 20
770.3368060074458
 42
-0.0336767237692336
 10
1520.214162448207
 20
773.0650805269065
 42
-0.0844635135812105
 10
1521.1339722081
 20
773.9695021319016
 42
-0.0495829410719565
 10
1522.882650645454
 20
774.9461516392143
 42
-0.0322692699774654
 10
1525.774004826544
 20
775.9876751406149
 42
-0.0276160659512937
 10
1526.629581264828
 20
776.1844105695595
 42
-0.0126891984598699
 10
1527.552749660623
 20
776.319612959101
  0
LWPOLYLINE
  5
14E9
330
1F
100
AcDbEntity
  8
NOSNÉ KONSTRUKCE
100
AcDbPolyline
 90
        3
 70
     0
 43
0.0
 10
1520.844352202923
 20
773.3048094639594
 10
1504.089134583195
 20
781.6885503319277
 10
1495.922029934071
 20
789.8698520330249
  0
LWPOLYLINE
  5
14EA
330
1F
100
AcDbEntity
  8
NOSNÉ KONSTRUKCE
100
AcDbPolyline
 90
       10
 70
     0
 43
0.0
 10
1503.510465802003
 20
767.7874787684409
 42
-0.0168162630274194
 10
1503.645491381067
 20
769.4785169205601
 42
-0.0575155827655532
 10
1504.32552366141
 20
772.5781415812775
 42
-0.0310289133982999
 10
1507.328325006238
 20
779.8231691059222
 42
-0.0882970623535771
 10
1508.965546926331
 20
782.0635381567222
 42
-0.0171636441953577
 10
1511.778910988189
 20
784.5774555119674
 42
-0.0157521173632038
 10
1515.017765825225
 20
787.1089515644739
 42
-0.0073640874174249
 10
1519.651415181547
 20
790.39735299021
 42
-0.0194185739168057
 10
1521.473458501223
 20
791.5489219894912
 42
-0.0229547400386702
 10
1523.858916565234
 20
792.7874787684409
 42
-0.0229547400386702
  0
LWPOLYLINE
  5
14EB
330
1F
100
AcDbEntity
  8
NOSNÉ KONSTRUKCE
100
AcDbPolyline
 90
       11
 70
     0
 43
0.0
 10
1510.460243825685
 20
767.7874787684409
 42
-0.0072417954699014
 10
1510.515814193528
 20
768.1988839797154
 42
-0.0707158694326265
 10
1511.046940709948
 20
770.1349874323091
 42
-0.033952657250207
 10
1513.295596549357
 20
774.4880251574827
 42
-0.0571374688189033
 10
1515.081753309209
 20
776.7949494411691
 42
-0.0274923553235744
 10
1517.679059039762
 20
779.1800247643037
 42
-0.0255412025538677
 10
1520.730489077473
 20
781.436738441323
 42
-0.0272796991712396
 10
1524.843488230658
 20
783.8530743229853
 42
-0.056967459841729
 10
1526.984435511386
 20
784.6658101581847
 42
-0.0373408083348504
 10
1527.206789886859
 20
784.7049756991359
 42
-0.0052305969362967
 10
1527.552749660623
 20
784.7359326660403
  0
LWPOLYLINE
  5
14F8
330
1F
100
AcDbEntity
  8
NOSNÉ KONSTRUKCE
100
AcDbPolyline
 90
        4
 70
     0
 43
0.0
 10
1427.555584511971
 20
792.7874787684409
 10
1527.552749660623
 20
792.7874787684409
 10
1527.552749660623
 20
767.7874787684409
 10
1427.555584511971
 20
767.7874787684409
  0
LWPOLYLINE
  5
14F9
330
1F
100
AcDbEntity
  8
NOSNÉ KONSTRUKCE
100
AcDbPolyline
 90
        4
 70
     0
 43
0.0
 10
1475.829461594444
 20
767.7874787684409
 42
-0.0135911980674878
 10
1479.548592951673
 20
788.1161719509068
 42
-0.0219777111230329
 10
1480.454705453657
 20
791.6342852067423
 42
-0.0092752982622242
 10
1480.8299324156
 20
792.7874787684409
  0
LWPOLYLINE
  5
14FA
330
1F
100
AcDbEntity
  8
NOSNÉ KONSTRUKCE
100
AcDbPolyline
 90
        3
 70
     0
 43
0.0
 10
1501.551774577678
 20
774.286648337696
 10
1481.555522145685
 20
783.5026773882159
 10
1477.555584511971
 20
784.1480748635581
  0
LWPOLYLINE
  5
14FB
330
1F
100
AcDbEntity
  8
NOSNÉ KONSTRUKCE
100
AcDbPolyline
 90
        6
 70
     0
 43
0.0
 10
1486.019191198448
 20
767.7874787684409
 42
-0.0128837512779302
 10
1486.303983158676
 20
771.1206435901872
 42
-0.0351641677647434
 10
1486.931742880199
 20
774.7243530445262
 42
-0.0187319685742942
 10
1490.31575876119
 20
786.482590386669
 42
-0.0582629403736403
 10
1491.975258629271
 20
790.062424585601
 42
-0.0146402521923566
 10
1493.759666610855
 20
792.7874787684409
  0
LWPOLYLINE
  5
14FC
330
1F
100
AcDbEntity
  8
NOSNÉ KONSTRUKCE
100
AcDbPolyline
 90
        8
 70
     0
 43
0.0
 10
1494.643406578493
 20
767.7874787684409
 42
-0.0120721047703142
 10
1494.712389268531
 20
769.521366907185
 42
-0.044358077361292
 10
1495.108017003204
 20
772.2171669256018
 42
-0.0188067511131767
 10
1497.127840451587
 20
779.4593961009081
 42
-0.0457786284636091
 10
1498.335863341203
 20
782.3080064837881
 42
-0.0295006114745606
 10
1500.751923795502
 20
786.2349056971902
 42
-0.0258674098621065
 10
1503.984599109466
 20
790.3806857759441
 42
-0.0093759062953949
 10
1506.150411289124
 20
792.7874787684409
 42
-0.0093759062953949
  0
LINE
  5
14FD
330
1F
100
AcDbEntity
  8
NOSNÉ KONSTRUKCE
100
AcDbLine
 10
1427.555584511971
 20
767.7874787684409
 30
0.0
 11
1427.555584511971
 21
792.7874787684409
 31
0.0
  0
LINE
  5
14FE
330
1F
100
AcDbEntity
  8
SPOJOVACÍ
100
AcDbLine
 10
1504.819468068858
 20
789.7640267666997
 30
0.0
 11
1499.135527611059
 21
788.2410195112038
 31
0.0
  0
LINE
  5
14FF
330
1F
100
AcDbEntity
  8
SPOJOVACÍ
100
AcDbLine
 10
1504.819468068858
 20
792.928089266697
 30
0.0
 11
1499.135527611059
 21
791.4050820112038
 31
0.0
  0
LINE
  5
1500
330
1F
100
AcDbEntity
  8
SPOJOVACÍ
100
AcDbLine
 10
1504.819468068858
 20
791.346058016697
 30
0.0
 11
1499.135527611059
 21
789.8230507612038
 31
0.0
  0
LINE
  5
1501
330
1F
100
AcDbEntity
  8
SPOJOVACÍ
100
AcDbLine
 10
1504.819468068858
 20
794.510120516697
 30
0.0
 11
1499.135527611059
 21
792.987113261202
 31
0.0
  0
LINE
  5
1502
330
1F
100
AcDbEntity
  8
SPOJOVACÍ
100
AcDbLine
 10
1504.819468068858
 20
796.0921517666952
 30
0.0
 11
1499.135527611059
 21
794.5691445112038
 31
0.0
  0
LINE
  5
1503
330
1F
100
AcDbEntity
  8
SPOJOVACÍ
100
AcDbLine
 10
1504.819468068858
 20
797.6741830166952
 30
0.0
 11
1499.135527611059
 21
796.1511757612038
 31
0.0
  0
LINE
  5
1504
330
1F
100
AcDbEntity
  8
SPOJOVACÍ
100
AcDbLine
 10
1504.819468068858
 20
799.256214266697
 30
0.0
 11
1499.135527611059
 21
797.7332070112029
 31
0.0
  0
LINE
  5
1505
330
1F
100
AcDbEntity
  8
SPOJOVACÍ
100
AcDbLine
 10
1504.819468068858
 20
804.0023080166971
 30
0.0
 11
1499.135527611059
 21
802.479300761202
 31
0.0
  0
LINE
  5
1506
330
1F
100
AcDbEntity
  8
SPOJOVACÍ
100
AcDbLine
 10
1504.819468068858
 20
802.4202767666979
 30
0.0
 11
1499.135527611059
 21
800.8972695112019
 31
0.0
  0
LINE
  5
1507
330
1F
100
AcDbEntity
  8
SPOJOVACÍ
100
AcDbLine
 10
1504.819468068858
 20
800.838245516697
 30
0.0
 11
1499.135527611059
 21
799.315238261202
 31
0.0
  0
LINE
  5
1508
330
1F
100
AcDbEntity
  8
SPOJOVACÍ
100
AcDbLine
 10
1504.819468068858
 20
807.1663705166951
 30
0.0
 11
1499.135527611059
 21
805.6433632612037
 31
0.0
  0
LINE
  5
1509
330
1F
100
AcDbEntity
  8
SPOJOVACÍ
100
AcDbLine
 10
1504.819468068858
 20
805.584339266697
 30
0.0
 11
1499.135527611059
 21
804.0613320112029
 31
0.0
  0
LINE
  5
150A
330
1F
100
AcDbEntity
  8
SPOJOVACÍ
100
AcDbLine
 10
1453.066675049148
 20
841.0202048317401
 30
0.0
 11
1453.066675049148
 21
841.0249509254894
 31
0.0
  0
LINE
  5
150B
330
1F
100
AcDbEntity
  8
SPOJOVACÍ
100
AcDbLine
 10
1495.061718257475
 20
809.2537004310702
 30
0.0
 11
1495.061718257475
 21
810.6376162222836
 31
0.0
  0
LINE
  5
150C
330
1F
100
AcDbEntity
  8
SPOJOVACÍ
100
AcDbLine
 10
1509.299999507476
 20
810.6376162222836
 30
0.0
 11
1509.299999507476
 21
809.2537004310702
 31
0.0
  0
LINE
  5
150D
330
1F
100
AcDbEntity
  8
SPOJOVACÍ
100
AcDbLine
 10
1502.180858882475
 20
810.6376162222836
 30
0.0
 11
1495.061718257475
 21
810.6376162222836
 31
0.0
  0
LINE
  5
150E
330
1F
100
AcDbEntity
  8
SPOJOVACÍ
100
AcDbLine
 10
1498.344890705408
 20
810.6376162222836
 30
0.0
 11
1509.299999507476
 21
810.6376162222836
 31
0.0
  0
ELLIPSE
  5
150F
330
1F
100
AcDbEntity
  8
SPOJOVACÍ
100
AcDbEllipse
 10
1502.180858882475
 20
811.1869106695845
 30
0.0
 11
-7.321312510456553
 21
-0.0000000000000004
 31
0.0
210
0.0
220
0.0
230
-1.0
 40
0.3214803388886193
 41
-0.2355512395776302
 42
3.377143893167422
  0
HATCH
  5
1510
330
1F
100
AcDbEntity
  8
SPOJOVACÍ
100
AcDbHatch
 10
0.0
 20
0.0
 30
0.0
210
0.0
220
0.0
230
1.0
  2
ANSI37
 70
     0
 71
     0
 91
        1
 92
        7
 72
     0
 73
     1
 93
        6
 10
1502.180858882475
 20
810.6376162222836
 10
1509.299999507476
 20
810.6376162222836
 10
1509.299999507476
 20
809.2537004310694
 10
1502.180858882475
 20
809.2537004310702
 10
1495.061718257475
 20
809.2537004310702
 10
1495.061718257479
 20
810.6376162222836
 97
        0
 75
     0
 76
     1
 52
0.0
 41
0.9
 77
     0
 78
     2
 53
315.0
 43
-8580.680453188408
 44
4651.483915874618
 45
-2.020557627240559
 46
-2.020557627240559
 79
     0
 53
225.0
 43
-8580.680453188408
 44
4651.483915874618
 45
-2.020557627240559
 46
2.020557627240559
 79
     0
 47
0.0246402553748132
 98
        1
 10
1501.780013220789
 20
810.1666647803135
  0
LINE
  5
1511
330
1F
100
AcDbEntity
  8
SPOJOVACÍ
100
AcDbLine
 10
1495.061718257475
 20
809.2537004310702
 30
0.0
 11
1502.180858882475
 21
809.2537004310702
 31
0.0
  0
LINE
  5
1512
330
1F
100
AcDbEntity
  8
SPOJOVACÍ
100
AcDbLine
 10
1502.180858882475
 20
809.2537004310702
 30
0.0
 11
1509.299999507476
 21
809.2537004310702
 31
0.0
  0
LWPOLYLINE
  5
1513
330
1F
100
AcDbEntity
  8
NOSNÉ KONSTRUKCE
100
AcDbPolyline
 90
        7
 70
     0
 43
0.0
 10
1523.03798118094
 20
767.7874787684409
 42
-0.0203924744732807
 10
1523.940065165352
 20
768.800608797595
 42
-0.0273961979096945
 10
1524.789929515548
 20
769.5887851716211
 42
-0.0243529190212958
 10
1525.953050007967
 20
770.4625445162887
 42
-0.0398020282482987
 10
1526.728008545528
 20
770.9021732597352
 42
-0.104168275620852
 10
1527.114419681868
 20
770.9921897199124
 42
-0.007272956268647
 10
1527.552749660623
 20
771.0106430712071
 42
-0.007272956268647
  0
HATCH
  5
1514
330
1F
100
AcDbEntity
  8
PROFILY
100
AcDbHatch
 10
0.0
 20
0.0
 30
0.0
210
0.0
220
0.0
230
1.0
  2
SOLID
 70
     1
 71
     0
 91
        1
 92
        7
 72
     0
 73
     1
 93
        4
 10
1479.884358604355
 20
764.9776493574168
 10
1479.883857470217
 20
766.9776492946343
 10
1460.701502927838
 20
766.9728428281191
 10
1460.702004061979
 20
764.9728428909034
 97
        0
 75
     0
 76
     1
 47
0.0801976285649081
 98
        1
 10
1466.54333516146
 20
765.311979617059
  0
HATCH
  5
1515
330
1F
100
AcDbEntity
  8
PROFILY
100
AcDbHatch
 10
0.0
 20
0.0
 30
0.0
210
0.0
220
0.0
230
1.0
  2
SOLID
 70
     1
 71
     0
 91
        1
 92
        7
 72
     0
 73
     1
 93
        4
 10
1444.043574921602
 20
764.9686688369961
 10
1444.043073787463
 20
766.9686687742137
 10
1424.860719245088
 20
766.9638623076984
 10
1424.861220379226
 20
764.9638623704827
 97
        0
 75
     0
 76
     1
 47
0.0801976285649081
 98
        1
 10
1430.702551478706
 20
765.3029990966383
  0
LINE
  5
1516
330
1F
100
AcDbEntity
  8
PROFILY
100
AcDbLine
 10
1426.861220316442
 20
764.9643635046227
 30
0.0
 11
1838.562943432928
 21
765.0675224021665
 31
0.0
  0
LINE
  5
1517
330
1F
100
AcDbEntity
  8
PROFILY
100
AcDbLine
 10
1424.685632737088
 20
766.9638184367827
 30
0.0
 11
1838.503428988017
 21
767.0675075525882
 31
0.0
  0
HATCH
  5
1518
330
1F
100
AcDbEntity
  8
PROFILY
100
AcDbHatch
 10
0.0
 20
0.0
 30
0.0
210
0.0
220
0.0
230
1.0
  2
SOLID
 70
     1
 71
     0
 91
        1
 92
        7
 72
     0
 73
     1
 93
        4
 10
1513.570609007231
 20
764.98609002273
 10
1513.570107873089
 20
766.9860899599475
 10
1494.387753330713
 20
766.9812834934323
 10
1494.388254464852
 20
764.9812835562165
 97
        0
 75
     0
 76
     1
 47
0.0801976285649081
 98
        1
 10
1500.229585564335
 20
765.3204202823721
  0
HATCH
  5
1519
330
1F
100
AcDbEntity
  8
PROFILY
100
AcDbHatch
 10
0.0
 20
0.0
 30
0.0
210
0.0
220
0.0
230
1.0
  2
SOLID
 70
     1
 71
     0
 91
        1
 92
        7
 72
     0
 73
     1
 93
        4
 10
1545.66104817703
 20
764.9941308302873
 10
1545.660547042895
 20
766.9941307675048
 10
1526.478192500516
 20
766.9893243009878
 10
1526.478693634654
 20
764.9893243637721
 97
        0
 75
     0
 76
     1
 47
0.0801976285649081
 98
        1
 10
1532.320024734138
 20
765.3284610899277
  0
HATCH
  5
151A
330
1F
100
AcDbEntity
  8
PROFILY
100
AcDbHatch
 10
0.0
 20
0.0
 30
0.0
210
0.0
220
0.0
230
1.0
  2
SOLID
 70
     1
 71
     0
 91
        1
 92
        7
 72
     0
 73
     1
 93
        4
 10
1578.112470580222
 20
765.0022620883569
 10
1578.111969446083
 20
767.0022620255744
 10
1558.929614903708
 20
766.9974555590575
 10
1558.930116037842
 20
764.9974556218417
 97
        0
 75
     0
 76
     1
 47
0.0801976285649081
 98
        1
 10
1564.771447137326
 20
765.3365923479992
  0
HATCH
  5
151B
330
1F
100
AcDbEntity
  8
PROFILY
100
AcDbHatch
 10
0.0
 20
0.0
 30
0.0
210
0.0
220
0.0
230
1.0
  2
SOLID
 70
     1
 71
     0
 91
        1
 92
        7
 72
     0
 73
     1
 93
        4
 10
1612.361997398726
 20
765.0108438921939
 10
1612.361496264584
 20
767.0108438294114
 10
1593.179141722209
 20
767.0060373628962
 10
1593.179642856347
 20
765.0060374256804
 97
        0
 75
     0
 76
     1
 47
0.0801976285649081
 98
        1
 10
1599.020973955831
 20
765.345174151836
  0
HATCH
  5
151C
330
1F
100
AcDbEntity
  8
PROFILY
100
AcDbHatch
 10
0.0
 20
0.0
 30
0.0
210
0.0
220
0.0
230
1.0
  2
SOLID
 70
     1
 71
     0
 91
        1
 92
        7
 72
     0
 73
     1
 93
        4
 10
1644.80193487183
 20
765.0189722725185
 10
1644.801433737692
 20
767.0189722097362
 10
1625.619079195316
 20
767.0141657432209
 10
1625.619580329451
 20
765.0141658060051
 97
        0
 75
     0
 76
     1
 47
0.0801976285649081
 98
        1
 10
1631.460911428935
 20
765.3533025321608
  0
HATCH
  5
151D
330
1F
100
AcDbEntity
  8
PROFILY
100
AcDbHatch
 10
0.0
 20
0.0
 30
0.0
210
0.0
220
0.0
230
1.0
  2
SOLID
 70
     1
 71
     0
 91
        1
 92
        7
 72
     0
 73
     1
 93
        4
 10
1678.423077602111
 20
765.0273966239924
 10
1678.422576467973
 20
767.02739656121
 10
1659.240221925593
 20
767.0225900946948
 10
1659.240723059735
 20
765.022590157479
 97
        0
 75
     0
 76
     1
 47
0.0801976285649081
 98
        1
 10
1665.082054159215
 20
765.3617268836346
  0
LWPOLYLINE
  5
151E
330
1F
100
AcDbEntity
  8
PROFILY
100
AcDbPolyline
 90
        4
 70
     1
 43
0.0
 10
1730.658496466404
 20
765.0404851002381
 10
1749.840851008779
 20
765.0452915667533
 10
1749.840349874638
 20
767.0452915039691
 10
1730.657995332262
 20
767.0404850374539
  0
HATCH
  5
151F
330
1F
100
AcDbEntity
  8
PROFILY
100
AcDbHatch
 10
0.0
 20
0.0
 30
0.0
210
0.0
220
0.0
230
1.0
  2
SOLID
 70
     1
 71
     0
 91
        1
 92
        7
 72
     0
 73
     1
 93
        4
 10
1749.841362846321
 20
765.0452916950012
 10
1749.840861712179
 20
767.0452916322187
 10
1730.658507169803
 20
767.0404851657036
 10
1730.659008303941
 20
765.0404852284878
 97
        0
 75
     0
 76
     1
 47
0.0801976285649081
 98
        1
 10
1736.500339403425
 20
765.3796219546434
  0
HATCH
  5
1520
330
1F
100
AcDbEntity
  8
PROFILY
100
AcDbHatch
 10
0.0
 20
0.0
 30
0.0
210
0.0
220
0.0
230
1.0
  2
SOLID
 70
     1
 71
     0
 91
        1
 92
        7
 72
     0
 73
     1
 93
        4
 10
1713.253345850619
 20
765.0361239425142
 10
1713.252844716477
 20
767.0361238797318
 10
1694.070490174101
 20
767.0313174132165
 10
1694.070991308239
 20
765.0313174760007
 97
        0
 75
     0
 76
     1
 47
0.0801976285649081
 98
        1
 10
1699.912322407723
 20
765.3704542021564
  0
HATCH
  5
1521
330
1F
100
AcDbEntity
  8
PROFILY
100
AcDbHatch
 10
0.0
 20
0.0
 30
0.0
210
0.0
220
0.0
230
1.0
  2
SOLID
 70
     1
 71
     0
 91
        1
 92
        7
 72
     0
 73
     1
 93
        4
 10
1824.548971668774
 20
765.0640109622067
 10
1824.548470534636
 20
767.0640108994243
 10
1805.36611599226
 20
767.0592044329073
 10
1805.366617126398
 20
765.0592044956916
 97
        0
 75
     0
 76
     1
 47
0.0801976285649081
 98
        1
 10
1811.207948225882
 20
765.398341221849
  0
HATCH
  5
1522
330
1F
100
AcDbEntity
  8
PROFILY
100
AcDbHatch
 10
0.0
 20
0.0
 30
0.0
210
0.0
220
0.0
230
1.0
  2
SOLID
 70
     1
 71
     0
 91
        1
 92
        7
 72
     0
 73
     1
 93
        4
 10
1787.960954673075
 20
765.0548432097179
 10
1787.960453538934
 20
767.0548431469356
 10
1768.778098996558
 20
767.0500366804203
 10
1768.778600130696
 20
765.0500367432045
 97
        0
 75
     0
 76
     1
 47
0.0801976285649081
 98
        1
 10
1774.61993123018
 20
765.3891734693602
  0
LWPOLYLINE
  5
1523
330
1F
100
AcDbEntity
  8
NOSNÉ KONSTRUKCE
100
AcDbPolyline
 90
        4
 70
     0
 43
0.0
 10
1465.980731369721
 20
767.7874787684409
 42
-0.0135911980674878
 10
1469.69986272695
 20
788.1161719509068
 42
-0.0219777111230329
 10
1470.605975228933
 20
791.6342852067423
 42
-0.0092752982622242
 10
1470.981202190877
 20
792.7874787684409
  0
LWPOLYLINE
  5
1524
330
1F
100
AcDbEntity
  8
NOSNÉ KONSTRUKCE
100
AcDbPolyline
 90
        4
 70
     0
 43
0.0
 10
1456.350783491926
 20
767.7874787684409
 42
-0.0135911980674878
 10
1460.069914849155
 20
788.1161719509068
 42
-0.0219777111230329
 10
1460.976027351139
 20
791.6342852067423
 42
-0.0092752982622242
 10
1461.351254313082
 20
792.7874787684409
  0
LWPOLYLINE
  5
1525
330
1F
100
AcDbEntity
  8
NOSNÉ KONSTRUKCE
100
AcDbPolyline
 90
        4
 70
     0
 43
0.0
 10
1447.049137302264
 20
767.7874787684409
 42
-0.0135911980674878
 10
1450.768268659493
 20
788.1161719509068
 42
-0.0219777111230329
 10
1451.674381161477
 20
791.6342852067423
 42
-0.0092752982622242
 10
1452.04960812342
 20
792.7874787684409
  0
LWPOLYLINE
  5
1526
330
1F
100
AcDbEntity
  8
NOSNÉ KONSTRUKCE
100
AcDbPolyline
 90
        4
 70
     0
 43
0.0
 10
1437.966401627284
 20
767.7874787684409
 42
-0.0135911980674878
 10
1441.685532984513
 20
788.1161719509068
 42
-0.0219777111230329
 10
1442.591645486497
 20
791.6342852067423
 42
-0.0092752982622242
 10
1442.96687244844
 20
792.7874787684409
  0
LWPOLYLINE
  5
1527
330
1F
100
AcDbEntity
  8
NOSNÉ KONSTRUKCE
100
AcDbPolyline
 90
        4
 70
     0
 43
0.0
 10
1428.445909006823
 20
767.7874787684409
 42
-0.0135911980674878
 10
1432.165040364053
 20
788.1161719509068
 42
-0.0219777111230329
 10
1433.071152866036
 20
791.6342852067423
 42
-0.0092752982622242
 10
1433.44637982798
 20
792.7874787684409
  0
LWPOLYLINE
  5
1528
330
1F
100
AcDbEntity
  8
NOSNÉ KONSTRUKCE
100
AcDbPolyline
 90
        3
 70
     0
 43
0.0
 10
1480.573853329214
 20
773.3048094639594
 10
1463.818635709486
 20
781.6885503319277
 10
1455.651531060361
 20
789.8698520330249
  0
LWPOLYLINE
  5
1529
330
1F
100
AcDbEntity
  8
NOSNÉ KONSTRUKCE
100
AcDbPolyline
 90
        3
 70
     0
 43
0.0
 10
1452.526713549382
 20
774.286648337696
 10
1432.530461117389
 20
783.5026773882159
 10
1428.530523483674
 20
784.1480748635581
  0
LINE
  5
152A
330
1F
100
AcDbEntity
  8
POPIS
100
AcDbLine
 10
1470.275198253014
 20
841.7229234769179
 30
0.0
 11
1505.209468468125
 21
892.2479079468352
 31
0.0
  0
LINE
  5
152B
330
1F
100
AcDbEntity
  8
POPIS
100
AcDbLine
 10
1505.209468468125
 20
976.242905321636
 30
0.0
 11
1621.517199287704
 21
976.2416915731405
 31
0.0
  0
LINE
  5
152C
330
1F
100
AcDbEntity
  8
POPIS
100
AcDbLine
 10
1419.297365300554
 20
869.2080190830434
 30
0.0
 11
1505.209468468125
 21
976.242905321636
 31
0.0
  0
TEXT
  5
152D
330
1F
100
AcDbEntity
  8
POPIS
100
AcDbText
 10
1632.815799892589
 20
963.8779936273845
 30
0.0
 40
25.0
  1
08
 41
0.7
  7
SIMPLEX7
100
AcDbText
  0
INSERT
  5
152E
330
1F
100
AcDbEntity
  8
POPIS
100
AcDbBlockReference
  2
E_PUNKT
 10
1427.06459175277
 20
1058.751801098545
 30
0.0
 41
-1.0
  0
INSERT
  5
152F
330
1F
100
AcDbEntity
  8
POPIS
100
AcDbBlockReference
  2
E_PUNKT
 10
1379.594565296833
 20
1021.366788706001
 30
0.0
 41
-1.0
  0
INSERT
  5
1530
330
1F
100
AcDbEntity
  8
POPIS
100
AcDbBlockReference
  2
E_PUNKT
 10
1419.32497567618
 20
869.1789507521711
 30
0.0
 41
-1.0
  0
INSERT
  5
1531
330
1F
100
AcDbEntity
  8
POPIS
100
AcDbBlockReference
  2
E_PUNKT
 10
1470.30280862864
 20
841.6938551460457
 30
0.0
 41
-1.0
  0
LINE
  5
1532
330
1F
100
AcDbEntity
  8
POPIS
100
AcDbLine
 10
1451.230528324519
 20
859.4162093859226
 30
0.0
 11
1505.209468468125
 21
937.4852543570845
 31
0.0
  0
LINE
  5
1533
330
1F
100
AcDbEntity
  8
POPIS
100
AcDbLine
 10
1505.209468468125
 20
937.4852543570845
 30
0.0
 11
1621.517199287704
 21
937.484040608589
 31
0.0
  0
TEXT
  5
1534
330
1F
100
AcDbEntity
  8
POPIS
100
AcDbText
 10
1632.815799892589
 20
925.1203426628331
 30
0.0
 40
25.0
  1
04
 41
0.7
  7
SIMPLEX7
100
AcDbText
  0
INSERT
  5
1535
330
1F
100
AcDbEntity
  8
POPIS
100
AcDbBlockReference
  2
E_PUNKT
 10
1450.800099073244
 20
858.6342646478492
 30
0.0
 41
-1.0
  0
HATCH
  5
1536
330
1F
100
AcDbEntity
  8
STAVBA OBRYS
100
AcDbHatch
 10
0.0
 20
0.0
 30
0.0
210
0.0
220
0.0
230
1.0
  2
BRICK
 70
     0
 71
     0
 91
        1
 92
        7
 72
     0
 73
     1
 93
       23
 10
1841.087779755191
 20
680.2203032141801
 10
1812.632123964009
 20
680.2203032141801
 10
1812.632123964013
 20
598.8721581698396
 10
1806.069623964013
 20
595.083297028284
 10
1799.507123964013
 20
598.8721581698405
 10
1799.50712396401
 20
680.2203032141783
 10
1548.106788327059
 20
680.2203032141801
 10
1464.348068743148
 20
680.2203032141801
 10
1464.348068743151
 20
598.8721581698396
 10
1457.785568743148
 20
595.083297028284
 10
1451.223068743148
 20
598.8721581698405
 10
1451.223068743148
 20
680.2203032141801
 10
1341.160946521097
 20
680.2203032141801
 10
1341.160946521101
 20
862.6455190830434
 10
1259.08874689537
 20
862.6455190830434
 10
1255.299885753815
 20
869.2080190830434
 10
1259.08874689537
 20
875.7705190830433
 10
1341.160946521101
 20
875.7705190830451
 10
1341.160946521097
 20
1145.92847366879
 10
1104.56807594646
 20
1148.080463554451
 10
1104.568075946452
 20
445.2203032141802
 10
1562.093130033038
 20
445.2203032141802
 10
1848.080778953165
 20
445.2203032141802
 97
        0
 75
     0
 76
     1
 52
0.0
 41
10.0
 77
     0
 78
     3
 53
0.0
 43
-14261.27120436254
 44
-3015.442359221503
 45
0.0
 46
63.5
 79
     0
 53
90.0
 43
-14261.27120436254
 44
-3015.442359221503
 45
-127.0
 46
0.0000000000000078
 79
     2
 49
63.5
 49
-63.5
 53
90.0
 43
-14197.77120436254
 44
-3015.442359221503
 45
-127.0
 46
0.0000000000000078
 79
     2
 49
-63.5
 49
63.5
 47
2.03349251487245
 98
        1
 10
1652.104842225327
 20
560.4989096122949
  0
TEXT
  5
1537
330
1F
100
AcDbEntity
  8
POPIS
100
AcDbText
 10
1401.737886342923
 20
275.9467744493635
 30
0.0
 40
12.0
  1
R
 41
0.85
  7
SIMPLEX7
100
AcDbText
  0
CIRCLE
  5
1538
330
1F
100
AcDbEntity
  8
POPIS
100
AcDbCircle
 10
1406.120169853246
 20
282.0569358173092
 30
0.0
 40
11.13656048292026
  0
TEXT
  5
1539
330
1F
100
AcDbEntity
  8
POPIS
100
AcDbText
 10
1178.761191376216
 20
251.7104324108581
 30
0.0
 40
25.0
  1
01
 41
0.85
  7
SIMPLEX7
100
AcDbText
  0
TEXT
  5
153A
330
1F
100
AcDbEntity
  8
POPIS
100
AcDbText
 10
1178.757546101388
 20
143.7154181587088
 30
0.0
 40
25.0
  1
04
 41
0.85
  7
SIMPLEX7
100
AcDbText
  0
TEXT
  5
153B
330
1F
100
AcDbEntity
  8
POPIS
100
AcDbText
 10
1178.757546101388
 20
107.6085966715204
 30
0.0
 40
25.0
  1
05
 41
0.85
  7
SIMPLEX7
100
AcDbText
  0
TEXT
  5
153C
330
1F
100
AcDbEntity
  8
POPIS
100
AcDbText
 10
1178.757546101388
 20
179.1195793768715
 30
0.0
 40
25.0
  1
03
 41
0.85
  7
SIMPLEX7
100
AcDbText
  0
TEXT
  5
153D
330
1F
100
AcDbEntity
  8
POPIS
100
AcDbText
 10
1178.757546101388
 20
213.0697676215936
 30
0.0
 40
25.0
  1
02
 41
0.85
  7
SIMPLEX7
100
AcDbText
  0
TEXT
  5
153E
330
1F
100
AcDbEntity
  8
POPIS
100
AcDbText
 10
1178.757546101388
 20
-1.635789005777496
 30
0.0
 40
25.0
  1
08
 41
0.85
  7
SIMPLEX7
100
AcDbText
  0
TEXT
  5
153F
330
1F
100
AcDbEntity
  8
POPIS
100
AcDbText
 10
1178.757546101388
 20
33.80636813090632
 30
0.0
 40
25.0
  1
07
 41
0.85
  7
SIMPLEX7
100
AcDbText
  0
TEXT
  5
1540
330
1F
100
AcDbEntity
  8
POPIS
100
AcDbText
 10
1178.757546101388
 20
71.98970797343145
 30
0.0
 40
25.0
  1
06
 41
0.85
  7
SIMPLEX7
100
AcDbText
  0
TEXT
  5
1541
330
1F
100
AcDbEntity
  8
POPIS
100
AcDbText
 10
1233.101249261137
 20
249.6647792372218
 30
0.0
 40
25.0
  1
Deska CETRIS   (BASIC,FINISH,LASUR)
 41
0.7
  7
SIMPLEX7
100
AcDbText
  0
TEXT
  5
1542
330
1F
100
AcDbEntity
  8
POPIS
100
AcDbText
 10
1233.101249261137
 20
179.1195793768715
 30
0.0
 40
25.0
  1
Vzduchová mezera - min. 25 mm
 41
0.7
  7
SIMPLEX7
100
AcDbText
  0
TEXT
  5
1543
330
1F
100
AcDbEntity
  8
POPIS
100
AcDbText
 10
1233.101249261137
 20
213.0697676215936
 30
0.0
 40
25.0
  1
Nerezový vrut s podložkou (np. SFS, EJOT)
 41
0.7
  7
SIMPLEX7
100
AcDbText
  0
TEXT
  5
1544
330
1F
100
AcDbEntity
  8
POPIS
100
AcDbText
 10
1232.753985691179
 20
143.5733972442817
 30
0.0
 40
25.0
  1
Svislá dřevěné lať 50x25 (100x25), impregnovaná
 41
0.7
  7
SIMPLEX7
100
AcDbText
  0
TEXT
  5
1545
330
1F
100
AcDbEntity
  8
POPIS
100
AcDbText
 10
1232.753985691179
 20
33.6643472164792
 30
0.0
 40
25.0
  1
Tepelná izolace (np. ORSIL, ROCKWOOL, ISOVER, NOBASIL)
 41
0.7
  7
SIMPLEX7
100
AcDbText
  0
TEXT
  5
1546
330
1F
100
AcDbEntity
  8
POPIS
100
AcDbText
 10
1232.753985691179
 20
71.84768705900433
 30
0.0
 40
25.0
  1
Vodorovná dřevěná lať š=100 mm (tloušťka dle izolace)
 41
0.7
  7
SIMPLEX7
100
AcDbText
  0
TEXT
  5
1547
330
1F
100
AcDbEntity
  8
POPIS
100
AcDbText
 10
1232.753985691179
 20
107.4665757570933
 30
0.0
 40
25.0
  1
Pojistná fólie - parozábrana
 41
0.7
  7
SIMPLEX7
100
AcDbText
  0
TEXT
  5
1548
330
1F
100
AcDbEntity
  8
POPIS
100
AcDbText
 10
1232.753985691179
 20
-1.777809920204617
 30
0.0
 40
25.0
  1
Talířová hmoždinka
 41
0.7
  7
SIMPLEX7
100
AcDbText
  0
TEXT
  5
1549
330
1F
100
AcDbEntity
  8
POPIS
100
AcDbText
 10
1233.22406229896
 20
-35.57752064909482
 30
0.0
 40
25.0
  1
Rohový profil - klempířský výrobek
 41
0.7
  7
SIMPLEX7
100
AcDbText
  0
TEXT
  5
154A
330
1F
100
AcDbEntity
  8
POPIS
100
AcDbText
 10
1178.88035913921
 20
-35.57752064909482
 30
0.0
 40
25.0
  1
09
 41
0.85
  7
SIMPLEX7
100
AcDbText
  0
TEXT
  5
154B
330
1F
100
AcDbEntity
  8
POPIS
100
AcDbText
 10
1105.633055458966
 20
1264.580289223282
 30
0.0
 40
50.0
  1
VNITŘNÍ ROH
 41
0.85
  7
SIMPLEX7
100
AcDbText
  0
TEXT
  5
154C
330
1F
100
AcDbEntity
  8
POPIS
100
AcDbText
 10
1107.358208315804
 20
1208.511571927261
 30
0.0
 40
35.0
  1
PŮDORYS-ŘEŠENÍ S ROHOVÝM PROFILEM
 41
0.75
  7
SIMPLEX7
100
AcDbText
  0
LINE
  5
154D
330
1F
100
AcDbEntity
  8
PROFILY
100
AcDbLine
 10
1422.777214199258
 20
-155.606952397175
 30
0.0
 11
1422.777214199258
 21
-157.9406219522147
 31
0.0
  0
LINE
  5
154E
330
1F
100
AcDbEntity
  8
PROFILY
100
AcDbLine
 10
1382.041682488955
 20
-155.606952397175
 30
0.0
 11
1382.041682488951
 21
-138.3619374966988
 31
0.0
  0
LINE
  5
154F
330
1F
100
AcDbEntity
  8
PROFILY
100
AcDbLine
 10
1379.696409110428
 20
-140.6956070517376
 30
0.0
 11
1379.696409110428
 21
-157.9406219522138
 31
0.0
  0
LINE
  5
1550
330
1F
100
AcDbEntity
  8
PROFILY
100
AcDbLine
 10
1422.777214199258
 20
-157.9406219522156
 30
0.0
 11
1379.696409110428
 21
-157.9406219522138
 31
0.0
  0
LINE
  5
1551
330
1F
100
AcDbEntity
  8
PROFILY
100
AcDbLine
 10
1382.041682488955
 20
-155.606952397175
 30
0.0
 11
1422.777214199258
 21
-155.606952397175
 31
0.0
  0
LINE
  5
1552
330
1F
100
AcDbEntity
  8
PROFILY
100
AcDbLine
 10
1364.628778348608
 20
-138.3619374966988
 30
0.0
 11
1382.041682488951
 21
-138.3619374966988
 31
0.0
  0
LINE
  5
1553
330
1F
100
AcDbEntity
  8
PROFILY
100
AcDbLine
 10
1379.696409110428
 20
-140.6956070517376
 30
0.0
 11
1362.283504970084
 21
-140.6956070517376
 31
0.0
  0
LINE
  5
1554
330
1F
100
AcDbEntity
  8
PROFILY
100
AcDbLine
 10
1364.628778348608
 20
-97.69199630414414
 30
0.0
 11
1362.283504970088
 21
-97.69199630414414
 31
0.0
  0
LINE
  5
1555
330
1F
100
AcDbEntity
  8
PROFILY
100
AcDbLine
 10
1362.283504970084
 20
-97.69199630414414
 30
0.0
 11
1362.283504970084
 21
-140.6956070517376
 31
0.0
  0
LINE
  5
1556
330
1F
100
AcDbEntity
  8
PROFILY
100
AcDbLine
 10
1364.628778348608
 20
-138.3619374966988
 30
0.0
 11
1364.628778348608
 21
-97.69199630414414
 31
0.0
  0
LINE
  5
1557
330
1F
100
AcDbEntity
  8
PROFILY
100
AcDbLine
 10
1455.726919201876
 20
795.6991796134457
 30
0.0
 11
1513.875355052526
 21
795.6991796134457
 31
0.0
  0
LINE
  5
1558
330
1F
100
AcDbEntity
  8
PROFILY
100
AcDbLine
 10
1513.875355052526
 20
793.3655100584051
 30
0.0
 11
1453.381645823353
 21
793.3655100584069
 31
0.0
  0
LINE
  5
1559
330
1F
100
AcDbEntity
  8
PROFILY
100
AcDbLine
 10
1455.726919201876
 20
795.6991796134457
 30
0.0
 11
1455.726919201876
 21
853.6141357064765
 31
0.0
  0
LINE
  5
155A
330
1F
100
AcDbEntity
  8
PROFILY
100
AcDbLine
 10
1453.381645823353
 20
853.6141357064765
 30
0.0
 11
1453.381645823353
 21
793.3655100584069
 31
0.0
  0
LINE
  5
155B
330
1F
100
AcDbEntity
  8
PROFILY
100
AcDbLine
 10
1513.875355052526
 20
795.6991796134457
 30
0.0
 11
1513.875355052526
 21
793.365510058406
 31
0.0
  0
LINE
  5
155C
330
1F
100
AcDbEntity
  8
PROFILY
100
AcDbLine
 10
1455.726919201876
 20
853.6141357064765
 30
0.0
 11
1453.381645823356
 21
853.6141357064765
 31
0.0
  0
TEXT
  5
155D
330
1F
100
AcDbEntity
  8
POPIS
100
AcDbText
 10
1381.88370808998
 20
-71.90697115321427
 30
0.0
 40
25.0
  1
- profil PROTECTOR 3638 (3505,3528)
 41
0.7
  7
SIMPLEX7
100
AcDbText
  0
LINE
  5
155E
330
1F
100
AcDbEntity
  8
PROFILY
100
AcDbLine
 10
1467.272106890549
 20
-97.69199630414414
 30
0.0
 11
1464.926833512029
 21
-97.69199630414414
 31
0.0
  0
LINE
  5
155F
330
1F
100
AcDbEntity
  8
PROFILY
100
AcDbLine
 10
1525.420542741198
 20
-155.606952397175
 30
0.0
 11
1525.420542741198
 21
-157.9406219522147
 31
0.0
  0
LINE
  5
1560
330
1F
100
AcDbEntity
  8
PROFILY
100
AcDbLine
 10
1464.926833512025
 20
-97.69199630414414
 30
0.0
 11
1464.926833512025
 21
-157.9406219522138
 31
0.0
  0
LINE
  5
1561
330
1F
100
AcDbEntity
  8
PROFILY
100
AcDbLine
 10
1467.272106890549
 20
-155.606952397175
 30
0.0
 11
1467.272106890549
 21
-97.69199630414414
 31
0.0
  0
LINE
  5
1562
330
1F
100
AcDbEntity
  8
PROFILY
100
AcDbLine
 10
1525.420542741198
 20
-157.9406219522156
 30
0.0
 11
1464.926833512025
 21
-157.9406219522138
 31
0.0
  0
LINE
  5
1563
330
1F
100
AcDbEntity
  8
PROFILY
100
AcDbLine
 10
1467.272106890549
 20
-155.606952397175
 30
0.0
 11
1525.420542741198
 21
-155.606952397175
 31
0.0
  0
LINE
  5
1564
330
1F
100
AcDbEntity
  8
PROFILY
100
AcDbLine
 10
1482.339737652368
 20
-140.6956070517339
 30
0.0
 11
1464.926833512025
 21
-140.6956070517339
 31
0.0
  0
LINE
  5
1565
330
1F
100
AcDbEntity
  8
PROFILY
100
AcDbLine
 10
1467.272106890549
 20
-138.3619374966951
 30
0.0
 11
1484.685011030892
 21
-138.3619374966951
 31
0.0
  0
LINE
  5
1566
330
1F
100
AcDbEntity
  8
PROFILY
100
AcDbLine
 10
1482.339737652368
 20
-140.6956070517339
 30
0.0
 11
1482.339737652368
 21
-157.9406219522102
 31
0.0
  0
LINE
  5
1567
330
1F
100
AcDbEntity
  8
PROFILY
100
AcDbLine
 10
1484.685011030896
 20
-155.6069523971714
 30
0.0
 11
1484.685011030892
 21
-138.3619374966951
 31
0.0
  0
HATCH
  5
1568
330
1F
100
AcDbEntity
  8
PROFILY
100
AcDbHatch
 10
0.0
 20
0.0
 30
0.0
210
0.0
220
0.0
230
1.0
  2
SOLID
 70
     1
 71
     0
 91
        6
 92
        7
 72
     0
 73
     1
 93
        4
 10
1467.272106890549
 20
-97.69199630414414
 10
1464.926833512025
 20
-97.69199630414414
 10
1464.926833512025
 20
-140.6956070517339
 10
1467.272106890552
 20
-140.6956070517339
 97
        0
 92
        7
 72
     0
 73
     1
 93
        6
 10
1254.301945971475
 20
-97.69199630414414
 10
1251.956672592955
 20
-97.69199630414414
 10
1251.956672592951
 20
-157.9406219522138
 10
1312.450381822124
 20
-157.9406219522147
 10
1312.450381822124
 20
-155.606952397175
 10
1254.301945971475
 20
-155.606952397175
 97
        0
 92
        7
 72
     0
 73
     1
 93
       10
 10
1382.041682488951
 20
-138.3619374966988
 10
1364.628778348608
 20
-138.3619374966988
 10
1364.628778348608
 20
-97.69199630414414
 10
1362.283504970084
 20
-97.69199630414414
 10
1362.283504970084
 20
-140.6956070517376
 10
1379.696409110428
 20
-140.6956070517376
 10
1379.696409110431
 20
-157.9406219522147
 10
1422.777214199258
 20
-157.9406219522156
 10
1422.777214199258
 20
-155.606952397175
 10
1382.041682488955
 20
-155.606952397175
 97
        0
 92
        7
 72
     0
 73
     1
 93
        4
 10
1525.420542741198
 20
-155.606952397175
 10
1482.339737652368
 20
-155.606952397175
 10
1482.339737652372
 20
-157.9406219522147
 10
1525.420542741198
 20
-157.9406219522147
 97
        0
 92
        7
 72
     0
 73
     1
 93
        6
 10
1484.685011030892
 20
-138.3619374966951
 10
1467.272106890552
 20
-138.3619374966951
 10
1467.272106890552
 20
-140.6956070517339
 10
1482.339737652368
 20
-140.6956070517339
 10
1482.339737652368
 20
-155.606952397175
 10
1484.685011030896
 20
-155.606952397175
 97
        0
 92
        7
 72
     0
 73
     1
 93
        6
 10
1482.339737652368
 20
-155.606952397175
 10
1467.272106890549
 20
-155.606952397175
 10
1467.272106890552
 20
-140.6956070517339
 10
1464.926833512025
 20
-140.6956070517339
 10
1464.926833512025
 20
-157.9406219522138
 10
1482.339737652372
 20
-157.9406219522147
 97
        0
 75
     0
 76
     1
 47
0.3789984706849625
 98
        6
 10
1466.443374854269
 20
-120.7803976879445
 10
1253.28104103317
 20
-146.4156209967918
 10
1381.073688253742
 20
-145.2786055697001
 10
1491.043539890092
 20
-156.2695694924482
 10
1483.838641056693
 20
-148.6896148098098
 10
1473.979268035586
 20
-157.0275797771687
  0
LINE
  5
15C5
330
1F
100
AcDbEntity
  8
POPIS
100
AcDbLine
 10
1536.012570200704
 20
713.0357225787213
 30
0.0
 11
1469.436071741913
 21
713.0357225787213
 31
0.0
  0
INSERT
  5
15C6
330
1F
100
AcDbEntity
  8
POPIS
100
AcDbBlockReference
  2
_ArchTick
 10
1499.643191289117
 20
713.0357225787214
 30
0.0
 41
15.0
 42
15.0
 43
15.0
  0
LINE
  5
15C7
330
1F
100
AcDbEntity
  8
POPIS
100
AcDbLine
 10
1473.155530320638
 20
741.8297902016222
 30
0.0
 11
1473.155530320638
 21
700.5357225787213
 31
0.0
  0
LINE
  5
15C8
330
1F
100
AcDbEntity
  8
POPIS
100
AcDbLine
 10
1499.643191289117
 20
744.0187324346245
 30
0.0
 11
1499.643191289117
 21
700.5357225787213
 31
0.0
  0
TEXT
  5
15C9
330
1F
100
AcDbEntity
  8
POPIS
100
AcDbText
 10
1509.776308889834
 20
719.8679273107472
 30
0.0
 40
25.0
  1
25
 41
0.7
  7
SIMPLEX7
100
AcDbText
  0
INSERT
  5
15CA
330
1F
100
AcDbEntity
  8
POPIS
100
AcDbBlockReference
  2
_ArchTick
 10
1473.096844810553
 20
713.0357225787214
 30
0.0
 41
15.0
 42
15.0
 43
15.0
 50
180.0
  0
LINE
  5
15CB
330
1F
100
AcDbEntity
  8
PROFILY
  6
DASHED
370
    40
100
AcDbLine
 10
1452.919786942895
 20
846.0440241774149
 30
0.0
 11
1452.919786942895
 21
796.0468590287591
 31
0.0
  0
LINE
  5
15CC
330
1F
100
AcDbEntity
  8
PROFILY
100
AcDbLine
 10
1453.119786942895
 20
846.0440241774149
 30
0.0
 11
1453.119786942895
 21
796.0468590287591
 31
0.0
  0
LINE
  5
15CD
330
1F
100
AcDbEntity
  8
PROFILY
100
AcDbLine
 10
1452.719786942895
 20
846.0305681040029
 30
0.0
 11
1452.719786942895
 21
796.0334029553471
 31
0.0
  0
LINE
  5
15CE
330
1F
100
AcDbEntity
  8
PROFILY
100
AcDbLine
 10
1525.371119103231
 20
796.1529335652369
 30
0.0
 11
1475.373953954575
 21
796.1529335652369
 31
0.0
  0
LINE
  5
15CF
330
1F
100
AcDbEntity
  8
PROFILY
  6
DASHED
370
    40
100
AcDbLine
 10
1525.371119103231
 20
796.352933565237
 30
0.0
 11
1475.373953954575
 21
796.352933565237
 31
0.0
  0
LINE
  5
15D0
330
1F
100
AcDbEntity
  8
PROFILY
100
AcDbLine
 10
1525.357663029819
 20
796.552933565237
 30
0.0
 11
1475.360497881163
 21
796.552933565237
 31
0.0
  0
TEXT
  5
15D1
330
1F
100
AcDbEntity
  8
POPIS
100
AcDbText
 10
1233.768393288949
 20
-202.5871101094089
 30
0.0
 40
25.0
  1
Podkladní EPDM páska tl.1 mm
 41
0.7
  7
SIMPLEX7
100
AcDbText
  0
TEXT
  5
15D2
330
1F
100
AcDbEntity
  8
POPIS
100
AcDbText
 10
1179.424690129206
 20
-202.5871101094089
 30
0.0
 40
25.0
  1
10
 41
0.85
  7
SIMPLEX7
100
AcDbText
  0
ENDSEC
  0
SECTION
  2
OBJECTS
  0
DICTIONARY
  5
C
330
0
100
AcDbDictionary
281
     1
  3
ACAD_GROUP
350
D
  3
ACAD_LAYOUT
350
1A
  3
ACAD_MLINESTYLE
350
17
  3
ACAD_PLOTSETTINGS
350
19
  3
ACAD_PLOTSTYLENAME
350
E
  3
AcDbVariableDictionary
350
15D4
  0
DICTIONARY
  5
156A
330
1F
100
AcDbDictionary
280
     1
281
     1
  3
ACAD_LAYOUTSELFREF
360
15A6
  0
DICTIONARY
  5
156C
330
1B
100
AcDbDictionary
280
     1
281
     1
  3
ACAD_LAYOUTSELFREF
360
15A5
  0
DICTIONARY
  5
156E
330
23
100
AcDbDictionary
280
     1
281
     1
  3
ACAD_LAYOUTSELFREF
360
15A7
  0
DICTIONARY
  5
D
102
{ACAD_REACTORS
330
C
102
}
330
C
100
AcDbDictionary
281
     1
  0
DICTIONARY
  5
1A
102
{ACAD_REACTORS
330
C
102
}
330
C
100
AcDbDictionary
281
     1
  3
Model
350
22
  3
Rozvržení1
350
1E
  3
Rozvržení2
350
26
  0
DICTIONARY
  5
17
102
{ACAD_REACTORS
330
C
102
}
330
C
100
AcDbDictionary
281
     1
  3
Standard
350
18
  0
DICTIONARY
  5
19
102
{ACAD_REACTORS
330
C
102
}
330
C
100
AcDbDictionary
281
     1
  0
ACDBDICTIONARYWDFLT
  5
E
102
{ACAD_REACTORS
330
C
102
}
330
C
100
AcDbDictionary
281
     1
  3
Normal
350
F
100
AcDbDictionaryWithDefault
340
F
  0
DICTIONARY
  5
15D4
102
{ACAD_REACTORS
330
C
102
}
330
C
100
AcDbDictionary
281
     1
  3
DIMASSOC
350
15D5
  0
XRECORD
  5
15A6
102
{ACAD_REACTORS
330
156A
102
}
330
156A
100
AcDbXrecord
280
     1
340
1F
  0
XRECORD
  5
15A5
102
{ACAD_REACTORS
330
156C
102
}
330
156C
100
AcDbXrecord
280
     1
340
1B
  0
XRECORD
  5
15A7
102
{ACAD_REACTORS
330
156E
102
}
330
156E
100
AcDbXrecord
280
     1
340
23
  0
LAYOUT
  5
22
102
{ACAD_REACTORS
330
1A
102
}
330
1A
100
AcDbPlotSettings
  1

  2
HP DeskJet 690C
  4

  6

 40
0.0
 41
0.0
 42
0.0
 43
0.0
 44
0.0
 45
0.0
 46
0.0
 47
0.0
 48
0.0
 49
0.0
140
0.0
141
0.0
142
1.0
143
1.0
 70
  1712
 72
     0
 73
     0
 74
     0
  7
monochrome.ctb
 75
     0
147
1.0
148
0.0
149
0.0
100
AcDbLayout
  1
Model
 70
     1
 71
     0
 10
0.0
 20
0.0
 11
12.0
 21
9.0
 12
0.0
 22
0.0
 32
0.0
 14
0.0
 24
0.0
 34
0.0
 15
0.0
 25
0.0
 35
0.0
146
0.0
 13
0.0
 23
0.0
 33
0.0
 16
1.0
 26
0.0
 36
0.0
 17
0.0
 27
1.0
 37
0.0
 76
     0
330
1F
  0
LAYOUT
  5
1E
102
{ACAD_REACTORS
330
1A
102
}
330
1A
100
AcDbPlotSettings
  1

  2
HP DeskJet 690C
  4

  6

 40
0.0
 41
0.0
 42
0.0
 43
0.0
 44
0.0
 45
0.0
 46
0.0
 47
0.0
 48
0.0
 49
0.0
140
0.0
141
0.0
142
1.0
143
1.0
 70
   688
 72
     0
 73
     0
 74
     5
  7
monochrome.ctb
 75
    16
147
1.0
148
0.0
149
0.0
100
AcDbLayout
  1
Rozvržení1
 70
     1
 71
     1
 10
0.0
 20
0.0
 11
420.0
 21
297.0
 12
0.0
 22
0.0
 32
0.0
 14
1.000000000000000E+20
 24
1.000000000000000E+20
 34
1.000000000000000E+20
 15
-1.000000000000000E+20
 25
-1.000000000000000E+20
 35
-1.000000000000000E+20
146
0.0
 13
0.0
 23
0.0
 33
0.0
 16
1.0
 26
0.0
 36
0.0
 17
0.0
 27
1.0
 37
0.0
 76
     0
330
1B
  0
LAYOUT
  5
26
102
{ACAD_REACTORS
330
1A
102
}
330
1A
100
AcDbPlotSettings
  1

  2
HP DeskJet 690C
  4

  6

 40
0.0
 41
0.0
 42
0.0
 43
0.0
 44
0.0
 45
0.0
 46
0.0
 47
0.0
 48
0.0
 49
0.0
140
0.0
141
0.0
142
1.0
143
1.0
 70
   688
 72
     0
 73
     0
 74
     5
  7
monochrome.ctb
 75
    16
147
1.0
148
0.0
149
0.0
100
AcDbLayout
  1
Rozvržení2
 70
     1
 71
     2
 10
0.0
 20
0.0
 11
12.0
 21
9.0
 12
0.0
 22
0.0
 32
0.0
 14
0.0
 24
0.0
 34
0.0
 15
0.0
 25
0.0
 35
0.0
146
0.0
 13
0.0
 23
0.0
 33
0.0
 16
1.0
 26
0.0
 36
0.0
 17
0.0
 27
1.0
 37
0.0
 76
     0
330
23
  0
MLINESTYLE
  5
18
102
{ACAD_REACTORS
330
17
102
}
330
17
100
AcDbMlineStyle
  2
STANDARD
 70
     0
  3

 62
   256
 51
90.0
 52
90.0
 71
     2
 49
0.5
 62
   256
  6
BYLAYER
 49
-0.5
 62
   256
  6
BYLAYER
  0
ACDBPLACEHOLDER
  5
F
102
{ACAD_REACTORS
330
E
102
}
330
E
  0
DICTIONARYVAR
  5
15D5
102
{ACAD_REACTORS
330
15D4
102
}
330
15D4
100
DictionaryVariables
280
     0
  1
1
  0
ENDSEC
  0
EOF
