  0
SECTION
  2
HEADER
  9
$ACADVER
  1
AC1015
  9
$ACADMAINTVER
 70
    14
  9
$DWGCODEPAGE
  3
ANSI_1250
  9
$INSBASE
 10
0.0
 20
0.0
 30
0.0
  9
$EXTMIN
 10
1406.340818421983
 20
-76.9192205246427
 30
-0.0015258207003583
  9
$EXTMAX
 10
2223.807662785528
 20
1295.969477680848
 30
0.0000000349246037
  9
$LIMMIN
 10
0.0
 20
0.0
  9
$LIMMAX
 10
420.0
 20
297.0
  9
$ORTHOMODE
 70
     1
  9
$REGENMODE
 70
     1
  9
$FILLMODE
 70
     1
  9
$QTEXTMODE
 70
     0
  9
$MIRRTEXT
 70
     1
  9
$LTSCALE
 40
1.0
  9
$ATTMODE
 70
     1
  9
$TEXTSIZE
 40
2.5
  9
$TRACEWID
 40
1.0
  9
$TEXTSTYLE
  7
Standard
  9
$CLAYER
  8
0
  9
$CELTYPE
  6
ByLayer
  9
$CECOLOR
 62
   256
  9
$CELTSCALE
 40
1.0
  9
$DISPSILH
 70
     0
  9
$DIMSCALE
 40
1.0
  9
$DIMASZ
 40
2.5
  9
$DIMEXO
 40
0.625
  9
$DIMDLI
 40
3.75
  9
$DIMRND
 40
0.0
  9
$DIMDLE
 40
0.0
  9
$DIMEXE
 40
1.25
  9
$DIMTP
 40
0.0
  9
$DIMTM
 40
0.0
  9
$DIMTXT
 40
2.5
  9
$DIMCEN
 40
2.5
  9
$DIMTSZ
 40
0.0
  9
$DIMTOL
 70
     0
  9
$DIMLIM
 70
     0
  9
$DIMTIH
 70
     0
  9
$DIMTOH
 70
     0
  9
$DIMSE1
 70
     0
  9
$DIMSE2
 70
     0
  9
$DIMTAD
 70
     1
  9
$DIMZIN
 70
     8
  9
$DIMBLK
  1

  9
$DIMASO
 70
     1
  9
$DIMSHO
 70
     1
  9
$DIMPOST
  1

  9
$DIMAPOST
  1

  9
$DIMALT
 70
     0
  9
$DIMALTD
 70
     3
  9
$DIMALTF
 40
0.03937007874016
  9
$DIMLFAC
 40
1.0
  9
$DIMTOFL
 70
     1
  9
$DIMTVP
 40
0.0
  9
$DIMTIX
 70
     0
  9
$DIMSOXD
 70
     0
  9
$DIMSAH
 70
     0
  9
$DIMBLK1
  1

  9
$DIMBLK2
  1

  9
$DIMSTYLE
  2
ISO-25
  9
$DIMCLRD
 70
     0
  9
$DIMCLRE
 70
     0
  9
$DIMCLRT
 70
     0
  9
$DIMTFAC
 40
1.0
  9
$DIMGAP
 40
0.625
  9
$DIMJUST
 70
     0
  9
$DIMSD1
 70
     0
  9
$DIMSD2
 70
     0
  9
$DIMTOLJ
 70
     0
  9
$DIMTZIN
 70
     8
  9
$DIMALTZ
 70
     0
  9
$DIMALTTZ
 70
     0
  9
$DIMUPT
 70
     0
  9
$DIMDEC
 70
     2
  9
$DIMTDEC
 70
     2
  9
$DIMALTU
 70
     2
  9
$DIMALTTD
 70
     3
  9
$DIMTXSTY
  7
Standard
  9
$DIMAUNIT
 70
     0
  9
$DIMADEC
 70
     0
  9
$DIMALTRND
 40
0.0
  9
$DIMAZIN
 70
     0
  9
$DIMDSEP
 70
    44
  9
$DIMATFIT
 70
     3
  9
$DIMFRAC
 70
     0
  9
$DIMLDRBLK
  1

  9
$DIMLUNIT
 70
     2
  9
$DIMLWD
 70
    -2
  9
$DIMLWE
 70
    -2
  9
$DIMTMOVE
 70
     0
  9
$LUNITS
 70
     2
  9
$LUPREC
 70
     4
  9
$SKETCHINC
 40
1.0
  9
$FILLETRAD
 40
10.0
  9
$AUNITS
 70
     0
  9
$AUPREC
 70
     0
  9
$MENU
  1
.
  9
$ELEVATION
 40
0.0
  9
$PELEVATION
 40
0.0
  9
$THICKNESS
 40
0.0
  9
$LIMCHECK
 70
     0
  9
$CHAMFERA
 40
10.0
  9
$CHAMFERB
 40
10.0
  9
$CHAMFERC
 40
20.0
  9
$CHAMFERD
 40
0.0
  9
$SKPOLY
 70
     0
  9
$TDCREATE
 40
2452339.360978703
  9
$TDUCREATE
 40
2452339.319312037
  9
$TDUPDATE
 40
2455610.259769398
  9
$TDUUPDATE
 40
2455610.218102731
  9
$TDINDWG
 40
0.0101154051
  9
$TDUSRTIMER
 40
0.0101147106
  9
$USRTIMER
 70
     1
  9
$ANGBASE
 50
0.0
  9
$ANGDIR
 70
     0
  9
$PDMODE
 70
     0
  9
$PDSIZE
 40
0.0
  9
$PLINEWID
 40
0.0
  9
$SPLFRAME
 70
     0
  9
$SPLINETYPE
 70
     6
  9
$SPLINESEGS
 70
     8
  9
$HANDSEED
  5
135F
  9
$SURFTAB1
 70
     6
  9
$SURFTAB2
 70
     6
  9
$SURFTYPE
 70
     6
  9
$SURFU
 70
     6
  9
$SURFV
 70
     6
  9
$UCSBASE
  2

  9
$UCSNAME
  2

  9
$UCSORG
 10
0.0
 20
0.0
 30
0.0
  9
$UCSXDIR
 10
1.0
 20
0.0
 30
0.0
  9
$UCSYDIR
 10
0.0
 20
1.0
 30
0.0
  9
$UCSORTHOREF
  2

  9
$UCSORTHOVIEW
 70
     0
  9
$UCSORGTOP
 10
0.0
 20
0.0
 30
0.0
  9
$UCSORGBOTTOM
 10
0.0
 20
0.0
 30
0.0
  9
$UCSORGLEFT
 10
0.0
 20
0.0
 30
0.0
  9
$UCSORGRIGHT
 10
0.0
 20
0.0
 30
0.0
  9
$UCSORGFRONT
 10
0.0
 20
0.0
 30
0.0
  9
$UCSORGBACK
 10
0.0
 20
0.0
 30
0.0
  9
$PUCSBASE
  2

  9
$PUCSNAME
  2

  9
$PUCSORG
 10
0.0
 20
0.0
 30
0.0
  9
$PUCSXDIR
 10
1.0
 20
0.0
 30
0.0
  9
$PUCSYDIR
 10
0.0
 20
1.0
 30
0.0
  9
$PUCSORTHOREF
  2

  9
$PUCSORTHOVIEW
 70
     0
  9
$PUCSORGTOP
 10
0.0
 20
0.0
 30
0.0
  9
$PUCSORGBOTTOM
 10
0.0
 20
0.0
 30
0.0
  9
$PUCSORGLEFT
 10
0.0
 20
0.0
 30
0.0
  9
$PUCSORGRIGHT
 10
0.0
 20
0.0
 30
0.0
  9
$PUCSORGFRONT
 10
0.0
 20
0.0
 30
0.0
  9
$PUCSORGBACK
 10
0.0
 20
0.0
 30
0.0
  9
$USERI1
 70
     0
  9
$USERI2
 70
     0
  9
$USERI3
 70
     0
  9
$USERI4
 70
     0
  9
$USERI5
 70
     0
  9
$USERR1
 40
0.0
  9
$USERR2
 40
0.0
  9
$USERR3
 40
0.0
  9
$USERR4
 40
0.0
  9
$USERR5
 40
0.0
  9
$WORLDVIEW
 70
     1
  9
$SHADEDGE
 70
     3
  9
$SHADEDIF
 70
    70
  9
$TILEMODE
 70
     1
  9
$MAXACTVP
 70
    48
  9
$PINSBASE
 10
0.0
 20
0.0
 30
0.0
  9
$PLIMCHECK
 70
     0
  9
$PEXTMIN
 10
1.000000000000000E+20
 20
1.000000000000000E+20
 30
1.000000000000000E+20
  9
$PEXTMAX
 10
-1.000000000000000E+20
 20
-1.000000000000000E+20
 30
-1.000000000000000E+20
  9
$PLIMMIN
 10
0.0
 20
0.0
  9
$PLIMMAX
 10
420.0
 20
297.0
  9
$UNITMODE
 70
     0
  9
$VISRETAIN
 70
     1
  9
$PLINEGEN
 70
     0
  9
$PSLTSCALE
 70
     1
  9
$TREEDEPTH
 70
  3020
  9
$CMLSTYLE
  2
Standard
  9
$CMLJUST
 70
     0
  9
$CMLSCALE
 40
20.0
  9
$PROXYGRAPHICS
 70
     1
  9
$MEASUREMENT
 70
     1
  9
$CELWEIGHT
370
    -1
  9
$ENDCAPS
280
     0
  9
$JOINSTYLE
280
     0
  9
$LWDISPLAY
290
     1
  9
$INSUNITS
 70
     4
  9
$HYPERLINKBASE
  1

  9
$STYLESHEET
  1

  9
$XEDIT
290
     1
  9
$CEPSNTYPE
380
     0
  9
$PSTYLEMODE
290
     1
  9
$FINGERPRINTGUID
  2
{9C079773-E80E-4585-A7F4-852C8B38093D}
  9
$VERSIONGUID
  2
{7FFBE948-2E17-498D-BA67-E27FE7B841C2}
  9
$EXTNAMES
290
     1
  9
$PSVPSCALE
 40
0.0
  9
$OLESTARTUP
290
     0
  0
ENDSEC
  0
SECTION
  2
CLASSES
  0
CLASS
  1
ACDBDICTIONARYWDFLT
  2
AcDbDictionaryWithDefault
  3
AutoCAD 2000
 90
        0
280
     0
281
     0
  0
CLASS
  1
ACDBPLACEHOLDER
  2
AcDbPlaceHolder
  3
AutoCAD 2000
 90
        0
280
     0
281
     0
  0
CLASS
  1
LAYOUT
  2
AcDbLayout
  3
AutoCAD 2000
 90
        0
280
     0
281
     0
  0
CLASS
  1
LONG_TRANSACTION
  2
AcDbLongTransaction
  3
AutoCAD 2000
 90
    32768
280
     0
281
     0
  0
CLASS
  1
LWPOLYLINE
  2
AcDbPolyline
  3
AutoCAD 2000
 90
    32768
280
     0
281
     1
  0
CLASS
  1
HATCH
  2
AcDbHatch
  3
AutoCAD 2000
 90
    32768
280
     0
281
     1
  0
CLASS
  1
XRECORD
  2
AcDbXrecord
  3
AutoCAD 2000
 90
    32768
280
     0
281
     0
  0
CLASS
  1
DICTIONARYVAR
  2
AcDbDictionaryVar
  3
AutoCAD 2000
 90
        0
280
     0
281
     0
  0
ENDSEC
  0
SECTION
  2
TABLES
  0
TABLE
  2
VPORT
  5
8
330
0
100
AcDbSymbolTable
 70
     2
  0
VPORT
  5
135E
330
8
100
AcDbSymbolTableRecord
100
AcDbViewportTableRecord
  2
*Active
 70
     0
 10
0.0
 20
0.0
 11
1.0
 21
1.0
 12
1815.074240603755
 22
609.5251285781026
 13
0.0
 23
0.0
 14
10.0
 24
10.0
 15
10.0
 25
10.0
 16
0.0
 26
0.0
 36
1.0
 17
0.0
 27
0.0
 37
0.0
 40
1382.9711121458
 41
2.031862745098039
 42
50.0
 43
0.0
 44
0.0
 50
0.0
 51
0.0
 71
     0
 72
   100
 73
     1
 74
     3
 75
     0
 76
     0
 77
     0
 78
     0
281
     0
 65
     1
110
0.0
120
0.0
130
0.0
111
1.0
121
0.0
131
0.0
112
0.0
122
1.0
132
0.0
 79
     0
146
0.0
  0
ENDTAB
  0
TABLE
  2
LTYPE
  5
5
330
0
100
AcDbSymbolTable
 70
     4
  0
LTYPE
  5
14
330
5
100
AcDbSymbolTableRecord
100
AcDbLinetypeTableRecord
  2
ByBlock
 70
     0
  3

 72
    65
 73
     0
 40
0.0
  0
LTYPE
  5
15
330
5
100
AcDbSymbolTableRecord
100
AcDbLinetypeTableRecord
  2
ByLayer
 70
     0
  3

 72
    65
 73
     0
 40
0.0
  0
LTYPE
  5
16
330
5
100
AcDbSymbolTableRecord
100
AcDbLinetypeTableRecord
  2
Continuous
 70
     0
  3
Solid line
 72
    65
 73
     0
 40
0.0
  0
LTYPE
  5
3F
330
5
100
AcDbSymbolTableRecord
100
AcDbLinetypeTableRecord
  2
IZOLACE
 70
     0
  3
Izolace SSSSSSSSSSSSSSSSSSSSSSSSSSSSSSSSSSSSSSS
 72
    65
 73
     4
 40
10.16253999999999
 49
0.00254
 74
     0
 49
-2.54
 74
     4
 75
   134
340
4A
 46
2.54
 50
0.0
 44
-2.54
 45
0.0
 49
-5.08
 74
     4
 75
   134
340
4A
 46
2.54
 50
180.0
 44
2.54
 45
0.0
 49
-2.54
 74
     0
  0
LTYPE
  5
40
330
5
100
AcDbSymbolTableRecord
100
AcDbLinetypeTableRecord
  2
DASHED
 70
     0
  3
Dashed __ __ __ __ __ __ __ __ __ __ __ __ __ _
 72
    65
 73
     2
 40
19.04999999999999
 49
12.7
 74
     0
 49
-6.349999999999999
 74
     0
  0
LTYPE
  5
41
330
5
100
AcDbSymbolTableRecord
100
AcDbLinetypeTableRecord
  2
DASHDOT2
 70
     0
  3
Dash dot (.5x) _._._._._._._._._._._._._._._.
 72
    65
 73
     4
 40
12.7
 49
6.349999999999999
 74
     0
 49
-3.174999999999999
 74
     0
 49
0.0
 74
     0
 49
-3.174999999999999
 74
     0
  0
ENDTAB
  0
TABLE
  2
LAYER
  5
2
330
0
100
AcDbSymbolTable
 70
     8
  0
LAYER
  5
10
330
2
100
AcDbSymbolTableRecord
100
AcDbLayerTableRecord
  2
0
 70
     0
 62
     7
  6
Continuous
370
    -3
390
F
  0
LAYER
  5
42
330
2
100
AcDbSymbolTableRecord
100
AcDbLayerTableRecord
  2
POPIS
 70
     0
 62
    30
  6
Continuous
370
    -3
390
F
  0
LAYER
  5
43
330
2
100
AcDbSymbolTableRecord
100
AcDbLayerTableRecord
  2
SPOJOVACÍ
 70
     0
 62
   180
  6
Continuous
370
    -3
390
F
  0
LAYER
  5
44
330
2
100
AcDbSymbolTableRecord
100
AcDbLayerTableRecord
  2
CETRIS
 70
     0
 62
     1
  6
Continuous
370
    -3
390
F
  0
LAYER
  5
45
330
2
100
AcDbSymbolTableRecord
100
AcDbLayerTableRecord
  2
NOSNÉ KONSTRUKCE
 70
     0
 62
    33
  6
Continuous
370
    -3
390
F
  0
LAYER
  5
46
330
2
100
AcDbSymbolTableRecord
100
AcDbLayerTableRecord
  2
PROFILY
 70
     0
 62
    73
  6
Continuous
370
    -3
390
F
  0
LAYER
  5
47
330
2
100
AcDbSymbolTableRecord
100
AcDbLayerTableRecord
  2
STAVBA OBRYS
 70
     0
 62
     6
  6
Continuous
370
    -3
390
F
  0
LAYER
  5
48
330
2
100
AcDbSymbolTableRecord
100
AcDbLayerTableRecord
  2
Defpoints
 70
     0
 62
     7
  6
Continuous
290
     0
370
    -3
390
F
  0
ENDTAB
  0
TABLE
  2
STYLE
  5
3
330
0
100
AcDbSymbolTable
 70
     3
  0
STYLE
  5
11
330
3
100
AcDbSymbolTableRecord
100
AcDbTextStyleTableRecord
  2
Standard
 70
     0
 40
0.0
 41
1.0
 50
0.0
 71
     0
 42
2.5
  3
txt
  4

  0
STYLE
  5
49
330
3
100
AcDbSymbolTableRecord
100
AcDbTextStyleTableRecord
  2
SIMPLEX7
 70
     0
 40
0.0
 41
0.85
 50
0.0
 71
     0
 42
102.0
  3
ARIAL.TTF
  4

1001
ACAD
1000
Arial CE
1071
    60962
  0
STYLE
  5
4A
330
3
100
AcDbSymbolTableRecord
100
AcDbTextStyleTableRecord
  2

 70
     1
 40
0.0
 41
1.0
 50
0.0
 71
     0
 42
2.5
  3
ltypeshp.shx
  4

  0
ENDTAB
  0
TABLE
  2
VIEW
  5
6
330
0
100
AcDbSymbolTable
 70
     0
  0
ENDTAB
  0
TABLE
  2
UCS
  5
7
330
0
100
AcDbSymbolTable
 70
     0
  0
ENDTAB
  0
TABLE
  2
APPID
  5
9
330
0
100
AcDbSymbolTable
 70
     1
  0
APPID
  5
12
330
9
100
AcDbSymbolTableRecord
100
AcDbRegAppTableRecord
  2
ACAD
 70
     0
  0
ENDTAB
  0
TABLE
  2
DIMSTYLE
  5
A
330
0
100
AcDbSymbolTable
 70
     1
100
AcDbDimStyleTable
 71
     0
  0
DIMSTYLE
105
27
330
A
100
AcDbSymbolTableRecord
100
AcDbDimStyleTableRecord
  2
ISO-25
 70
     0
 41
2.5
 42
0.625
 43
3.75
 44
1.25
 73
     0
 74
     0
 77
     1
 78
     8
140
2.5
141
2.5
143
0.03937007874016
147
0.625
171
     3
172
     1
271
     2
272
     2
274
     3
278
    44
283
     0
284
     8
340
11
  0
ENDTAB
  0
TABLE
  2
BLOCK_RECORD
  5
1
330
0
100
AcDbSymbolTable
 70
     3
  0
BLOCK_RECORD
  5
1F
102
{ACAD_XDICTIONARY
360
12D9
102
}
330
1
100
AcDbSymbolTableRecord
100
AcDbBlockTableRecord
  2
*Model_Space
340
22
  0
BLOCK_RECORD
  5
1B
102
{ACAD_XDICTIONARY
360
12DB
102
}
330
1
100
AcDbSymbolTableRecord
100
AcDbBlockTableRecord
  2
*Paper_Space
340
1E
  0
BLOCK_RECORD
  5
23
102
{ACAD_XDICTIONARY
360
12DD
102
}
330
1
100
AcDbSymbolTableRecord
100
AcDbBlockTableRecord
  2
*Paper_Space0
340
26
  0
BLOCK_RECORD
  5
2B
330
1
100
AcDbSymbolTableRecord
100
AcDbBlockTableRecord
  2
E_PUNKT
340
0
102
{BLKREFS
331
11E5
331
11E9
331
11EA
331
11EB
331
11EC
331
12C7
331
1347
102
}
  0
BLOCK_RECORD
  5
131E
330
1
100
AcDbSymbolTableRecord
100
AcDbBlockTableRecord
  2
_ArchTick
340
0
102
{BLKREFS
331
1339
331
133B
102
}
  0
ENDTAB
  0
ENDSEC
  0
SECTION
  2
BLOCKS
  0
BLOCK
  5
20
330
1F
100
AcDbEntity
  8
0
100
AcDbBlockBegin
  2
*Model_Space
 70
     0
 10
0.0
 20
0.0
 30
0.0
  3
*Model_Space
  1

  0
ENDBLK
  5
21
330
1F
100
AcDbEntity
  8
0
100
AcDbBlockEnd
  0
BLOCK
  5
1C
330
1B
100
AcDbEntity
 67
     1
  8
0
100
AcDbBlockBegin
  2
*Paper_Space
 70
     0
 10
0.0
 20
0.0
 30
0.0
  3
*Paper_Space
  1

  0
ENDBLK
  5
1D
330
1B
100
AcDbEntity
 67
     1
  8
0
100
AcDbBlockEnd
  0
BLOCK
  5
24
330
23
100
AcDbEntity
  8
0
100
AcDbBlockBegin
  2
*Paper_Space0
 70
     0
 10
0.0
 20
0.0
 30
0.0
  3
*Paper_Space0
  1

  0
ENDBLK
  5
25
330
23
100
AcDbEntity
  8
0
100
AcDbBlockEnd
  0
BLOCK
  5
2D
330
2B
100
AcDbEntity
  8
0
100
AcDbBlockBegin
  2
E_PUNKT
 70
     0
 10
0.0
 20
0.0
 30
0.0
  3
E_PUNKT
  1

  0
LWPOLYLINE
  5
2C
330
2B
100
AcDbEntity
  8
POPIS
100
AcDbPolyline
 90
        2
 70
     1
 43
2.5
 10
1.27761037562675
 20
0.0290683308725193
 42
-1.0
 10
-1.222389624373249
 20
0.0290683308725193
 42
-1.0
  0
ENDBLK
  5
2E
330
2B
100
AcDbEntity
  8
0
100
AcDbBlockEnd
  0
BLOCK
  5
1320
330
131E
100
AcDbEntity
  8
0
100
AcDbBlockBegin
  2
_ArchTick
 70
     0
 10
0.0
 20
0.0
 30
0.0
  3
_ArchTick
  1

  0
LWPOLYLINE
  5
131F
330
131E
100
AcDbEntity
  8
0
  6
ByBlock
 62
     0
100
AcDbPolyline
 90
        2
 70
     0
 43
0.15
 10
-0.5
 20
-0.5
 10
0.5
 20
0.5
  0
ENDBLK
  5
1321
330
131E
100
AcDbEntity
  8
0
100
AcDbBlockEnd
  0
ENDSEC
  0
SECTION
  2
ENTITIES
  0
HATCH
  5
11E4
330
1F
100
AcDbEntity
  8
STAVBA OBRYS
100
AcDbHatch
 10
0.0
 20
0.0
 30
0.0
210
0.0
220
0.0
230
1.0
  2
BRICK
 70
     0
 71
     0
 91
        1
 92
        7
 72
     0
 73
     1
 93
       23
 10
2164.696011733576
 20
648.3343059362141
 10
2136.240355942392
 20
648.3343059362141
 10
2136.240355942397
 20
566.9861608918735
 10
2129.677855942395
 20
563.197299750318
 10
2123.115355942395
 20
566.9861608918745
 10
2123.115355942391
 20
648.3343059362123
 10
1871.715020305441
 20
648.3343059362141
 10
1787.956300721532
 20
648.3343059362141
 10
1787.956300721534
 20
566.9861608918735
 10
1781.393800721532
 20
563.197299750318
 10
1774.83130072153
 20
566.9861608918745
 10
1774.83130072153
 20
648.3343059362141
 10
1664.769178499481
 20
648.3343059362141
 10
1664.769178499483
 20
830.7595218050774
 10
1582.69697887375
 20
830.7595218050774
 10
1578.908117732197
 20
837.3220218050773
 10
1582.696978873754
 20
843.8845218050774
 10
1664.769178499483
 20
843.8845218050792
 10
1664.769178499481
 20
1114.042476390824
 10
1428.176307924842
 20
1116.194466276485
 10
1428.176307924835
 20
413.3343059362141
 10
1885.70136201142
 20
413.3343059362141
 10
2171.689010931547
 20
413.3343059362141
 97
        0
 75
     0
 76
     1
 52
0.0
 41
10.0
 77
     0
 78
     3
 53
0.0
 43
-13937.66297238415
 44
-3047.328356499469
 45
0.0
 46
63.5
 79
     0
 53
90.0
 43
-13937.66297238415
 44
-3047.328356499469
 45
-127.0
 46
0.0000000000000078
 79
     2
 49
63.5
 49
-63.5
 53
90.0
 43
-13874.16297238415
 44
-3047.328356499469
 45
-127.0
 46
0.0000000000000078
 79
     2
 49
-63.5
 49
63.5
 47
2.03349251487245
 98
        1
 10
1975.713074203708
 20
528.6129123343289
  0
INSERT
  5
11E5
330
1F
100
AcDbEntity
  8
POPIS
100
AcDbBlockReference
  2
E_PUNKT
 10
1762.73308224107
 20
801.8149674064407
 30
0.0
 41
-1.0
  0
TEXT
  5
11E6
330
1F
100
AcDbEntity
  8
POPIS
100
AcDbText
 10
1956.424031870971
 20
883.8594752945654
 30
0.0
 40
25.0
  1
04
 41
0.7
  7
SIMPLEX7
100
AcDbText
  0
LINE
  5
11E7
330
1F
100
AcDbEntity
  8
POPIS
100
AcDbLine
 10
1828.817700446507
 20
896.2243869888171
 30
0.0
 11
1945.125431266085
 21
896.2231732403216
 31
0.0
  0
LINE
  5
11E8
330
1F
100
AcDbEntity
  8
POPIS
100
AcDbLine
 10
1762.533534879564
 20
800.3584531865836
 30
0.0
 11
1828.817700446507
 21
896.2243869888171
 31
0.0
  0
INSERT
  5
11E9
330
1F
100
AcDbEntity
  8
POPIS
100
AcDbBlockReference
  2
E_PUNKT
 10
1793.911040607022
 20
794.0837552013618
 30
0.0
 41
-1.0
  0
INSERT
  5
11EA
330
1F
100
AcDbEntity
  8
POPIS
100
AcDbBlockReference
  2
E_PUNKT
 10
1742.933207654562
 20
837.2929534742052
 30
0.0
 41
-1.0
  0
INSERT
  5
11EB
330
1F
100
AcDbEntity
  8
POPIS
100
AcDbBlockReference
  2
E_PUNKT
 10
1703.202797275215
 20
989.4807914280354
 30
0.0
 41
-1.0
  0
INSERT
  5
11EC
330
1F
100
AcDbEntity
  8
POPIS
100
AcDbBlockReference
  2
E_PUNKT
 10
1750.672823731151
 20
1026.865803820579
 30
0.0
 41
-1.0
  0
TEXT
  5
11ED
330
1F
100
AcDbEntity
  8
POPIS
100
AcDbText
 10
1956.424031870971
 20
931.9919963494184
 30
0.0
 40
25.0
  1
08
 41
0.7
  7
SIMPLEX7
100
AcDbText
  0
LINE
  5
11EE
330
1F
100
AcDbEntity
  8
POPIS
100
AcDbLine
 10
1742.905597278936
 20
837.3220218050773
 30
0.0
 11
1828.817700446507
 21
944.35690804367
 31
0.0
  0
LINE
  5
11EF
330
1F
100
AcDbEntity
  8
POPIS
100
AcDbLine
 10
1828.817700446507
 20
944.35690804367
 30
0.0
 11
1945.125431266085
 21
944.3556942951746
 31
0.0
  0
LINE
  5
11F0
330
1F
100
AcDbEntity
  8
POPIS
100
AcDbLine
 10
1793.883430231396
 20
794.1128235322339
 30
0.0
 11
1828.817700446507
 21
844.6378080021514
 31
0.0
  0
CIRCLE
  5
11F1
330
1F
100
AcDbEntity
  8
POPIS
100
AcDbCircle
 10
1702.576246049627
 20
249.8196806463047
 30
0.0
 40
11.13656048292026
  0
TEXT
  5
11F2
330
1F
100
AcDbEntity
  8
POPIS
100
AcDbText
 10
1698.193962539305
 20
243.709519278359
 30
0.0
 40
12.0
  1
R
 41
0.85
  7
SIMPLEX7
100
AcDbText
  0
TEXT
  5
11F3
330
1F
100
AcDbEntity
  8
POPIS
100
AcDbText
 10
1476.530748090271
 20
218.9005083396714
 30
0.0
 40
25.0
  1
01
 41
0.85
  7
SIMPLEX7
100
AcDbText
  0
TEXT
  5
11F4
330
1F
100
AcDbEntity
  8
POPIS
100
AcDbText
 10
1476.527102815443
 20
180.2598435504069
 30
0.0
 40
25.0
  1
02
 41
0.85
  7
SIMPLEX7
100
AcDbText
  0
TEXT
  5
11F5
330
1F
100
AcDbEntity
  8
POPIS
100
AcDbText
 10
1476.527102815443
 20
146.3096553056848
 30
0.0
 40
25.0
  1
03
 41
0.85
  7
SIMPLEX7
100
AcDbText
  0
TEXT
  5
11F6
330
1F
100
AcDbEntity
  8
POPIS
100
AcDbText
 10
1530.870805975192
 20
216.8548551660351
 30
0.0
 40
25.0
  1
Deska CETRIS   (BASIC,FINISH,LASUR)
 41
0.7
  7
SIMPLEX7
100
AcDbText
  0
TEXT
  5
11F7
330
1F
100
AcDbEntity
  8
POPIS
100
AcDbText
 10
1530.870805975192
 20
146.3096553056848
 30
0.0
 40
25.0
  1
Vzduchová mezera - min. 25 mm
 41
0.7
  7
SIMPLEX7
100
AcDbText
  0
TEXT
  5
11F8
330
1F
100
AcDbEntity
  8
POPIS
100
AcDbText
 10
1530.870805975192
 20
180.2598435504069
 30
0.0
 40
25.0
  1
Nerezový vrut s podložkou (np. SFS, EJOT)
 41
0.7
  7
SIMPLEX7
100
AcDbText
  0
TEXT
  5
11F9
330
1F
100
AcDbEntity
  8
POPIS
100
AcDbText
 10
1476.527102815443
 20
-34.44571307696424
 30
0.0
 40
25.0
  1
08
 41
0.85
  7
SIMPLEX7
100
AcDbText
  0
TEXT
  5
11FA
330
1F
100
AcDbEntity
  8
POPIS
100
AcDbText
 10
1476.527102815443
 20
74.7986726003337
 30
0.0
 40
25.0
  1
05
 41
0.85
  7
SIMPLEX7
100
AcDbText
  0
TEXT
  5
11FB
330
1F
100
AcDbEntity
  8
POPIS
100
AcDbText
 10
1476.527102815443
 20
39.17978390224471
 30
0.0
 40
25.0
  1
06
 41
0.85
  7
SIMPLEX7
100
AcDbText
  0
TEXT
  5
11FC
330
1F
100
AcDbEntity
  8
POPIS
100
AcDbText
 10
1476.527102815443
 20
0.9964440597195789
 30
0.0
 40
25.0
  1
07
 41
0.85
  7
SIMPLEX7
100
AcDbText
  0
TEXT
  5
11FD
330
1F
100
AcDbEntity
  8
POPIS
100
AcDbText
 10
1530.870805975192
 20
-34.44571307696424
 30
0.0
 40
25.0
  1
Talířová hmoždinka
 41
0.7
  7
SIMPLEX7
100
AcDbText
  0
TEXT
  5
11FE
330
1F
100
AcDbEntity
  8
POPIS
100
AcDbText
 10
1530.870805975192
 20
74.7986726003337
 30
0.0
 40
25.0
  1
Pojistná fólie - parozábrana
 41
0.7
  7
SIMPLEX7
100
AcDbText
  0
TEXT
  5
11FF
330
1F
100
AcDbEntity
  8
POPIS
100
AcDbText
 10
1530.870805975192
 20
39.17978390224471
 30
0.0
 40
25.0
  1
Vodorovná dřevěná lať š=100 mm (tloušťka dle izolace)
 41
0.7
  7
SIMPLEX7
100
AcDbText
  0
TEXT
  5
1200
330
1F
100
AcDbEntity
  8
POPIS
100
AcDbText
 10
1530.870805975192
 20
0.9964440597195789
 30
0.0
 40
25.0
  1
Tepelná izolace (np. ORSIL, ROCKWOOL, ISOVER, NOBASIL)
 41
0.7
  7
SIMPLEX7
100
AcDbText
  0
TEXT
  5
1201
330
1F
100
AcDbEntity
  8
POPIS
100
AcDbText
 10
1530.870805975192
 20
110.9054940875221
 30
0.0
 40
25.0
  1
Svislá dřevěné lať 50x25 (100x25), impregnovaná
 41
0.7
  7
SIMPLEX7
100
AcDbText
  0
TEXT
  5
1202
330
1F
100
AcDbEntity
  8
POPIS
100
AcDbText
 10
1476.527102815443
 20
110.9054940875221
 30
0.0
 40
25.0
  1
04
 41
0.85
  7
SIMPLEX7
100
AcDbText
  0
LWPOLYLINE
  5
1203
330
1F
100
AcDbEntity
  8
NOSNÉ KONSTRUKCE
100
AcDbPolyline
 90
        3
 70
     0
 43
0.0
 10
1776.134945527764
 20
742.40065105973
 10
1756.138693095771
 20
751.61668011025
 10
1752.138755462057
 20
752.2620775855921
  0
LWPOLYLINE
  5
1204
330
1F
100
AcDbEntity
  8
NOSNÉ KONSTRUKCE
100
AcDbPolyline
 90
        3
 70
     0
 43
0.0
 10
1804.182085307596
 20
741.4188121859933
 10
1787.426867687868
 20
749.8025530539616
 10
1779.259763038743
 20
757.9838547550589
  0
LWPOLYLINE
  5
1205
330
1F
100
AcDbEntity
  8
NOSNÉ KONSTRUKCE
100
AcDbPolyline
 90
        4
 70
     0
 43
0.0
 10
1752.054140985207
 20
735.9014814904749
 42
-0.0135911980674878
 10
1755.773272342435
 20
756.2301746729408
 42
-0.0219777111230329
 10
1756.679384844418
 20
759.7482879287763
 42
-0.0092752982622242
 10
1757.054611806362
 20
760.9014814904749
  0
LWPOLYLINE
  5
1206
330
1F
100
AcDbEntity
  8
NOSNÉ KONSTRUKCE
100
AcDbPolyline
 90
        4
 70
     0
 43
0.0
 10
1761.574633605668
 20
735.9014814904749
 42
-0.0135911980674878
 10
1765.293764962895
 20
756.2301746729408
 42
-0.0219777111230329
 10
1766.199877464879
 20
759.7482879287763
 42
-0.0092752982622242
 10
1766.575104426822
 20
760.9014814904749
  0
LWPOLYLINE
  5
1207
330
1F
100
AcDbEntity
  8
NOSNÉ KONSTRUKCE
100
AcDbPolyline
 90
        4
 70
     0
 43
0.0
 10
1770.657369280647
 20
735.9014814904749
 42
-0.0135911980674878
 10
1774.376500637875
 20
756.2301746729408
 42
-0.0219777111230329
 10
1775.282613139858
 20
759.7482879287763
 42
-0.0092752982622242
 10
1775.657840101802
 20
760.9014814904749
  0
LWPOLYLINE
  5
1208
330
1F
100
AcDbEntity
  8
NOSNÉ KONSTRUKCE
100
AcDbPolyline
 90
        4
 70
     0
 43
0.0
 10
1779.95901547031
 20
735.9014814904749
 42
-0.0135911980674878
 10
1783.678146827537
 20
756.2301746729408
 42
-0.0219777111230329
 10
1784.584259329521
 20
759.7482879287763
 42
-0.0092752982622242
 10
1784.959486291464
 20
760.9014814904749
  0
LWPOLYLINE
  5
1209
330
1F
100
AcDbEntity
  8
NOSNÉ KONSTRUKCE
100
AcDbPolyline
 90
        4
 70
     0
 43
0.0
 10
1789.588963348104
 20
735.9014814904749
 42
-0.0135911980674878
 10
1793.308094705332
 20
756.2301746729408
 42
-0.0219777111230329
 10
1794.214207207315
 20
759.7482879287763
 42
-0.0092752982622242
 10
1794.589434169259
 20
760.9014814904749
  0
HATCH
  5
120A
330
1F
100
AcDbEntity
  8
PROFILY
100
AcDbHatch
 10
0.0
 20
0.0
 30
0.0
210
0.0
220
0.0
230
1.0
  2
SOLID
 70
     1
 71
     0
 91
        1
 92
        7
 72
     0
 73
     1
 93
        4
 10
2111.569186651456
 20
733.1688459317519
 10
2111.568685517316
 20
735.1688458689696
 10
2092.386330974938
 20
735.1640394024543
 10
2092.386832109078
 20
733.1640394652386
 97
        0
 75
     0
 76
     1
 47
0.0801976285649081
 98
        1
 10
2098.22816320856
 20
733.5031761913942
  0
HATCH
  5
120B
330
1F
100
AcDbEntity
  8
PROFILY
100
AcDbHatch
 10
0.0
 20
0.0
 30
0.0
210
0.0
220
0.0
230
1.0
  2
SOLID
 70
     1
 71
     0
 91
        1
 92
        7
 72
     0
 73
     1
 93
        4
 10
2148.157203647156
 20
733.1780136842407
 10
2148.156702513018
 20
735.1780136214584
 10
2128.97434797064
 20
735.1732071549413
 10
2128.97484910478
 20
733.1732072177255
 97
        0
 75
     0
 76
     1
 47
0.0801976285649081
 98
        1
 10
2134.816180204262
 20
733.512343943883
  0
HATCH
  5
120C
330
1F
100
AcDbEntity
  8
PROFILY
100
AcDbHatch
 10
0.0
 20
0.0
 30
0.0
210
0.0
220
0.0
230
1.0
  2
SOLID
 70
     1
 71
     0
 91
        1
 92
        7
 72
     0
 73
     1
 93
        4
 10
2036.861577828999
 20
733.1501266645481
 10
2036.861076694859
 20
735.1501266017658
 10
2017.678722152483
 20
735.1453201352505
 10
2017.679223286621
 20
733.1453201980348
 97
        0
 75
     0
 76
     1
 47
0.0801976285649081
 98
        1
 10
2023.520554386104
 20
733.4844569241904
  0
HATCH
  5
120D
330
1F
100
AcDbEntity
  8
PROFILY
100
AcDbHatch
 10
0.0
 20
0.0
 30
0.0
210
0.0
220
0.0
230
1.0
  2
SOLID
 70
     1
 71
     0
 91
        1
 92
        7
 72
     0
 73
     1
 93
        4
 10
2073.449594824701
 20
733.1592944170352
 10
2073.449093690561
 20
735.1592943542527
 10
2054.266739148184
 20
735.1544878877375
 10
2054.267240282323
 20
733.1544879505218
 97
        0
 75
     0
 76
     1
 47
0.0801976285649081
 98
        1
 10
2060.108571381805
 20
733.4936246766774
  0
LWPOLYLINE
  5
120E
330
1F
100
AcDbEntity
  8
PROFILY
100
AcDbPolyline
 90
        4
 70
     1
 43
0.0
 10
2054.266728444784
 20
733.1544878222721
 10
2073.449082987162
 20
733.1592942887873
 10
2073.448581853022
 20
735.1592942260031
 10
2054.266227310644
 20
735.1544877594879
  0
HATCH
  5
120F
330
1F
100
AcDbEntity
  8
PROFILY
100
AcDbHatch
 10
0.0
 20
0.0
 30
0.0
210
0.0
220
0.0
230
1.0
  2
SOLID
 70
     1
 71
     0
 91
        1
 92
        7
 72
     0
 73
     1
 93
        4
 10
2002.031309580493
 20
733.1413993460264
 10
2002.030808446355
 20
735.141399283244
 10
1982.848453903975
 20
735.1365928167288
 10
1982.848955038115
 20
733.136592879513
 97
        0
 75
     0
 76
     1
 47
0.0801976285649081
 98
        1
 10
1988.690286137597
 20
733.4757296056686
  0
HATCH
  5
1210
330
1F
100
AcDbEntity
  8
PROFILY
100
AcDbHatch
 10
0.0
 20
0.0
 30
0.0
210
0.0
220
0.0
230
1.0
  2
SOLID
 70
     1
 71
     0
 91
        1
 92
        7
 72
     0
 73
     1
 93
        4
 10
1968.410166850212
 20
733.1329749945525
 10
1968.409665716074
 20
735.1329749317701
 10
1949.227311173696
 20
735.1281684652549
 10
1949.227812307834
 20
733.1281685280392
 97
        0
 75
     0
 76
     1
 47
0.0801976285649081
 98
        1
 10
1955.069143407317
 20
733.4673052541948
  0
HATCH
  5
1211
330
1F
100
AcDbEntity
  8
PROFILY
100
AcDbHatch
 10
0.0
 20
0.0
 30
0.0
210
0.0
220
0.0
230
1.0
  2
SOLID
 70
     1
 71
     0
 91
        1
 92
        7
 72
     0
 73
     1
 93
        4
 10
1935.970229377107
 20
733.1248466142278
 10
1935.969728242969
 20
735.1248465514454
 10
1916.787373700591
 20
735.1200400849302
 10
1916.787874834729
 20
733.1200401477144
 97
        0
 75
     0
 76
     1
 47
0.0801976285649081
 98
        1
 10
1922.629205934213
 20
733.45917687387
  0
HATCH
  5
1212
330
1F
100
AcDbEntity
  8
PROFILY
100
AcDbHatch
 10
0.0
 20
0.0
 30
0.0
210
0.0
220
0.0
230
1.0
  2
SOLID
 70
     1
 71
     0
 91
        1
 92
        7
 72
     0
 73
     1
 93
        4
 10
1901.720702558604
 20
733.1162648103909
 10
1901.720201424465
 20
735.1162647476085
 10
1882.537846882088
 20
735.1114582810915
 10
1882.538348016226
 20
733.1114583438757
 97
        0
 75
     0
 76
     1
 47
0.0801976285649081
 98
        1
 10
1888.379679115708
 20
733.4505950700331
  0
HATCH
  5
1213
330
1F
100
AcDbEntity
  8
PROFILY
100
AcDbHatch
 10
0.0
 20
0.0
 30
0.0
210
0.0
220
0.0
230
1.0
  2
SOLID
 70
     1
 71
     0
 91
        1
 92
        7
 72
     0
 73
     1
 93
        4
 10
1869.269280155414
 20
733.1081335523212
 10
1869.268779021275
 20
735.1081334895389
 10
1850.086424478898
 20
735.1033270230218
 10
1850.086925613036
 20
733.1033270858061
 97
        0
 75
     0
 76
     1
 47
0.0801976285649081
 98
        1
 10
1855.92825671252
 20
733.4424638119616
  0
HATCH
  5
1214
330
1F
100
AcDbEntity
  8
PROFILY
100
AcDbHatch
 10
0.0
 20
0.0
 30
0.0
210
0.0
220
0.0
230
1.0
  2
SOLID
 70
     1
 71
     0
 91
        1
 92
        7
 72
     0
 73
     1
 93
        4
 10
1837.178840985611
 20
733.1000927447639
 10
1837.178339851472
 20
735.1000926819815
 10
1817.995985309094
 20
735.0952862154663
 10
1817.996486443234
 20
733.0952862782505
 97
        0
 75
     0
 76
     1
 47
0.0801976285649081
 98
        1
 10
1823.837817542716
 20
733.4344230044061
  0
LINE
  5
1215
330
1F
100
AcDbEntity
  8
PROFILY
100
AcDbLine
 10
1748.29386471547
 20
735.0778211588167
 30
0.0
 11
2162.111660966401
 21
735.1815102746222
 31
0.0
  0
LINE
  5
1216
330
1F
100
AcDbEntity
  8
PROFILY
100
AcDbLine
 10
1750.469452294823
 20
733.0783662266567
 30
0.0
 11
2162.171175411308
 21
733.1815251242005
 31
0.0
  0
HATCH
  5
1217
330
1F
100
AcDbEntity
  8
PROFILY
100
AcDbHatch
 10
0.0
 20
0.0
 30
0.0
210
0.0
220
0.0
230
1.0
  2
SOLID
 70
     1
 71
     0
 91
        1
 92
        7
 72
     0
 73
     1
 93
        4
 10
1767.651806899985
 20
733.0826715590301
 10
1767.651305765845
 20
735.0826714962477
 10
1748.468951223469
 20
735.0778650297325
 10
1748.469452357608
 20
733.0778650925167
 97
        0
 75
     0
 76
     1
 47
0.0801976285649081
 98
        1
 10
1754.31078345709
 20
733.4170018186723
  0
HATCH
  5
1218
330
1F
100
AcDbEntity
  8
PROFILY
100
AcDbHatch
 10
0.0
 20
0.0
 30
0.0
210
0.0
220
0.0
230
1.0
  2
SOLID
 70
     1
 71
     0
 91
        1
 92
        7
 72
     0
 73
     1
 93
        4
 10
1803.492590582737
 20
733.0916520794508
 10
1803.492089448599
 20
735.0916520166683
 10
1784.309734906222
 20
735.0868455501531
 10
1784.310236040361
 20
733.0868456129373
 97
        0
 75
     0
 76
     1
 47
0.0801976285649081
 98
        1
 10
1790.151567139844
 20
733.4259823390929
  0
LWPOLYLINE
  5
1219
330
1F
100
AcDbEntity
  8
NOSNÉ KONSTRUKCE
100
AcDbPolyline
 90
        7
 70
     0
 43
0.0
 10
1846.646213159322
 20
735.9014814904749
 42
-0.0203924744732807
 10
1847.548297143735
 20
736.914611519629
 42
-0.0273961979096945
 10
1848.39816149393
 20
737.7027878936551
 42
-0.0243529190212958
 10
1849.56128198635
 20
738.5765472383227
 42
-0.0398020282482987
 10
1850.33624052391
 20
739.0161759817693
 42
-0.104168275620852
 10
1850.72265166025
 20
739.1061924419464
 42
-0.007272956268647
 10
1851.160981639005
 20
739.1246457932411
 42
-0.007272956268647
  0
LINE
  5
121A
330
1F
100
AcDbEntity
  8
SPOJOVACÍ
100
AcDbLine
 10
1823.434136647386
 20
774.3143808955792
 30
0.0
 11
1830.553277272386
 21
774.3143808955792
 31
0.0
  0
LINE
  5
121B
330
1F
100
AcDbEntity
  8
SPOJOVACÍ
100
AcDbLine
 10
1816.314996022386
 20
774.3143808955792
 30
0.0
 11
1823.434136647386
 21
774.3143808955792
 31
0.0
  0
HATCH
  5
121C
330
1F
100
AcDbEntity
  8
SPOJOVACÍ
100
AcDbHatch
 10
0.0
 20
0.0
 30
0.0
210
0.0
220
0.0
230
1.0
  2
ANSI37
 70
     0
 71
     0
 91
        1
 92
        7
 72
     0
 73
     1
 93
        6
 10
1823.434136647386
 20
775.6982966867926
 10
1830.553277272384
 20
775.6982966867926
 10
1830.553277272388
 20
774.3143808955783
 10
1823.434136647386
 20
774.3143808955792
 10
1816.314996022386
 20
774.3143808955792
 10
1816.31499602239
 20
775.6982966867926
 97
        0
 75
     0
 76
     1
 52
0.0
 41
0.9
 77
     0
 78
     2
 53
315.0
 43
-8259.427175423498
 44
4616.544596339127
 45
-2.020557627240559
 46
-2.020557627240559
 79
     0
 53
225.0
 43
-8259.427175423498
 44
4616.544596339127
 45
-2.020557627240559
 46
2.020557627240559
 79
     0
 47
0.0246402553748132
 98
        1
 10
1823.033290985699
 20
775.2273452448226
  0
ELLIPSE
  5
121D
330
1F
100
AcDbEntity
  8
SPOJOVACÍ
100
AcDbEllipse
 10
1823.434136647386
 20
776.2475911340934
 30
0.0
 11
-7.321312510456553
 21
-0.0000000000000004
 31
0.0
210
0.0
220
0.0
230
-1.0
 40
0.3214803388886193
 41
-0.2355512395776302
 42
3.377143893167422
  0
LINE
  5
121E
330
1F
100
AcDbEntity
  8
SPOJOVACÍ
100
AcDbLine
 10
1819.598168470321
 20
775.6982966867926
 30
0.0
 11
1830.553277272386
 21
775.6982966867926
 31
0.0
  0
LINE
  5
121F
330
1F
100
AcDbEntity
  8
SPOJOVACÍ
100
AcDbLine
 10
1823.434136647386
 20
775.6982966867926
 30
0.0
 11
1816.314996022386
 21
775.6982966867926
 31
0.0
  0
LINE
  5
1220
330
1F
100
AcDbEntity
  8
SPOJOVACÍ
100
AcDbLine
 10
1830.553277272384
 20
775.6982966867926
 30
0.0
 11
1830.553277272386
 21
774.3143808955792
 31
0.0
  0
LINE
  5
1221
330
1F
100
AcDbEntity
  8
SPOJOVACÍ
100
AcDbLine
 10
1816.314996022386
 20
774.3143808955792
 30
0.0
 11
1816.314996022388
 21
775.6982966867926
 31
0.0
  0
LINE
  5
1222
330
1F
100
AcDbEntity
  8
SPOJOVACÍ
100
AcDbLine
 10
1773.824840801059
 20
793.9758154625869
 30
0.0
 11
1773.824840801059
 21
793.9805615563364
 31
0.0
  0
LINE
  5
1223
330
1F
100
AcDbEntity
  8
SPOJOVACÍ
100
AcDbLine
 10
1826.07274583377
 20
770.645019731206
 30
0.0
 11
1820.388805375968
 21
769.1220124757119
 31
0.0
  0
LINE
  5
1224
330
1F
100
AcDbEntity
  8
SPOJOVACÍ
100
AcDbLine
 10
1826.07274583377
 20
772.2270509812042
 30
0.0
 11
1820.388805375968
 21
770.7040437257128
 31
0.0
  0
LINE
  5
1225
330
1F
100
AcDbEntity
  8
SPOJOVACÍ
100
AcDbLine
 10
1826.07274583377
 20
765.898925981206
 30
0.0
 11
1820.388805375968
 21
764.375918725711
 31
0.0
  0
LINE
  5
1226
330
1F
100
AcDbEntity
  8
SPOJOVACÍ
100
AcDbLine
 10
1826.07274583377
 20
767.4809572312069
 30
0.0
 11
1820.388805375968
 21
765.957949975711
 31
0.0
  0
LINE
  5
1227
330
1F
100
AcDbEntity
  8
SPOJOVACÍ
100
AcDbLine
 10
1826.07274583377
 20
769.062988481206
 30
0.0
 11
1820.388805375968
 21
767.539981225711
 31
0.0
  0
LINE
  5
1228
330
1F
100
AcDbEntity
  8
SPOJOVACÍ
100
AcDbLine
 10
1826.07274583377
 20
764.316894731206
 30
0.0
 11
1820.388805375968
 21
762.7938874757119
 31
0.0
  0
LINE
  5
1229
330
1F
100
AcDbEntity
  8
SPOJOVACÍ
100
AcDbLine
 10
1826.07274583377
 20
762.7348634812042
 30
0.0
 11
1820.388805375968
 21
761.2118562257128
 31
0.0
  0
LINE
  5
122A
330
1F
100
AcDbEntity
  8
SPOJOVACÍ
100
AcDbLine
 10
1826.07274583377
 20
761.1528322312042
 30
0.0
 11
1820.388805375968
 21
759.6298249757128
 31
0.0
  0
LINE
  5
122B
330
1F
100
AcDbEntity
  8
SPOJOVACÍ
100
AcDbLine
 10
1826.07274583377
 20
759.570800981206
 30
0.0
 11
1820.388805375968
 21
758.047793725711
 31
0.0
  0
LINE
  5
122C
330
1F
100
AcDbEntity
  8
SPOJOVACÍ
100
AcDbLine
 10
1826.07274583377
 20
756.406738481206
 30
0.0
 11
1820.388805375968
 21
754.8837312257128
 31
0.0
  0
LINE
  5
122D
330
1F
100
AcDbEntity
  8
SPOJOVACÍ
100
AcDbLine
 10
1826.07274583377
 20
757.988769731206
 30
0.0
 11
1820.388805375968
 21
756.4657624757128
 31
0.0
  0
LINE
  5
122E
330
1F
100
AcDbEntity
  8
SPOJOVACÍ
100
AcDbLine
 10
1826.07274583377
 20
754.8247072312087
 30
0.0
 11
1820.388805375968
 21
753.3016999757128
 31
0.0
  0
LINE
  5
122F
330
1F
100
AcDbEntity
  8
NOSNÉ KONSTRUKCE
100
AcDbLine
 10
1751.163816490353
 20
735.9014814904749
 30
0.0
 11
1751.163816490353
 21
760.9014814904749
 31
0.0
  0
LWPOLYLINE
  5
1230
330
1F
100
AcDbEntity
  8
NOSNÉ KONSTRUKCE
100
AcDbPolyline
 90
        8
 70
     0
 43
0.0
 10
1818.251638556875
 20
735.9014814904749
 42
-0.0120721047703142
 10
1818.320621246913
 20
737.635369629219
 42
-0.044358077361292
 10
1818.716248981586
 20
740.3311696476357
 42
-0.0188067511131767
 10
1820.736072429969
 20
747.5733988229421
 42
-0.0457786284636091
 10
1821.944095319585
 20
750.4220092058221
 42
-0.0295006114745606
 10
1824.360155773884
 20
754.3489084192242
 42
-0.0258674098621065
 10
1827.592831087849
 20
758.4946884979781
 42
-0.0093759062953949
 10
1829.758643267504
 20
760.9014814904749
 42
-0.0093759062953949
  0
LWPOLYLINE
  5
1231
330
1F
100
AcDbEntity
  8
NOSNÉ KONSTRUKCE
100
AcDbPolyline
 90
        6
 70
     0
 43
0.0
 10
1809.627423176832
 20
735.9014814904749
 42
-0.0128837512779302
 10
1809.912215137058
 20
739.2346463122212
 42
-0.0351641677647434
 10
1810.539974858581
 20
742.8383557665601
 42
-0.0187319685742942
 10
1813.923990739572
 20
754.596593108703
 42
-0.0582629403736403
 10
1815.583490607653
 20
758.1764273076351
 42
-0.0146402521923566
 10
1817.367898589235
 20
760.9014814904749
  0
LWPOLYLINE
  5
1232
330
1F
100
AcDbEntity
  8
NOSNÉ KONSTRUKCE
100
AcDbPolyline
 90
        3
 70
     0
 43
0.0
 10
1825.16000655606
 20
742.40065105973
 10
1805.163754124068
 20
751.61668011025
 10
1801.163816490353
 20
752.2620775855921
  0
LWPOLYLINE
  5
1233
330
1F
100
AcDbEntity
  8
NOSNÉ KONSTRUKCE
100
AcDbPolyline
 90
        4
 70
     0
 43
0.0
 10
1799.437693572827
 20
735.9014814904749
 42
-0.0135911980674878
 10
1803.156824930055
 20
756.2301746729408
 42
-0.0219777111230329
 10
1804.062937432038
 20
759.7482879287763
 42
-0.0092752982622242
 10
1804.438164393982
 20
760.9014814904749
  0
LWPOLYLINE
  5
1234
330
1F
100
AcDbEntity
  8
NOSNÉ KONSTRUKCE
100
AcDbPolyline
 90
        4
 70
     0
 43
0.0
 10
1751.163816490353
 20
760.9014814904749
 10
1851.160981639005
 20
760.9014814904749
 10
1851.160981639005
 20
735.9014814904749
 10
1751.163816490353
 20
735.9014814904749
  0
LWPOLYLINE
  5
1235
330
1F
100
AcDbEntity
  8
NOSNÉ KONSTRUKCE
100
AcDbPolyline
 90
       11
 70
     0
 43
0.0
 10
1834.068475804066
 20
735.9014814904749
 42
-0.0072417954699014
 10
1834.124046171909
 20
736.3128867017494
 42
-0.0707158694326265
 10
1834.655172688329
 20
738.2489901543431
 42
-0.033952657250207
 10
1836.903828527737
 20
742.6020278795167
 42
-0.0571374688189033
 10
1838.689985287589
 20
744.9089521632031
 42
-0.0274923553235744
 10
1841.287291018142
 20
747.2940274863376
 42
-0.0255412025538677
 10
1844.338721055853
 20
749.550741163357
 42
-0.0272796991712396
 10
1848.451720209038
 20
751.9670770450193
 42
-0.056967459841729
 10
1850.59266748977
 20
752.7798128802187
 42
-0.0373408083348504
 10
1850.815021865243
 20
752.8189784211699
 42
-0.0052305969362967
 10
1851.160981639005
 20
752.8499353880743
  0
LWPOLYLINE
  5
1242
330
1F
100
AcDbEntity
  8
NOSNÉ KONSTRUKCE
100
AcDbPolyline
 90
       10
 70
     0
 43
0.0
 10
1827.118697780385
 20
735.9014814904749
 42
-0.0168162630274194
 10
1827.253723359449
 20
737.5925196425941
 42
-0.0575155827655532
 10
1827.933755639792
 20
740.6921443033115
 42
-0.0310289133982999
 10
1830.93655698462
 20
747.9371718279562
 42
-0.0882970623535771
 10
1832.573778904713
 20
750.1775408787562
 42
-0.0171636441953577
 10
1835.387142966571
 20
752.6914582340014
 42
-0.0157521173632038
 10
1838.625997803608
 20
755.2229542865079
 42
-0.0073640874174249
 10
1843.259647159928
 20
758.511355712244
 42
-0.0194185739168057
 10
1845.081690479605
 20
759.6629247115251
 42
-0.0229547400386702
 10
1847.467148543618
 20
760.9014814904749
 42
-0.0229547400386702
  0
LWPOLYLINE
  5
1243
330
1F
100
AcDbEntity
  8
NOSNÉ KONSTRUKCE
100
AcDbPolyline
 90
        3
 70
     0
 43
0.0
 10
1844.452584181305
 20
741.4188121859933
 10
1827.697366561577
 20
749.8025530539616
 10
1819.530261912453
 20
757.9838547550589
  0
LWPOLYLINE
  5
1244
330
1F
100
AcDbEntity
  8
NOSNÉ KONSTRUKCE
100
AcDbPolyline
 90
        9
 70
     0
 43
0.0
 10
1841.296526824803
 20
735.9014814904749
 42
-0.0064239028828688
 10
1841.335395264984
 20
736.1205951498249
 42
-0.0832048017309575
 10
1842.119577867666
 20
738.4508087294798
 42
-0.0336767237692336
 10
1843.822394426587
 20
741.1790832489405
 42
-0.0844635135812105
 10
1844.74220418648
 20
742.0835048539356
 42
-0.0495829410719565
 10
1846.490882623834
 20
743.0601543612483
 42
-0.0322692699774654
 10
1849.382236804925
 20
744.101677862649
 42
-0.0276160659512937
 10
1850.237813243212
 20
744.2984132915935
 42
-0.0126891984598699
 10
1851.160981639005
 20
744.433615681135
  0
LINE
  5
124F
330
1F
100
AcDbEntity
  8
SPOJOVACÍ
100
AcDbLine
 10
1820.388805375968
 20
745.5503437828465
 30
0.0
 11
1820.388805375968
 21
774.3173335557075
 31
0.0
  0
LINE
  5
1250
330
1F
100
AcDbEntity
  8
SPOJOVACÍ
100
AcDbLine
 10
1826.07274583377
 20
745.5503437828465
 30
0.0
 11
1826.07274583377
 21
774.3173335557075
 31
0.0
  0
LINE
  5
1251
330
1F
100
AcDbEntity
  8
SPOJOVACÍ
100
AcDbLine
 10
1826.07274583377
 20
750.078613481206
 30
0.0
 11
1820.388805375968
 21
748.5556062257146
 31
0.0
  0
LINE
  5
1252
330
1F
100
AcDbEntity
  8
SPOJOVACÍ
100
AcDbLine
 10
1826.07274583377
 20
748.496582231206
 30
0.0
 11
1820.388805375968
 21
746.9735749757147
 31
0.0
  0
LINE
  5
1253
330
1F
100
AcDbEntity
  8
SPOJOVACÍ
100
AcDbLine
 10
1826.07274583377
 20
746.9145509812078
 30
0.0
 11
1820.388805375968
 21
745.3915437257128
 31
0.0
  0
LINE
  5
1254
330
1F
100
AcDbEntity
  8
SPOJOVACÍ
100
AcDbLine
 10
1826.07274583377
 20
745.3325197312069
 30
0.0
 11
1822.065263825904
 21
744.2587181635181
 31
0.0
  0
LINE
  5
1255
330
1F
100
AcDbEntity
  8
SPOJOVACÍ
100
AcDbLine
 10
1823.230775604869
 20
743.3607508602436
 30
0.0
 11
1826.07274583377
 21
745.5503437828465
 31
0.0
  0
LINE
  5
1256
330
1F
100
AcDbEntity
  8
SPOJOVACÍ
100
AcDbLine
 10
1823.230775604869
 20
743.3607508602436
 30
0.0
 11
1820.388805375968
 21
745.5503437828465
 31
0.0
  0
LINE
  5
1257
330
1F
100
AcDbEntity
  8
SPOJOVACÍ
100
AcDbLine
 10
1826.07274583377
 20
753.2426759812069
 30
0.0
 11
1820.388805375968
 21
751.7196687257128
 31
0.0
  0
LINE
  5
1258
330
1F
100
AcDbEntity
  8
SPOJOVACÍ
100
AcDbLine
 10
1826.07274583377
 20
751.6606447312069
 30
0.0
 11
1820.388805375968
 21
750.1376374757146
 31
0.0
  0
HATCH
  5
1259
330
1F
100
AcDbEntity
  8
PROFILY
100
AcDbHatch
 10
0.0
 20
0.0
 30
0.0
210
0.0
220
0.0
230
1.0
  2
SOLID
 70
     1
 71
     0
 91
        1
 92
        7
 72
     0
 73
     1
 93
        4
 10
1748.645213355522
 20
1096.28568249559
 10
1750.645213355523
 20
1096.28568249559
 10
1750.645213355523
 20
1077.103327351042
 10
1748.645213355524
 20
1077.103327351042
 97
        0
 75
     0
 76
     1
 47
0.0801976285649081
 98
        1
 10
1748.982886425818
 20
1082.944743243648
  0
LWPOLYLINE
  5
125A
330
1F
100
AcDbEntity
  8
PROFILY
100
AcDbPolyline
 90
        4
 70
     1
 43
0.0
 10
1748.645213355524
 20
1038.983222490083
 10
1748.645213355524
 20
1058.165577634632
 10
1750.645213355523
 20
1058.165577634632
 10
1750.645213355523
 20
1038.983222490083
  0
HATCH
  5
125B
330
1F
100
AcDbEntity
  8
PROFILY
100
AcDbHatch
 10
0.0
 20
0.0
 30
0.0
210
0.0
220
0.0
230
1.0
  2
SOLID
 70
     1
 71
     0
 91
        1
 92
        7
 72
     0
 73
     1
 93
        4
 10
1748.645213355522
 20
1058.166089472188
 10
1750.645213355523
 20
1058.166089472188
 10
1750.645213355523
 20
1038.983734327639
 10
1748.645213355524
 20
1038.983734327639
 97
        0
 75
     0
 76
     1
 47
0.0801976285649081
 98
        1
 10
1748.982886425818
 20
1044.825150220245
  0
HATCH
  5
125C
330
1F
100
AcDbEntity
  8
PROFILY
100
AcDbHatch
 10
0.0
 20
0.0
 30
0.0
210
0.0
220
0.0
230
1.0
  2
SOLID
 70
     1
 71
     0
 91
        1
 92
        7
 72
     0
 73
     1
 93
        4
 10
1748.645213355522
 20
1021.578071327918
 10
1750.645213355523
 20
1021.578071327918
 10
1750.645213355523
 20
1002.395716183369
 10
1748.645213355524
 20
1002.395716183369
 97
        0
 75
     0
 76
     1
 47
0.0801976285649081
 98
        1
 10
1748.982886425818
 20
1008.237132075975
  0
HATCH
  5
125D
330
1F
100
AcDbEntity
  8
PROFILY
100
AcDbHatch
 10
0.0
 20
0.0
 30
0.0
210
0.0
220
0.0
230
1.0
  2
SOLID
 70
     1
 71
     0
 91
        1
 92
        7
 72
     0
 73
     1
 93
        4
 10
1748.645213355522
 20
986.7478019860227
 10
1750.645213355523
 20
986.7478019860227
 10
1750.645213355523
 20
967.5654468414741
 10
1748.645213355524
 20
967.5654468414741
 97
        0
 75
     0
 76
     1
 47
0.0801976285649081
 98
        1
 10
1748.982886425818
 20
973.4068627340802
  0
HATCH
  5
125E
330
1F
100
AcDbEntity
  8
PROFILY
100
AcDbHatch
 10
0.0
 20
0.0
 30
0.0
210
0.0
220
0.0
230
1.0
  2
SOLID
 70
     1
 71
     0
 91
        1
 92
        7
 72
     0
 73
     1
 93
        4
 10
1748.645213355522
 20
953.12665820031
 10
1750.645213355523
 20
953.12665820031
 10
1750.645213355523
 20
933.9443030557614
 10
1748.645213355524
 20
933.9443030557614
 97
        0
 75
     0
 76
     1
 47
0.0801976285649081
 98
        1
 10
1748.982886425818
 20
939.7857189483675
  0
HATCH
  5
125F
330
1F
100
AcDbEntity
  8
PROFILY
100
AcDbHatch
 10
0.0
 20
0.0
 30
0.0
210
0.0
220
0.0
230
1.0
  2
SOLID
 70
     1
 71
     0
 91
        1
 92
        7
 72
     0
 73
     1
 93
        4
 10
1748.645213355522
 20
920.6867197088522
 10
1750.645213355523
 20
920.6867197088522
 10
1750.645213355523
 20
901.5043645643036
 10
1748.645213355524
 20
901.5043645643036
 97
        0
 75
     0
 76
     1
 47
0.0801976285649081
 98
        1
 10
1748.982886425818
 20
907.3457804569098
  0
HATCH
  5
1260
330
1F
100
AcDbEntity
  8
PROFILY
100
AcDbHatch
 10
0.0
 20
0.0
 30
0.0
210
0.0
220
0.0
230
1.0
  2
SOLID
 70
     1
 71
     0
 91
        1
 92
        7
 72
     0
 73
     1
 93
        4
 10
1748.645213355522
 20
886.4371918151901
 10
1750.645213355523
 20
886.4371918151901
 10
1750.645213355523
 20
867.2548366706415
 10
1748.645213355524
 20
867.2548366706415
 97
        0
 75
     0
 76
     1
 47
0.0801976285649081
 98
        1
 10
1748.982886425818
 20
873.0962525632476
  0
HATCH
  5
1261
330
1F
100
AcDbEntity
  8
PROFILY
100
AcDbHatch
 10
0.0
 20
0.0
 30
0.0
210
0.0
220
0.0
230
1.0
  2
SOLID
 70
     1
 71
     0
 91
        1
 92
        7
 72
     0
 73
     1
 93
        4
 10
1748.645213355522
 20
853.9857683932877
 10
1750.645213355523
 20
853.9857683932877
 10
1750.645213355523
 20
834.8034132487391
 10
1748.645213355524
 20
834.8034132487391
 97
        0
 75
     0
 76
     1
 47
0.0801976285649081
 98
        1
 10
1748.982886425818
 20
840.6448291413452
  0
HATCH
  5
1262
330
1F
100
AcDbEntity
  8
PROFILY
100
AcDbHatch
 10
0.0
 20
0.0
 30
0.0
210
0.0
220
0.0
230
1.0
  2
SOLID
 70
     1
 71
     0
 91
        1
 92
        7
 72
     0
 73
     1
 93
        4
 10
1748.645213355522
 20
821.8953282161036
 10
1750.645213355523
 20
821.8953282161036
 10
1750.645213355523
 20
802.712973071555
 10
1748.645213355524
 20
802.712973071555
 97
        0
 75
     0
 76
     1
 47
0.0801976285649081
 98
        1
 10
1748.982886425818
 20
808.5543889641613
  0
LINE
  5
1263
330
1F
100
AcDbEntity
  8
PROFILY
100
AcDbLine
 10
1748.645213355525
 20
735.1859368033419
 30
0.0
 11
1748.645213355525
 21
1113.279560846407
 31
0.0
  0
LWPOLYLINE
  5
1264
330
1F
100
AcDbEntity
  8
NOSNÉ KONSTRUKCE
100
AcDbPolyline
 90
        4
 70
     0
 43
0.0
 10
1776.163816490353
 20
810.8986466391288
 10
1776.163816490353
 20
760.9014814904749
 10
1751.163816490353
 20
760.9014814904749
 10
1751.163816490353
 20
810.8986466391288
  0
LWPOLYLINE
  5
1265
330
1F
100
AcDbEntity
  8
NOSNÉ KONSTRUKCE
100
AcDbPolyline
 90
        3
 70
     0
 43
0.0
 10
1756.681147185872
 20
767.6098789481766
 10
1765.06488805384
 20
784.3650965679044
 10
1773.246189754937
 20
792.532201217029
  0
LWPOLYLINE
  5
1266
330
1F
100
AcDbEntity
  8
NOSNÉ KONSTRUKCE
100
AcDbPolyline
 90
       10
 70
     0
 43
0.0
 10
1751.163816490353
 20
784.9437653490968
 42
-0.0168162630274194
 10
1752.854854642472
 20
784.8087397700328
 42
-0.0575155827655532
 10
1755.95447930319
 20
784.1287074896899
 42
-0.0310289133982999
 10
1763.199506827834
 20
781.1259061448618
 42
-0.0882970623535771
 10
1765.439875878634
 20
779.4886842247688
 42
-0.0171636441953577
 10
1767.953793233879
 20
776.6753201629108
 42
-0.0157521173632038
 10
1770.485289286386
 20
773.4364653258745
 42
-0.0073640874174249
 10
1773.773690712122
 20
768.8028159695532
 42
-0.0194185739168057
 10
1774.925259711403
 20
766.9807726498766
 42
-0.0229547400386702
 10
1776.163816490353
 20
764.5953145858629
 42
-0.0229547400386702
  0
LWPOLYLINE
  5
1267
330
1F
100
AcDbEntity
  8
NOSNÉ KONSTRUKCE
100
AcDbPolyline
 90
       11
 70
     0
 43
0.0
 10
1751.163816490353
 20
777.9939873254134
 42
-0.0072417954699014
 10
1751.575221701628
 20
777.9384169575714
 42
-0.0707158694326265
 10
1753.511325154221
 20
777.4072904411513
 42
-0.033952657250207
 10
1757.864362879395
 20
775.1586346017429
 42
-0.0571374688189033
 10
1760.171287163081
 20
773.3724778418909
 42
-0.0274923553235744
 10
1762.556362486216
 20
770.7751721113382
 42
-0.0255412025538677
 10
1764.813076163235
 20
767.7237420736274
 42
-0.0272796991712396
 10
1767.229412044897
 20
763.6107429204421
 42
-0.056967459841729
 10
1768.042147880097
 20
761.4697956397103
 42
-0.0373408083348504
 10
1768.081313421048
 20
761.2474412642368
 42
-0.0052305969362967
 10
1768.112270387952
 20
760.9014814904749
  0
LWPOLYLINE
  5
1274
330
1F
100
AcDbEntity
  8
NOSNÉ KONSTRUKCE
100
AcDbPolyline
 90
        9
 70
     0
 43
0.0
 10
1751.163816490353
 20
770.7659363046769
 42
-0.0064239028828688
 10
1751.382930149703
 20
770.7270678644963
 42
-0.0832048017309575
 10
1753.713143729358
 20
769.9428852618148
 42
-0.0336767237692336
 10
1756.441418248819
 20
768.240068702893
 42
-0.0844635135812105
 10
1757.345839853814
 20
767.3202589430002
 42
-0.0495829410719565
 10
1758.322489361127
 20
765.5715805056461
 42
-0.0322692699774654
 10
1759.364012862527
 20
762.6802263245553
 42
-0.0276160659512937
 10
1759.560748291471
 20
761.8246498862681
 42
-0.0126891984598699
 10
1759.695950681013
 20
760.9014814904749
  0
LWPOLYLINE
  5
127F
330
1F
100
AcDbEntity
  8
NOSNÉ KONSTRUKCE
100
AcDbPolyline
 90
        3
 70
     0
 43
0.0
 10
1757.662986059608
 20
786.9024565734216
 10
1766.879015110128
 20
806.8987090054143
 10
1767.52441258547
 20
810.8986466391288
  0
LINE
  5
1280
330
1F
100
AcDbEntity
  8
NOSNÉ KONSTRUKCE
100
AcDbLine
 10
1751.163816490353
 20
810.8986466391288
 30
0.0
 11
1776.163816490353
 21
810.8986466391288
 31
0.0
  0
LWPOLYLINE
  5
1281
330
1F
100
AcDbEntity
  8
NOSNÉ KONSTRUKCE
100
AcDbPolyline
 90
        8
 70
     0
 43
0.0
 10
1751.163816490353
 20
793.8108245726071
 42
-0.0120721047703142
 10
1752.897704629097
 20
793.7418418825691
 42
-0.044358077361292
 10
1755.593504647514
 20
793.3462141478957
 42
-0.0188067511131767
 10
1762.83573382282
 20
791.3263906995125
 42
-0.0457786284636091
 10
1765.6843442057
 20
790.1183678098968
 42
-0.0295006114745606
 10
1769.611243419102
 20
787.7023073555974
 42
-0.0258674098621065
 10
1773.757023497856
 20
784.4696320416333
 42
-0.0093759062953949
 10
1776.163816490353
 20
782.3038198619769
 42
-0.0093759062953949
  0
LWPOLYLINE
  5
1282
330
1F
100
AcDbEntity
  8
NOSNÉ KONSTRUKCE
100
AcDbPolyline
 90
        6
 70
     0
 43
0.0
 10
1751.163816490353
 20
802.4350399526493
 42
-0.0128837512779302
 10
1754.496981312099
 20
802.1502479924238
 42
-0.0351641677647434
 10
1758.100690766438
 20
801.5224882709008
 42
-0.0187319685742942
 10
1769.858928108581
 20
798.13847238991
 42
-0.0582629403736403
 10
1773.438762307513
 20
796.4789725218288
 42
-0.0146402521923566
 10
1776.163816490353
 20
794.6945645402447
  0
HATCH
  5
1283
330
1F
100
AcDbEntity
  8
PROFILY
100
AcDbHatch
 10
0.0
 20
0.0
 30
0.0
210
0.0
220
0.0
230
1.0
  2
SOLID
 70
     1
 71
     0
 91
        1
 92
        7
 72
     0
 73
     1
 93
        4
 10
1748.645213355522
 20
788.2090767557547
 10
1750.645213355523
 20
788.2090767557547
 10
1750.645213355523
 20
769.0267216112061
 10
1748.645213355524
 20
769.0267216112061
 97
        0
 75
     0
 76
     1
 47
0.0801976285649081
 98
        1
 10
1748.982886425818
 20
774.8681375038122
  0
LINE
  5
1284
330
1F
100
AcDbEntity
  8
PROFILY
100
AcDbLine
 10
1750.645213355523
 20
733.0108502898456
 30
0.0
 11
1750.645213355523
 21
1058.165577634632
 31
0.0
  0
LINE
  5
1285
330
1F
100
AcDbEntity
  8
PROFILY
100
AcDbLine
 10
1750.645213355525
 20
1113.261369344014
 30
0.0
 11
1750.645213355523
 21
733.185936803342
 31
0.0
  0
HATCH
  5
1286
330
1F
100
AcDbEntity
  8
PROFILY
100
AcDbHatch
 10
0.0
 20
0.0
 30
0.0
210
0.0
220
0.0
230
1.0
  2
SOLID
 70
     1
 71
     0
 91
        1
 92
        7
 72
     0
 73
     1
 93
        4
 10
1748.645213355522
 20
752.3682919478906
 10
1750.645213355523
 20
752.3682919478906
 10
1750.645213355523
 20
733.185936803342
 10
1748.645213355524
 20
733.185936803342
 97
        0
 75
     0
 76
     1
 47
0.0801976285649081
 98
        1
 10
1748.982886425818
 20
739.0273526959481
  0
LINE
  5
1287
330
1F
100
AcDbEntity
  8
SPOJOVACÍ
100
AcDbLine
 10
1789.59656196591
 20
794.1128235322012
 30
0.0
 11
1789.59656196591
 21
786.9936829072011
 31
0.0
  0
LINE
  5
1288
330
1F
100
AcDbEntity
  8
SPOJOVACÍ
100
AcDbLine
 10
1790.980477757123
 20
794.1128235322012
 30
0.0
 11
1790.980477757123
 21
801.2319641572013
 31
0.0
  0
LINE
  5
1289
330
1F
100
AcDbEntity
  8
SPOJOVACÍ
100
AcDbLine
 10
1790.467105495864
 20
799.3335266572012
 30
0.0
 11
1790.471851589614
 21
799.3335266572012
 31
0.0
  0
LINE
  5
128A
330
1F
100
AcDbEntity
  8
SPOJOVACÍ
100
AcDbLine
 10
1789.59656196591
 20
801.2319641572013
 30
0.0
 11
1790.980477757123
 21
801.2319641571993
 31
0.0
  0
LINE
  5
128B
330
1F
100
AcDbEntity
  8
SPOJOVACÍ
100
AcDbLine
 10
1789.59656196591
 20
801.2319641572013
 30
0.0
 11
1789.59656196591
 21
794.1128235322012
 31
0.0
  0
LINE
  5
128C
330
1F
100
AcDbEntity
  8
SPOJOVACÍ
100
AcDbLine
 10
1790.467105495864
 20
799.3335266572012
 30
0.0
 11
1790.471851589614
 21
799.3335266572012
 31
0.0
  0
LINE
  5
128D
330
1F
100
AcDbEntity
  8
SPOJOVACÍ
100
AcDbLine
 10
1790.980477757123
 20
786.993682907203
 30
0.0
 11
1789.59656196591
 21
786.9936829072011
 31
0.0
  0
LINE
  5
128E
330
1F
100
AcDbEntity
  8
SPOJOVACÍ
100
AcDbLine
 10
1790.980477757123
 20
797.9487917092665
 30
0.0
 11
1790.980477757123
 21
786.9936829072011
 31
0.0
  0
HATCH
  5
128F
330
1F
100
AcDbEntity
  8
SPOJOVACÍ
100
AcDbHatch
 10
0.0
 20
0.0
 30
0.0
210
0.0
220
0.0
230
1.0
  2
ANSI37
 70
     0
 71
     0
 91
        1
 92
        7
 72
     0
 73
     1
 93
        6
 10
1790.980477757123
 20
794.1128235322012
 10
1790.980477757121
 20
786.993682907203
 10
1789.59656196591
 20
786.9936829072011
 10
1789.59656196591
 20
794.1128235322012
 10
1789.596561965908
 20
801.2319641572013
 10
1790.980477757123
 20
801.2319641571993
 97
        0
 75
     0
 76
     1
 52
-90.00000000000001
 41
0.9
 77
     0
 78
     2
 53
225.0
 43
5631.826777409454
 44
10876.97413560308
 45
-2.02055762724056
 46
2.020557627240558
 79
     0
 53
135.0
 43
5631.826777409454
 44
10876.97413560308
 45
2.020557627240558
 46
2.02055762724056
 79
     0
 47
0.0246402553748132
 98
        1
 10
1790.509526315153
 20
794.5136691938878
  0
ELLIPSE
  5
1290
330
1F
100
AcDbEntity
  8
SPOJOVACÍ
100
AcDbEllipse
 10
1791.529772204424
 20
794.1128235322012
 30
0.0
 11
-0.0000000000000018
 21
7.321312510456553
 31
0.0
210
0.0
220
0.0
230
-1.0
 40
0.3214803388886193
 41
-0.2355512395776302
 42
3.377143893167422
  0
LINE
  5
1291
330
1F
100
AcDbEntity
  8
SPOJOVACÍ
100
AcDbLine
 10
1760.835302846776
 20
796.8905897585755
 30
0.0
 11
1789.602292619637
 21
796.8905897585755
 31
0.0
  0
LINE
  5
1292
330
1F
100
AcDbEntity
  8
SPOJOVACÍ
100
AcDbLine
 10
1760.835302846776
 20
791.2066493007751
 30
0.0
 11
1789.602292619637
 21
791.2066493007751
 31
0.0
  0
LINE
  5
1293
330
1F
100
AcDbEntity
  8
SPOJOVACÍ
100
AcDbLine
 10
1766.945603795137
 20
791.2066493007751
 30
0.0
 11
1765.422596539644
 21
796.8905897585755
 31
0.0
  0
LINE
  5
1294
330
1F
100
AcDbEntity
  8
SPOJOVACÍ
100
AcDbLine
 10
1785.929978795135
 20
791.2066493007751
 30
0.0
 11
1784.40697153964
 21
796.8905897585755
 31
0.0
  0
LINE
  5
1295
330
1F
100
AcDbEntity
  8
SPOJOVACÍ
100
AcDbLine
 10
1787.512010045134
 20
791.2066493007751
 30
0.0
 11
1785.989002789642
 21
796.8905897585755
 31
0.0
  0
LINE
  5
1296
330
1F
100
AcDbEntity
  8
SPOJOVACÍ
100
AcDbLine
 10
1781.183885045136
 20
791.2066493007751
 30
0.0
 11
1779.66087778964
 21
796.8905897585755
 31
0.0
  0
LINE
  5
1297
330
1F
100
AcDbEntity
  8
SPOJOVACÍ
100
AcDbLine
 10
1782.765916295137
 20
791.2066493007751
 30
0.0
 11
1781.242909039641
 21
796.8905897585755
 31
0.0
  0
LINE
  5
1298
330
1F
100
AcDbEntity
  8
SPOJOVACÍ
100
AcDbLine
 10
1784.347947545136
 20
791.2066493007751
 30
0.0
 11
1782.82494028964
 21
796.8905897585755
 31
0.0
  0
LINE
  5
1299
330
1F
100
AcDbEntity
  8
SPOJOVACÍ
100
AcDbLine
 10
1779.601853795135
 20
791.2066493007751
 30
0.0
 11
1778.07884653964
 21
796.8905897585755
 31
0.0
  0
LINE
  5
129A
330
1F
100
AcDbEntity
  8
SPOJOVACÍ
100
AcDbLine
 10
1778.019822545135
 20
791.2066493007751
 30
0.0
 11
1776.496815289642
 21
796.8905897585755
 31
0.0
  0
LINE
  5
129B
330
1F
100
AcDbEntity
  8
SPOJOVACÍ
100
AcDbLine
 10
1776.437791295134
 20
791.2066493007751
 30
0.0
 11
1774.914784039642
 21
796.8905897585755
 31
0.0
  0
LINE
  5
129C
330
1F
100
AcDbEntity
  8
SPOJOVACÍ
100
AcDbLine
 10
1774.855760045135
 20
791.2066493007751
 30
0.0
 11
1773.332752789641
 21
796.8905897585755
 31
0.0
  0
LINE
  5
129D
330
1F
100
AcDbEntity
  8
SPOJOVACÍ
100
AcDbLine
 10
1771.691697545136
 20
791.2066493007751
 30
0.0
 11
1770.168690289642
 21
796.8905897585755
 31
0.0
  0
LINE
  5
129E
330
1F
100
AcDbEntity
  8
SPOJOVACÍ
100
AcDbLine
 10
1773.273728795135
 20
791.2066493007751
 30
0.0
 11
1771.750721539642
 21
796.8905897585755
 31
0.0
  0
LINE
  5
129F
330
1F
100
AcDbEntity
  8
SPOJOVACÍ
100
AcDbLine
 10
1770.109666295139
 20
791.2066493007751
 30
0.0
 11
1768.586659039642
 21
796.8905897585755
 31
0.0
  0
LINE
  5
12A0
330
1F
100
AcDbEntity
  8
SPOJOVACÍ
100
AcDbLine
 10
1768.527635045137
 20
791.2066493007751
 30
0.0
 11
1767.004627789642
 21
796.8905897585755
 31
0.0
  0
LINE
  5
12A1
330
1F
100
AcDbEntity
  8
SPOJOVACÍ
100
AcDbLine
 10
1765.363572545135
 20
791.2066493007751
 30
0.0
 11
1763.840565289644
 21
796.8905897585755
 31
0.0
  0
LINE
  5
12A2
330
1F
100
AcDbEntity
  8
SPOJOVACÍ
100
AcDbLine
 10
1763.781541295135
 20
791.2066493007751
 30
0.0
 11
1762.258534039644
 21
796.8905897585755
 31
0.0
  0
LINE
  5
12A3
330
1F
100
AcDbEntity
  8
SPOJOVACÍ
100
AcDbLine
 10
1762.199510045139
 20
791.2066493007751
 30
0.0
 11
1760.676502789642
 21
796.8905897585755
 31
0.0
  0
LINE
  5
12A4
330
1F
100
AcDbEntity
  8
SPOJOVACÍ
100
AcDbLine
 10
1760.617478795137
 20
791.2066493007751
 30
0.0
 11
1759.543677227447
 21
795.2141313086404
 31
0.0
  0
LINE
  5
12A5
330
1F
100
AcDbEntity
  8
SPOJOVACÍ
100
AcDbLine
 10
1758.645709924173
 20
794.0486195296744
 30
0.0
 11
1760.835302846776
 21
791.2066493007751
 31
0.0
  0
LINE
  5
12A6
330
1F
100
AcDbEntity
  8
SPOJOVACÍ
100
AcDbLine
 10
1758.645709924173
 20
794.0486195296744
 30
0.0
 11
1760.835302846776
 21
796.8905897585755
 31
0.0
  0
LINE
  5
12A7
330
1F
100
AcDbEntity
  8
STAVBA OBRYS
100
AcDbLine
 10
1664.769178499483
 20
648.3343059362141
 30
0.0
 11
1871.715020305441
 21
648.3343059362141
 31
0.0
  0
LINE
  5
12A8
330
1F
100
AcDbEntity
  8
STAVBA OBRYS
100
AcDbLine
 10
1428.176307924835
 20
413.3343059362141
 30
0.0
 11
1885.70136201142
 21
413.3343059362141
 31
0.0
  0
LINE
  5
12A9
330
1F
100
AcDbEntity
  8
POPIS
100
AcDbLine
 10
1703.175186899589
 20
989.5098597589075
 30
0.0
 11
1942.120170484488
 21
989.5098597589075
 31
0.0
  0
LINE
  5
12AA
330
1F
100
AcDbEntity
  8
STAVBA OBRYS
100
AcDbLine
 10
1664.769178499483
 20
1116.285423788451
 30
0.0
 11
1664.769178499483
 21
648.3343059362141
 31
0.0
  0
LINE
  5
12AB
330
1F
100
AcDbEntity
  8
STAVBA OBRYS
100
AcDbLine
 10
1428.176307924835
 20
413.3343059362141
 30
0.0
 11
1428.176307924844
 21
1116.285423788451
 31
0.0
  0
TEXT
  5
12AC
330
1F
100
AcDbEntity
  8
POPIS
100
AcDbText
 10
1406.36312972723
 20
1232.694291945316
 30
0.0
 40
50.0
  1
VNITŘNÍ ROH
 41
0.85
  7
SIMPLEX7
100
AcDbText
  0
SOLID
  5
12AD
330
1F
100
AcDbEntity
  8
CETRIS
100
AcDbTrace
 10
1788.906100629649
 20
1112.913357832803
 30
0.0
 11
1776.983200473657
 21
1113.021805566166
 31
0.0
 12
1788.983200473664
 22
761.7419918653795
 32
0.0
 13
1776.983200473664
 23
761.7419918653795
 33
0.0
  0
LINE
  5
12AE
330
1F
100
AcDbEntity
  8
STAVBA OBRYS
  6
IZOLACE
 48
4.0
100
AcDbLine
 10
1706.261359511313
 20
732.7297734493531
 30
0.0
 11
1706.826423690766
 21
1116.285423788451
 31
0.0
  0
LINE
  5
12AF
330
1F
100
AcDbEntity
  8
STAVBA OBRYS
100
AcDbLine
 10
1664.769178499483
 20
732.7297734493531
 30
0.0
 11
2162.184618386199
 21
732.7297734493531
 31
0.0
  0
SOLID
  5
12B0
330
1F
100
AcDbEntity
  8
CETRIS
100
AcDbTrace
 10
2161.323646434456
 20
761.6627681391092
 30
0.0
 11
2160.966094782322
 21
773.6783048026654
 31
0.0
 12
1796.622787347893
 22
761.6783048026618
 32
0.0
 13
1796.622787347893
 23
773.6783048026618
 33
0.0
  0
LINE
  5
12B1
330
1F
100
AcDbEntity
  8
STAVBA OBRYS
  6
IZOLACE
 48
4.0
100
AcDbLine
 10
2155.459881750818
 20
691.0177367501255
 30
0.0
 11
1664.769178499483
 21
691.7406350814426
 31
0.0
  0
LINE
  5
12B2
330
1F
100
AcDbEntity
  8
STAVBA OBRYS
100
AcDbLine
 10
1871.715020305441
 20
648.3343059362141
 30
0.0
 11
2164.69601173357
 21
648.3343059362132
 31
0.0
  0
LINE
  5
12B3
330
1F
100
AcDbEntity
  8
STAVBA OBRYS
100
AcDbLine
 10
1885.70136201142
 20
413.3343059362141
 30
0.0
 11
2171.986585365507
 21
413.3343059362141
 31
0.0
  0
LINE
  5
12B4
330
1F
100
AcDbEntity
  8
STAVBA OBRYS
  6
DASHED
100
AcDbLine
 10
1787.956300721532
 20
566.9861608918745
 30
0.0
 11
1787.95630072153
 21
727.3564921244997
 31
0.0
  0
LINE
  5
12B5
330
1F
100
AcDbEntity
  8
STAVBA OBRYS
  6
DASHED
100
AcDbLine
 10
1774.831300721531
 20
566.9861608918745
 30
0.0
 11
1774.83130072153
 21
727.3564921244997
 31
0.0
  0
LINE
  5
12B6
330
1F
100
AcDbEntity
  8
STAVBA OBRYS
  6
DASHDOT2
100
AcDbLine
 10
1781.39380072153
 20
761.1147366261739
 30
0.0
 11
1781.393800721532
 21
548.3382475600755
 31
0.0
  0
LWPOLYLINE
  5
12B7
330
1F
100
AcDbEntity
  8
STAVBA OBRYS
  6
DASHED
100
AcDbPolyline
 90
        4
 70
     1
 43
0.0
 10
1806.453586731043
 20
732.7297734493531
 10
1806.453586731043
 20
727.3564921244997
 10
1756.33401471202
 20
727.3564921244997
 10
1756.33401471202
 20
732.7297734493531
  0
LINE
  5
12B8
330
1F
100
AcDbEntity
  8
STAVBA OBRYS
  6
DASHED
100
AcDbLine
 10
1781.393800721532
 20
563.197299750318
 30
0.0
 11
1787.956300721532
 21
566.9861608918745
 31
0.0
  0
LINE
  5
12B9
330
1F
100
AcDbEntity
  8
STAVBA OBRYS
  6
DASHED
100
AcDbLine
 10
1781.393800721532
 20
563.197299750318
 30
0.0
 11
1774.831300721531
 21
566.9861608918745
 31
0.0
  0
LINE
  5
12BA
330
1F
100
AcDbEntity
  8
STAVBA OBRYS
  6
DASHDOT2
100
AcDbLine
 10
1776.66384178061
 20
837.3220218050782
 30
0.0
 11
1563.887352714512
 21
837.3220218050773
 31
0.0
  0
LINE
  5
12BB
330
1F
100
AcDbEntity
  8
STAVBA OBRYS
  6
DASHED
100
AcDbLine
 10
1582.535266046311
 20
830.7595218050774
 30
0.0
 11
1742.905597278936
 21
830.7595218050792
 31
0.0
  0
LINE
  5
12BC
330
1F
100
AcDbEntity
  8
STAVBA OBRYS
  6
DASHED
100
AcDbLine
 10
1582.535266046311
 20
843.8845218050774
 30
0.0
 11
1742.905597278936
 21
843.8845218050792
 31
0.0
  0
LWPOLYLINE
  5
12BD
330
1F
100
AcDbEntity
  8
STAVBA OBRYS
  6
DASHED
100
AcDbPolyline
 90
        4
 70
     1
 43
0.0
 10
1748.27887860379
 20
812.2622357955661
 10
1742.905597278936
 20
812.2622357955661
 10
1742.905597278936
 20
862.3818078145886
 10
1748.27887860379
 20
862.3818078145886
  0
LINE
  5
12BE
330
1F
100
AcDbEntity
  8
STAVBA OBRYS
  6
DASHED
100
AcDbLine
 10
1578.908117732195
 20
837.3220218050773
 30
0.0
 11
1582.696978873752
 21
830.7595218050774
 31
0.0
  0
LINE
  5
12BF
330
1F
100
AcDbEntity
  8
STAVBA OBRYS
  6
DASHED
100
AcDbLine
 10
1578.908117732195
 20
837.3220218050773
 30
0.0
 11
1582.696978873752
 21
843.8845218050774
 31
0.0
  0
TEXT
  5
12C0
330
1F
100
AcDbEntity
  8
POPIS
100
AcDbText
 10
1956.781396771912
 20
977.1461618131516
 30
0.0
 40
25.0
  1
06,07
 41
0.7
  7
SIMPLEX7
100
AcDbText
  0
TEXT
  5
12C1
330
1F
100
AcDbEntity
  8
POPIS
100
AcDbText
 10
1956.781396771912
 20
1014.531174205695
 30
0.0
 40
25.0
  1
05
 41
0.7
  7
SIMPLEX7
100
AcDbText
  0
LINE
  5
12C2
330
1F
100
AcDbEntity
  8
POPIS
100
AcDbLine
 10
1750.645213355525
 20
1026.894872151451
 30
0.0
 11
1942.120170484488
 21
1026.894872151451
 31
0.0
  0
TEXT
  5
12C3
330
1F
100
AcDbEntity
  8
POPIS
100
AcDbText
 10
1956.781396771912
 20
1049.79910454758
 30
0.0
 40
25.0
  1
03
 41
0.7
  7
SIMPLEX7
100
AcDbText
  0
LINE
  5
12C4
330
1F
100
AcDbEntity
  8
POPIS
100
AcDbLine
 10
1762.896423306619
 20
1062.162802493336
 30
0.0
 11
1942.120170484488
 21
1062.162802493336
 31
0.0
  0
TEXT
  5
12C5
330
1F
100
AcDbEntity
  8
POPIS
100
AcDbText
 10
1956.781396771912
 20
1083.964889346128
 30
0.0
 40
25.0
  1
01
 41
0.7
  7
SIMPLEX7
100
AcDbText
  0
LINE
  5
12C6
330
1F
100
AcDbEntity
  8
POPIS
100
AcDbLine
 10
1788.25531845177
 20
1096.330192973908
 30
0.0
 11
1942.120170484488
 21
1096.328587291884
 31
0.0
  0
INSERT
  5
12C7
330
1F
100
AcDbEntity
  8
POPIS
100
AcDbBlockReference
  2
E_PUNKT
 10
1763.135170336526
 20
1061.994597532324
 30
0.0
 41
-1.0
  0
TEXT
  5
12C8
330
1F
100
AcDbEntity
  8
POPIS
100
AcDbText
 10
1956.424031870971
 20
832.2728963078997
 30
0.0
 40
25.0
  1
02
 41
0.7
  7
SIMPLEX7
100
AcDbText
  0
LINE
  5
12C9
330
1F
100
AcDbEntity
  8
POPIS
100
AcDbLine
 10
1828.817700446507
 20
844.6378080021514
 30
0.0
 11
1945.125431266085
 21
844.6365942536559
 31
0.0
  0
LINE
  5
12CA
330
1F
100
AcDbEntity
  8
STAVBA OBRYS
  6
DASHED
100
AcDbLine
 10
2123.115355942395
 20
566.9861608918745
 30
0.0
 11
2123.115355942393
 21
727.3564921244997
 31
0.0
  0
LINE
  5
12CB
330
1F
100
AcDbEntity
  8
STAVBA OBRYS
  6
DASHED
100
AcDbLine
 10
2136.240355942395
 20
566.9861608918745
 30
0.0
 11
2136.240355942394
 21
727.3564921244997
 31
0.0
  0
LINE
  5
12CC
330
1F
100
AcDbEntity
  8
STAVBA OBRYS
  6
DASHED
100
AcDbLine
 10
2129.677855942395
 20
563.197299750318
 30
0.0
 11
2123.115355942395
 21
566.9861608918745
 31
0.0
  0
LINE
  5
12CD
330
1F
100
AcDbEntity
  8
STAVBA OBRYS
  6
DASHED
100
AcDbLine
 10
2129.677855942395
 20
563.197299750318
 30
0.0
 11
2136.240355942395
 21
566.9861608918745
 31
0.0
  0
LWPOLYLINE
  5
12CE
330
1F
100
AcDbEntity
  8
STAVBA OBRYS
  6
DASHED
100
AcDbPolyline
 90
        4
 70
     1
 43
0.0
 10
2154.737641951907
 20
732.7297734493531
 10
2154.737641951907
 20
727.3564921244997
 10
2104.618069932884
 20
727.3564921244997
 10
2104.618069932884
 20
732.7297734493531
  0
LINE
  5
12CF
330
1F
100
AcDbEntity
  8
STAVBA OBRYS
  6
DASHDOT2
100
AcDbLine
 10
2129.677855942393
 20
761.1147366261739
 30
0.0
 11
2129.677855942395
 21
548.3382475600755
 31
0.0
  0
TEXT
  5
12D0
330
1F
100
AcDbEntity
  8
POPIS
100
AcDbText
 10
1410.091009030687
 20
1176.625574649295
 30
0.0
 40
35.0
  1
PŮDORYS-ŘEŠENÍ S PŘESAHEM
 41
0.75
  7
SIMPLEX7
100
AcDbText
  0
LINE
  5
12D1
330
1F
100
AcDbEntity
  8
STAVBA OBRYS
100
AcDbLine
 10
1418.176307924834
 20
403.3343059362141
 30
0.0
 11
2171.986585365507
 21
403.3343059362141
 31
0.0
  0
LINE
  5
12D2
330
1F
100
AcDbEntity
  8
STAVBA OBRYS
100
AcDbLine
 10
1418.176307924834
 20
403.3343059362141
 30
0.0
 11
1418.176307924844
 21
1116.285423788451
 31
0.0
  0
LINE
  5
12D3
330
1F
100
AcDbEntity
  8
STAVBA OBRYS
100
AcDbLine
 10
1428.176307924844
 20
1116.285423788451
 30
0.0
 11
1418.176307924844
 21
1116.285423788451
 31
0.0
  0
HATCH
  5
12D4
330
1F
100
AcDbEntity
  8
STAVBA OBRYS
100
AcDbHatch
 10
0.0
 20
0.0
 30
0.0
210
0.0
220
0.0
230
1.0
  2
AR-SAND
 70
     0
 71
     0
 91
        1
 92
        7
 72
     0
 73
     1
 93
        4
 10
1428.176307924846
 20
1116.285423788451
 10
1418.176307924844
 20
1116.285423788451
 10
1418.176307924838
 20
759.8098648623326
 10
1428.176307924838
 20
744.4451913886169
 97
        0
 75
     0
 76
     1
 52
0.0
 41
0.1
 77
     0
 78
     4
 53
37.5
 43
-11041.11007327797
 44
2085.323690534877
 45
-0.1600031295984046
 46
4.894132373293423
 79
     6
 49
0.0
 49
-3.8608
 49
0.0
 49
-4.318
 49
0.0
 49
-4.1275
 53
7.499999999999999
 43
-11041.11007327797
 44
2085.323690534877
 45
4.495232831380026
 46
7.168251005683543
 79
     6
 49
0.0
 49
-2.0828
 49
0.0
 49
-3.4798
 49
0.0
 49
-1.3335
 53
327.4999999999999
 43
-11044.23427327796
 44
2085.323690534877
 45
7.909923702414579
 46
0.0143718467854569
 79
     6
 49
0.0
 49
-1.27
 49
0.0
 49
-4.572
 49
0.0
 49
-5.969
 53
317.5
 43
-11044.23427327796
 44
2085.323690534877
 45
7.635564524722972
 46
2.229293232572162
 79
     6
 49
0.0
 49
-0.635
 49
0.0
 49
-2.997199999999999
 49
0.0
 49
-3.429
 47
0.5761278209259867
 98
        1
 10
1424.329429228918
 20
1036.641913506044
  0
HATCH
  5
12D5
330
1F
100
AcDbEntity
  8
STAVBA OBRYS
100
AcDbHatch
 10
0.0
 20
0.0
 30
0.0
210
0.0
220
0.0
230
1.0
  2
AR-SAND
 70
     0
 71
     0
 91
        1
 92
        7
 72
     0
 73
     1
 93
        6
 10
1428.17630792484
 20
744.4451913886114
 10
1418.176307924838
 20
759.8098648623326
 10
1418.176307924833
 20
403.3343059362151
 10
1650.186158011082
 20
403.3343059362141
 10
1643.677721618273
 20
413.3343059362141
 10
1428.176307924833
 20
413.3343059362141
 97
        0
 75
     0
 76
     1
 52
0.0
 41
0.1
 77
     0
 78
     4
 53
37.5
 43
-11041.11007327797
 44
2085.323690534877
 45
-0.1600031295984046
 46
4.894132373293423
 79
     6
 49
0.0
 49
-3.8608
 49
0.0
 49
-4.318
 49
0.0
 49
-4.1275
 53
7.499999999999999
 43
-11041.11007327797
 44
2085.323690534877
 45
4.495232831380026
 46
7.168251005683543
 79
     6
 49
0.0
 49
-2.0828
 49
0.0
 49
-3.4798
 49
0.0
 49
-1.3335
 53
327.4999999999999
 43
-11044.23427327796
 44
2085.323690534877
 45
7.909923702414579
 46
0.0143718467854569
 79
     6
 49
0.0
 49
-1.27
 49
0.0
 49
-4.572
 49
0.0
 49
-5.969
 53
317.5
 43
-11044.23427327796
 44
2085.323690534877
 45
7.635564524722972
 46
2.229293232572162
 79
     6
 49
0.0
 49
-0.635
 49
0.0
 49
-2.997199999999999
 49
0.0
 49
-3.429
 47
0.5834618568729536
 98
        1
 10
1423.891851590805
 20
608.5793656030818
  0
HATCH
  5
12D6
330
1F
100
AcDbEntity
  8
STAVBA OBRYS
100
AcDbHatch
 10
0.0
 20
0.0
 30
0.0
210
0.0
220
0.0
230
1.0
  2
AR-SAND
 70
     0
 71
     0
 91
        1
 92
        7
 72
     0
 73
     1
 93
        4
 10
1777.037116827886
 20
413.3343059362141
 10
1643.677721618272
 20
413.3343059362141
 10
1650.186158011082
 20
403.3343059362141
 10
1757.559983623738
 20
403.3343059362141
 97
        0
 75
     0
 76
     1
 52
0.0
 41
0.1
 77
     0
 78
     4
 53
37.5
 43
-11041.11007327797
 44
2085.323690534877
 45
-0.1600031295984046
 46
4.894132373293423
 79
     6
 49
0.0
 49
-3.8608
 49
0.0
 49
-4.318
 49
0.0
 49
-4.1275
 53
7.499999999999999
 43
-11041.11007327797
 44
2085.323690534877
 45
4.495232831380026
 46
7.168251005683543
 79
     6
 49
0.0
 49
-2.0828
 49
0.0
 49
-3.4798
 49
0.0
 49
-1.3335
 53
327.4999999999999
 43
-11044.23427327796
 44
2085.323690534877
 45
7.909923702414579
 46
0.0143718467854569
 79
     6
 49
0.0
 49
-1.27
 49
0.0
 49
-4.572
 49
0.0
 49
-5.969
 53
317.5
 43
-11044.23427327796
 44
2085.323690534877
 45
7.635564524722972
 46
2.229293232572162
 79
     6
 49
0.0
 49
-0.635
 49
0.0
 49
-2.997199999999999
 49
0.0
 49
-3.429
 47
0.5834618568729536
 98
        1
 10
1689.511944861228
 20
408.4519372977683
  0
HATCH
  5
12D7
330
1F
100
AcDbEntity
  8
STAVBA OBRYS
100
AcDbHatch
 10
0.0
 20
0.0
 30
0.0
210
0.0
220
0.0
230
1.0
  2
AR-SAND
 70
     0
 71
     0
 91
        1
 92
        7
 72
     0
 73
     1
 93
        5
 10
2171.986585365507
 20
413.3343059362141
 10
1885.70136201142
 20
413.3343059362141
 10
1777.037116827888
 20
413.3343059362141
 10
1757.559983623738
 20
403.3343059362141
 10
2171.986585365507
 20
403.3343059362141
 97
        0
 75
     0
 76
     1
 52
0.0
 41
0.1
 77
     0
 78
     4
 53
37.5
 43
-11041.11007327797
 44
2085.323690534877
 45
-0.1600031295984046
 46
4.894132373293423
 79
     6
 49
0.0
 49
-3.8608
 49
0.0
 49
-4.318
 49
0.0
 49
-4.1275
 53
7.499999999999999
 43
-11041.11007327797
 44
2085.323690534877
 45
4.495232831380026
 46
7.168251005683543
 79
     6
 49
0.0
 49
-2.0828
 49
0.0
 49
-3.4798
 49
0.0
 49
-1.3335
 53
327.4999999999999
 43
-11044.23427327796
 44
2085.323690534877
 45
7.909923702414579
 46
0.0143718467854569
 79
     6
 49
0.0
 49
-1.27
 49
0.0
 49
-4.572
 49
0.0
 49
-5.969
 53
317.5
 43
-11044.23427327796
 44
2085.323690534877
 45
7.635564524722972
 46
2.229293232572162
 79
     6
 49
0.0
 49
-0.635
 49
0.0
 49
-2.997199999999999
 49
0.0
 49
-3.429
 47
0.5834618657717786
 98
        1
 10
1906.983844231709
 20
409.6096783796329
  0
LINE
  5
1338
330
1F
100
AcDbEntity
  8
POPIS
100
AcDbLine
 10
1859.479827227959
 20
677.8393774115508
 30
0.0
 11
1792.903328769168
 21
677.8393774115508
 31
0.0
  0
INSERT
  5
1339
330
1F
100
AcDbEntity
  8
POPIS
100
AcDbBlockReference
  2
_ArchTick
 10
1823.110448316372
 20
677.839377411551
 30
0.0
 41
15.0
 42
15.0
 43
15.0
  0
LINE
  5
133A
330
1F
100
AcDbEntity
  8
POPIS
100
AcDbLine
 10
1796.622787347893
 20
706.6334450344518
 30
0.0
 11
1796.622787347893
 21
665.3393774115508
 31
0.0
  0
INSERT
  5
133B
330
1F
100
AcDbEntity
  8
POPIS
100
AcDbBlockReference
  2
_ArchTick
 10
1796.564101837809
 20
677.839377411551
 30
0.0
 41
15.0
 42
15.0
 43
15.0
 50
180.0
  0
TEXT
  5
133C
330
1F
100
AcDbEntity
  8
POPIS
100
AcDbText
 10
1833.243565917089
 20
684.6715821435767
 30
0.0
 40
25.0
  1
25
 41
0.7
  7
SIMPLEX7
100
AcDbText
  0
LINE
  5
133D
330
1F
100
AcDbEntity
  8
POPIS
100
AcDbLine
 10
1823.110448316372
 20
708.8223872674541
 30
0.0
 11
1823.110448316372
 21
665.3393774115508
 31
0.0
  0
LINE
  5
133E
330
1F
100
AcDbEntity
  8
PROFILY
100
AcDbLine
 10
1776.587043970151
 20
810.8476790102445
 30
0.0
 11
1776.587043970151
 21
760.8505138615887
 31
0.0
  0
LINE
  5
133F
330
1F
100
AcDbEntity
  8
PROFILY
  6
DASHED
370
    40
100
AcDbLine
 10
1776.38704397015
 20
810.8476790102445
 30
0.0
 11
1776.38704397015
 21
760.8505138615887
 31
0.0
  0
LINE
  5
1340
330
1F
100
AcDbEntity
  8
PROFILY
100
AcDbLine
 10
1776.18704397015
 20
810.8342229368325
 30
0.0
 11
1776.18704397015
 21
760.8370577881767
 31
0.0
  0
LINE
  5
1341
330
1F
100
AcDbEntity
  8
PROFILY
100
AcDbLine
 10
1848.824920057074
 20
761.3565883980665
 30
0.0
 11
1798.827754908418
 21
761.3565883980665
 31
0.0
  0
LINE
  5
1342
330
1F
100
AcDbEntity
  8
PROFILY
  6
DASHED
370
    40
100
AcDbLine
 10
1848.838376130486
 20
761.1565883980666
 30
0.0
 11
1798.841210981831
 21
761.1565883980666
 31
0.0
  0
LINE
  5
1343
330
1F
100
AcDbEntity
  8
PROFILY
100
AcDbLine
 10
1848.838376130486
 20
760.9565883980665
 30
0.0
 11
1798.841210981831
 21
760.9565883980665
 31
0.0
  0
LINE
  5
1344
330
1F
100
AcDbEntity
  8
POPIS
100
AcDbLine
 10
1874.166377082296
 20
805.0374437747581
 30
0.0
 11
1945.125431266085
 21
805.0374437747581
 31
0.0
  0
LINE
  5
1345
330
1F
100
AcDbEntity
  8
POPIS
100
AcDbLine
 10
1834.04926776518
 20
762.0819147667775
 30
0.0
 11
1874.1663770823
 21
805.0374437747496
 31
0.0
  0
TEXT
  5
1346
330
1F
100
AcDbEntity
  8
POPIS
100
AcDbText
 10
1957.439554796184
 20
792.6737458290022
 30
0.0
 40
25.0
  1
09
 41
0.7
  7
SIMPLEX7
100
AcDbText
  0
INSERT
  5
1347
330
1F
100
AcDbEntity
  8
POPIS
100
AcDbBlockReference
  2
E_PUNKT
 10
1835.232514055673
 20
761.5297634415396
 30
0.0
 41
-1.0
  0
TEXT
  5
1348
330
1F
100
AcDbEntity
  8
POPIS
100
AcDbText
 10
1530.99109791862
 20
-69.47623763466435
 30
0.0
 40
25.0
  1
Podkladní EPDM páska tl.1 mm
 41
0.7
  7
SIMPLEX7
100
AcDbText
  0
TEXT
  5
1349
330
1F
100
AcDbEntity
  8
POPIS
100
AcDbText
 10
1476.647394758878
 20
-69.47623763466435
 30
0.0
 40
25.0
  1
09
 41
0.85
  7
SIMPLEX7
100
AcDbText
  0
ENDSEC
  0
SECTION
  2
OBJECTS
  0
DICTIONARY
  5
C
330
0
100
AcDbDictionary
281
     1
  3
ACAD_GROUP
350
D
  3
ACAD_LAYOUT
350
1A
  3
ACAD_MLINESTYLE
350
17
  3
ACAD_PLOTSETTINGS
350
19
  3
ACAD_PLOTSTYLENAME
350
E
  3
AcDbVariableDictionary
350
134B
  0
DICTIONARY
  5
12D9
330
1F
100
AcDbDictionary
280
     1
281
     1
  3
ACAD_LAYOUTSELFREF
360
1315
  0
DICTIONARY
  5
12DB
330
1B
100
AcDbDictionary
280
     1
281
     1
  3
ACAD_LAYOUTSELFREF
360
1314
  0
DICTIONARY
  5
12DD
330
23
100
AcDbDictionary
280
     1
281
     1
  3
ACAD_LAYOUTSELFREF
360
1316
  0
DICTIONARY
  5
D
102
{ACAD_REACTORS
330
C
102
}
330
C
100
AcDbDictionary
281
     1
  0
DICTIONARY
  5
1A
102
{ACAD_REACTORS
330
C
102
}
330
C
100
AcDbDictionary
281
     1
  3
Model
350
22
  3
Rozvržení1
350
1E
  3
Rozvržení2
350
26
  0
DICTIONARY
  5
17
102
{ACAD_REACTORS
330
C
102
}
330
C
100
AcDbDictionary
281
     1
  3
Standard
350
18
  0
DICTIONARY
  5
19
102
{ACAD_REACTORS
330
C
102
}
330
C
100
AcDbDictionary
281
     1
  0
ACDBDICTIONARYWDFLT
  5
E
102
{ACAD_REACTORS
330
C
102
}
330
C
100
AcDbDictionary
281
     1
  3
Normal
350
F
100
AcDbDictionaryWithDefault
340
F
  0
DICTIONARY
  5
134B
102
{ACAD_REACTORS
330
C
102
}
330
C
100
AcDbDictionary
281
     1
  3
DIMASSOC
350
134C
  0
XRECORD
  5
1315
102
{ACAD_REACTORS
330
12D9
102
}
330
12D9
100
AcDbXrecord
280
     1
340
1F
  0
XRECORD
  5
1314
102
{ACAD_REACTORS
330
12DB
102
}
330
12DB
100
AcDbXrecord
280
     1
340
1B
  0
XRECORD
  5
1316
102
{ACAD_REACTORS
330
12DD
102
}
330
12DD
100
AcDbXrecord
280
     1
340
23
  0
LAYOUT
  5
22
102
{ACAD_REACTORS
330
1A
102
}
330
1A
100
AcDbPlotSettings
  1

  2
HP DeskJet 690C
  4

  6

 40
0.0
 41
0.0
 42
0.0
 43
0.0
 44
0.0
 45
0.0
 46
0.0
 47
0.0
 48
0.0
 49
0.0
140
0.0
141
0.0
142
1.0
143
1.0
 70
  1712
 72
     0
 73
     0
 74
     0
  7
monochrome.ctb
 75
     0
147
1.0
148
0.0
149
0.0
100
AcDbLayout
  1
Model
 70
     1
 71
     0
 10
0.0
 20
0.0
 11
12.0
 21
9.0
 12
0.0
 22
0.0
 32
0.0
 14
0.0
 24
0.0
 34
0.0
 15
0.0
 25
0.0
 35
0.0
146
0.0
 13
0.0
 23
0.0
 33
0.0
 16
1.0
 26
0.0
 36
0.0
 17
0.0
 27
1.0
 37
0.0
 76
     0
330
1F
  0
LAYOUT
  5
1E
102
{ACAD_REACTORS
330
1A
102
}
330
1A
100
AcDbPlotSettings
  1

  2
HP DeskJet 690C
  4

  6

 40
0.0
 41
0.0
 42
0.0
 43
0.0
 44
0.0
 45
0.0
 46
0.0
 47
0.0
 48
0.0
 49
0.0
140
0.0
141
0.0
142
1.0
143
1.0
 70
   688
 72
     0
 73
     0
 74
     5
  7
monochrome.ctb
 75
    16
147
1.0
148
0.0
149
0.0
100
AcDbLayout
  1
Rozvržení1
 70
     1
 71
     1
 10
0.0
 20
0.0
 11
420.0
 21
297.0
 12
0.0
 22
0.0
 32
0.0
 14
1.000000000000000E+20
 24
1.000000000000000E+20
 34
1.000000000000000E+20
 15
-1.000000000000000E+20
 25
-1.000000000000000E+20
 35
-1.000000000000000E+20
146
0.0
 13
0.0
 23
0.0
 33
0.0
 16
1.0
 26
0.0
 36
0.0
 17
0.0
 27
1.0
 37
0.0
 76
     0
330
1B
  0
LAYOUT
  5
26
102
{ACAD_REACTORS
330
1A
102
}
330
1A
100
AcDbPlotSettings
  1

  2
HP DeskJet 690C
  4

  6

 40
0.0
 41
0.0
 42
0.0
 43
0.0
 44
0.0
 45
0.0
 46
0.0
 47
0.0
 48
0.0
 49
0.0
140
0.0
141
0.0
142
1.0
143
1.0
 70
   688
 72
     0
 73
     0
 74
     5
  7
monochrome.ctb
 75
    16
147
1.0
148
0.0
149
0.0
100
AcDbLayout
  1
Rozvržení2
 70
     1
 71
     2
 10
0.0
 20
0.0
 11
12.0
 21
9.0
 12
0.0
 22
0.0
 32
0.0
 14
0.0
 24
0.0
 34
0.0
 15
0.0
 25
0.0
 35
0.0
146
0.0
 13
0.0
 23
0.0
 33
0.0
 16
1.0
 26
0.0
 36
0.0
 17
0.0
 27
1.0
 37
0.0
 76
     0
330
23
  0
MLINESTYLE
  5
18
102
{ACAD_REACTORS
330
17
102
}
330
17
100
AcDbMlineStyle
  2
STANDARD
 70
     0
  3

 62
   256
 51
90.0
 52
90.0
 71
     2
 49
0.5
 62
   256
  6
BYLAYER
 49
-0.5
 62
   256
  6
BYLAYER
  0
ACDBPLACEHOLDER
  5
F
102
{ACAD_REACTORS
330
E
102
}
330
E
  0
DICTIONARYVAR
  5
134C
102
{ACAD_REACTORS
330
134B
102
}
330
134B
100
DictionaryVariables
280
     0
  1
1
  0
ENDSEC
  0
EOF
