  0
SECTION
  2
HEADER
  9
$ACADVER
  1
AC1015
  9
$ACADMAINTVER
 70
    14
  9
$DWGCODEPAGE
  3
ANSI_1250
  9
$INSBASE
 10
0.0
 20
0.0
 30
0.0
  9
$EXTMIN
 10
2651.807459378884
 20
-149.3236559525953
 30
0.0
  9
$EXTMAX
 10
3625.765919487273
 20
1366.942071717844
 30
0.0
  9
$LIMMIN
 10
0.0
 20
0.0
  9
$LIMMAX
 10
420.0
 20
297.0
  9
$ORTHOMODE
 70
     0
  9
$REGENMODE
 70
     1
  9
$FILLMODE
 70
     1
  9
$QTEXTMODE
 70
     0
  9
$MIRRTEXT
 70
     1
  9
$LTSCALE
 40
1.0
  9
$ATTMODE
 70
     1
  9
$TEXTSIZE
 40
2.5
  9
$TRACEWID
 40
1.0
  9
$TEXTSTYLE
  7
Standard
  9
$CLAYER
  8
0
  9
$CELTYPE
  6
ByLayer
  9
$CECOLOR
 62
   256
  9
$CELTSCALE
 40
1.0
  9
$DISPSILH
 70
     0
  9
$DIMSCALE
 40
1.0
  9
$DIMASZ
 40
2.5
  9
$DIMEXO
 40
0.625
  9
$DIMDLI
 40
3.75
  9
$DIMRND
 40
0.0
  9
$DIMDLE
 40
0.0
  9
$DIMEXE
 40
1.25
  9
$DIMTP
 40
0.0
  9
$DIMTM
 40
0.0
  9
$DIMTXT
 40
2.5
  9
$DIMCEN
 40
2.5
  9
$DIMTSZ
 40
0.0
  9
$DIMTOL
 70
     0
  9
$DIMLIM
 70
     0
  9
$DIMTIH
 70
     0
  9
$DIMTOH
 70
     0
  9
$DIMSE1
 70
     0
  9
$DIMSE2
 70
     0
  9
$DIMTAD
 70
     1
  9
$DIMZIN
 70
     8
  9
$DIMBLK
  1

  9
$DIMASO
 70
     1
  9
$DIMSHO
 70
     1
  9
$DIMPOST
  1

  9
$DIMAPOST
  1

  9
$DIMALT
 70
     0
  9
$DIMALTD
 70
     3
  9
$DIMALTF
 40
0.03937007874016
  9
$DIMLFAC
 40
1.0
  9
$DIMTOFL
 70
     1
  9
$DIMTVP
 40
0.0
  9
$DIMTIX
 70
     0
  9
$DIMSOXD
 70
     0
  9
$DIMSAH
 70
     0
  9
$DIMBLK1
  1

  9
$DIMBLK2
  1

  9
$DIMSTYLE
  2
ISO-25
  9
$DIMCLRD
 70
     0
  9
$DIMCLRE
 70
     0
  9
$DIMCLRT
 70
     0
  9
$DIMTFAC
 40
1.0
  9
$DIMGAP
 40
0.625
  9
$DIMJUST
 70
     0
  9
$DIMSD1
 70
     0
  9
$DIMSD2
 70
     0
  9
$DIMTOLJ
 70
     0
  9
$DIMTZIN
 70
     8
  9
$DIMALTZ
 70
     0
  9
$DIMALTTZ
 70
     0
  9
$DIMUPT
 70
     0
  9
$DIMDEC
 70
     2
  9
$DIMTDEC
 70
     2
  9
$DIMALTU
 70
     2
  9
$DIMALTTD
 70
     3
  9
$DIMTXSTY
  7
Standard
  9
$DIMAUNIT
 70
     0
  9
$DIMADEC
 70
     0
  9
$DIMALTRND
 40
0.0
  9
$DIMAZIN
 70
     0
  9
$DIMDSEP
 70
    44
  9
$DIMATFIT
 70
     3
  9
$DIMFRAC
 70
     0
  9
$DIMLDRBLK
  1

  9
$DIMLUNIT
 70
     2
  9
$DIMLWD
 70
    -2
  9
$DIMLWE
 70
    -2
  9
$DIMTMOVE
 70
     0
  9
$LUNITS
 70
     2
  9
$LUPREC
 70
     4
  9
$SKETCHINC
 40
1.0
  9
$FILLETRAD
 40
10.0
  9
$AUNITS
 70
     0
  9
$AUPREC
 70
     0
  9
$MENU
  1
.
  9
$ELEVATION
 40
0.0
  9
$PELEVATION
 40
0.0
  9
$THICKNESS
 40
0.0
  9
$LIMCHECK
 70
     0
  9
$CHAMFERA
 40
10.0
  9
$CHAMFERB
 40
10.0
  9
$CHAMFERC
 40
20.0
  9
$CHAMFERD
 40
0.0
  9
$SKPOLY
 70
     0
  9
$TDCREATE
 40
2452339.360978703
  9
$TDUCREATE
 40
2452339.319312037
  9
$TDUPDATE
 40
2455610.259090335
  9
$TDUUPDATE
 40
2455610.217423668
  9
$TDINDWG
 40
0.0062113310
  9
$TDUSRTIMER
 40
0.0062106366
  9
$USRTIMER
 70
     1
  9
$ANGBASE
 50
0.0
  9
$ANGDIR
 70
     0
  9
$PDMODE
 70
     0
  9
$PDSIZE
 40
0.0
  9
$PLINEWID
 40
0.0
  9
$SPLFRAME
 70
     0
  9
$SPLINETYPE
 70
     6
  9
$SPLINESEGS
 70
     8
  9
$HANDSEED
  5
111A
  9
$SURFTAB1
 70
     6
  9
$SURFTAB2
 70
     6
  9
$SURFTYPE
 70
     6
  9
$SURFU
 70
     6
  9
$SURFV
 70
     6
  9
$UCSBASE
  2

  9
$UCSNAME
  2

  9
$UCSORG
 10
0.0
 20
0.0
 30
0.0
  9
$UCSXDIR
 10
1.0
 20
0.0
 30
0.0
  9
$UCSYDIR
 10
0.0
 20
1.0
 30
0.0
  9
$UCSORTHOREF
  2

  9
$UCSORTHOVIEW
 70
     0
  9
$UCSORGTOP
 10
0.0
 20
0.0
 30
0.0
  9
$UCSORGBOTTOM
 10
0.0
 20
0.0
 30
0.0
  9
$UCSORGLEFT
 10
0.0
 20
0.0
 30
0.0
  9
$UCSORGRIGHT
 10
0.0
 20
0.0
 30
0.0
  9
$UCSORGFRONT
 10
0.0
 20
0.0
 30
0.0
  9
$UCSORGBACK
 10
0.0
 20
0.0
 30
0.0
  9
$PUCSBASE
  2

  9
$PUCSNAME
  2

  9
$PUCSORG
 10
0.0
 20
0.0
 30
0.0
  9
$PUCSXDIR
 10
1.0
 20
0.0
 30
0.0
  9
$PUCSYDIR
 10
0.0
 20
1.0
 30
0.0
  9
$PUCSORTHOREF
  2

  9
$PUCSORTHOVIEW
 70
     0
  9
$PUCSORGTOP
 10
0.0
 20
0.0
 30
0.0
  9
$PUCSORGBOTTOM
 10
0.0
 20
0.0
 30
0.0
  9
$PUCSORGLEFT
 10
0.0
 20
0.0
 30
0.0
  9
$PUCSORGRIGHT
 10
0.0
 20
0.0
 30
0.0
  9
$PUCSORGFRONT
 10
0.0
 20
0.0
 30
0.0
  9
$PUCSORGBACK
 10
0.0
 20
0.0
 30
0.0
  9
$USERI1
 70
     0
  9
$USERI2
 70
     0
  9
$USERI3
 70
     0
  9
$USERI4
 70
     0
  9
$USERI5
 70
     0
  9
$USERR1
 40
0.0
  9
$USERR2
 40
0.0
  9
$USERR3
 40
0.0
  9
$USERR4
 40
0.0
  9
$USERR5
 40
0.0
  9
$WORLDVIEW
 70
     1
  9
$SHADEDGE
 70
     3
  9
$SHADEDIF
 70
    70
  9
$TILEMODE
 70
     1
  9
$MAXACTVP
 70
    48
  9
$PINSBASE
 10
0.0
 20
0.0
 30
0.0
  9
$PLIMCHECK
 70
     0
  9
$PEXTMIN
 10
1.000000000000000E+20
 20
1.000000000000000E+20
 30
1.000000000000000E+20
  9
$PEXTMAX
 10
-1.000000000000000E+20
 20
-1.000000000000000E+20
 30
-1.000000000000000E+20
  9
$PLIMMIN
 10
0.0
 20
0.0
  9
$PLIMMAX
 10
420.0
 20
297.0
  9
$UNITMODE
 70
     0
  9
$VISRETAIN
 70
     1
  9
$PLINEGEN
 70
     0
  9
$PSLTSCALE
 70
     1
  9
$TREEDEPTH
 70
  3020
  9
$CMLSTYLE
  2
Standard
  9
$CMLJUST
 70
     0
  9
$CMLSCALE
 40
20.0
  9
$PROXYGRAPHICS
 70
     1
  9
$MEASUREMENT
 70
     1
  9
$CELWEIGHT
370
    -1
  9
$ENDCAPS
280
     0
  9
$JOINSTYLE
280
     0
  9
$LWDISPLAY
290
     0
  9
$INSUNITS
 70
     4
  9
$HYPERLINKBASE
  1

  9
$STYLESHEET
  1

  9
$XEDIT
290
     1
  9
$CEPSNTYPE
380
     0
  9
$PSTYLEMODE
290
     1
  9
$FINGERPRINTGUID
  2
{9C079773-E80E-4585-A7F4-852C8B38093D}
  9
$VERSIONGUID
  2
{67F4418F-4657-4C4D-B388-E0C31B024A81}
  9
$EXTNAMES
290
     1
  9
$PSVPSCALE
 40
0.0
  9
$OLESTARTUP
290
     0
  0
ENDSEC
  0
SECTION
  2
CLASSES
  0
CLASS
  1
ACDBDICTIONARYWDFLT
  2
AcDbDictionaryWithDefault
  3
AutoCAD 2000
 90
        0
280
     0
281
     0
  0
CLASS
  1
ACDBPLACEHOLDER
  2
AcDbPlaceHolder
  3
AutoCAD 2000
 90
        0
280
     0
281
     0
  0
CLASS
  1
LAYOUT
  2
AcDbLayout
  3
AutoCAD 2000
 90
        0
280
     0
281
     0
  0
CLASS
  1
LONG_TRANSACTION
  2
AcDbLongTransaction
  3
AutoCAD 2000
 90
    32768
280
     0
281
     0
  0
CLASS
  1
LWPOLYLINE
  2
AcDbPolyline
  3
AutoCAD 2000
 90
    32768
280
     0
281
     1
  0
CLASS
  1
HATCH
  2
AcDbHatch
  3
AutoCAD 2000
 90
    32768
280
     0
281
     1
  0
CLASS
  1
XRECORD
  2
AcDbXrecord
  3
AutoCAD 2000
 90
    32768
280
     0
281
     0
  0
CLASS
  1
DICTIONARYVAR
  2
AcDbDictionaryVar
  3
AutoCAD 2000
 90
        0
280
     0
281
     0
  0
ENDSEC
  0
SECTION
  2
TABLES
  0
TABLE
  2
VPORT
  5
8
330
0
100
AcDbSymbolTable
 70
     2
  0
VPORT
  5
1119
330
8
100
AcDbSymbolTableRecord
100
AcDbViewportTableRecord
  2
*Active
 70
     0
 10
0.0
 20
0.0
 11
1.0
 21
1.0
 12
3138.786689433078
 22
608.8092078826244
 13
0.0
 23
0.0
 14
10.0
 24
10.0
 15
10.0
 25
10.0
 16
0.0
 26
0.0
 36
1.0
 17
0.0
 27
0.0
 37
0.0
 40
1527.40109409152
 41
2.031862745098039
 42
50.0
 43
0.0
 44
0.0
 50
0.0
 51
0.0
 71
     0
 72
   100
 73
     1
 74
     3
 75
     0
 76
     0
 77
     0
 78
     0
281
     0
 65
     1
110
0.0
120
0.0
130
0.0
111
1.0
121
0.0
131
0.0
112
0.0
122
1.0
132
0.0
 79
     0
146
0.0
  0
ENDTAB
  0
TABLE
  2
LTYPE
  5
5
330
0
100
AcDbSymbolTable
 70
     4
  0
LTYPE
  5
14
330
5
100
AcDbSymbolTableRecord
100
AcDbLinetypeTableRecord
  2
ByBlock
 70
     0
  3

 72
    65
 73
     0
 40
0.0
  0
LTYPE
  5
15
330
5
100
AcDbSymbolTableRecord
100
AcDbLinetypeTableRecord
  2
ByLayer
 70
     0
  3

 72
    65
 73
     0
 40
0.0
  0
LTYPE
  5
16
330
5
100
AcDbSymbolTableRecord
100
AcDbLinetypeTableRecord
  2
Continuous
 70
     0
  3
Solid line
 72
    65
 73
     0
 40
0.0
  0
LTYPE
  5
3F
330
5
100
AcDbSymbolTableRecord
100
AcDbLinetypeTableRecord
  2
IZOLACE
 70
     0
  3
Izolace SSSSSSSSSSSSSSSSSSSSSSSSSSSSSSSSSSSSSSS
 72
    65
 73
     4
 40
10.16253999999999
 49
0.00254
 74
     0
 49
-2.54
 74
     4
 75
   134
340
4A
 46
2.54
 50
0.0
 44
-2.54
 45
0.0
 49
-5.08
 74
     4
 75
   134
340
4A
 46
2.54
 50
180.0
 44
2.54
 45
0.0
 49
-2.54
 74
     0
  0
LTYPE
  5
40
330
5
100
AcDbSymbolTableRecord
100
AcDbLinetypeTableRecord
  2
DASHED
 70
     0
  3
Dashed __ __ __ __ __ __ __ __ __ __ __ __ __ _
 72
    65
 73
     2
 40
19.04999999999999
 49
12.7
 74
     0
 49
-6.349999999999999
 74
     0
  0
LTYPE
  5
41
330
5
100
AcDbSymbolTableRecord
100
AcDbLinetypeTableRecord
  2
DASHDOT2
 70
     0
  3
Dash dot (.5x) _._._._._._._._._._._._._._._.
 72
    65
 73
     4
 40
12.7
 49
6.349999999999999
 74
     0
 49
-3.174999999999999
 74
     0
 49
0.0
 74
     0
 49
-3.174999999999999
 74
     0
  0
ENDTAB
  0
TABLE
  2
LAYER
  5
2
330
0
100
AcDbSymbolTable
 70
     8
  0
LAYER
  5
10
330
2
100
AcDbSymbolTableRecord
100
AcDbLayerTableRecord
  2
0
 70
     0
 62
     7
  6
Continuous
370
    -3
390
F
  0
LAYER
  5
42
330
2
100
AcDbSymbolTableRecord
100
AcDbLayerTableRecord
  2
POPIS
 70
     0
 62
    30
  6
Continuous
370
    -3
390
F
  0
LAYER
  5
43
330
2
100
AcDbSymbolTableRecord
100
AcDbLayerTableRecord
  2
SPOJOVACÍ
 70
     0
 62
   180
  6
Continuous
370
    -3
390
F
  0
LAYER
  5
44
330
2
100
AcDbSymbolTableRecord
100
AcDbLayerTableRecord
  2
CETRIS
 70
     0
 62
     1
  6
Continuous
370
    -3
390
F
  0
LAYER
  5
45
330
2
100
AcDbSymbolTableRecord
100
AcDbLayerTableRecord
  2
NOSNÉ KONSTRUKCE
 70
     0
 62
    33
  6
Continuous
370
    -3
390
F
  0
LAYER
  5
46
330
2
100
AcDbSymbolTableRecord
100
AcDbLayerTableRecord
  2
PROFILY
 70
     0
 62
    73
  6
Continuous
370
    -3
390
F
  0
LAYER
  5
47
330
2
100
AcDbSymbolTableRecord
100
AcDbLayerTableRecord
  2
STAVBA OBRYS
 70
     0
 62
     6
  6
Continuous
370
    -3
390
F
  0
LAYER
  5
48
330
2
100
AcDbSymbolTableRecord
100
AcDbLayerTableRecord
  2
Defpoints
 70
     0
 62
     7
  6
Continuous
290
     0
370
    -3
390
F
  0
ENDTAB
  0
TABLE
  2
STYLE
  5
3
330
0
100
AcDbSymbolTable
 70
     3
  0
STYLE
  5
11
330
3
100
AcDbSymbolTableRecord
100
AcDbTextStyleTableRecord
  2
Standard
 70
     0
 40
0.0
 41
1.0
 50
0.0
 71
     0
 42
2.5
  3
txt
  4

  0
STYLE
  5
49
330
3
100
AcDbSymbolTableRecord
100
AcDbTextStyleTableRecord
  2
SIMPLEX7
 70
     0
 40
0.0
 41
0.85
 50
0.0
 71
     0
 42
102.0
  3
ARIAL.TTF
  4

1001
ACAD
1000
Arial CE
1071
    60962
  0
STYLE
  5
4A
330
3
100
AcDbSymbolTableRecord
100
AcDbTextStyleTableRecord
  2

 70
     1
 40
0.0
 41
1.0
 50
0.0
 71
     0
 42
2.5
  3
ltypeshp.shx
  4

  0
ENDTAB
  0
TABLE
  2
VIEW
  5
6
330
0
100
AcDbSymbolTable
 70
     0
  0
ENDTAB
  0
TABLE
  2
UCS
  5
7
330
0
100
AcDbSymbolTable
 70
     0
  0
ENDTAB
  0
TABLE
  2
APPID
  5
9
330
0
100
AcDbSymbolTable
 70
     1
  0
APPID
  5
12
330
9
100
AcDbSymbolTableRecord
100
AcDbRegAppTableRecord
  2
ACAD
 70
     0
  0
ENDTAB
  0
TABLE
  2
DIMSTYLE
  5
A
330
0
100
AcDbSymbolTable
 70
     1
100
AcDbDimStyleTable
 71
     0
  0
DIMSTYLE
105
27
330
A
100
AcDbSymbolTableRecord
100
AcDbDimStyleTableRecord
  2
ISO-25
 70
     0
 41
2.5
 42
0.625
 43
3.75
 44
1.25
 73
     0
 74
     0
 77
     1
 78
     8
140
2.5
141
2.5
143
0.03937007874016
147
0.625
171
     3
172
     1
271
     2
272
     2
274
     3
278
    44
283
     0
284
     8
340
11
  0
ENDTAB
  0
TABLE
  2
BLOCK_RECORD
  5
1
330
0
100
AcDbSymbolTable
 70
     3
  0
BLOCK_RECORD
  5
1F
102
{ACAD_XDICTIONARY
360
10A8
102
}
330
1
100
AcDbSymbolTableRecord
100
AcDbBlockTableRecord
  2
*Model_Space
340
22
  0
BLOCK_RECORD
  5
1B
102
{ACAD_XDICTIONARY
360
10AA
102
}
330
1
100
AcDbSymbolTableRecord
100
AcDbBlockTableRecord
  2
*Paper_Space
340
1E
  0
BLOCK_RECORD
  5
23
102
{ACAD_XDICTIONARY
360
10AC
102
}
330
1
100
AcDbSymbolTableRecord
100
AcDbBlockTableRecord
  2
*Paper_Space0
340
26
  0
BLOCK_RECORD
  5
2B
330
1
100
AcDbSymbolTableRecord
100
AcDbBlockTableRecord
  2
E_PUNKT
340
0
102
{BLKREFS
331
EA9
331
EAA
331
EAD
331
EB0
331
EB1
331
102E
331
110A
102
}
  0
BLOCK_RECORD
  5
10ED
330
1
100
AcDbSymbolTableRecord
100
AcDbBlockTableRecord
  2
_ArchTick
340
0
102
{BLKREFS
331
110C
331
110E
102
}
  0
ENDTAB
  0
ENDSEC
  0
SECTION
  2
BLOCKS
  0
BLOCK
  5
20
330
1F
100
AcDbEntity
  8
0
100
AcDbBlockBegin
  2
*Model_Space
 70
     0
 10
0.0
 20
0.0
 30
0.0
  3
*Model_Space
  1

  0
ENDBLK
  5
21
330
1F
100
AcDbEntity
  8
0
100
AcDbBlockEnd
  0
BLOCK
  5
1C
330
1B
100
AcDbEntity
 67
     1
  8
0
100
AcDbBlockBegin
  2
*Paper_Space
 70
     0
 10
0.0
 20
0.0
 30
0.0
  3
*Paper_Space
  1

  0
ENDBLK
  5
1D
330
1B
100
AcDbEntity
 67
     1
  8
0
100
AcDbBlockEnd
  0
BLOCK
  5
24
330
23
100
AcDbEntity
  8
0
100
AcDbBlockBegin
  2
*Paper_Space0
 70
     0
 10
0.0
 20
0.0
 30
0.0
  3
*Paper_Space0
  1

  0
ENDBLK
  5
25
330
23
100
AcDbEntity
  8
0
100
AcDbBlockEnd
  0
BLOCK
  5
2D
330
2B
100
AcDbEntity
  8
0
100
AcDbBlockBegin
  2
E_PUNKT
 70
     0
 10
0.0
 20
0.0
 30
0.0
  3
E_PUNKT
  1

  0
LWPOLYLINE
  5
2C
330
2B
100
AcDbEntity
  8
POPIS
100
AcDbPolyline
 90
        2
 70
     1
 43
2.5
 10
1.27761037562675
 20
0.0290683308725193
 42
-1.0
 10
-1.222389624373249
 20
0.0290683308725193
 42
-1.0
  0
ENDBLK
  5
2E
330
2B
100
AcDbEntity
  8
0
100
AcDbBlockEnd
  0
BLOCK
  5
10EF
330
10ED
100
AcDbEntity
  8
0
100
AcDbBlockBegin
  2
_ArchTick
 70
     0
 10
0.0
 20
0.0
 30
0.0
  3
_ArchTick
  1

  0
LWPOLYLINE
  5
10EE
330
10ED
100
AcDbEntity
  8
0
  6
ByBlock
 62
     0
100
AcDbPolyline
 90
        2
 70
     0
 43
0.15
 10
-0.5
 20
-0.5
 10
0.5
 20
0.5
  0
ENDBLK
  5
10F0
330
10ED
100
AcDbEntity
  8
0
100
AcDbBlockEnd
  0
ENDSEC
  0
SECTION
  2
ENTITIES
  0
INSERT
  5
EA9
330
1F
100
AcDbEntity
  8
POPIS
100
AcDbBlockReference
  2
E_PUNKT
 10
3174.050633437706
 20
614.4594416513696
 30
0.0
  0
INSERT
  5
EAA
330
1F
100
AcDbEntity
  8
POPIS
100
AcDbBlockReference
  2
E_PUNKT
 10
3134.438654864577
 20
510.1120368433671
 30
0.0
  0
TEXT
  5
EAB
330
1F
100
AcDbEntity
  8
POPIS
100
AcDbText
 10
2893.280721260173
 20
496.181494916354
 30
0.0
 40
25.0
  1
08
 41
0.7
  7
SIMPLEX7
100
AcDbText
  0
LINE
  5
EAC
330
1F
100
AcDbEntity
  8
POPIS
100
AcDbLine
 10
2933.258207603441
 20
509.6248363657227
 30
0.0
 11
3134.528313590432
 21
509.6248363657227
 31
0.0
  0
INSERT
  5
EAD
330
1F
100
AcDbEntity
  8
POPIS
100
AcDbBlockReference
  2
E_PUNKT
 10
3127.836658435735
 20
441.3790845071321
 30
0.0
  0
TEXT
  5
EAE
330
1F
100
AcDbEntity
  8
POPIS
100
AcDbText
 10
2893.280721260173
 20
427.3864447493119
 30
0.0
 40
25.0
  1
05
 41
0.7
  7
SIMPLEX7
100
AcDbText
  0
LINE
  5
EAF
330
1F
100
AcDbEntity
  8
POPIS
100
AcDbLine
 10
2933.258207603441
 20
440.8297861986807
 30
0.0
 11
3128.382047088132
 21
440.8297861986807
 31
0.0
  0
INSERT
  5
EB0
330
1F
100
AcDbEntity
  8
POPIS
100
AcDbBlockReference
  2
E_PUNKT
 10
3113.985723882528
 20
392.4777952146446
 30
0.0
  0
INSERT
  5
EB1
330
1F
100
AcDbEntity
  8
POPIS
100
AcDbBlockReference
  2
E_PUNKT
 10
3082.503513519572
 20
316.2915586575159
 30
0.0
  0
TEXT
  5
EB2
330
1F
100
AcDbEntity
  8
POPIS
100
AcDbText
 10
3101.84054319495
 20
170.2103688372321
 30
0.0
 40
12.0
  1
R
 41
0.85
  7
SIMPLEX7
100
AcDbText
  0
CIRCLE
  5
EB3
330
1F
100
AcDbEntity
  8
POPIS
100
AcDbCircle
 10
3106.222826705274
 20
176.3205302051778
 30
0.0
 40
11.13656048292026
  0
TEXT
  5
EB4
330
1F
100
AcDbEntity
  8
POPIS
100
AcDbText
 10
2878.863848228244
 20
145.9740267987267
 30
0.0
 40
25.0
  1
01
 41
0.85
  7
SIMPLEX7
100
AcDbText
  0
TEXT
  5
EB5
330
1F
100
AcDbEntity
  8
POPIS
100
AcDbText
 10
2878.860202953416
 20
37.97901254657745
 30
0.0
 40
25.0
  1
04
 41
0.85
  7
SIMPLEX7
100
AcDbText
  0
TEXT
  5
EB6
330
1F
100
AcDbEntity
  8
POPIS
100
AcDbText
 10
2878.860202953416
 20
1.872191059389024
 30
0.0
 40
25.0
  1
05
 41
0.85
  7
SIMPLEX7
100
AcDbText
  0
TEXT
  5
EB7
330
1F
100
AcDbEntity
  8
POPIS
100
AcDbText
 10
2878.860202953416
 20
73.38317376474015
 30
0.0
 40
25.0
  1
03
 41
0.85
  7
SIMPLEX7
100
AcDbText
  0
TEXT
  5
EB8
330
1F
100
AcDbEntity
  8
POPIS
100
AcDbText
 10
2878.860202953416
 20
107.3333620094622
 30
0.0
 40
25.0
  1
02
 41
0.85
  7
SIMPLEX7
100
AcDbText
  0
TEXT
  5
EB9
330
1F
100
AcDbEntity
  8
POPIS
100
AcDbText
 10
2878.860202953416
 20
-107.3721946179089
 30
0.0
 40
25.0
  1
08
 41
0.85
  7
SIMPLEX7
100
AcDbText
  0
TEXT
  5
EBA
330
1F
100
AcDbEntity
  8
POPIS
100
AcDbText
 10
2878.860202953416
 20
-71.9300374812251
 30
0.0
 40
25.0
  1
07
 41
0.85
  7
SIMPLEX7
100
AcDbText
  0
TEXT
  5
EBB
330
1F
100
AcDbEntity
  8
POPIS
100
AcDbText
 10
2878.860202953416
 20
-33.74669763869997
 30
0.0
 40
25.0
  1
06
 41
0.85
  7
SIMPLEX7
100
AcDbText
  0
TEXT
  5
EBC
330
1F
100
AcDbEntity
  8
POPIS
100
AcDbText
 10
2933.203906113165
 20
143.9283736250904
 30
0.0
 40
25.0
  1
Deska CETRIS   (BASIC,FINISH,DOLOMIT)
 41
0.7
  7
SIMPLEX7
100
AcDbText
  0
TEXT
  5
EBD
330
1F
100
AcDbEntity
  8
POPIS
100
AcDbText
 10
2933.203906113165
 20
73.38317376474015
 30
0.0
 40
25.0
  1
Vzduchová mezera - min. 25 mm
 41
0.7
  7
SIMPLEX7
100
AcDbText
  0
TEXT
  5
EBE
330
1F
100
AcDbEntity
  8
POPIS
100
AcDbText
 10
2933.203906113165
 20
107.3333620094622
 30
0.0
 40
25.0
  1
Nerezový vrut s podložkou (np. SFS, EJOT)
 41
0.7
  7
SIMPLEX7
100
AcDbText
  0
TEXT
  5
EBF
330
1F
100
AcDbEntity
  8
POPIS
100
AcDbText
 10
2932.856642543207
 20
37.83699163215032
 30
0.0
 40
25.0
  1
Svislá dřevěné lať 50x25 (100x25), impregnovaná
 41
0.7
  7
SIMPLEX7
100
AcDbText
  0
TEXT
  5
EC0
330
1F
100
AcDbEntity
  8
POPIS
100
AcDbText
 10
2932.856642543207
 20
-72.07205839565222
 30
0.0
 40
25.0
  1
Tepelná izolace (np. ORSIL, ROCKWOOL, ISOVER, NOBASIL)
 41
0.7
  7
SIMPLEX7
100
AcDbText
  0
TEXT
  5
EC1
330
1F
100
AcDbEntity
  8
POPIS
100
AcDbText
 10
2932.856642543207
 20
-33.88871855312709
 30
0.0
 40
25.0
  1
Vodorovná dřevěná lať š=100 mm (tloušťka dle izolace)
 41
0.7
  7
SIMPLEX7
100
AcDbText
  0
TEXT
  5
EC2
330
1F
100
AcDbEntity
  8
POPIS
100
AcDbText
 10
2932.856642543207
 20
1.730170144961903
 30
0.0
 40
25.0
  1
Pojistná fólie - parozábrana
 41
0.7
  7
SIMPLEX7
100
AcDbText
  0
TEXT
  5
EC3
330
1F
100
AcDbEntity
  8
POPIS
100
AcDbText
 10
2932.856642543207
 20
-107.514215532336
 30
0.0
 40
25.0
  1
Talířová hmoždinka
 41
0.7
  7
SIMPLEX7
100
AcDbText
  0
HATCH
  5
EC4
330
1F
100
AcDbEntity
  8
STAVBA OBRYS
100
AcDbHatch
 10
0.0
 20
0.0
 30
0.0
210
0.0
220
0.0
230
1.0
  2
ANSI32
 70
     0
 71
     0
 91
        3
 92
        7
 72
     0
 73
     1
 93
        6
 10
2918.456809538438
 20
848.9116731170065
 10
2870.576319540032
 20
848.9116731170048
 10
2870.576319540032
 20
831.2549910584653
 10
2914.10306470032
 20
831.2549910584671
 10
2914.10306470032
 20
831.5411559924955
 10
2918.456809538435
 20
832.8606825199035
 97
        0
 92
        7
 72
     0
 73
     1
 93
        8
 10
3099.99460824061
 20
848.9116731170101
 10
2921.614554237207
 20
848.9116731170048
 10
2921.614554237207
 20
832.8606825199035
 10
2925.968299075317
 20
831.5411559924973
 10
2925.968299075321
 20
831.2549910584671
 10
3095.640863402492
 20
831.2549910584726
 10
3095.640863402495
 20
831.5411559924955
 10
3099.994608240602
 20
832.8606825199035
 97
        0
 92
        7
 72
     0
 73
     1
 93
        6
 10
3123.658493499468
 20
848.911673117012
 10
3103.152352939381
 20
848.9116731170101
 10
3103.152352939378
 20
832.8606825199035
 10
3107.506097777492
 20
831.5411559924955
 10
3107.506097777492
 20
831.2549910584689
 10
3123.65849349946
 20
831.2549910584706
 97
        0
 75
     0
 76
     1
 52
20.0
 41
1.0
 77
     0
 78
     2
 53
65.0
 43
-22640.70200574741
 44
-7364.091820854834
 45
-8.632581671524091
 46
4.025438943080162
 79
     0
 53
65.0
 43
-22636.48266372003
 44
-7362.556105948684
 45
-8.632581671524091
 46
4.025438943080162
 79
     0
 47
0.5779805388417864
 98
        3
 10
2902.641046715725
 20
840.1834244445685
 10
2954.687685539946
 20
837.2935387231605
 10
3107.357851722612
 20
840.7614332714125
  0
HATCH
  5
EC5
330
1F
100
AcDbEntity
  8
STAVBA OBRYS
100
AcDbHatch
 10
0.0
 20
0.0
 30
0.0
210
0.0
220
0.0
230
1.0
  2
ANSI32
 70
     0
 71
     0
 91
        3
 92
        7
 72
     0
 73
     1
 93
        6
 10
2869.600191138746
 20
927.1030147786527
 10
2851.943509080203
 20
927.1030147786527
 10
2851.9435090802
 20
918.6601131958354
 10
2852.240499123512
 20
918.6601131958354
 10
2853.56002565091
 20
914.3063683577251
 10
2869.600191138743
 20
914.3063683577251
 97
        0
 92
        7
 72
     0
 73
     1
 93
       16
 10
2869.600191138739
 20
911.1486236589458
 10
2853.560025650917
 20
911.1486236589458
 10
2852.240499123501
 20
906.7948788208354
 10
2851.943509080203
 20
906.7948788208354
 10
2851.943509080203
 20
876.6996246373341
 10
2866.016318084017
 20
876.6996246373324
 10
2865.97534117339
 20
876.5466967249354
 10
2868.047110949483
 20
873.8576544084349
 10
2866.191492942565
 20
871.4491651054991
 10
2866.075342078522
 20
871.0156841795337
 10
2851.943509080207
 20
871.0156841795337
 10
2851.943509080207
 20
854.4467556379327
 10
2852.240499123501
 20
854.4467556379309
 10
2853.560025650913
 20
858.8005004760521
 10
2853.56002565091
 20
861.9582451748224
 10
2869.600191138743
 20
861.9582451748224
 97
        0
 92
        7
 72
     0
 73
     1
 93
        6
 10
2869.600191138743
 20
858.8005004760431
 10
2853.56002565091
 20
858.8005004760411
 10
2852.240499123501
 20
854.4467556379327
 10
2851.943509080203
 20
854.4467556379327
 10
2851.943509080203
 20
828.0171890193573
 10
2869.600191138739
 20
828.0171890193573
 97
        0
 75
     0
 76
     1
 52
20.0
 41
1.0
 77
     0
 78
     2
 53
65.0
 43
-22640.70200574741
 44
-7364.091820854834
 45
-8.632581671524091
 46
4.025438943080162
 79
     0
 53
65.0
 43
-22636.48266372003
 44
-7362.556105948684
 45
-8.632581671524091
 46
4.025438943080162
 79
     0
 47
0.5779805388417864
 98
        3
 10
2862.738597985546
 20
919.3667922114959
 10
2861.003722840541
 20
888.7338293104816
 10
2860.42540976587
 20
840.7614332714125
  0
LINE
  5
EC6
330
1F
100
AcDbEntity
  8
STAVBA OBRYS
  6
DASHED
100
AcDbLine
 10
3082.036238545439
 20
888.9116731170101
 30
0.0
 11
3122.036238545435
 21
888.9116731170101
 31
0.0
  0
LINE
  5
EC7
330
1F
100
AcDbEntity
  8
STAVBA OBRYS
100
AcDbLine
 10
2903.059738973883
 20
888.9116731170101
 30
0.0
 11
2903.059738973883
 21
848.9116731170048
 31
0.0
  0
LINE
  5
EC8
330
1F
100
AcDbEntity
  8
STAVBA OBRYS
100
AcDbLine
 10
3082.036238545439
 20
888.9116731170101
 30
0.0
 11
2903.059738973883
 21
888.9116731170101
 31
0.0
  0
LINE
  5
EC9
330
1F
100
AcDbEntity
  8
STAVBA OBRYS
100
AcDbLine
 10
3122.036238545439
 20
848.9116731170101
 30
0.0
 11
3122.036238545439
 21
888.9116731170101
 31
0.0
  0
LINE
  5
ECA
330
1F
100
AcDbEntity
  8
STAVBA OBRYS
100
AcDbLine
 10
3082.036238545435
 20
1037.219762360318
 30
0.0
 11
3082.036238545439
 21
848.9116731170101
 31
0.0
  0
LINE
  5
ECB
330
1F
100
AcDbEntity
  8
STAVBA OBRYS
100
AcDbLine
 10
3122.036238545435
 20
1037.219762360318
 30
0.0
 11
3082.036238545435
 21
1037.219762360318
 31
0.0
  0
LINE
  5
ECC
330
1F
100
AcDbEntity
  8
STAVBA OBRYS
100
AcDbLine
 10
3122.036238545435
 20
1037.219762360318
 30
0.0
 11
3122.036238545439
 21
848.9116731170101
 31
0.0
  0
LINE
  5
ECD
330
1F
100
AcDbEntity
  8
STAVBA OBRYS
  6
IZOLACE
 48
4.0
100
AcDbLine
 10
3170.853981836604
 20
722.6199955597016
 30
0.0
 11
3170.199603634173
 21
278.4395535343351
 31
0.0
  0
HATCH
  5
ECE
330
1F
100
AcDbEntity
  8
PROFILY
100
AcDbHatch
 10
0.0
 20
0.0
 30
0.0
210
0.0
220
0.0
230
1.0
  2
SOLID
 70
     1
 71
     0
 91
        1
 92
        7
 72
     0
 73
     1
 93
        4
 10
3126.672617688153
 20
259.5937511321658
 10
3128.672617688156
 20
259.5937511321658
 10
3128.672617688156
 20
278.7761062767144
 10
3126.672617688156
 20
278.7761062767144
 97
        0
 75
     0
 76
     1
 47
0.0801976285649081
 98
        1
 10
3127.010290758451
 20
272.9346903841082
  0
LWPOLYLINE
  5
ECF
330
1F
100
AcDbEntity
  8
PROFILY
100
AcDbPolyline
 90
        4
 70
     1
 43
0.0
 10
3126.672617688156
 20
278.7766181142701
 10
3126.672617688156
 20
259.5942629697215
 10
3128.672617688156
 20
259.5942629697215
 10
3128.672617688156
 20
278.7766181142701
  0
HATCH
  5
ED0
330
1F
100
AcDbEntity
  8
PROFILY
100
AcDbHatch
 10
0.0
 20
0.0
 30
0.0
210
0.0
220
0.0
230
1.0
  2
SOLID
 70
     1
 71
     0
 91
        1
 92
        7
 72
     0
 73
     1
 93
        4
 10
3126.672617688153
 20
290.9440469472297
 10
3128.672617688156
 20
290.9440469472297
 10
3128.672617688156
 20
310.1264020917783
 10
3126.672617688156
 20
310.1264020917783
 97
        0
 75
     0
 76
     1
 47
0.0801976285649081
 98
        1
 10
3127.010290758451
 20
304.2849861991721
  0
LINE
  5
ED1
330
1F
100
AcDbEntity
  8
SPOJOVACÍ
100
AcDbLine
 10
3086.200651809824
 20
316.3763176163861
 30
0.0
 11
3086.200651809824
 21
309.2571769913861
 31
0.0
  0
LINE
  5
ED2
330
1F
100
AcDbEntity
  8
SPOJOVACÍ
100
AcDbLine
 10
3086.714024071083
 20
311.1556144913861
 30
0.0
 11
3086.709277977334
 21
311.1556144913861
 31
0.0
  0
LINE
  5
ED3
330
1F
100
AcDbEntity
  8
SPOJOVACÍ
100
AcDbLine
 10
3087.584567601039
 20
309.2571769913861
 30
0.0
 11
3086.200651809824
 21
309.2571769913879
 31
0.0
  0
LINE
  5
ED4
330
1F
100
AcDbEntity
  8
SPOJOVACÍ
100
AcDbLine
 10
3086.714024071083
 20
311.1556144913861
 30
0.0
 11
3086.709277977334
 21
311.1556144913861
 31
0.0
  0
LINE
  5
ED5
330
1F
100
AcDbEntity
  8
SPOJOVACÍ
100
AcDbLine
 10
3087.584567601039
 20
309.2571769913861
 30
0.0
 11
3085.897747742561
 21
309.2571769913861
 31
0.0
  0
LINE
  5
ED6
330
1F
100
AcDbEntity
  8
SPOJOVACÍ
100
AcDbLine
 10
3087.584567601039
 20
309.2571769913861
 30
0.0
 11
3087.584567601039
 21
316.3763176163861
 31
0.0
  0
LINE
  5
ED7
330
1F
100
AcDbEntity
  8
SPOJOVACÍ
100
AcDbLine
 10
3110.241256425539
 20
319.2182878452854
 30
0.0
 11
3111.76426368103
 21
313.534347387485
 31
0.0
  0
LINE
  5
ED8
330
1F
100
AcDbEntity
  8
SPOJOVACÍ
100
AcDbLine
 10
3116.351557373898
 20
319.2182878452854
 30
0.0
 11
3087.584567601039
 21
319.2182878452854
 31
0.0
  0
LINE
  5
ED9
330
1F
100
AcDbEntity
  8
SPOJOVACÍ
100
AcDbLine
 10
3116.351557373898
 20
313.534347387485
 30
0.0
 11
3087.584567601039
 21
313.534347387485
 31
0.0
  0
LINE
  5
EDA
330
1F
100
AcDbEntity
  8
SPOJOVACÍ
100
AcDbLine
 10
3102.331100175539
 20
319.2182878452854
 30
0.0
 11
3103.854107431034
 21
313.534347387485
 31
0.0
  0
LINE
  5
EDB
330
1F
100
AcDbEntity
  8
SPOJOVACÍ
100
AcDbLine
 10
3091.256881425539
 20
319.2182878452854
 30
0.0
 11
3092.779888681034
 21
313.534347387485
 31
0.0
  0
LINE
  5
EDC
330
1F
100
AcDbEntity
  8
SPOJOVACÍ
100
AcDbLine
 10
3096.002975175539
 20
319.2182878452854
 30
0.0
 11
3097.525982431034
 21
313.534347387485
 31
0.0
  0
LINE
  5
EDD
330
1F
100
AcDbEntity
  8
SPOJOVACÍ
100
AcDbLine
 10
3094.420943925539
 20
319.2182878452854
 30
0.0
 11
3095.943951181034
 21
313.534347387485
 31
0.0
  0
LINE
  5
EDE
330
1F
100
AcDbEntity
  8
SPOJOVACÍ
100
AcDbLine
 10
3092.838912675539
 20
319.2182878452854
 30
0.0
 11
3094.361919931034
 21
313.534347387485
 31
0.0
  0
LINE
  5
EDF
330
1F
100
AcDbEntity
  8
SPOJOVACÍ
100
AcDbLine
 10
3100.749068925539
 20
319.2182878452854
 30
0.0
 11
3102.27207618103
 21
313.534347387485
 31
0.0
  0
LINE
  5
EE0
330
1F
100
AcDbEntity
  8
SPOJOVACÍ
100
AcDbLine
 10
3099.167037675539
 20
319.2182878452854
 30
0.0
 11
3100.690044931031
 21
313.534347387485
 31
0.0
  0
LINE
  5
EE1
330
1F
100
AcDbEntity
  8
SPOJOVACÍ
100
AcDbLine
 10
3097.585006425539
 20
319.2182878452854
 30
0.0
 11
3099.108013681034
 21
313.534347387485
 31
0.0
  0
LINE
  5
EE2
330
1F
100
AcDbEntity
  8
SPOJOVACÍ
100
AcDbLine
 10
3108.659225175539
 20
319.2182878452854
 30
0.0
 11
3110.18223243103
 21
313.534347387485
 31
0.0
  0
LINE
  5
EE3
330
1F
100
AcDbEntity
  8
SPOJOVACÍ
100
AcDbLine
 10
3107.077193925535
 20
319.2182878452854
 30
0.0
 11
3108.60020118103
 21
313.534347387485
 31
0.0
  0
LINE
  5
EE4
330
1F
100
AcDbEntity
  8
SPOJOVACÍ
100
AcDbLine
 10
3105.495162675539
 20
319.2182878452854
 30
0.0
 11
3107.018169931031
 21
313.534347387485
 31
0.0
  0
LINE
  5
EE5
330
1F
100
AcDbEntity
  8
SPOJOVACÍ
100
AcDbLine
 10
3103.913131425539
 20
319.2182878452854
 30
0.0
 11
3105.43613868103
 21
313.534347387485
 31
0.0
  0
LINE
  5
EE6
330
1F
100
AcDbEntity
  8
SPOJOVACÍ
100
AcDbLine
 10
3114.987350175539
 20
319.2182878452854
 30
0.0
 11
3116.51035743103
 21
313.534347387485
 31
0.0
  0
LINE
  5
EE7
330
1F
100
AcDbEntity
  8
SPOJOVACÍ
100
AcDbLine
 10
3111.823287675539
 20
319.2182878452854
 30
0.0
 11
3113.34629493103
 21
313.534347387485
 31
0.0
  0
LINE
  5
EE8
330
1F
100
AcDbEntity
  8
SPOJOVACÍ
100
AcDbLine
 10
3113.405318925539
 20
319.2182878452854
 30
0.0
 11
3114.92832618103
 21
313.534347387485
 31
0.0
  0
LINE
  5
EE9
330
1F
100
AcDbEntity
  8
SPOJOVACÍ
100
AcDbLine
 10
3116.569381425539
 20
319.2182878452854
 30
0.0
 11
3117.643182993226
 21
315.2108058374192
 31
0.0
  0
LINE
  5
EEA
330
1F
100
AcDbEntity
  8
SPOJOVACÍ
100
AcDbLine
 10
3118.541150296503
 20
316.3763176163843
 30
0.0
 11
3116.351557373898
 21
319.2182878452854
 31
0.0
  0
LINE
  5
EEB
330
1F
100
AcDbEntity
  8
SPOJOVACÍ
100
AcDbLine
 10
3118.541150296503
 20
316.3763176163843
 30
0.0
 11
3116.351557373898
 21
313.534347387485
 31
0.0
  0
LINE
  5
EEC
330
1F
100
AcDbEntity
  8
NOSNÉ KONSTRUKCE
100
AcDbLine
 10
3112.123999982839
 20
336.3685057552988
 30
0.0
 11
3112.389538565137
 21
327.5029001677135
 31
0.0
  0
LINE
  5
EED
330
1F
100
AcDbEntity
  8
NOSNÉ KONSTRUKCE
100
AcDbLine
 10
3107.238098193786
 20
333.3114896919428
 30
0.0
 11
3107.848049235723
 21
325.6403711526832
 31
0.0
  0
LINE
  5
EEE
330
1F
100
AcDbEntity
  8
NOSNÉ KONSTRUKCE
100
AcDbLine
 10
3117.556711511094
 20
331.5502527282001
 30
0.0
 11
3121.068212762915
 21
262.7881322319785
 31
0.0
  0
LINE
  5
EEF
330
1F
100
AcDbEntity
  8
NOSNÉ KONSTRUKCE
100
AcDbLine
 10
3112.389538565137
 20
327.5029001677135
 30
0.0
 11
3113.079368320693
 21
262.6938564664865
 31
0.0
  0
LINE
  5
EF0
330
1F
100
AcDbEntity
  8
NOSNÉ KONSTRUKCE
100
AcDbLine
 10
3107.848049235723
 20
325.6403711526832
 30
0.0
 11
3107.848049235723
 21
262.6321220548502
 31
0.0
  0
LINE
  5
EF1
330
1F
100
AcDbEntity
  8
NOSNÉ KONSTRUKCE
100
AcDbLine
 10
3102.428000801428
 20
332.1706350634699
 30
0.0
 11
3108.752169446532
 21
262.6427915109393
 31
0.0
  0
LINE
  5
EF2
330
1F
100
AcDbEntity
  8
NOSNÉ KONSTRUKCE
100
AcDbLine
 10
3126.506027383013
 20
262.8523034822314
 30
0.0
 11
3125.285433650202
 21
319.9205181556676
 31
0.0
  0
LINE
  5
EF3
330
1F
100
AcDbEntity
  8
NOSNÉ KONSTRUKCE
100
AcDbLine
 10
3117.417855435236
 20
336.3685057552988
 30
0.0
 11
3117.556711511094
 21
331.5502527282001
 31
0.0
  0
LINE
  5
EF4
330
1F
100
AcDbEntity
  8
SPOJOVACÍ
100
AcDbLine
 10
3086.200651809824
 20
323.4954582413843
 30
0.0
 11
3087.584567601039
 21
323.4954582413861
 31
0.0
  0
LINE
  5
EF5
330
1F
100
AcDbEntity
  8
SPOJOVACÍ
100
AcDbLine
 10
3086.200651809824
 20
312.5403494393208
 30
0.0
 11
3086.200651809824
 21
323.4954582413861
 31
0.0
  0
HATCH
  5
EF6
330
1F
100
AcDbEntity
  8
SPOJOVACÍ
100
AcDbHatch
 10
0.0
 20
0.0
 30
0.0
210
0.0
220
0.0
230
1.0
  2
ANSI37
 70
     0
 71
     0
 91
        1
 92
        7
 72
     0
 73
     1
 93
        6
 10
3086.200651809824
 20
316.3763176163861
 10
3086.200651809828
 20
323.4954582413843
 10
3087.584567601039
 20
323.4954582413861
 10
3087.584567601039
 20
316.3763176163861
 10
3087.584567601039
 20
309.2571769913861
 10
3086.200651809824
 20
309.2571769913879
 97
        0
 75
     0
 76
     1
 52
-90.00000000000001
 41
0.9
 77
     0
 78
     2
 53
45.00000000000001
 43
-754.6456478425061
 44
-9766.484994454499
 45
2.02055762724056
 46
-2.020557627240558
 79
     0
 53
315.0
 43
-754.6456478425061
 44
-9766.484994454499
 45
-2.020557627240558
 46
-2.02055762724056
 79
     0
 47
0.0246402553748132
 98
        1
 10
3086.671603251798
 20
315.9754719546995
  0
ELLIPSE
  5
EF7
330
1F
100
AcDbEntity
  8
SPOJOVACÍ
100
AcDbEllipse
 10
3085.651357362523
 20
316.3763176163861
 30
0.0
 11
0.0000000000000018
 21
-7.321312510456553
 31
0.0
210
0.0
220
0.0
230
-1.0
 40
0.3214803388886193
 41
-0.2355512395776302
 42
3.377143893167422
  0
LINE
  5
EF8
330
1F
100
AcDbEntity
  8
SPOJOVACÍ
100
AcDbLine
 10
3087.584567601039
 20
316.3763176163861
 30
0.0
 11
3087.584567601039
 21
323.4954582413861
 31
0.0
  0
LINE
  5
EF9
330
1F
100
AcDbEntity
  8
SPOJOVACÍ
100
AcDbLine
 10
3085.897747742561
 20
323.4954582413861
 30
0.0
 11
3087.584567601039
 21
323.4954582413861
 31
0.0
  0
LINE
  5
EFA
330
1F
100
AcDbEntity
  8
CETRIS
100
AcDbLine
 10
3088.141282203348
 20
371.0287357198753
 30
0.0
 11
3088.141282203348
 21
264.7725273576465
 31
0.0
  0
LINE
  5
EFB
330
1F
100
AcDbEntity
  8
NOSNÉ KONSTRUKCE
100
AcDbLine
 10
3122.842564695198
 20
352.9505121347169
 30
0.0
 11
3124.534998597893
 21
385.934992338985
 31
0.0
  0
LINE
  5
EFC
330
1F
100
AcDbEntity
  8
NOSNÉ KONSTRUKCE
100
AcDbLine
 10
3105.258566695814
 20
370.6543783499032
 30
0.0
 11
3105.75345686742
 21
345.6766965585152
 31
0.0
  0
LINE
  5
EFD
330
1F
100
AcDbEntity
  8
NOSNÉ KONSTRUKCE
100
AcDbLine
 10
3119.246139003426
 20
369.4427522368491
 30
0.0
 11
3118.602287593406
 21
359.1467663149064
 31
0.0
  0
LINE
  5
EFE
330
1F
100
AcDbEntity
  8
NOSNÉ KONSTRUKCE
100
AcDbLine
 10
3122.842564695198
 20
352.9505121347169
 30
0.0
 11
3123.715503672622
 21
346.9088336354757
 31
0.0
  0
LINE
  5
EFF
330
1F
100
AcDbEntity
  8
NOSNÉ KONSTRUKCE
100
AcDbLine
 10
3125.285433650202
 20
319.9205181556676
 30
0.0
 11
3123.715503672622
 21
346.9088336354757
 31
0.0
  0
LINE
  5
F00
330
1F
100
AcDbEntity
  8
NOSNÉ KONSTRUKCE
100
AcDbLine
 10
3105.75345686742
 20
345.6766965585152
 30
0.0
 11
3107.238098193786
 21
333.3114896919428
 31
0.0
  0
HATCH
  5
F01
330
1F
100
AcDbEntity
  8
POPIS
100
AcDbHatch
 10
0.0
 20
0.0
 30
0.0
210
0.0
220
0.0
230
1.0
  2
SOLID
 70
     1
 71
     0
 91
        1
 92
        7
 72
     0
 73
     1
 93
        8
 10
3116.09905668033
 20
350.2871808009254
 10
3119.777898017932
 20
350.2871808009254
 10
3114.205328840551
 20
358.0880328838206
 10
3108.632759663167
 20
350.2871808009254
 10
3112.311601000765
 20
350.2871808009254
 10
3110.785855052807
 20
337.35153690184
 10
3114.205328840544
 20
342.7328335493234
 10
3117.624802628284
 20
337.35153690184
 97
        0
 75
     0
 76
     1
 47
0.3835833255279223
 98
        1
 10
3114.613511587802
 20
347.3789976204257
  0
LINE
  5
F02
330
1F
100
AcDbEntity
  8
POPIS
100
AcDbLine
 10
3114.205328840547
 20
358.083311787031
 30
0.0
 11
3108.632759663167
 21
350.2824597041339
 31
0.0
  0
LINE
  5
F03
330
1F
100
AcDbEntity
  8
POPIS
100
AcDbLine
 10
3108.632759663167
 20
350.2824597041339
 30
0.0
 11
3112.311601000765
 21
350.2824597041339
 31
0.0
  0
LINE
  5
F04
330
1F
100
AcDbEntity
  8
POPIS
100
AcDbLine
 10
3112.311601000765
 20
350.2871808009254
 30
0.0
 11
3110.785855052807
 21
337.3515369018418
 31
0.0
  0
LINE
  5
F05
330
1F
100
AcDbEntity
  8
POPIS
100
AcDbLine
 10
3116.09905668033
 20
350.2871808009254
 30
0.0
 11
3117.624802628288
 21
337.3515369018418
 31
0.0
  0
LINE
  5
F06
330
1F
100
AcDbEntity
  8
POPIS
100
AcDbLine
 10
3119.777898017928
 20
350.2824597041339
 30
0.0
 11
3116.09905668033
 21
350.2824597041339
 31
0.0
  0
LINE
  5
F07
330
1F
100
AcDbEntity
  8
POPIS
100
AcDbLine
 10
3114.205328840547
 20
358.083311787031
 30
0.0
 11
3119.777898017928
 21
350.2824597041339
 31
0.0
  0
HATCH
  5
F08
330
1F
100
AcDbEntity
  8
PROFILY
100
AcDbHatch
 10
0.0
 20
0.0
 30
0.0
210
0.0
220
0.0
230
1.0
  2
SOLID
 70
     1
 71
     0
 91
        1
 92
        7
 72
     0
 73
     1
 93
        4
 10
3126.672617688153
 20
325.3510371975621
 10
3128.672617688156
 20
325.3510371975621
 10
3128.672617688156
 20
344.5333923421108
 10
3126.672617688156
 20
344.5333923421108
 97
        0
 75
     0
 76
     1
 47
0.0801976285649081
 98
        1
 10
3127.010290758451
 20
338.6919764495046
  0
LWPOLYLINE
  5
F09
330
1F
100
AcDbEntity
  8
PROFILY
100
AcDbPolyline
 90
        4
 70
     1
 43
0.0
 10
3126.672617688156
 20
377.0489699575023
 10
3126.672617688156
 20
357.8666148129536
 10
3128.672617688156
 20
357.8666148129536
 10
3128.672617688156
 20
377.0489699575023
  0
HATCH
  5
F0A
330
1F
100
AcDbEntity
  8
PROFILY
100
AcDbHatch
 10
0.0
 20
0.0
 30
0.0
210
0.0
220
0.0
230
1.0
  2
SOLID
 70
     1
 71
     0
 91
        1
 92
        7
 72
     0
 73
     1
 93
        4
 10
3126.672617688153
 20
357.866102975398
 10
3128.672617688156
 20
357.866102975398
 10
3128.672617688156
 20
377.0484581199466
 10
3126.672617688156
 20
377.0484581199466
 97
        0
 75
     0
 76
     1
 47
0.0801976285649081
 98
        1
 10
3127.010290758451
 20
371.2070422273404
  0
LINE
  5
F0B
330
1F
100
AcDbEntity
  8
NOSNÉ KONSTRUKCE
100
AcDbLine
 10
3114.287741241402
 20
397.2167699746691
 30
0.0
 11
3112.672870850347
 21
363.9364874655252
 31
0.0
  0
LINE
  5
F0C
330
1F
100
AcDbEntity
  8
NOSNÉ KONSTRUKCE
100
AcDbLine
 10
3107.485528685359
 20
395.8793823181727
 30
0.0
 11
3105.258566695814
 21
370.6543783499032
 31
0.0
  0
LINE
  5
F0D
330
1F
100
AcDbEntity
  8
NOSNÉ KONSTRUKCE
100
AcDbLine
 10
3114.128061030551
 20
401.6056032749579
 30
0.0
 11
3114.287741241402
 21
397.2167699746691
 31
0.0
  0
LINE
  5
F0E
330
1F
100
AcDbEntity
  8
NOSNÉ KONSTRUKCE
100
AcDbLine
 10
3120.094588871205
 20
397.0550195367791
 30
0.0
 11
3119.246139003426
 21
369.4427522368491
 31
0.0
  0
LINE
  5
F0F
330
1F
100
AcDbEntity
  8
NOSNÉ KONSTRUKCE
100
AcDbLine
 10
3124.534998597893
 20
385.934992338985
 30
0.0
 11
3126.428000801428
 21
403.5916585588633
 31
0.0
  0
LINE
  5
F10
330
1F
100
AcDbEntity
  8
NOSNÉ KONSTRUKCE
100
AcDbLine
 10
3109.712461486455
 20
416.1582855002629
 30
0.0
 11
3107.485528685359
 21
395.8793823181727
 31
0.0
  0
LINE
  5
F11
330
1F
100
AcDbEntity
  8
NOSNÉ KONSTRUKCE
100
AcDbLine
 10
3103.913183464927
 20
417.76263253167
 30
0.0
 11
3103.038201296
 21
396.1911417536789
 31
0.0
  0
LINE
  5
F12
330
1F
100
AcDbEntity
  8
NOSNÉ KONSTRUKCE
100
AcDbLine
 10
3116.02355898065
 20
423.916282493486
 30
0.0
 11
3115.146708750919
 21
410.186600439843
 31
0.0
  0
LINE
  5
F13
330
1F
100
AcDbEntity
  8
NOSNÉ KONSTRUKCE
100
AcDbLine
 10
3115.146708750919
 20
410.186600439843
 30
0.0
 11
3114.128061030551
 21
401.6056032749579
 31
0.0
  0
LINE
  5
F14
330
1F
100
AcDbEntity
  8
NOSNÉ KONSTRUKCE
100
AcDbLine
 10
3119.883030984809
 20
426.4450299851228
 30
0.0
 11
3120.094588871205
 21
397.0550195367791
 31
0.0
  0
HATCH
  5
F15
330
1F
100
AcDbEntity
  8
PROFILY
100
AcDbHatch
 10
0.0
 20
0.0
 30
0.0
210
0.0
220
0.0
230
1.0
  2
SOLID
 70
     1
 71
     0
 91
        1
 92
        7
 72
     0
 73
     1
 93
        4
 10
3126.672617688153
 20
394.4541211196678
 10
3128.672617688156
 20
394.4541211196678
 10
3128.672617688156
 20
413.6364762642164
 10
3126.672617688156
 20
413.6364762642164
 97
        0
 75
     0
 76
     1
 47
0.0801976285649081
 98
        1
 10
3127.010290758451
 20
407.7950603716103
  0
LINE
  5
F16
330
1F
100
AcDbEntity
  8
NOSNÉ KONSTRUKCE
100
AcDbLine
 10
3119.67147309842
 20
464.5040345041739
 30
0.0
 11
3119.883030984809
 21
426.4450299851228
 31
0.0
  0
LINE
  5
F17
330
1F
100
AcDbEntity
  8
NOSNÉ KONSTRUKCE
100
AcDbLine
 10
3125.057968058503
 20
445.8120160728753
 30
0.0
 11
3123.26340376888
 21
465.6126006904228
 31
0.0
  0
LINE
  5
F18
330
1F
100
AcDbEntity
  8
NOSNÉ KONSTRUKCE
100
AcDbLine
 10
3108.722710331694
 20
439.4048563698775
 30
0.0
 11
3109.712461486455
 21
416.1582855002629
 31
0.0
  0
LINE
  5
F19
330
1F
100
AcDbEntity
  8
NOSNÉ KONSTRUKCE
100
AcDbLine
 10
3114.568339611996
 20
443.9870814718956
 30
0.0
 11
3116.02355898065
 21
423.916282493486
 31
0.0
  0
LINE
  5
F1A
330
1F
100
AcDbEntity
  8
NOSNÉ KONSTRUKCE
100
AcDbLine
 10
3102.163189938623
 20
437.002042949483
 30
0.0
 11
3103.913183464927
 21
417.76263253167
 31
0.0
  0
LINE
  5
F1B
330
1F
100
AcDbEntity
  8
NOSNÉ KONSTRUKCE
100
AcDbLine
 10
3106.292479975589
 20
462.3639670725638
 30
0.0
 11
3108.722710331694
 21
439.4048563698775
 31
0.0
  0
LINE
  5
F1C
330
1F
100
AcDbEntity
  8
NOSNÉ KONSTRUKCE
100
AcDbLine
 10
3113.986263539915
 20
456.2040934673491
 30
0.0
 11
3114.568339611996
 21
443.9870814718956
 31
0.0
  0
HATCH
  5
F1D
330
1F
100
AcDbEntity
  8
PROFILY
100
AcDbHatch
 10
0.0
 20
0.0
 30
0.0
210
0.0
220
0.0
230
1.0
  2
SOLID
 70
     1
 71
     0
 91
        1
 92
        7
 72
     0
 73
     1
 93
        4
 10
3126.672617688153
 20
429.2843904615633
 10
3128.672617688156
 20
429.2843904615633
 10
3128.672617688156
 20
448.466745606112
 10
3126.672617688156
 20
448.466745606112
 97
        0
 75
     0
 76
     1
 47
0.0801976285649081
 98
        1
 10
3127.010290758451
 20
442.6253297135058
  0
LINE
  5
F1E
330
1F
100
AcDbEntity
  8
NOSNÉ KONSTRUKCE
100
AcDbLine
 10
3113.549721080086
 20
472.0571202933747
 30
0.0
 11
3113.986263539915
 21
456.2040934673491
 31
0.0
  0
LINE
  5
F1F
330
1F
100
AcDbEntity
  8
NOSNÉ KONSTRUKCE
100
AcDbLine
 10
3119.250079444191
 20
485.5980004576481
 30
0.0
 11
3119.67147309842
 21
464.5040345041739
 31
0.0
  0
LINE
  5
F20
330
1F
100
AcDbEntity
  8
NOSNÉ KONSTRUKCE
100
AcDbLine
 10
3105.516446652535
 20
482.317021933653
 30
0.0
 11
3106.292479975589
 21
462.3639670725638
 31
0.0
  0
LINE
  5
F21
330
1F
100
AcDbEntity
  8
NOSNÉ KONSTRUKCE
100
AcDbLine
 10
3113.551910213839
 20
487.7212009136633
 30
0.0
 11
3113.115338565553
 21
478.412993566842
 31
0.0
  0
LINE
  5
F22
330
1F
100
AcDbEntity
  8
NOSNÉ KONSTRUKCE
100
AcDbLine
 10
3123.26340376888
 20
465.6126006904228
 30
0.0
 11
3123.375574982649
 21
485.2311662879324
 31
0.0
  0
HATCH
  5
F23
330
1F
100
AcDbEntity
  8
PROFILY
100
AcDbHatch
 10
0.0
 20
0.0
 30
0.0
210
0.0
220
0.0
230
1.0
  2
SOLID
 70
     1
 71
     0
 91
        1
 92
        7
 72
     0
 73
     1
 93
        4
 10
3126.672617688153
 20
462.8977324152124
 10
3128.672617688156
 20
462.8977324152124
 10
3128.672617688156
 20
482.080087559761
 10
3126.672617688156
 20
482.080087559761
 97
        0
 75
     0
 76
     1
 47
0.0801976285649081
 98
        1
 10
3127.010290758451
 20
476.2386716671549
  0
LINE
  5
F24
330
1F
100
AcDbEntity
  8
NOSNÉ KONSTRUKCE
100
AcDbLine
 10
3105.29441011255
 20
498.7402427324518
 30
0.0
 11
3105.516446652535
 21
482.317021933653
 31
0.0
  0
LINE
  5
F25
330
1F
100
AcDbEntity
  8
NOSNÉ KONSTRUKCE
100
AcDbLine
 10
3118.404023029321
 20
504.4160611974652
 30
0.0
 11
3119.250079444191
 21
485.5980004576481
 31
0.0
  0
LINE
  5
F26
330
1F
100
AcDbEntity
  8
NOSNÉ KONSTRUKCE
100
AcDbLine
 10
3113.842948249879
 20
501.3926152334347
 30
0.0
 11
3113.551910213839
 21
487.7212009136633
 31
0.0
  0
LINE
  5
F27
330
1F
100
AcDbEntity
  8
NOSNÉ KONSTRUKCE
100
AcDbLine
 10
3123.375574982649
 20
485.2311662879324
 30
0.0
 11
3124.72157117099
 21
492.5180605350464
 31
0.0
  0
LINE
  5
F28
330
1F
100
AcDbEntity
  8
NOSNÉ KONSTRUKCE
100
AcDbLine
 10
3124.72157117099
 20
492.5180605350464
 30
0.0
 11
3125.755484450765
 21
519.334188547436
 31
0.0
  0
LINE
  5
F29
330
1F
100
AcDbEntity
  8
NOSNÉ KONSTRUKCE
100
AcDbLine
 10
3125.755484450765
 20
519.334188547436
 30
0.0
 11
3126.069464608594
 21
539.5754251572939
 31
0.0
  0
LINE
  5
F2A
330
1F
100
AcDbEntity
  8
NOSNÉ KONSTRUKCE
100
AcDbLine
 10
3115.701269484703
 20
531.5693737335491
 30
0.0
 11
3116.171252538206
 21
526.1175269050286
 31
0.0
  0
LINE
  5
F2B
330
1F
100
AcDbEntity
  8
NOSNÉ KONSTRUKCE
100
AcDbLine
 10
3118.827138802105
 20
527.2514566930799
 30
0.0
 11
3118.404023029321
 21
504.4160611974652
 31
0.0
  0
LINE
  5
F2C
330
1F
100
AcDbEntity
  8
NOSNÉ KONSTRUKCE
100
AcDbLine
 10
3107.113795062203
 20
531.5693737335491
 30
0.0
 11
3107.07084837466
 21
526.5931575772042
 31
0.0
  0
LINE
  5
F2D
330
1F
100
AcDbEntity
  8
NOSNÉ KONSTRUKCE
100
AcDbLine
 10
3116.171252538206
 20
526.1175269050286
 30
0.0
 11
3113.842948249879
 21
501.3926152334347
 31
0.0
  0
LINE
  5
F2E
330
1F
100
AcDbEntity
  8
NOSNÉ KONSTRUKCE
100
AcDbLine
 10
3107.07084837466
 20
526.5931575772042
 30
0.0
 11
3105.29441011255
 21
498.7402427324518
 31
0.0
  0
HATCH
  5
F2F
330
1F
100
AcDbEntity
  8
PROFILY
100
AcDbHatch
 10
0.0
 20
0.0
 30
0.0
210
0.0
220
0.0
230
1.0
  2
SOLID
 70
     1
 71
     0
 91
        1
 92
        7
 72
     0
 73
     1
 93
        4
 10
3126.672617688153
 20
535.7671210609964
 10
3128.672617688156
 20
535.7671210609964
 10
3128.672617688156
 20
554.9494762055451
 10
3126.672617688156
 20
554.9494762055451
 97
        0
 75
     0
 76
     1
 47
0.0801976285649081
 98
        1
 10
3127.010290758451
 20
549.1080603129389
  0
LINE
  5
F30
330
1F
100
AcDbEntity
  8
POPIS
100
AcDbLine
 10
3114.205328840547
 20
552.7639716597145
 30
0.0
 11
3119.777898017928
 21
544.9631195768175
 31
0.0
  0
LINE
  5
F31
330
1F
100
AcDbEntity
  8
POPIS
100
AcDbLine
 10
3119.777898017928
 20
544.9631195768175
 30
0.0
 11
3116.09905668033
 21
544.9631195768175
 31
0.0
  0
LINE
  5
F32
330
1F
100
AcDbEntity
  8
POPIS
100
AcDbLine
 10
3108.632759663167
 20
544.9631195768175
 30
0.0
 11
3112.311601000765
 21
544.9631195768175
 31
0.0
  0
LINE
  5
F33
330
1F
100
AcDbEntity
  8
POPIS
100
AcDbLine
 10
3114.205328840547
 20
552.7639716597145
 30
0.0
 11
3108.632759663167
 21
544.9631195768175
 31
0.0
  0
LINE
  5
F34
330
1F
100
AcDbEntity
  8
NOSNÉ KONSTRUKCE
100
AcDbLine
 10
3118.827138802105
 20
531.5693737335491
 30
0.0
 11
3118.827138802105
 21
527.2514566930799
 31
0.0
  0
HATCH
  5
F35
330
1F
100
AcDbEntity
  8
PROFILY
100
AcDbHatch
 10
0.0
 20
0.0
 30
0.0
210
0.0
220
0.0
230
1.0
  2
SOLID
 70
     1
 71
     0
 91
        1
 92
        7
 72
     0
 73
     1
 93
        4
 10
3126.672617688153
 20
501.017325438615
 10
3128.672617688156
 20
501.017325438615
 10
3128.672617688156
 20
520.1996805831636
 10
3126.672617688156
 20
520.1996805831636
 97
        0
 75
     0
 76
     1
 47
0.0801976285649081
 98
        1
 10
3127.010290758451
 20
514.3582646905574
  0
LWPOLYLINE
  5
F36
330
1F
100
AcDbEntity
  8
PROFILY
100
AcDbPolyline
 90
        4
 70
     1
 43
0.0
 10
3126.672617688156
 20
520.2001924207193
 10
3126.672617688156
 20
501.0178372761706
 10
3128.672617688156
 20
501.0178372761706
 10
3128.672617688156
 20
520.2001924207193
  0
LINE
  5
F37
330
1F
100
AcDbEntity
  8
NOSNÉ KONSTRUKCE
100
AcDbLine
 10
3118.827138802105
 20
562.984640574446
 30
0.0
 11
3118.827138802105
 21
554.4593945473057
 31
0.0
  0
LINE
  5
F38
330
1F
100
AcDbEntity
  8
NOSNÉ KONSTRUKCE
100
AcDbLine
 10
3103.038201296
 20
550.5829216665874
 30
0.0
 11
3102.428000801428
 21
540.8146765986616
 31
0.0
  0
LINE
  5
F39
330
1F
100
AcDbEntity
  8
NOSNÉ KONSTRUKCE
100
AcDbLine
 10
3103.913183464927
 20
572.1544124445785
 30
0.0
 11
3103.038201296
 21
550.5829216665874
 31
0.0
  0
LINE
  5
F3A
330
1F
100
AcDbEntity
  8
NOSNÉ KONSTRUKCE
100
AcDbLine
 10
3112.680576601178
 20
556.4719314872777
 30
0.0
 11
3112.743502229783
 21
554.4593945473057
 31
0.0
  0
LINE
  5
F3B
330
1F
100
AcDbEntity
  8
NOSNÉ KONSTRUKCE
100
AcDbLine
 10
3107.848049235723
 20
562.7547987177272
 30
0.0
 11
3107.40656872098
 21
554.4593945473057
 31
0.0
  0
LINE
  5
F3C
330
1F
100
AcDbEntity
  8
NOSNÉ KONSTRUKCE
100
AcDbLine
 10
3112.389538565137
 20
583.8147601268242
 30
0.0
 11
3112.680576601178
 21
556.4719314872777
 31
0.0
  0
LINE
  5
F3D
330
1F
100
AcDbEntity
  8
NOSNÉ KONSTRUKCE
100
AcDbLine
 10
3107.848049235723
 20
581.9522311117939
 30
0.0
 11
3107.848049235723
 21
562.7547987177272
 31
0.0
  0
LINE
  5
F3E
330
1F
100
AcDbEntity
  8
NOSNÉ KONSTRUKCE
100
AcDbLine
 10
3126.069464608594
 20
539.5754251572939
 30
0.0
 11
3125.285433650202
 21
576.2323781147784
 31
0.0
  0
LINE
  5
F3F
330
1F
100
AcDbEntity
  8
POPIS
100
AcDbLine
 10
3116.09905668033
 20
544.9678406736088
 30
0.0
 11
3117.624802628288
 21
532.0321967745253
 31
0.0
  0
LINE
  5
F40
330
1F
100
AcDbEntity
  8
POPIS
100
AcDbLine
 10
3112.311601000765
 20
544.9678406736088
 30
0.0
 11
3110.785855052807
 21
532.0321967745253
 31
0.0
  0
HATCH
  5
F41
330
1F
100
AcDbEntity
  8
POPIS
100
AcDbHatch
 10
0.0
 20
0.0
 30
0.0
210
0.0
220
0.0
230
1.0
  2
SOLID
 70
     1
 71
     0
 91
        1
 92
        7
 72
     0
 73
     1
 93
        8
 10
3116.09905668033
 20
544.9678406736088
 10
3119.777898017932
 20
544.9678406736088
 10
3114.205328840551
 20
552.7686927565041
 10
3108.632759663167
 20
544.9678406736088
 10
3112.311601000765
 20
544.9678406736088
 10
3110.785855052807
 20
532.0321967745235
 10
3114.205328840544
 20
537.4134934220069
 10
3117.624802628284
 20
532.0321967745235
 97
        0
 75
     0
 76
     1
 47
0.3835833255279223
 98
        1
 10
3114.613511587802
 20
542.0596574931091
  0
LINE
  5
F42
330
1F
100
AcDbEntity
  8
NOSNÉ KONSTRUKCE
100
AcDbLine
 10
3102.428000801428
 20
588.4824950225879
 30
0.0
 11
3103.913183464927
 21
572.1544124445785
 31
0.0
  0
LINE
  5
F43
330
1F
100
AcDbEntity
  8
NOSNÉ KONSTRUKCE
100
AcDbLine
 10
3112.099638878648
 20
600.4748582053175
 30
0.0
 11
3112.099638878648
 21
593.4937162248602
 31
0.0
  0
LINE
  5
F44
330
1F
100
AcDbEntity
  8
NOSNÉ KONSTRUKCE
100
AcDbLine
 10
3112.099638878648
 20
593.4937162248602
 30
0.0
 11
3112.389538565137
 21
583.8147601268242
 31
0.0
  0
LINE
  5
F45
330
1F
100
AcDbEntity
  8
NOSNÉ KONSTRUKCE
100
AcDbLine
 10
3104.121559810261
 20
607.2984067111388
 30
0.0
 11
3105.708068827505
 21
600.1629724929876
 31
0.0
  0
LINE
  5
F46
330
1F
100
AcDbEntity
  8
NOSNÉ KONSTRUKCE
100
AcDbLine
 10
3105.708068827505
 20
600.1629724929876
 30
0.0
 11
3107.848049235723
 21
581.9522311117939
 31
0.0
  0
LINE
  5
F47
330
1F
100
AcDbEntity
  8
NOSNÉ KONSTRUKCE
100
AcDbLine
 10
3117.556711511094
 20
587.8621126873108
 30
0.0
 11
3118.827138802105
 21
562.984640574446
 31
0.0
  0
LINE
  5
F48
330
1F
100
AcDbEntity
  8
NOSNÉ KONSTRUKCE
100
AcDbLine
 10
3125.285433650202
 20
576.2323781147784
 30
0.0
 11
3123.715503672622
 21
603.2206935945865
 31
0.0
  0
LINE
  5
F49
330
1F
100
AcDbEntity
  8
NOSNÉ KONSTRUKCE
100
AcDbLine
 10
3116.075835494794
 20
604.7772358288598
 30
0.0
 11
3117.556711511094
 21
587.8621126873108
 31
0.0
  0
HATCH
  5
F4A
330
1F
100
AcDbEntity
  8
PROFILY
100
AcDbHatch
 10
0.0
 20
0.0
 30
0.0
210
0.0
220
0.0
230
1.0
  2
SOLID
 70
     1
 71
     0
 91
        1
 92
        7
 72
     0
 73
     1
 93
        4
 10
3126.672617688153
 20
570.1741113113289
 10
3128.672617688156
 20
570.1741113113289
 10
3128.672617688156
 20
589.3564664558775
 10
3126.672617688156
 20
589.3564664558775
 97
        0
 75
     0
 76
     1
 47
0.0801976285649081
 98
        1
 10
3127.010290758451
 20
583.5150505632713
  0
LINE
  5
F4B
330
1F
100
AcDbEntity
  8
NOSNÉ KONSTRUKCE
100
AcDbLine
 10
3111.37202919432
 20
609.6376307315654
 30
0.0
 11
3112.099638878648
 21
600.4748582053175
 31
0.0
  0
LINE
  5
F4C
330
1F
100
AcDbEntity
  8
NOSNÉ KONSTRUKCE
100
AcDbLine
 10
3104.200689698507
 20
644.6897856689897
 30
0.0
 11
3103.645408623622
 21
639.0607076678893
 31
0.0
  0
LINE
  5
F4D
330
1F
100
AcDbEntity
  8
NOSNÉ KONSTRUKCE
100
AcDbLine
 10
3110.498915086198
 20
621.8546427270226
 30
0.0
 11
3111.37202919432
 21
609.6376307315654
 31
0.0
  0
LINE
  5
F4E
330
1F
100
AcDbEntity
  8
NOSNÉ KONSTRUKCE
100
AcDbLine
 10
3104.676840885138
 20
622.6792664578347
 30
0.0
 11
3104.121559810261
 21
607.2984067111388
 31
0.0
  0
LINE
  5
F4F
330
1F
100
AcDbEntity
  8
NOSNÉ KONSTRUKCE
100
AcDbLine
 10
3114.383401592105
 20
632.0528491196778
 30
0.0
 11
3116.075835494794
 21
604.7772358288598
 31
0.0
  0
LINE
  5
F50
330
1F
100
AcDbEntity
  8
NOSNÉ KONSTRUKCE
100
AcDbLine
 10
3123.715503672622
 20
603.2206935945865
 30
0.0
 11
3121.045898837172
 21
639.8610321301198
 31
0.0
  0
HATCH
  5
F51
330
1F
100
AcDbEntity
  8
PROFILY
100
AcDbHatch
 10
0.0
 20
0.0
 30
0.0
210
0.0
220
0.0
230
1.0
  2
SOLID
 70
     1
 71
     0
 91
        1
 92
        7
 72
     0
 73
     1
 93
        4
 10
3126.672617688153
 20
602.6891770891648
 10
3128.672617688156
 20
602.6891770891648
 10
3128.672617688156
 20
621.8715322337134
 10
3126.672617688156
 20
621.8715322337134
 97
        0
 75
     0
 76
     1
 47
0.0801976285649081
 98
        1
 10
3127.010290758451
 20
616.0301163411072
  0
LWPOLYLINE
  5
F52
330
1F
100
AcDbEntity
  8
PROFILY
100
AcDbPolyline
 90
        4
 70
     1
 43
0.0
 10
3126.672617688156
 20
621.8720440712691
 10
3126.672617688156
 20
602.6896889267204
 10
3128.672617688156
 20
602.6896889267204
 10
3128.672617688156
 20
621.8720440712691
  0
LINE
  5
F53
330
1F
100
AcDbEntity
  8
NOSNÉ KONSTRUKCE
100
AcDbLine
 10
3111.37202919432
 20
635.9623795480469
 30
0.0
 11
3111.37202919432
 21
631.5991545355459
 31
0.0
  0
LINE
  5
F54
330
1F
100
AcDbEntity
  8
NOSNÉ KONSTRUKCE
100
AcDbLine
 10
3111.37202919432
 20
631.5991545355459
 30
0.0
 11
3110.498915086198
 21
621.8546427270226
 31
0.0
  0
LINE
  5
F55
330
1F
100
AcDbEntity
  8
NOSNÉ KONSTRUKCE
100
AcDbLine
 10
3104.200689698507
 20
633.0352286810371
 30
0.0
 11
3104.676840885138
 21
622.6792664578347
 31
0.0
  0
LINE
  5
F56
330
1F
100
AcDbEntity
  8
NOSNÉ KONSTRUKCE
100
AcDbLine
 10
3108.46164883392
 20
644.6888115335018
 30
0.0
 11
3111.37202919432
 21
635.9623795480469
 31
0.0
  0
LINE
  5
F57
330
1F
100
AcDbEntity
  8
NOSNÉ KONSTRUKCE
100
AcDbLine
 10
3103.645408623622
 20
639.0607076678893
 30
0.0
 11
3104.200689698507
 21
633.0352286810371
 31
0.0
  0
HATCH
  5
F58
330
1F
100
AcDbEntity
  8
PROFILY
100
AcDbHatch
 10
0.0
 20
0.0
 30
0.0
210
0.0
220
0.0
230
1.0
  2
SOLID
 70
     1
 71
     0
 91
        1
 92
        7
 72
     0
 73
     1
 93
        4
 10
3126.672617688153
 20
674.1074645753301
 10
3128.672617688156
 20
674.1074645753301
 10
3128.672617688156
 20
693.2898197198787
 10
3126.672617688156
 20
693.2898197198787
 97
        0
 75
     0
 76
     1
 47
0.0801976285649081
 98
        1
 10
3127.010290758451
 20
687.4484038272726
  0
HATCH
  5
F59
330
1F
100
AcDbEntity
  8
PROFILY
100
AcDbHatch
 10
0.0
 20
0.0
 30
0.0
210
0.0
220
0.0
230
1.0
  2
SOLID
 70
     1
 71
     0
 91
        1
 92
        7
 72
     0
 73
     1
 93
        4
 10
3126.672617688153
 20
639.2771952334347
 10
3128.672617688156
 20
639.2771952334347
 10
3128.672617688156
 20
658.4595503779833
 10
3126.672617688156
 20
658.4595503779833
 97
        0
 75
     0
 76
     1
 47
0.0801976285649081
 98
        1
 10
3127.010290758451
 20
652.6181344853771
  0
LINE
  5
F5A
330
1F
100
AcDbEntity
  8
NOSNÉ KONSTRUKCE
100
AcDbLine
 10
3113.114083462201
 20
653.1967485367272
 30
0.0
 11
3114.383401592105
 21
632.0528491196778
 31
0.0
  0
LINE
  5
F5B
330
1F
100
AcDbEntity
  8
NOSNÉ KONSTRUKCE
100
AcDbLine
 10
3125.931247045929
 20
649.9839418870447
 30
0.0
 11
3126.965160325704
 21
676.8000698994342
 31
0.0
  0
LINE
  5
F5C
330
1F
100
AcDbEntity
  8
NOSNÉ KONSTRUKCE
100
AcDbLine
 10
3126.965160325704
 20
676.8000698994342
 30
0.0
 11
3127.279140483533
 21
697.0413065092921
 31
0.0
  0
LINE
  5
F5D
330
1F
100
AcDbEntity
  8
NOSNÉ KONSTRUKCE
100
AcDbLine
 10
3120.036814677045
 20
684.7173380450781
 30
0.0
 11
3121.2259100433
 21
665.6387408631903
 31
0.0
  0
LINE
  5
F5E
330
1F
100
AcDbEntity
  8
NOSNÉ KONSTRUKCE
100
AcDbLine
 10
3117.380928413146
 20
683.5834082570268
 30
0.0
 11
3115.052624124819
 21
658.8584965854329
 31
0.0
  0
LINE
  5
F5F
330
1F
100
AcDbEntity
  8
NOSNÉ KONSTRUKCE
100
AcDbLine
 10
3108.280524249599
 20
684.0590389292024
 30
0.0
 11
3106.50408598749
 21
656.20612408445
 31
0.0
  0
LINE
  5
F60
330
1F
100
AcDbEntity
  8
NOSNÉ KONSTRUKCE
100
AcDbLine
 10
3116.218585952887
 20
697.0666881506381
 30
0.0
 11
3117.380928413146
 21
683.5834082570268
 31
0.0
  0
LINE
  5
F61
330
1F
100
AcDbEntity
  8
NOSNÉ KONSTRUKCE
100
AcDbLine
 10
3115.052624124819
 20
658.8584965854329
 30
0.0
 11
3113.114083462201
 21
653.1967485367272
 31
0.0
  0
LINE
  5
F62
330
1F
100
AcDbEntity
  8
NOSNÉ KONSTRUKCE
100
AcDbLine
 10
3121.516883668137
 20
654.2966377013067
 30
0.0
 11
3121.2259100433
 21
665.6387408631903
 31
0.0
  0
LINE
  5
F63
330
1F
100
AcDbEntity
  8
NOSNÉ KONSTRUKCE
100
AcDbLine
 10
3102.428000801432
 20
653.5483987842066
 30
0.0
 11
3104.200689698507
 21
644.6897856689897
 31
0.0
  0
LINE
  5
F64
330
1F
100
AcDbEntity
  8
NOSNÉ KONSTRUKCE
100
AcDbLine
 10
3106.50408598749
 20
656.20612408445
 30
0.0
 11
3108.46164883392
 21
644.6888115335018
 31
0.0
  0
LINE
  5
F65
330
1F
100
AcDbEntity
  8
NOSNÉ KONSTRUKCE
100
AcDbLine
 10
3121.045898837172
 20
639.8610321301198
 30
0.0
 11
3121.516883668137
 21
654.2966377013067
 31
0.0
  0
LINE
  5
F66
330
1F
100
AcDbEntity
  8
NOSNÉ KONSTRUKCE
100
AcDbLine
 10
3114.181290512158
 20
704.6296054924582
 30
0.0
 11
3116.218585952887
 21
697.0666881506381
 31
0.0
  0
LINE
  5
F67
330
1F
100
AcDbEntity
  8
NOSNÉ KONSTRUKCE
100
AcDbLine
 10
3113.309314753587
 20
750.9595975768584
 30
0.0
 11
3113.599214440077
 21
741.2806414788223
 31
0.0
  0
LINE
  5
F68
330
1F
100
AcDbEntity
  8
NOSNÉ KONSTRUKCE
100
AcDbLine
 10
3106.917744702445
 20
757.6288538449857
 30
0.0
 11
3109.057725110663
 21
739.418112463792
 31
0.0
  0
LINE
  5
F69
330
1F
100
AcDbEntity
  8
NOSNÉ KONSTRUKCE
100
AcDbLine
 10
3117.285511369733
 20
762.243117180858
 30
0.0
 11
3118.766387386033
 21
745.327994039309
 31
0.0
  0
LINE
  5
F6A
330
1F
100
AcDbEntity
  8
NOSNÉ KONSTRUKCE
100
AcDbLine
 10
3112.58170506926
 20
767.1035120835636
 30
0.0
 11
3113.309314753587
 21
757.9407395573157
 31
0.0
  0
LINE
  5
F6B
330
1F
100
AcDbEntity
  8
NOSNÉ KONSTRUKCE
100
AcDbLine
 10
3105.3312356852
 20
764.7642880631369
 30
0.0
 11
3106.917744702445
 21
757.6288538449857
 31
0.0
  0
LINE
  5
F6C
330
1F
100
AcDbEntity
  8
NOSNÉ KONSTRUKCE
100
AcDbLine
 10
3113.309314753587
 20
757.9407395573157
 30
0.0
 11
3113.309314753587
 21
750.9595975768584
 31
0.0
  0
HATCH
  5
F6D
330
1F
100
AcDbEntity
  8
PROFILY
100
AcDbHatch
 10
0.0
 20
0.0
 30
0.0
210
0.0
220
0.0
230
1.0
  2
SOLID
 70
     1
 71
     0
 91
        1
 92
        7
 72
     0
 73
     1
 93
        4
 10
3126.672617688153
 20
707.7208065289791
 10
3128.672617688156
 20
707.7208065289791
 10
3128.672617688156
 20
726.9031616735278
 10
3126.672617688156
 20
726.9031616735278
 97
        0
 75
     0
 76
     1
 47
0.0801976285649081
 98
        1
 10
3127.010290758451
 20
721.0617457809217
  0
LINE
  5
F6E
330
1F
100
AcDbEntity
  8
NOSNÉ KONSTRUKCE
100
AcDbLine
 10
3108.502589978026
 20
709.7897094138838
 30
0.0
 11
3108.280524249599
 21
684.0590389292024
 31
0.0
  0
LINE
  5
F6F
330
1F
100
AcDbEntity
  8
NOSNÉ KONSTRUKCE
100
AcDbLine
 10
3120.036814677045
 20
720.4505219264442
 30
0.0
 11
3120.036814677045
 21
684.7173380450781
 31
0.0
  0
LINE
  5
F70
330
1F
100
AcDbEntity
  8
NOSNÉ KONSTRUKCE
100
AcDbLine
 10
3127.279140483533
 20
697.0413065092921
 30
0.0
 11
3126.495109525142
 21
733.6982594667765
 31
0.0
  0
LINE
  5
F71
330
1F
100
AcDbEntity
  8
NOSNÉ KONSTRUKCE
100
AcDbLine
 10
3109.057725110663
 20
739.418112463792
 30
0.0
 11
3109.057725110663
 21
720.2206800697254
 31
0.0
  0
LINE
  5
F72
330
1F
100
AcDbEntity
  8
NOSNÉ KONSTRUKCE
100
AcDbLine
 10
3109.057725110663
 20
720.2206800697254
 30
0.0
 11
3108.502589978026
 21
709.7897094138838
 31
0.0
  0
LINE
  5
F73
330
1F
100
AcDbEntity
  8
NOSNÉ KONSTRUKCE
100
AcDbLine
 10
3118.766387386033
 20
745.327994039309
 30
0.0
 11
3120.036814677045
 21
720.4505219264442
 31
0.0
  0
LINE
  5
F74
330
1F
100
AcDbEntity
  8
NOSNÉ KONSTRUKCE
100
AcDbLine
 10
3113.599214440077
 20
741.2806414788223
 30
0.0
 11
3113.890252476117
 21
713.9378128392759
 31
0.0
  0
LINE
  5
F75
330
1F
100
AcDbEntity
  8
NOSNÉ KONSTRUKCE
100
AcDbLine
 10
3113.890252476117
 20
713.9378128392759
 30
0.0
 11
3114.181290512158
 21
704.6296054924582
 31
0.0
  0
LINE
  5
F76
330
1F
100
AcDbEntity
  8
NOSNÉ KONSTRUKCE
100
AcDbLine
 10
3105.122859339866
 20
729.6202937965768
 30
0.0
 11
3104.247877170939
 21
708.0488030185856
 31
0.0
  0
LINE
  5
F77
330
1F
100
AcDbEntity
  8
NOSNÉ KONSTRUKCE
100
AcDbLine
 10
3103.637676676368
 20
745.9483763745879
 30
0.0
 11
3105.122859339866
 21
729.6202937965768
 31
0.0
  0
LINE
  5
F78
330
1F
100
AcDbEntity
  8
PROFILY
100
AcDbLine
 10
3128.672617688156
 20
260.3099303019021
 30
0.0
 11
3128.67261768816
 21
823.9058087970875
 31
0.0
  0
LINE
  5
F79
330
1F
100
AcDbEntity
  8
PROFILY
100
AcDbLine
 10
3126.67261768816
 20
823.9058087970875
 30
0.0
 11
3126.672617688153
 21
260.3099303019021
 31
0.0
  0
HATCH
  5
F7A
330
1F
100
AcDbEntity
  8
PROFILY
100
AcDbHatch
 10
0.0
 20
0.0
 30
0.0
210
0.0
220
0.0
230
1.0
  2
SOLID
 70
     1
 71
     0
 91
        1
 92
        7
 72
     0
 73
     1
 93
        4
 10
3126.672617688153
 20
804.4152873424586
 10
3128.672617688156
 20
804.4152873424586
 10
3128.672617688156
 20
823.5976424870072
 10
3126.672617688156
 20
823.5976424870072
 97
        0
 75
     0
 76
     1
 47
0.0801976285649081
 98
        1
 10
3127.010290758451
 20
817.7562265944011
  0
LINE
  5
F7B
330
1F
100
AcDbEntity
  8
NOSNÉ KONSTRUKCE
100
AcDbLine
 10
3126.428000801428
 20
823.1046222151922
 30
0.0
 11
3126.428000801436
 21
262.8513826962821
 31
0.0
  0
LINE
  5
F7C
330
1F
100
AcDbEntity
  8
NOSNÉ KONSTRUKCE
100
AcDbLine
 10
3102.428000801428
 20
823.1046222151922
 30
0.0
 11
3126.428000801428
 21
823.1046222151922
 31
0.0
  0
LINE
  5
F7D
330
1F
100
AcDbEntity
  8
SPOJOVACÍ
100
AcDbLine
 10
3110.241256425539
 20
778.2970073258507
 30
0.0
 11
3111.76426368103
 21
772.6130668680484
 31
0.0
  0
LINE
  5
F7E
330
1F
100
AcDbEntity
  8
SPOJOVACÍ
100
AcDbLine
 10
3102.331100175539
 20
778.2970073258507
 30
0.0
 11
3103.854107431034
 21
772.6130668680484
 31
0.0
  0
LINE
  5
F7F
330
1F
100
AcDbEntity
  8
SPOJOVACÍ
100
AcDbLine
 10
3108.659225175539
 20
778.2970073258507
 30
0.0
 11
3110.18223243103
 21
772.6130668680484
 31
0.0
  0
LINE
  5
F80
330
1F
100
AcDbEntity
  8
SPOJOVACÍ
100
AcDbLine
 10
3107.077193925535
 20
778.2970073258507
 30
0.0
 11
3108.60020118103
 21
772.6130668680484
 31
0.0
  0
LINE
  5
F81
330
1F
100
AcDbEntity
  8
SPOJOVACÍ
100
AcDbLine
 10
3105.495162675539
 20
778.2970073258507
 30
0.0
 11
3107.018169931031
 21
772.6130668680484
 31
0.0
  0
LINE
  5
F82
330
1F
100
AcDbEntity
  8
SPOJOVACÍ
100
AcDbLine
 10
3103.913131425539
 20
778.2970073258507
 30
0.0
 11
3105.43613868103
 21
772.6130668680484
 31
0.0
  0
LINE
  5
F83
330
1F
100
AcDbEntity
  8
SPOJOVACÍ
100
AcDbLine
 10
3114.987350175539
 20
778.2970073258507
 30
0.0
 11
3116.51035743103
 21
772.6130668680484
 31
0.0
  0
LINE
  5
F84
330
1F
100
AcDbEntity
  8
SPOJOVACÍ
100
AcDbLine
 10
3111.823287675539
 20
778.2970073258507
 30
0.0
 11
3113.34629493103
 21
772.6130668680484
 31
0.0
  0
LINE
  5
F85
330
1F
100
AcDbEntity
  8
SPOJOVACÍ
100
AcDbLine
 10
3113.405318925539
 20
778.2970073258507
 30
0.0
 11
3114.92832618103
 21
772.6130668680484
 31
0.0
  0
LINE
  5
F86
330
1F
100
AcDbEntity
  8
SPOJOVACÍ
100
AcDbLine
 10
3116.569381425539
 20
778.2970073258507
 30
0.0
 11
3117.643182993226
 21
774.2895253179844
 31
0.0
  0
LINE
  5
F87
330
1F
100
AcDbEntity
  8
SPOJOVACÍ
100
AcDbLine
 10
3118.541150296503
 20
775.4550370969496
 30
0.0
 11
3116.351557373898
 21
778.2970073258507
 31
0.0
  0
LINE
  5
F88
330
1F
100
AcDbEntity
  8
SPOJOVACÍ
100
AcDbLine
 10
3118.541150296503
 20
775.4550370969496
 30
0.0
 11
3116.351557373898
 21
772.6130668680484
 31
0.0
  0
LINE
  5
F89
330
1F
100
AcDbEntity
  8
NOSNÉ KONSTRUKCE
100
AcDbLine
 10
3105.886516760078
 20
780.1451478098329
 30
0.0
 11
3105.3312356852
 21
764.7642880631369
 31
0.0
  0
LINE
  5
F8A
330
1F
100
AcDbEntity
  8
NOSNÉ KONSTRUKCE
100
AcDbLine
 10
3111.708590961137
 20
779.3205240790207
 30
0.0
 11
3112.58170506926
 21
767.1035120835636
 31
0.0
  0
SOLID
  5
F8B
330
1F
100
AcDbEntity
  8
CETRIS
100
AcDbTrace
 10
3088.141282203348
 20
262.4397908505739
 30
0.0
 11
3100.141282203349
 21
262.5411750641173
 31
0.0
 12
3088.141282203348
 22
821.252313828168
 32
0.0
 13
3100.141282203349
 23
821.252313828168
 33
0.0
  0
LINE
  5
F8C
330
1F
100
AcDbEntity
  8
CETRIS
100
AcDbLine
 10
3088.141282203348
 20
821.252313828168
 30
0.0
 11
3088.141282203348
 21
371.0287357198753
 31
0.0
  0
LINE
  5
F8D
330
1F
100
AcDbEntity
  8
SPOJOVACÍ
100
AcDbLine
 10
3116.351557373898
 20
778.2970073258507
 30
0.0
 11
3087.584567601039
 21
778.2970073258507
 31
0.0
  0
LINE
  5
F8E
330
1F
100
AcDbEntity
  8
SPOJOVACÍ
100
AcDbLine
 10
3116.351557373898
 20
772.6130668680484
 30
0.0
 11
3087.584567601039
 21
772.6130668680484
 31
0.0
  0
LINE
  5
F8F
330
1F
100
AcDbEntity
  8
SPOJOVACÍ
100
AcDbLine
 10
3087.584567601039
 20
768.3358964719496
 30
0.0
 11
3087.584567601039
 21
775.4550370969496
 31
0.0
  0
LINE
  5
F90
330
1F
100
AcDbEntity
  8
SPOJOVACÍ
100
AcDbLine
 10
3091.256881425539
 20
778.2970073258507
 30
0.0
 11
3092.779888681034
 21
772.6130668680484
 31
0.0
  0
LINE
  5
F91
330
1F
100
AcDbEntity
  8
SPOJOVACÍ
100
AcDbLine
 10
3089.674850175539
 20
778.2970073258507
 30
0.0
 11
3091.19785743103
 21
772.6130668680484
 31
0.0
  0
LINE
  5
F92
330
1F
100
AcDbEntity
  8
SPOJOVACÍ
100
AcDbLine
 10
3085.897747742561
 20
782.5741777219495
 30
0.0
 11
3087.584567601039
 21
782.5741777219495
 31
0.0
  0
LINE
  5
F93
330
1F
100
AcDbEntity
  8
SPOJOVACÍ
100
AcDbLine
 10
3087.584567601039
 20
775.4550370969496
 30
0.0
 11
3087.584567601039
 21
782.5741777219495
 31
0.0
  0
LINE
  5
F94
330
1F
100
AcDbEntity
  8
SPOJOVACÍ
100
AcDbLine
 10
3096.002975175539
 20
778.2970073258507
 30
0.0
 11
3097.525982431034
 21
772.6130668680484
 31
0.0
  0
LINE
  5
F95
330
1F
100
AcDbEntity
  8
SPOJOVACÍ
100
AcDbLine
 10
3094.420943925539
 20
778.2970073258507
 30
0.0
 11
3095.943951181034
 21
772.6130668680484
 31
0.0
  0
LINE
  5
F96
330
1F
100
AcDbEntity
  8
SPOJOVACÍ
100
AcDbLine
 10
3092.838912675539
 20
778.2970073258507
 30
0.0
 11
3094.361919931034
 21
772.6130668680484
 31
0.0
  0
LINE
  5
F97
330
1F
100
AcDbEntity
  8
SPOJOVACÍ
100
AcDbLine
 10
3100.749068925539
 20
778.2970073258507
 30
0.0
 11
3102.27207618103
 21
772.6130668680484
 31
0.0
  0
LINE
  5
F98
330
1F
100
AcDbEntity
  8
SPOJOVACÍ
100
AcDbLine
 10
3099.167037675539
 20
778.2970073258507
 30
0.0
 11
3100.690044931031
 21
772.6130668680484
 31
0.0
  0
LINE
  5
F99
330
1F
100
AcDbEntity
  8
SPOJOVACÍ
100
AcDbLine
 10
3097.585006425539
 20
778.2970073258507
 30
0.0
 11
3099.108013681034
 21
772.6130668680484
 31
0.0
  0
LINE
  5
F9A
330
1F
100
AcDbEntity
  8
SPOJOVACÍ
100
AcDbLine
 10
3087.584567601039
 20
768.3358964719496
 30
0.0
 11
3085.897747742561
 21
768.3358964719496
 31
0.0
  0
ELLIPSE
  5
F9B
330
1F
100
AcDbEntity
  8
SPOJOVACÍ
100
AcDbEllipse
 10
3085.651357362523
 20
775.4550370969496
 30
0.0
 11
0.0000000000000018
 21
-7.321312510456553
 31
0.0
210
0.0
220
0.0
230
-1.0
 40
0.3214803388886193
 41
-0.2355512395776302
 42
3.377143893167422
  0
HATCH
  5
F9C
330
1F
100
AcDbEntity
  8
SPOJOVACÍ
100
AcDbHatch
 10
0.0
 20
0.0
 30
0.0
210
0.0
220
0.0
230
1.0
  2
ANSI37
 70
     0
 71
     0
 91
        1
 92
        7
 72
     0
 73
     1
 93
        6
 10
3086.200651809824
 20
775.4550370969496
 10
3086.200651809828
 20
782.5741777219477
 10
3087.584567601039
 20
782.5741777219495
 10
3087.584567601039
 20
775.4550370969496
 10
3087.584567601039
 20
768.3358964719496
 10
3086.200651809824
 20
768.3358964719514
 97
        0
 75
     0
 76
     1
 52
-90.00000000000001
 41
0.9
 77
     0
 78
     2
 53
45.00000000000001
 43
-754.6456478425061
 44
-9307.406274973935
 45
2.02055762724056
 46
-2.020557627240558
 79
     0
 53
315.0
 43
-754.6456478425061
 44
-9307.406274973935
 45
-2.020557627240558
 46
-2.02055762724056
 79
     0
 47
0.0246402553748132
 98
        1
 10
3086.671603251798
 20
775.054191435263
  0
LINE
  5
F9D
330
1F
100
AcDbEntity
  8
SPOJOVACÍ
100
AcDbLine
 10
3086.714024071083
 20
770.2343339719496
 30
0.0
 11
3086.709277977334
 21
770.2343339719496
 31
0.0
  0
LINE
  5
F9E
330
1F
100
AcDbEntity
  8
SPOJOVACÍ
100
AcDbLine
 10
3087.584567601039
 20
768.3358964719496
 30
0.0
 11
3086.200651809824
 21
768.3358964719514
 31
0.0
  0
LINE
  5
F9F
330
1F
100
AcDbEntity
  8
SPOJOVACÍ
100
AcDbLine
 10
3086.714024071083
 20
770.2343339719496
 30
0.0
 11
3086.709277977334
 21
770.2343339719496
 31
0.0
  0
LINE
  5
FA0
330
1F
100
AcDbEntity
  8
SPOJOVACÍ
100
AcDbLine
 10
3086.200651809824
 20
775.4550370969496
 30
0.0
 11
3086.200651809824
 21
768.3358964719496
 31
0.0
  0
LINE
  5
FA1
330
1F
100
AcDbEntity
  8
SPOJOVACÍ
100
AcDbLine
 10
3086.200651809824
 20
771.6190689198842
 30
0.0
 11
3086.200651809824
 21
782.5741777219495
 31
0.0
  0
LINE
  5
FA2
330
1F
100
AcDbEntity
  8
SPOJOVACÍ
100
AcDbLine
 10
3086.200651809824
 20
782.5741777219477
 30
0.0
 11
3087.584567601039
 21
782.5741777219495
 31
0.0
  0
LINE
  5
FA3
330
1F
100
AcDbEntity
  8
NOSNÉ KONSTRUKCE
100
AcDbLine
 10
3102.428000801428
 20
823.1046222151922
 30
0.0
 11
3102.428000801428
 21
262.5681604620508
 31
0.0
  0
LINE
  5
FA4
330
1F
100
AcDbEntity
  8
NOSNÉ KONSTRUKCE
100
AcDbLine
 10
3115.593077467045
 20
789.518730471676
 30
0.0
 11
3117.285511369733
 21
762.243117180858
 31
0.0
  0
LINE
  5
FA5
330
1F
100
AcDbEntity
  8
NOSNÉ KONSTRUKCE
100
AcDbLine
 10
3112.58170506926
 20
789.0650358875441
 30
0.0
 11
3111.708590961137
 21
779.3205240790207
 31
0.0
  0
LINE
  5
FA6
330
1F
100
AcDbEntity
  8
NOSNÉ KONSTRUKCE
100
AcDbLine
 10
3124.925179547561
 20
760.6865749465846
 30
0.0
 11
3122.255574712111
 21
797.326913482118
 31
0.0
  0
LINE
  5
FA7
330
1F
100
AcDbEntity
  8
NOSNÉ KONSTRUKCE
100
AcDbLine
 10
3104.855084498562
 20
796.5265890198875
 30
0.0
 11
3105.410365573447
 21
790.5011100330352
 31
0.0
  0
LINE
  5
FA8
330
1F
100
AcDbEntity
  8
NOSNÉ KONSTRUKCE
100
AcDbLine
 10
3105.410365573447
 20
790.5011100330352
 30
0.0
 11
3105.886516760078
 21
780.1451478098329
 31
0.0
  0
LINE
  5
FA9
330
1F
100
AcDbEntity
  8
NOSNÉ KONSTRUKCE
100
AcDbLine
 10
3112.58170506926
 20
793.4282609000452
 30
0.0
 11
3112.58170506926
 21
789.0650358875441
 31
0.0
  0
LINE
  5
FAA
330
1F
100
AcDbEntity
  8
NOSNÉ KONSTRUKCE
100
AcDbLine
 10
3114.323759337141
 20
810.6626298887254
 30
0.0
 11
3115.593077467045
 21
789.518730471676
 31
0.0
  0
LINE
  5
FAB
330
1F
100
AcDbEntity
  8
NOSNÉ KONSTRUKCE
100
AcDbLine
 10
3105.410365573447
 20
802.1556670209879
 30
0.0
 11
3104.855084498562
 21
796.5265890198875
 31
0.0
  0
LINE
  5
FAC
330
1F
100
AcDbEntity
  8
NOSNÉ KONSTRUKCE
100
AcDbLine
 10
3109.671324708859
 20
802.1546928855
 30
0.0
 11
3112.58170506926
 21
793.4282609000452
 31
0.0
  0
LINE
  5
FAD
330
1F
100
AcDbEntity
  8
NOSNÉ KONSTRUKCE
100
AcDbLine
 10
3122.255574712111
 20
797.326913482118
 30
0.0
 11
3122.726559543076
 21
811.7625190533049
 31
0.0
  0
LINE
  5
FAE
330
1F
100
AcDbEntity
  8
NOSNÉ KONSTRUKCE
100
AcDbLine
 10
3107.779562880368
 20
812.0446575541368
 30
0.0
 11
3109.671324708859
 21
802.1546928855
 31
0.0
  0
LINE
  5
FAF
330
1F
100
AcDbEntity
  8
NOSNÉ KONSTRUKCE
100
AcDbLine
 10
3103.637676676371
 20
811.0142801362048
 30
0.0
 11
3105.410365573447
 21
802.1556670209879
 31
0.0
  0
LINE
  5
FB0
330
1F
100
AcDbEntity
  8
NOSNÉ KONSTRUKCE
100
AcDbLine
 10
3122.726559543076
 20
811.7625190533049
 30
0.0
 11
3122.435585918239
 21
823.1046222151885
 31
0.0
  0
LINE
  5
FB1
330
1F
100
AcDbEntity
  8
NOSNÉ KONSTRUKCE
100
AcDbLine
 10
3114.524521859209
 20
823.1046222151903
 30
0.0
 11
3114.323759337141
 21
810.6626298887254
 31
0.0
  0
LINE
  5
FB2
330
1F
100
AcDbEntity
  8
NOSNÉ KONSTRUKCE
100
AcDbLine
 10
3105.280769845089
 20
823.1046222151885
 30
0.0
 11
3107.779562880368
 21
812.0446575541368
 31
0.0
  0
LINE
  5
FB3
330
1F
100
AcDbEntity
  8
SPOJOVACÍ
100
AcDbLine
 10
3252.797594245258
 20
771.4090851590549
 30
0.0
 11
3253.381823781805
 21
773.5894594727319
 31
0.0
  0
LINE
  5
FB4
330
1F
100
AcDbEntity
  8
SPOJOVACÍ
100
AcDbLine
 10
3250.87766283931
 20
771.2413988692092
 30
0.0
 11
3251.550561953903
 21
773.752692553236
 31
0.0
  0
LINE
  5
FB5
330
1F
100
AcDbEntity
  8
SPOJOVACÍ
100
AcDbLine
 10
3248.960614014402
 20
771.084470518253
 30
0.0
 11
3249.726266958452
 21
773.9419262063997
 31
0.0
  0
LINE
  5
FB6
330
1F
100
AcDbEntity
  8
SPOJOVACÍ
100
AcDbLine
 10
3243.306393183098
 20
770.9754168911963
 30
0.0
 11
3244.200308853862
 21
774.3115555921518
 31
0.0
  0
LINE
  5
FB7
330
1F
100
AcDbEntity
  8
SPOJOVACÍ
100
AcDbLine
 10
3235.62062715015
 20
770.2821286179109
 30
0.0
 11
3236.809360976484
 21
774.7185436544455
 31
0.0
  0
LINE
  5
FB8
330
1F
100
AcDbEntity
  8
SPOJOVACÍ
100
AcDbLine
 10
3237.51794482964
 20
770.3654193316647
 30
0.0
 11
3238.654024606621
 21
774.6053267808124
 31
0.0
  0
LINE
  5
FB9
330
1F
100
AcDbEntity
  8
SPOJOVACÍ
100
AcDbLine
 10
3239.418036094964
 20
770.4590612086827
 30
0.0
 11
3240.509953950466
 21
774.5341541230932
 31
0.0
  0
LINE
  5
FBA
330
1F
100
AcDbEntity
  8
SPOJOVACÍ
100
AcDbLine
 10
3241.320915365955
 20
770.5631080644902
 30
0.0
 11
3242.356406980521
 21
774.4276153808746
 31
0.0
  0
LINE
  5
FBB
330
1F
100
AcDbEntity
  8
SPOJOVACÍ
100
AcDbLine
 10
3233.717149265904
 20
770.175847706992
 30
0.0
 11
3234.955203666185
 21
774.796329631386
 31
0.0
  0
LINE
  5
FBC
330
1F
100
AcDbEntity
  8
SPOJOVACÍ
100
AcDbLine
 10
3231.859934828026
 20
770.2422243284777
 30
0.0
 11
3232.957367761766
 21
774.3378997950927
 31
0.0
  0
LINE
  5
FBD
330
1F
100
AcDbEntity
  8
SPOJOVACÍ
100
AcDbLine
 10
3230.005307966933
 20
770.318257917997
 30
0.0
 11
3231.23912200766
 21
774.922914605067
 31
0.0
  0
LINE
  5
FBE
330
1F
100
AcDbEntity
  8
SPOJOVACÍ
100
AcDbLine
 10
3245.145677094377
 20
770.8421226334171
 30
0.0
 11
3246.041667614823
 21
774.1860047788373
 31
0.0
  0
LINE
  5
FBF
330
1F
100
AcDbEntity
  8
SPOJOVACÍ
100
AcDbLine
 10
3247.046431005569
 20
770.938237538488
 30
0.0
 11
3247.880491058844
 21
774.0509920338786
 31
0.0
  0
LINE
  5
FC0
330
1F
100
AcDbEntity
  8
SPOJOVACÍ
  6
DASHDOT2
100
AcDbLine
 10
3123.605094712678
 20
772.4603154233677
 30
0.0
 11
3308.852080073964
 21
772.4603154233659
 31
0.0
  0
LINE
  5
FC1
330
1F
100
AcDbEntity
  8
SPOJOVACÍ
  6
DASHED
100
AcDbLine
 10
3262.23647433862
 20
777.0228154233732
 30
0.0
 11
3136.61289401551
 21
777.0228154233714
 31
0.0
  0
LINE
  5
FC2
330
1F
100
AcDbEntity
  8
SPOJOVACÍ
  6
DASHED
100
AcDbLine
 10
3262.236474338624
 20
767.8978154233659
 30
0.0
 11
3136.61289401551
 21
767.8978154233678
 31
0.0
  0
LINE
  5
FC3
330
1F
100
AcDbEntity
  8
SPOJOVACÍ
  6
DASHED
100
AcDbLine
 10
3274.245634941802
 20
772.4603154233659
 30
0.0
 11
3270.456773800244
 21
779.0228154233659
 31
0.0
  0
LINE
  5
FC4
330
1F
100
AcDbEntity
  8
SPOJOVACÍ
  6
DASHED
100
AcDbLine
 10
3264.870634941802
 20
772.4603154233659
 30
0.0
 11
3262.23647433862
 21
777.0228154233732
 31
0.0
  0
LINE
  5
FC5
330
1F
100
AcDbEntity
  8
SPOJOVACÍ
100
AcDbLine
 10
3256.646173983586
 20
771.7769897510875
 30
0.0
 11
3257.036834367158
 21
773.2349541510789
 31
0.0
  0
LINE
  5
FC6
330
1F
100
AcDbEntity
  8
SPOJOVACÍ
100
AcDbLine
 10
3262.441106924023
 20
772.4111881186904
 30
0.0
 11
3262.500663140119
 21
772.6334549430717
 31
0.0
  0
LINE
  5
FC7
330
1F
100
AcDbEntity
  8
SPOJOVACÍ
100
AcDbLine
 10
3260.506495985792
 20
772.1887170685054
 30
0.0
 11
3260.6818703801
 21
772.8432232184218
 31
0.0
  0
LINE
  5
FC8
330
1F
100
AcDbEntity
  8
SPOJOVACÍ
100
AcDbLine
 10
3258.574857999774
 20
771.9773412270583
 30
0.0
 11
3258.860596095248
 21
773.0437303170178
 31
0.0
  0
LINE
  5
FC9
330
1F
100
AcDbEntity
  8
SPOJOVACÍ
100
AcDbLine
 10
3254.720425419895
 20
771.5875935329927
 30
0.0
 11
3255.210579052782
 21
773.4168717944353
 31
0.0
  0
LINE
  5
FCA
330
1F
100
AcDbEntity
  8
SPOJOVACÍ
  6
DASHED
100
AcDbLine
 10
3264.870634941802
 20
772.4603154233659
 30
0.0
 11
3262.236474338624
 21
767.8978154233659
 31
0.0
  0
LINE
  5
FCB
330
1F
100
AcDbEntity
  8
SPOJOVACÍ
  6
DASHED
100
AcDbLine
 10
3274.245634941802
 20
772.4603154233659
 30
0.0
 11
3270.456773800248
 21
765.8978154233677
 31
0.0
  0
LINE
  5
FCC
330
1F
100
AcDbEntity
  8
SPOJOVACÍ
  6
DASHED
100
AcDbLine
 10
3270.456773800244
 20
779.0228154233659
 30
0.0
 11
3137.599254744487
 21
779.0228154233714
 31
0.0
  0
LINE
  5
FCD
330
1F
100
AcDbEntity
  8
SPOJOVACÍ
  6
DASHED
100
AcDbLine
 10
3270.456773800248
 20
765.8978154233677
 30
0.0
 11
3137.599254744487
 21
765.8978154233677
 31
0.0
  0
LINE
  5
FCE
330
1F
100
AcDbEntity
  8
STAVBA OBRYS
100
AcDbLine
 10
3128.987080567724
 20
822.6199955597017
 30
0.0
 11
3211.028529879721
 21
822.6199955597017
 31
0.0
  0
HATCH
  5
FCF
330
1F
100
AcDbEntity
  8
PROFILY
100
AcDbHatch
 10
0.0
 20
0.0
 30
0.0
210
0.0
220
0.0
230
1.0
  2
SOLID
 70
     1
 71
     0
 91
        1
 92
        7
 72
     0
 73
     1
 93
        4
 10
3126.672617688153
 20
775.9183630906314
 10
3128.672617688156
 20
775.9183630906314
 10
3128.672617688156
 20
795.10071823518
 10
3126.672617688156
 20
795.10071823518
 97
        0
 75
     0
 76
     1
 47
0.0801976285649081
 98
        1
 10
3127.010290758451
 20
789.2593023425738
  0
LWPOLYLINE
  5
FD0
330
1F
100
AcDbEntity
  8
PROFILY
100
AcDbPolyline
 90
        4
 70
     1
 43
0.0
 10
3126.672617688156
 20
765.023266534486
 10
3126.672617688156
 20
745.8409113899374
 10
3128.672617688156
 20
745.8409113899374
 10
3128.672617688156
 20
765.023266534486
  0
HATCH
  5
FD1
330
1F
100
AcDbEntity
  8
PROFILY
100
AcDbHatch
 10
0.0
 20
0.0
 30
0.0
210
0.0
220
0.0
230
1.0
  2
SOLID
 70
     1
 71
     0
 91
        1
 92
        7
 72
     0
 73
     1
 93
        4
 10
3126.672617688153
 20
745.8403995523817
 10
3128.672617688156
 20
745.8403995523817
 10
3128.672617688156
 20
765.0227546969304
 10
3126.672617688156
 20
765.0227546969304
 97
        0
 75
     0
 76
     1
 47
0.0801976285649081
 98
        1
 10
3127.010290758451
 20
759.1813388043242
  0
LINE
  5
FD2
330
1F
100
AcDbEntity
  8
SPOJOVACÍ
100
AcDbLine
 10
3215.260405374232
 20
771.2702944029055
 30
0.0
 11
3215.826575205436
 21
773.3832689786736
 31
0.0
  0
LINE
  5
FD3
330
1F
100
AcDbEntity
  8
SPOJOVACÍ
100
AcDbLine
 10
3217.094638393609
 20
771.118149959951
 30
0.0
 11
3217.733036367717
 21
773.5006836347724
 31
0.0
  0
LINE
  5
FD4
330
1F
100
AcDbEntity
  8
SPOJOVACÍ
100
AcDbLine
 10
3216.797074815978
 20
770.0076275697442
 30
0.0
 11
3218.150242561867
 21
775.0577183485743
 31
0.0
  0
LINE
  5
FD5
330
1F
100
AcDbEntity
  8
SPOJOVACÍ
100
AcDbLine
 10
3214.922074815978
 20
770.0076275697442
 30
0.0
 11
3216.269772006002
 21
775.0373019561388
 31
0.0
  0
LINE
  5
FD6
330
1F
100
AcDbEntity
  8
SPOJOVACÍ
100
AcDbLine
 10
3218.667373602395
 20
769.9900824017927
 30
0.0
 11
3220.028032891586
 21
775.0681320008566
 31
0.0
  0
LINE
  5
FD7
330
1F
100
AcDbEntity
  8
SPOJOVACÍ
100
AcDbLine
 10
3220.540320531508
 20
769.9824202369377
 30
0.0
 11
3221.903154658233
 21
775.0685864401707
 31
0.0
  0
LINE
  5
FD8
330
1F
100
AcDbEntity
  8
SPOJOVACÍ
100
AcDbLine
 10
3222.415926710754
 20
769.9846825286909
 30
0.0
 11
3223.775619216984
 21
775.0591240446151
 31
0.0
  0
LINE
  5
FD9
330
1F
100
AcDbEntity
  8
SPOJOVACÍ
100
AcDbLine
 10
3224.294203550882
 20
769.9969118625335
 30
0.0
 11
3225.645437620711
 21
775.0397860640583
 31
0.0
  0
LINE
  5
FDA
330
1F
100
AcDbEntity
  8
SPOJOVACÍ
100
AcDbLine
 10
3226.175162771567
 20
770.0191519769064
 30
0.0
 11
3227.512620625362
 21
775.0106126402457
 31
0.0
  0
LINE
  5
FDB
330
1F
100
AcDbEntity
  8
SPOJOVACÍ
100
AcDbLine
 10
3228.058816407254
 20
770.0514477849642
 30
0.0
 11
3229.377178695166
 21
774.9716428262286
 31
0.0
  0
LWPOLYLINE
  5
FDC
330
1F
100
AcDbEntity
  8
NOSNÉ KONSTRUKCE
100
AcDbPolyline
 90
        7
 70
     0
 43
0.0
 10
3133.50184904741
 20
722.4603154233677
 42
0.0203924744732807
 10
3132.599765063001
 20
723.4734454525218
 42
0.0273961979096945
 10
3131.749900712806
 20
724.261621826548
 42
0.0243529190212958
 10
3130.586780220387
 20
725.1353811712156
 42
0.0398020282482987
 10
3129.81182168283
 20
725.5750099146621
 42
0.104168275620852
 10
3129.425410546486
 20
725.6650263748392
 42
0.007272956268647
 10
3128.987080567727
 20
725.683479726134
 42
0.007272956268647
  0
LWPOLYLINE
  5
FDD
330
1F
100
AcDbEntity
  8
NOSNÉ KONSTRUKCE
100
AcDbPolyline
 90
        2
 70
     0
 43
0.0
 10
3207.044856110515
 20
739.7987325811186
 10
3212.658493499475
 20
742.3859896399949
  0
LWPOLYLINE
  5
FDE
330
1F
100
AcDbEntity
  8
NOSNÉ KONSTRUKCE
100
AcDbPolyline
 90
        9
 70
     0
 43
0.0
 10
3138.851535381931
 20
722.4603154233696
 42
0.0064239028828688
 10
3138.812666941747
 20
722.6794290827196
 42
0.0832048017309575
 10
3138.028484339069
 20
725.0096426623745
 42
0.0336767237692336
 10
3136.325667780147
 20
727.7379171818352
 42
0.0844635135812105
 10
3135.405858020254
 20
728.6423387868303
 42
0.0495829410719565
 10
3133.6571795829
 20
729.618988294143
 42
0.0322692699774654
 10
3130.765825401809
 20
730.6605117955436
 42
0.0276160659512937
 10
3129.910248963518
 20
730.8572472244882
 42
0.0126891984598699
 10
3128.987080567727
 20
730.9924496140297
  0
LWPOLYLINE
  5
FE9
330
1F
100
AcDbEntity
  8
NOSNÉ KONSTRUKCE
100
AcDbPolyline
 90
       11
 70
     0
 43
0.0
 10
3146.079586402666
 20
722.4603154233696
 42
0.0072417954699014
 10
3146.024016034826
 20
722.8717206346441
 42
0.0707158694326265
 10
3145.492889518405
 20
724.8078240872378
 42
0.033952657250207
 10
3143.244233678997
 20
729.1608618124114
 42
0.0571374688189033
 10
3141.458076919145
 20
731.4677860960978
 42
0.0274923553235744
 10
3138.860771188592
 20
733.8528614192323
 42
0.0255412025538677
 10
3135.809341150881
 20
736.1095750962517
 42
0.0272796991712396
 10
3131.696341997696
 20
738.525910977914
 42
0.056967459841729
 10
3129.555394716961
 20
739.3386468131134
 42
0.0373408083348504
 10
3129.333040341487
 20
739.3778123540646
 42
0.0052305969362967
 10
3128.987080567727
 20
739.408769320969
  0
LWPOLYLINE
  5
FF6
330
1F
100
AcDbEntity
  8
NOSNÉ KONSTRUKCE
100
AcDbPolyline
 90
        3
 70
     0
 43
0.0
 10
3154.988055650676
 20
728.9594849926229
 10
3174.984308082668
 20
738.1755140431428
 10
3178.984245716383
 20
738.8209115184849
  0
LWPOLYLINE
  5
FF7
330
1F
100
AcDbEntity
  8
NOSNÉ KONSTRUKCE
100
AcDbPolyline
 90
        3
 70
     0
 43
0.0
 10
3134.599136585886
 20
772.3164857333499
 10
3154.595389017879
 20
781.5325147838698
 10
3158.595326651593
 20
782.1779122592119
  0
LWPOLYLINE
  5
FF8
330
1F
100
AcDbEntity
  8
NOSNÉ KONSTRUKCE
100
AcDbPolyline
 90
        2
 70
     0
 43
0.0
 10
3162.618048497228
 20
777.8969099134333
 42
0.1134617175825293
 10
3128.79296175854
 20
793.8370059563363
  0
LWPOLYLINE
  5
FF9
330
1F
100
AcDbEntity
  8
NOSNÉ KONSTRUKCE
100
AcDbPolyline
 90
        3
 70
     0
 43
0.0
 10
3176.201227559606
 20
753.4632854724909
 10
3192.956445179333
 20
761.8470263404592
 10
3201.123549828458
 20
770.0283280415565
  0
LWPOLYLINE
  5
FFA
330
1F
100
AcDbEntity
  8
STAVBA OBRYS
100
AcDbPolyline
 90
        2
 70
     0
 43
0.0
 10
3212.658493499475
 20
765.4232179907444
 42
0.0020939004487291
 10
3212.149423262686
 20
766.2809414337385
  0
LWPOLYLINE
  5
FFB
330
1F
100
AcDbEntity
  8
NOSNÉ KONSTRUKCE
100
AcDbPolyline
 90
        6
 70
     0
 43
0.0
 10
3191.093299451808
 20
722.5370649462943
 42
0.0128837512779301
 10
3190.666111511469
 20
727.5368121789138
 42
0.0351641677647434
 10
3189.724471929185
 20
732.9423763604222
 42
0.0187319685742942
 10
3184.648448107699
 20
750.5797323736365
 42
0.0582629403736403
 10
3182.159198305576
 20
755.9494836720346
 42
0.0636293101863209
 10
3168.89772871205
 20
772.4307919722591
 42
0.0636293101863209
  0
LWPOLYLINE
  5
FFC
330
1F
100
AcDbEntity
  8
NOSNÉ KONSTRUKCE
100
AcDbPolyline
 90
        4
 70
     0
 43
0.0
 10
3206.377893857811
 20
722.5370649462943
 42
0.0135911980674875
 10
3200.799196821972
 20
753.0301047199932
 42
0.0219777111230329
 10
3199.440028068995
 20
758.3072746037465
 42
0.2158759397126542
 10
3128.987080567727
 20
807.4118418918073
 42
0.0618986513001703
  0
LWPOLYLINE
  5
FFD
330
1F
100
AcDbEntity
  8
NOSNÉ KONSTRUKCE
100
AcDbPolyline
 90
       10
 70
     0
 43
0.0
 10
3153.029364426351
 20
722.4603154233677
 42
0.0168162630274194
 10
3152.89433884729
 20
724.1513535754871
 42
0.0575155827655532
 10
3152.214306566944
 20
727.2509782362044
 42
0.0310289133982999
 10
3149.211505222119
 20
734.4960057608491
 42
0.0882970623535771
 10
3147.574283302026
 20
736.736374811649
 42
0.0171636441953577
 10
3144.760919240165
 20
739.2502921668942
 42
0.0157521173632038
 10
3141.522064403128
 20
741.7817882194007
 42
0.0073640874174249
 10
3136.888415046807
 20
745.0701896451369
 42
0.0194185739168057
 10
3135.06637172713
 20
746.2217586444181
 42
0.0567960585128809
 10
3128.987080567727
 20
748.8736228497941
 42
0.0229547400386702
  0
LWPOLYLINE
  5
FFE
330
1F
100
AcDbEntity
  8
NOSNÉ KONSTRUKCE
100
AcDbPolyline
 90
        3
 70
     0
 43
0.0
 10
3135.69547802543
 20
727.9776461188862
 10
3152.450695645159
 20
736.3613869868545
 10
3160.617800294283
 20
744.5426886879517
  0
LWPOLYLINE
  5
FFF
330
1F
100
AcDbEntity
  8
NOSNÉ KONSTRUKCE
100
AcDbPolyline
 90
        8
 70
     0
 43
0.0
 10
3161.896423649865
 20
722.4603154233677
 42
0.0120721047703132
 10
3161.827440959823
 20
724.1942035621118
 42
0.044358077361292
 10
3161.43181322515
 20
726.8900035805286
 42
0.0188067511131767
 10
3159.411989776767
 20
734.1322327558351
 42
0.0457786284636091
 10
3158.203966887151
 20
736.980843138715
 42
0.0295006114745606
 10
3155.787906432852
 20
740.907742352117
 42
0.0258674098621065
 10
3152.555231118888
 20
745.0535224308709
 42
0.2409478365688615
 10
3128.987080567727
 20
759.4780698758436
 42
0.0884720560394402
  0
LWPOLYLINE
  5
1000
330
1F
100
AcDbEntity
  8
NOSNÉ KONSTRUKCE
100
AcDbPolyline
 90
        4
 70
     0
 43
0.0
 10
3180.71036863391
 20
722.4603154233677
 42
0.0135911980674876
 10
3176.991237276685
 20
742.7890086058337
 42
0.0219777111230329
 10
3176.085124774697
 20
746.3071218616692
 42
0.2163722049316613
 10
3128.987080567727
 20
779.0673868156987
  0
LWPOLYLINE
  5
1001
330
1F
100
AcDbEntity
  8
NOSNÉ KONSTRUKCE
100
AcDbPolyline
 90
        6
 70
     0
 43
0.0
 10
3170.520639029906
 20
722.4603154233677
 42
0.0128837512779302
 10
3170.235847069678
 20
725.793480245114
 42
0.0351641677647434
 10
3169.608087348155
 20
729.3971896994531
 42
0.0187319685742942
 10
3166.224071467164
 20
741.1554270415958
 42
0.0582629403736403
 10
3164.564571599083
 20
744.7352612405279
 42
0.2042445348716764
 10
3128.987080567727
 20
769.9936094300624
  0
LINE
  5
1002
330
1F
100
AcDbEntity
  8
SPOJOVACÍ
100
AcDbLine
 10
3207.668656000915
 20
770.318257917997
 30
0.0
 11
3208.902470041641
 21
774.922914605067
 31
0.0
  0
LINE
  5
1003
330
1F
100
AcDbEntity
  8
SPOJOVACÍ
100
AcDbLine
 10
3205.722164441235
 20
770.0514477849642
 30
0.0
 11
3207.040526729146
 21
774.9716428262286
 31
0.0
  0
LINE
  5
1004
330
1F
100
AcDbEntity
  8
SPOJOVACÍ
100
AcDbLine
 10
3203.838510805548
 20
770.0191519769064
 30
0.0
 11
3205.175968659343
 21
775.0106126402457
 31
0.0
  0
LINE
  5
1005
330
1F
100
AcDbEntity
  8
SPOJOVACÍ
100
AcDbLine
 10
3201.957551584863
 20
769.9969118625335
 30
0.0
 11
3203.308785654692
 21
775.0397860640583
 31
0.0
  0
LINE
  5
1006
330
1F
100
AcDbEntity
  8
SPOJOVACÍ
100
AcDbLine
 10
3200.079274744734
 20
769.9846825286909
 30
0.0
 11
3201.438967250964
 21
775.0591240446151
 31
0.0
  0
LINE
  5
1007
330
1F
100
AcDbEntity
  8
SPOJOVACÍ
100
AcDbLine
 10
3198.203668565489
 20
769.9824202369377
 30
0.0
 11
3199.566502692214
 21
775.0685864401707
 31
0.0
  0
LINE
  5
1008
330
1F
100
AcDbEntity
  8
SPOJOVACÍ
100
AcDbLine
 10
3196.330721636375
 20
769.9900824017927
 30
0.0
 11
3197.691380925567
 21
775.0681320008566
 31
0.0
  0
LINE
  5
1009
330
1F
100
AcDbEntity
  8
SPOJOVACÍ
100
AcDbLine
 10
3191.16143805319
 20
770.0722066399462
 30
0.0
 11
3192.483668574736
 21
775.0068381256637
 31
0.0
  0
LINE
  5
100A
330
1F
100
AcDbEntity
  8
SPOJOVACÍ
100
AcDbLine
 10
3192.585422849959
 20
770.0076275697442
 30
0.0
 11
3193.933120039983
 21
775.0373019561388
 31
0.0
  0
LINE
  5
100B
330
1F
100
AcDbEntity
  8
SPOJOVACÍ
100
AcDbLine
 10
3194.460422849959
 20
770.0076275697442
 30
0.0
 11
3195.813590595848
 21
775.0577183485743
 31
0.0
  0
LINE
  5
100C
330
1F
100
AcDbEntity
  8
SPOJOVACÍ
100
AcDbLine
 10
3194.75798642759
 20
771.118149959951
 30
0.0
 11
3195.396384401698
 21
773.5006836347724
 31
0.0
  0
LINE
  5
100D
330
1F
100
AcDbEntity
  8
SPOJOVACÍ
100
AcDbLine
 10
3192.923753408213
 20
771.2702944029055
 30
0.0
 11
3193.489923239416
 21
773.3832689786736
 31
0.0
  0
LINE
  5
100E
330
1F
100
AcDbEntity
  8
SPOJOVACÍ
100
AcDbLine
 10
3191.525746340281
 20
771.4318236769936
 30
0.0
 11
3192.016409730968
 21
773.2630043804561
 31
0.0
  0
LINE
  5
100F
330
1F
100
AcDbEntity
  8
SPOJOVACÍ
100
AcDbLine
 10
3187.439208593408
 20
770.175847706992
 30
0.0
 11
3188.709216936739
 21
774.9155833703403
 31
0.0
  0
LINE
  5
1010
330
1F
100
AcDbEntity
  8
SPOJOVACÍ
100
AcDbLine
 10
3189.269134143484
 20
770.0076275697442
 30
0.0
 11
3190.597801316595
 21
774.9662809661636
 31
0.0
  0
LINE
  5
1011
330
1F
100
AcDbEntity
  8
SPOJOVACÍ
100
AcDbLine
 10
3128.987080567727
 20
784.5228154233695
 30
0.0
 11
3130.858611333853
 21
784.5228154233695
 31
0.0
  0
LINE
  5
1012
330
1F
100
AcDbEntity
  8
SPOJOVACÍ
100
AcDbLine
 10
3130.858611333853
 20
784.5228154233695
 30
0.0
 11
3136.61289401551
 21
777.0228154233714
 31
0.0
  0
LINE
  5
1013
330
1F
100
AcDbEntity
  8
SPOJOVACÍ
100
AcDbLine
 10
3128.987080567727
 20
760.3978154233695
 30
0.0
 11
3130.858611333853
 21
760.3978154233695
 31
0.0
  0
LINE
  5
1014
330
1F
100
AcDbEntity
  8
SPOJOVACÍ
100
AcDbLine
 10
3130.858611333853
 20
760.3978154233695
 30
0.0
 11
3136.61289401551
 21
767.8978154233678
 31
0.0
  0
LINE
  5
1015
330
1F
100
AcDbEntity
  8
SPOJOVACÍ
100
AcDbLine
 10
3131.844972062834
 20
786.5228154233696
 30
0.0
 11
3137.599254744487
 21
779.0228154233714
 31
0.0
  0
LINE
  5
1016
330
1F
100
AcDbEntity
  8
SPOJOVACÍ
100
AcDbLine
 10
3131.844972062834
 20
758.3978154233696
 30
0.0
 11
3137.599254744487
 21
765.8978154233677
 31
0.0
  0
LINE
  5
1017
330
1F
100
AcDbEntity
  8
SPOJOVACÍ
100
AcDbLine
 10
3211.172074815979
 20
770.0076275697442
 30
0.0
 11
3212.50074198909
 21
774.9662809661636
 31
0.0
  0
LINE
  5
1018
330
1F
100
AcDbEntity
  8
SPOJOVACÍ
100
AcDbLine
 10
3184.86150525356
 20
770.2422243284777
 30
0.0
 11
3186.097413578467
 21
774.8546969905251
 31
0.0
  0
LINE
  5
1019
330
1F
100
AcDbEntity
  8
SPOJOVACÍ
100
AcDbLine
 10
3183.006878392469
 20
770.318257917997
 30
0.0
 11
3184.203355751968
 21
774.7835722137456
 31
0.0
  0
LINE
  5
101A
330
1F
100
AcDbEntity
  8
SPOJOVACÍ
100
AcDbLine
 10
3181.154829982253
 20
770.4039144171815
 30
0.0
 11
3182.306540915546
 21
774.7021581358763
 31
0.0
  0
LINE
  5
101B
330
1F
100
AcDbEntity
  8
SPOJOVACÍ
100
AcDbLine
 10
3209.342149265903
 20
770.175847706992
 30
0.0
 11
3210.612157609233
 21
774.9155833703403
 31
0.0
  0
LINE
  5
101C
330
1F
100
AcDbEntity
  8
SPOJOVACÍ
100
AcDbLine
 10
3177.458433331339
 20
770.6039648394193
 30
0.0
 11
3178.504583880953
 21
774.5082518429512
 31
0.0
  0
LINE
  5
101D
330
1F
100
AcDbEntity
  8
SPOJOVACÍ
100
AcDbLine
 10
3179.305351161918
 20
770.499160756362
 30
0.0
 11
3180.406955076356
 21
774.6104025348609
 31
0.0
  0
LINE
  5
101E
330
1F
100
AcDbEntity
  8
SPOJOVACÍ
100
AcDbLine
 10
3171.93296360864
 20
770.9754168911963
 30
0.0
 11
3172.780609050511
 21
774.138872747078
 31
0.0
  0
LINE
  5
101F
330
1F
100
AcDbEntity
  8
SPOJOVACÍ
100
AcDbLine
 10
3175.614068147333
 20
770.7182955291933
 30
0.0
 11
3176.599412607611
 21
774.3956511179162
 31
0.0
  0
LINE
  5
1020
330
1F
100
AcDbEntity
  8
SPOJOVACÍ
100
AcDbLine
 10
3173.772247519911
 20
770.8421226334171
 30
0.0
 11
3174.691426158326
 21
774.2725440132194
 31
0.0
  0
LINE
  5
1021
330
1F
100
AcDbEntity
  8
SPOJOVACÍ
100
AcDbLine
 10
3170.096208819144
 20
771.118149959951
 30
0.0
 11
3170.866945408423
 21
773.9945780703979
 31
0.0
  0
LINE
  5
1022
330
1F
100
AcDbEntity
  8
SPOJOVACÍ
100
AcDbLine
 10
3168.261975799767
 20
771.2702944029055
 30
0.0
 11
3168.950418954235
 21
773.8395992335022
 31
0.0
  0
LINE
  5
1023
330
1F
100
AcDbEntity
  8
SPOJOVACÍ
100
AcDbLine
 10
3166.430257438311
 20
771.4318236769936
 30
0.0
 11
3167.031012998792
 21
773.6738739516436
 31
0.0
  0
LINE
  5
1024
330
1F
100
AcDbEntity
  8
SPOJOVACÍ
100
AcDbLine
 10
3164.601046858959
 20
771.602712121286
 30
0.0
 11
3165.108710432054
 21
773.4973383692318
 31
0.0
  0
LINE
  5
1025
330
1F
100
AcDbEntity
  8
SPOJOVACÍ
100
AcDbLine
 10
3162.77433741925
 20
771.7829349458311
 30
0.0
 11
3163.183493713091
 21
773.3099270226916
 31
0.0
  0
LINE
  5
1026
330
1F
100
AcDbEntity
  8
SPOJOVACÍ
100
AcDbLine
 10
3213.428687012775
 20
771.4318236769936
 30
0.0
 11
3213.919350403463
 21
773.2630043804561
 31
0.0
  0
LINE
  5
1027
330
1F
100
AcDbEntity
  8
SPOJOVACÍ
100
AcDbLine
 10
3213.064378725685
 20
770.0722066399462
 30
0.0
 11
3214.386609247231
 21
775.0068381256637
 31
0.0
  0
LINE
  5
1028
330
1F
100
AcDbEntity
  8
SPOJOVACÍ
100
AcDbLine
 10
3131.844972062834
 20
786.5228154233696
 30
0.0
 11
3128.987080567727
 21
786.5228154233696
 31
0.0
  0
LINE
  5
1029
330
1F
100
AcDbEntity
  8
SPOJOVACÍ
100
AcDbLine
 10
3128.987080567727
 20
758.3978154233696
 30
0.0
 11
3131.844972062834
 21
758.3978154233696
 31
0.0
  0
LINE
  5
102A
330
1F
100
AcDbEntity
  8
SPOJOVACÍ
100
AcDbLine
 10
3160.950122707261
 20
771.9724682209557
 30
0.0
 11
3161.194653243117
 21
772.8850686047803
 31
0.0
  0
LINE
  5
102B
330
1F
100
AcDbEntity
  8
SPOJOVACÍ
100
AcDbLine
 10
3159.128396538799
 20
772.1712888669858
 30
0.0
 11
3159.284362501741
 21
772.753361764931
 31
0.0
  0
LINE
  5
102C
330
1F
100
AcDbEntity
  8
SPOJOVACÍ
100
AcDbLine
 10
3128.987080567727
 20
772.4603154233696
 30
0.0
 11
3128.987080567727
 21
786.5228154233696
 31
0.0
  0
LINE
  5
102D
330
1F
100
AcDbEntity
  8
SPOJOVACÍ
100
AcDbLine
 10
3128.987080567727
 20
780.0375365138675
 30
0.0
 11
3128.987080567727
 21
758.3978154233696
 31
0.0
  0
INSERT
  5
102E
330
1F
100
AcDbEntity
  8
POPIS
100
AcDbBlockReference
  2
E_PUNKT
 10
3159.812932381963
 20
738.1175888801822
 30
0.0
 41
-1.0
 50
180.0
  0
LINE
  5
102F
330
1F
100
AcDbEntity
  8
NOSNÉ KONSTRUKCE
100
AcDbLine
 10
3126.495109525142
 20
733.6982594667765
 30
0.0
 11
3124.925179547561
 21
760.6865749465846
 31
0.0
  0
LWPOLYLINE
  5
1030
330
1F
100
AcDbEntity
  8
NOSNÉ KONSTRUKCE
100
AcDbPolyline
 90
        2
 70
     0
 43
0.0
 10
3210.122973257159
 20
769.5424801969088
 42
0.2104338366210547
 10
3130.038319297378
 20
822.4603154233678
  0
LWPOLYLINE
  5
1031
330
1F
100
AcDbEntity
  8
NOSNÉ KONSTRUKCE
100
AcDbPolyline
 90
        2
 70
     0
 43
0.0
 10
3212.658493499475
 20
796.8316987476787
 42
0.1112051866389916
 10
3181.387602071812
 20
822.4603154233678
  0
LWPOLYLINE
  5
1032
330
1F
100
AcDbEntity
  8
NOSNÉ KONSTRUKCE
100
AcDbPolyline
 90
        4
 70
     1
 43
0.0
 10
3128.987080567727
 20
822.6199955597017
 10
3212.658493499475
 20
822.6199955597017
 10
3212.658493499475
 20
722.6199955597016
 10
3128.987080567727
 20
722.6199955597016
  0
HATCH
  5
1033
330
1F
100
AcDbEntity
  8
STAVBA OBRYS
100
AcDbHatch
 10
0.0
 20
0.0
 30
0.0
210
0.0
220
0.0
230
1.0
  2
AR-SAND
 70
     0
 71
     0
 91
        2
 92
        7
 72
     0
 73
     1
 93
        5
 10
3458.979654823451
 20
956.4960563152739
 10
3448.979654823451
 20
956.4960563152739
 10
3448.979654823451
 20
595.0022831242472
 10
3448.979654823451
 20
547.8282919396638
 10
3458.979654823451
 20
547.8282919396638
 97
        0
 92
        7
 72
     0
 73
     1
 93
        6
 10
3458.979654823451
 20
375.0471177068589
 10
3611.135588131991
 20
375.0471177068589
 10
3611.135588131991
 20
385.0471177068588
 10
3448.979654823451
 20
385.0471177068588
 10
3448.979654823451
 20
285.8220646316162
 10
3458.979654823451
 20
285.8220646316162
 97
        0
 75
     0
 76
     1
 52
0.0
 41
0.1
 77
     0
 78
     4
 53
37.5
 43
-10993.85654219907
 44
4156.874371511509
 45
-0.1600031295984046
 46
4.894132373293423
 79
     6
 49
0.0
 49
-3.8608
 49
0.0
 49
-4.318
 49
0.0
 49
-4.1275
 53
7.499999999999999
 43
-10993.85654219907
 44
4156.874371511509
 45
4.495232831380026
 46
7.168251005683543
 79
     6
 49
0.0
 49
-2.0828
 49
0.0
 49
-3.4798
 49
0.0
 49
-1.3335
 53
327.4999999999999
 43
-10996.98074219908
 44
4156.874371511509
 45
7.909923702414579
 46
0.0143718467854569
 79
     6
 49
0.0
 49
-1.27
 49
0.0
 49
-4.572
 49
0.0
 49
-5.969
 53
317.5
 43
-10996.98074219908
 44
4156.874371511509
 45
7.635564524722972
 46
2.229293232572162
 79
     6
 49
0.0
 49
-0.635
 49
0.0
 49
-2.997199999999999
 49
0.0
 49
-3.429
 47
1.515623993621287
 98
        2
 10
3453.046771039611
 20
742.8397105782546
 10
3454.563220388546
 20
345.7462039712895
  0
LINE
  5
1034
330
1F
100
AcDbEntity
  8
STAVBA OBRYS
100
AcDbLine
 10
3458.979654823451
 20
547.8282919396638
 30
0.0
 11
3458.979654823451
 21
956.4960563152739
 31
0.0
  0
LINE
  5
1035
330
1F
100
AcDbEntity
  8
STAVBA OBRYS
100
AcDbLine
 10
3458.979654823451
 20
375.0471177068589
 30
0.0
 11
3458.979654823451
 21
285.8220646316162
 31
0.0
  0
LINE
  5
1036
330
1F
100
AcDbEntity
  8
STAVBA OBRYS
100
AcDbLine
 10
3458.979654823451
 20
375.0471177068589
 30
0.0
 11
3611.135588131991
 21
375.0471177068589
 31
0.0
  0
HATCH
  5
1037
330
1F
100
AcDbEntity
  8
STAVBA OBRYS
100
AcDbHatch
 10
0.0
 20
0.0
 30
0.0
210
0.0
220
0.0
230
1.0
  2
BRICK
 70
     0
 71
     0
 91
        1
 92
        7
 72
     0
 73
     1
 93
       25
 10
3448.979654823451
 20
956.4960563152739
 10
3212.658493499468
 20
1001.072894603755
 10
3212.658493499468
 20
917.9596810751714
 10
3294.730693125198
 20
917.9596810751714
 10
3298.519554266757
 20
911.3971810751696
 10
3294.730693125198
 20
904.8346810751713
 10
3212.658493499468
 20
904.8346810751713
 10
3212.658493499468
 20
694.3502515380418
 10
3290.204166742165
 20
694.3502515380418
 10
3293.99302788372
 20
687.7877515380419
 10
3290.204166742165
 20
681.22525153804
 10
3212.658493499475
 20
640.5911979092502
 10
3212.658493499475
 20
537.3417459609059
 10
3294.730693125202
 20
537.3417459609059
 10
3298.519554266757
 20
530.7792459609059
 10
3294.730693125202
 20
524.2167459609058
 10
3212.658493499475
 20
524.2167459609077
 10
3212.658493499475
 20
280.6958922351764
 10
3448.979654823451
 20
285.8220646316162
 10
3448.979654823451
 20
385.0471177068588
 10
3317.404392325934
 20
385.0471177068588
 10
3317.404392325934
 20
490.887637352303
 10
3448.979654823451
 20
490.887637352303
 10
3448.979654823451
 20
535.2817600746361
 10
3448.979654823451
 20
595.0022831242472
 97
        0
 75
     0
 76
     1
 52
0.0
 41
10.0
 77
     0
 78
     3
 53
0.0
 43
-10993.85654219907
 44
4156.874371511509
 45
0.0
 46
63.5
 79
     0
 53
90.0
 43
-10993.85654219907
 44
4156.874371511509
 45
-127.0
 46
0.0000000000000078
 79
     2
 49
63.5
 49
-63.5
 53
90.0
 43
-10930.35654219908
 44
4156.874371511509
 45
-127.0
 46
0.0000000000000078
 79
     2
 49
-63.5
 49
63.5
 47
3.990467405356866
 98
        1
 10
3388.754792696563
 20
638.7737219874484
  0
TEXT
  5
1038
330
1F
100
AcDbEntity
  8
POPIS
100
AcDbText
 10
2675.047208097035
 20
1249.084040833926
 30
0.0
 40
35.0
  1
ŘEZ-UKONČENÍ FASÁDY
 41
0.85
  7
SIMPLEX7
100
AcDbText
  0
TEXT
  5
1039
330
1F
100
AcDbEntity
  8
POPIS
100
AcDbText
 10
2675.047208097035
 20
1303.708783859726
 30
0.0
 40
50.0
  1
HORNÍ ZAKONČENÍ
 41
0.85
  7
SIMPLEX7
100
AcDbText
  0
LWPOLYLINE
  5
103A
330
1F
100
AcDbEntity
  8
STAVBA OBRYS
  6
DASHED
100
AcDbPolyline
 90
        4
 70
     1
 43
0.0
 10
3128.98708056772
 20
505.7194599513946
 10
3134.360361892577
 20
505.7194599513946
 10
3134.360361892577
 20
555.8390319704171
 10
3128.98708056772
 20
555.8390319704171
  0
LINE
  5
103B
330
1F
100
AcDbEntity
  8
STAVBA OBRYS
  6
DASHED
100
AcDbLine
 10
3294.730693125202
 20
537.3417459609059
 30
0.0
 11
3134.360361892577
 21
537.3417459609095
 31
0.0
  0
LINE
  5
103C
330
1F
100
AcDbEntity
  8
STAVBA OBRYS
  6
DASHED
100
AcDbLine
 10
3298.519554266757
 20
530.7792459609059
 30
0.0
 11
3294.730693125202
 21
537.3417459609059
 31
0.0
  0
LINE
  5
103D
330
1F
100
AcDbEntity
  8
STAVBA OBRYS
  6
DASHED
100
AcDbLine
 10
3298.519554266757
 20
530.7792459609059
 30
0.0
 11
3294.730693125202
 21
524.2167459609058
 31
0.0
  0
LINE
  5
103E
330
1F
100
AcDbEntity
  8
STAVBA OBRYS
  6
DASHDOT2
100
AcDbLine
 10
3100.602117390903
 20
530.7792459609077
 30
0.0
 11
3313.378606457001
 21
530.7792459609059
 31
0.0
  0
LINE
  5
103F
330
1F
100
AcDbEntity
  8
STAVBA OBRYS
  6
DASHED
100
AcDbLine
 10
3294.730693125202
 20
524.2167459609058
 30
0.0
 11
3134.360361892577
 21
524.2167459609095
 31
0.0
  0
LINE
  5
1040
330
1F
100
AcDbEntity
  8
STAVBA OBRYS
100
AcDbLine
 10
3128.987080567727
 20
961.8939120547343
 30
0.0
 11
3212.658493499468
 21
961.8939120547343
 31
0.0
  0
LINE
  5
1041
330
1F
100
AcDbEntity
  8
STAVBA OBRYS
100
AcDbLine
 10
3448.979654823451
 20
385.0471177068588
 30
0.0
 11
3448.979654823451
 21
285.8220646316162
 31
0.0
  0
LINE
  5
1042
330
1F
100
AcDbEntity
  8
STAVBA OBRYS
100
AcDbLine
 10
3317.404392325934
 20
385.0471177068588
 30
0.0
 11
3611.135588131991
 21
385.0471177068588
 31
0.0
  0
LINE
  5
1043
330
1F
100
AcDbEntity
  8
STAVBA OBRYS
100
AcDbLine
 10
3317.404392325934
 20
490.887637352303
 30
0.0
 11
3317.404392325934
 21
385.0471177068588
 31
0.0
  0
LINE
  5
1044
330
1F
100
AcDbEntity
  8
POPIS
100
AcDbLine
 10
2933.258207603441
 20
614.3941737561995
 30
0.0
 11
3173.319632269107
 21
614.3941737561995
 31
0.0
  0
TEXT
  5
1045
330
1F
100
AcDbEntity
  8
POPIS
100
AcDbText
 10
2893.280721260173
 20
600.9508323068307
 30
0.0
 40
25.0
  1
07
 41
0.7
  7
SIMPLEX7
100
AcDbText
  0
LINE
  5
1046
330
1F
100
AcDbEntity
  8
POPIS
100
AcDbLine
 10
2933.258207603441
 20
391.8372897339754
 30
0.0
 11
3114.05155773324
 21
392.3493490849327
 31
0.0
  0
TEXT
  5
1047
330
1F
100
AcDbEntity
  8
POPIS
100
AcDbText
 10
2862.081959761126
 20
378.3939482846049
 30
0.0
 40
25.0
  1
03,04
 41
0.7
  7
SIMPLEX7
100
AcDbText
  0
TEXT
  5
1048
330
1F
100
AcDbEntity
  8
POPIS
100
AcDbText
 10
2894.954556505719
 20
302.8404301138266
 30
0.0
 40
25.0
  1
02
 41
0.7
  7
SIMPLEX7
100
AcDbText
  0
LINE
  5
1049
330
1F
100
AcDbEntity
  8
POPIS
100
AcDbLine
 10
2933.258207603441
 20
316.2837715631972
 30
0.0
 11
3081.334351654957
 21
316.2837715631953
 31
0.0
  0
LINE
  5
104A
330
1F
100
AcDbEntity
  8
STAVBA OBRYS
  6
IZOLACE
 48
4.0
100
AcDbLine
 10
3171.206486405808
 20
961.8939120547343
 30
0.0
 11
3171.001304442583
 21
822.6199955597017
 31
0.0
  0
LINE
  5
104B
330
1F
100
AcDbEntity
  8
STAVBA OBRYS
100
AcDbLine
 10
3291.854377055744
 20
1108.111002892399
 30
0.0
 11
2975.163442243811
 21
879.3998565982887
 31
0.0
  0
LINE
  5
104C
330
1F
100
AcDbEntity
  8
STAVBA OBRYS
100
AcDbLine
 10
2870.405768955766
 20
849.5935744314751
 30
0.0
 11
2870.405768955766
 21
927.0963601801845
 31
0.0
  0
LINE
  5
104D
330
1F
100
AcDbEntity
  8
STAVBA OBRYS
100
AcDbLine
 10
3213.65122000785
 20
1174.984922626661
 30
0.0
 11
2870.405768955766
 21
927.0963601801845
 31
0.0
  0
LINE
  5
104E
330
1F
100
AcDbEntity
  8
STAVBA OBRYS
100
AcDbLine
 10
2975.163442243811
 20
879.3998565982887
 30
0.0
 11
2933.891385697265
 21
849.5935744314751
 31
0.0
  0
LWPOLYLINE
  5
104F
330
1F
100
AcDbEntity
  8
STAVBA OBRYS
100
AcDbPolyline
 90
        4
 70
     1
 43
0.0
 10
3103.903223337318
 20
1095.725975297127
 10
3144.43779739377
 20
1124.99965470478
 10
3123.946221808411
 20
1153.373856544295
 10
3083.41164775196
 20
1124.100177136644
  0
LWPOLYLINE
  5
1050
330
1F
100
AcDbEntity
  8
STAVBA OBRYS
100
AcDbPolyline
 90
        4
 70
     1
 43
0.0
 10
2901.230353055063
 20
949.3575782588608
 10
2871.956673647408
 20
989.8921523153125
 10
2843.582471807891
 20
969.4005767299563
 10
2872.856151215546
 20
928.8660026735046
  0
LINE
  5
1051
330
1F
100
AcDbEntity
  8
STAVBA OBRYS
100
AcDbLine
 10
2933.891385697265
 20
849.5935744314751
 30
0.0
 11
2870.405768955766
 21
849.5935744314751
 31
0.0
  0
LINE
  5
1052
330
1F
100
AcDbEntity
  8
STAVBA OBRYS
100
AcDbLine
 10
3123.946221808411
 20
1153.373856544295
 30
0.0
 11
2799.082109455456
 21
941.812615438544
 31
0.0
  0
LINE
  5
1053
330
1F
100
AcDbEntity
  8
STAVBA OBRYS
100
AcDbLine
 10
2799.082109455456
 20
941.812615438544
 30
0.0
 11
2793.363680311417
 21
950.9799803501568
 31
0.0
  0
LINE
  5
1054
330
1F
100
AcDbEntity
  8
STAVBA OBRYS
100
AcDbLine
 10
3145.4628478675
 20
1180.277505216603
 30
0.0
 11
2793.363680311417
 21
950.9799803501568
 31
0.0
  0
LINE
  5
1055
330
1F
100
AcDbEntity
  8
STAVBA OBRYS
100
AcDbLine
 10
3128.372575827459
 20
1147.244788438899
 30
0.0
 11
3155.897305850591
 21
1164.883567906539
 31
0.0
  0
LINE
  5
1056
330
1F
100
AcDbEntity
  8
STAVBA OBRYS
100
AcDbLine
 10
3155.897305850591
 20
1164.883567906539
 30
0.0
 11
3145.4628478675
 21
1180.277505216603
 31
0.0
  0
LINE
  5
1057
330
1F
100
AcDbEntity
  8
STAVBA OBRYS
100
AcDbLine
 10
3171.159365483421
 20
1211.321011553177
 30
0.0
 11
3067.023026467886
 21
1143.504308234468
 31
0.0
  0
LINE
  5
1058
330
1F
100
AcDbEntity
  8
STAVBA OBRYS
100
AcDbLine
 10
3179.717327549391
 20
1204.002835537111
 30
0.0
 11
3072.741455611925
 21
1134.336943322855
 31
0.0
  0
LINE
  5
1059
330
1F
100
AcDbEntity
  8
STAVBA OBRYS
100
AcDbLine
 10
3072.741455611925
 20
1134.336943322855
 30
0.0
 11
3067.023026467886
 21
1143.504308234468
 31
0.0
  0
ARC
  5
105A
330
1F
100
AcDbEntity
  8
STAVBA OBRYS
100
AcDbCircle
 10
2736.807459378884
 20
911.9884216664518
 30
0.0
 40
75.0
100
AcDbArc
 50
180.0
 51
0.0
  0
LINE
  5
105B
330
1F
100
AcDbEntity
  8
STAVBA OBRYS
100
AcDbLine
 10
2661.807459378884
 20
911.9884216664518
 30
0.0
 11
2811.807459378884
 21
911.9884216664518
 31
0.0
  0
ARC
  5
105C
330
1F
100
AcDbEntity
  8
STAVBA OBRYS
100
AcDbCircle
 10
2736.807459378884
 20
911.9884216664518
 30
0.0
 40
85.0
100
AcDbArc
 50
180.0
 51
7.970582748493325
  0
LINE
  5
105D
330
1F
100
AcDbEntity
  8
STAVBA OBRYS
100
AcDbLine
 10
2651.807459378884
 20
911.9884216664518
 30
0.0
 11
2655.027452531594
 21
921.2756225295574
 31
0.0
  0
LINE
  5
105E
330
1F
100
AcDbEntity
  8
STAVBA OBRYS
100
AcDbLine
 10
2655.027452531594
 20
921.2756225295574
 30
0.0
 11
2666.580876008782
 21
922.0205588675176
 31
0.0
  0
LINE
  5
105F
330
1F
100
AcDbEntity
  8
STAVBA OBRYS
100
AcDbLine
 10
2666.580876008782
 20
922.0205588675176
 30
0.0
 11
2672.17125613397
 21
888.1261091698958
 31
0.0
  0
LINE
  5
1060
330
1F
100
AcDbEntity
  8
STAVBA OBRYS
100
AcDbLine
 10
2807.034042748986
 20
922.0205588675176
 30
0.0
 11
2801.443662623798
 21
888.1261091698958
 31
0.0
  0
LINE
  5
1061
330
1F
100
AcDbEntity
  8
STAVBA OBRYS
100
AcDbLine
 10
2816.248785421405
 20
921.4264149174427
 30
0.0
 11
2807.034042748986
 21
922.0205588675176
 31
0.0
  0
LINE
  5
1062
330
1F
100
AcDbEntity
  8
STAVBA OBRYS
100
AcDbLine
 10
2820.986307832274
 20
923.7749170344937
 30
0.0
 11
2890.467951551618
 21
941.8783724171566
 31
0.0
  0
LINE
  5
1063
330
1F
100
AcDbEntity
  8
STAVBA OBRYS
100
AcDbLine
 10
2887.043252135303
 20
939.1117904661838
 30
0.0
 11
3042.028494481808
 21
1051.040641403423
 31
0.0
  0
LINE
  5
1064
330
1F
100
AcDbEntity
  8
STAVBA OBRYS
100
AcDbLine
 10
3042.028494481808
 20
1051.040641403423
 30
0.0
 11
3039.336170327944
 21
1054.943990733152
 31
0.0
  0
LINE
  5
1065
330
1F
100
AcDbEntity
  8
STAVBA OBRYS
100
AcDbLine
 10
2885.316849730745
 20
943.7127191903014
 30
0.0
 11
3039.336170327944
 21
1054.943990733152
 31
0.0
  0
LINE
  5
1066
330
1F
100
AcDbEntity
  8
STAVBA OBRYS
100
AcDbLine
 10
2815.647806926296
 20
925.5604369406514
 30
0.0
 11
2885.316849730745
 21
943.7127191903014
 31
0.0
  0
ARC
  5
1067
330
1F
100
AcDbEntity
  8
STAVBA OBRYS
100
AcDbCircle
 10
2736.807459378884
 20
911.9884216664518
 30
0.0
 40
80.0
100
AcDbArc
 50
180.0
 51
9.767481047644903
  0
LINE
  5
1068
330
1F
100
AcDbEntity
  8
STAVBA OBRYS
100
AcDbLine
 10
2656.807459378884
 20
911.9884216664518
 30
0.0
 11
2651.807459378884
 21
911.9884216664518
 31
0.0
  0
HATCH
  5
1069
330
1F
100
AcDbEntity
  8
STAVBA OBRYS
100
AcDbHatch
 10
0.0
 20
0.0
 30
0.0
210
0.0
220
0.0
230
1.0
  2
ANSI32
 70
     0
 71
     0
 91
        2
 92
        7
 72
     0
 73
     1
 93
        4
 10
3083.41164775196
 20
1124.100177136644
 10
3103.903223337318
 20
1095.725975297127
 10
3144.43779739377
 20
1124.99965470478
 10
3123.946221808411
 20
1153.373856544297
 97
        0
 92
        7
 72
     0
 73
     1
 93
        6
 10
2872.261912511538
 20
989.4694952529512
 10
2863.199147790379
 20
983.5675513959627
 10
2843.582471807891
 20
969.4005767299563
 10
2865.805402706788
 20
938.629007986286
 10
2885.316849730745
 20
943.7127191903014
 10
2898.454800328844
 20
953.2008207143675
 97
        0
 75
     0
 76
     1
 52
20.0
 41
1.0
 77
     0
 78
     2
 53
65.0
 43
1212.075390926944
 44
-1123.168798904031
 45
-8.632581671524091
 46
4.025438943080162
 79
     0
 53
65.0
 43
1216.294732954313
 44
-1121.63308399788
 45
-8.632581671524091
 46
4.025438943080162
 79
     0
 47
2.264304472722329
 98
        2
 10
3118.717183845725
 20
1133.296088341497
 10
2880.821217751203
 20
961.2089469916405
  0
LINE
  5
106A
330
1F
100
AcDbEntity
  8
STAVBA OBRYS
100
AcDbLine
 10
3317.404392325934
 20
490.887637352303
 30
0.0
 11
3614.854464782235
 21
490.887637352303
 31
0.0
  0
LINE
  5
106B
330
1F
100
AcDbEntity
  8
STAVBA OBRYS
100
AcDbLine
 10
3128.987080567727
 20
961.8939120547343
 30
0.0
 11
3128.987080567731
 21
276.2494489166888
 31
0.0
  0
LINE
  5
106C
330
1F
100
AcDbEntity
  8
STAVBA OBRYS
100
AcDbLine
 10
3448.979654823451
 20
595.0022831242472
 30
0.0
 11
3448.979654823451
 21
535.2817600746361
 31
0.0
  0
LINE
  5
106D
330
1F
100
AcDbEntity
  8
STAVBA OBRYS
100
AcDbLine
 10
3212.658493499468
 20
1001.072894603755
 30
0.0
 11
3212.658493499475
 21
280.6958922351764
 31
0.0
  0
LINE
  5
106E
330
1F
100
AcDbEntity
  8
STAVBA OBRYS
100
AcDbLine
 10
3448.979654823451
 20
535.2817600746361
 30
0.0
 11
3448.979654823451
 21
490.887637352303
 31
0.0
  0
LINE
  5
106F
330
1F
100
AcDbEntity
  8
STAVBA OBRYS
100
AcDbLine
 10
3448.979654823451
 20
595.0022831242472
 30
0.0
 11
3448.979654823451
 21
956.4960563152739
 31
0.0
  0
LWPOLYLINE
  5
1070
330
1F
100
AcDbEntity
  8
STAVBA OBRYS
100
AcDbPolyline
 90
        4
 70
     1
 43
0.0
 10
2869.600191138743
 20
927.1030147786527
 10
2851.943509080203
 20
927.1030147786527
 10
2851.943509080203
 20
828.0171890193573
 10
2869.600191138743
 20
828.0171890193573
  0
LWPOLYLINE
  5
1071
330
1F
100
AcDbEntity
  8
STAVBA OBRYS
100
AcDbPolyline
 90
        4
 70
     1
 43
0.0
 10
2870.576319540032
 20
848.9116731170048
 10
2870.576319540032
 20
831.2549910584653
 10
3123.658493499464
 20
831.2549910584706
 10
3123.658493499464
 20
848.9116731170101
  0
LINE
  5
1072
330
1F
100
AcDbEntity
  8
SPOJOVACÍ
  6
DASHED
 48
0.5
100
AcDbLine
 10
3099.994608240606
 20
871.4737143182006
 30
0.0
 11
3099.994608240606
 21
832.8606825199035
 31
0.0
  0
LINE
  5
1073
330
1F
100
AcDbEntity
  8
SPOJOVACÍ
  6
DASHED
 48
0.5
100
AcDbLine
 10
3103.152352939381
 20
871.4737143182006
 30
0.0
 11
3103.152352939381
 21
832.8606825199035
 31
0.0
  0
LINE
  5
1074
330
1F
100
AcDbEntity
  8
SPOJOVACÍ
  6
DASHED
 48
0.5
100
AcDbLine
 10
3099.994608240606
 20
832.8606825199035
 30
0.0
 11
3103.152352939381
 21
832.8606825199035
 31
0.0
  0
LINE
  5
1075
330
1F
100
AcDbEntity
  8
SPOJOVACÍ
  6
DASHED
 48
0.5
100
AcDbLine
 10
3095.640863402492
 20
831.2441659491938
 30
0.0
 11
3095.640863402492
 21
831.5411559924955
 31
0.0
  0
LINE
  5
1076
330
1F
100
AcDbEntity
  8
SPOJOVACÍ
  6
DASHED
 48
0.5
100
AcDbLine
 10
3095.640863402492
 20
831.5411559924955
 30
0.0
 11
3099.994608240606
 21
832.8606825199035
 31
0.0
  0
LINE
  5
1077
330
1F
100
AcDbEntity
  8
SPOJOVACÍ
  6
DASHED
 48
0.5
100
AcDbLine
 10
3107.506097777492
 20
831.5411559924955
 30
0.0
 11
3103.152352939381
 21
832.8606825199035
 31
0.0
  0
LINE
  5
1078
330
1F
100
AcDbEntity
  8
SPOJOVACÍ
  6
DASHED
 48
0.5
100
AcDbLine
 10
3107.506097777492
 20
831.2441659491938
 30
0.0
 11
3107.506097777492
 21
831.5411559924955
 31
0.0
  0
LINE
  5
1079
330
1F
100
AcDbEntity
  8
SPOJOVACÍ
  6
DASHED
 48
0.5
100
AcDbLine
 10
3095.640863402492
 20
831.2441659491938
 30
0.0
 11
3107.506097777492
 21
831.2441659491938
 31
0.0
  0
LINE
  5
107A
330
1F
100
AcDbEntity
  8
SPOJOVACÍ
  6
DASHED
 48
0.5
100
AcDbLine
 10
3101.573480589992
 20
872.6901548307592
 30
0.0
 11
3103.152352939381
 21
871.4737143182006
 31
0.0
  0
LINE
  5
107B
330
1F
100
AcDbEntity
  8
SPOJOVACÍ
  6
DASHED
 48
0.5
100
AcDbLine
 10
3101.573480589992
 20
872.6901548307592
 30
0.0
 11
3099.994608240606
 21
871.4737143182006
 31
0.0
  0
LINE
  5
107C
330
1F
100
AcDbEntity
  8
SPOJOVACÍ
  6
DASHED
 48
0.5
100
AcDbLine
 10
2918.456809538435
 20
871.4737143182006
 30
0.0
 11
2918.456809538435
 21
832.8606825199035
 31
0.0
  0
LINE
  5
107D
330
1F
100
AcDbEntity
  8
SPOJOVACÍ
  6
DASHED
 48
0.5
100
AcDbLine
 10
2921.61455423721
 20
871.4737143182006
 30
0.0
 11
2921.61455423721
 21
832.8606825199035
 31
0.0
  0
LINE
  5
107E
330
1F
100
AcDbEntity
  8
SPOJOVACÍ
  6
DASHED
 48
0.5
100
AcDbLine
 10
2918.456809538435
 20
832.8606825199035
 30
0.0
 11
2921.61455423721
 21
832.8606825199035
 31
0.0
  0
LINE
  5
107F
330
1F
100
AcDbEntity
  8
SPOJOVACÍ
  6
DASHED
 48
0.5
100
AcDbLine
 10
2914.10306470032
 20
831.2441659491938
 30
0.0
 11
2914.10306470032
 21
831.5411559924955
 31
0.0
  0
LINE
  5
1080
330
1F
100
AcDbEntity
  8
SPOJOVACÍ
  6
DASHED
 48
0.5
100
AcDbLine
 10
2914.10306470032
 20
831.5411559924955
 30
0.0
 11
2918.456809538435
 21
832.8606825199035
 31
0.0
  0
LINE
  5
1081
330
1F
100
AcDbEntity
  8
SPOJOVACÍ
  6
DASHED
 48
0.5
100
AcDbLine
 10
2925.968299075321
 20
831.5411559924955
 30
0.0
 11
2921.61455423721
 21
832.8606825199035
 31
0.0
  0
LINE
  5
1082
330
1F
100
AcDbEntity
  8
SPOJOVACÍ
  6
DASHED
 48
0.5
100
AcDbLine
 10
2925.968299075321
 20
831.2441659491938
 30
0.0
 11
2925.968299075321
 21
831.5411559924955
 31
0.0
  0
LINE
  5
1083
330
1F
100
AcDbEntity
  8
SPOJOVACÍ
  6
DASHED
 48
0.5
100
AcDbLine
 10
2914.10306470032
 20
831.2441659491938
 30
0.0
 11
2925.968299075321
 21
831.2441659491938
 31
0.0
  0
LINE
  5
1084
330
1F
100
AcDbEntity
  8
SPOJOVACÍ
  6
DASHED
 48
0.5
100
AcDbLine
 10
2920.035681887821
 20
872.6901548307592
 30
0.0
 11
2921.61455423721
 21
871.4737143182006
 31
0.0
  0
LINE
  5
1085
330
1F
100
AcDbEntity
  8
SPOJOVACÍ
  6
DASHED
 48
0.5
100
AcDbLine
 10
2920.035681887821
 20
872.6901548307592
 30
0.0
 11
2918.456809538435
 21
871.4737143182006
 31
0.0
  0
LINE
  5
1086
330
1F
100
AcDbEntity
  8
SPOJOVACÍ
  6
DASHED
 48
0.5
100
AcDbLine
 10
2892.17305744921
 20
914.3063683577251
 30
0.0
 11
2853.560025650913
 21
914.3063683577251
 31
0.0
  0
LINE
  5
1087
330
1F
100
AcDbEntity
  8
SPOJOVACÍ
  6
DASHED
 48
0.5
100
AcDbLine
 10
2892.17305744921
 20
911.1486236589458
 30
0.0
 11
2853.560025650913
 21
911.1486236589458
 31
0.0
  0
LINE
  5
1088
330
1F
100
AcDbEntity
  8
SPOJOVACÍ
  6
DASHED
 48
0.5
100
AcDbLine
 10
2853.560025650913
 20
914.3063683577251
 30
0.0
 11
2853.560025650913
 21
911.1486236589458
 31
0.0
  0
LINE
  5
1089
330
1F
100
AcDbEntity
  8
SPOJOVACÍ
  6
DASHED
 48
0.5
100
AcDbLine
 10
2851.943509080203
 20
918.6601131958354
 30
0.0
 11
2852.240499123505
 21
918.6601131958354
 31
0.0
  0
LINE
  5
108A
330
1F
100
AcDbEntity
  8
SPOJOVACÍ
  6
DASHED
 48
0.5
100
AcDbLine
 10
2852.240499123505
 20
918.6601131958354
 30
0.0
 11
2853.560025650913
 21
914.3063683577251
 31
0.0
  0
LINE
  5
108B
330
1F
100
AcDbEntity
  8
SPOJOVACÍ
  6
DASHED
 48
0.5
100
AcDbLine
 10
2852.240499123505
 20
906.7948788208354
 30
0.0
 11
2853.560025650913
 21
911.1486236589458
 31
0.0
  0
LINE
  5
108C
330
1F
100
AcDbEntity
  8
SPOJOVACÍ
  6
DASHED
 48
0.5
100
AcDbLine
 10
2851.943509080203
 20
906.7948788208354
 30
0.0
 11
2852.240499123505
 21
906.7948788208354
 31
0.0
  0
LINE
  5
108D
330
1F
100
AcDbEntity
  8
SPOJOVACÍ
  6
DASHED
 48
0.5
100
AcDbLine
 10
2851.943509080203
 20
918.6601131958354
 30
0.0
 11
2851.943509080203
 21
906.7948788208354
 31
0.0
  0
LINE
  5
108E
330
1F
100
AcDbEntity
  8
SPOJOVACÍ
  6
DASHED
 48
0.5
100
AcDbLine
 10
2893.389497961769
 20
912.7274960083354
 30
0.0
 11
2892.17305744921
 21
911.1486236589458
 31
0.0
  0
LINE
  5
108F
330
1F
100
AcDbEntity
  8
SPOJOVACÍ
  6
DASHED
 48
0.5
100
AcDbLine
 10
2893.389497961769
 20
912.7274960083354
 30
0.0
 11
2892.17305744921
 21
914.3063683577251
 31
0.0
  0
LINE
  5
1090
330
1F
100
AcDbEntity
  8
SPOJOVACÍ
  6
DASHED
 48
0.5
100
AcDbLine
 10
2892.17305744921
 20
858.8005004760431
 30
0.0
 11
2853.560025650913
 21
858.8005004760431
 31
0.0
  0
LINE
  5
1091
330
1F
100
AcDbEntity
  8
SPOJOVACÍ
  6
DASHED
 48
0.5
100
AcDbLine
 10
2892.17305744921
 20
861.9582451748224
 30
0.0
 11
2853.560025650913
 21
861.9582451748224
 31
0.0
  0
LINE
  5
1092
330
1F
100
AcDbEntity
  8
SPOJOVACÍ
  6
DASHED
 48
0.5
100
AcDbLine
 10
2851.943509080203
 20
866.3119900129327
 30
0.0
 11
2851.943509080203
 21
854.4467556379327
 31
0.0
  0
LINE
  5
1093
330
1F
100
AcDbEntity
  8
SPOJOVACÍ
  6
DASHED
 48
0.5
100
AcDbLine
 10
2851.943509080203
 20
854.4467556379327
 30
0.0
 11
2852.240499123505
 21
854.4467556379327
 31
0.0
  0
LINE
  5
1094
330
1F
100
AcDbEntity
  8
SPOJOVACÍ
  6
DASHED
 48
0.5
100
AcDbLine
 10
2852.240499123505
 20
854.4467556379327
 30
0.0
 11
2853.560025650913
 21
858.8005004760431
 31
0.0
  0
LINE
  5
1095
330
1F
100
AcDbEntity
  8
SPOJOVACÍ
  6
DASHED
 48
0.5
100
AcDbLine
 10
2852.240499123505
 20
866.3119900129327
 30
0.0
 11
2853.560025650913
 21
861.9582451748224
 31
0.0
  0
LINE
  5
1096
330
1F
100
AcDbEntity
  8
SPOJOVACÍ
  6
DASHED
 48
0.5
100
AcDbLine
 10
2853.560025650913
 20
861.9582451748224
 30
0.0
 11
2853.560025650913
 21
858.8005004760431
 31
0.0
  0
LINE
  5
1097
330
1F
100
AcDbEntity
  8
SPOJOVACÍ
  6
DASHED
 48
0.5
100
AcDbLine
 10
2893.389497961769
 20
860.3793728254327
 30
0.0
 11
2892.17305744921
 21
861.9582451748224
 31
0.0
  0
LINE
  5
1098
330
1F
100
AcDbEntity
  8
SPOJOVACÍ
  6
DASHED
 48
0.5
100
AcDbLine
 10
2893.389497961769
 20
860.3793728254327
 30
0.0
 11
2892.17305744921
 21
858.8005004760431
 31
0.0
  0
HATCH
  5
1099
330
1F
100
AcDbEntity
  8
STAVBA OBRYS
100
AcDbHatch
 10
0.0
 20
0.0
 30
0.0
210
0.0
220
0.0
230
1.0
  2
ANSI32
 70
     0
 71
     0
 91
        1
 92
        7
 72
     0
 73
     1
 93
       29
 10
3291.854377055744
 20
1108.111002892399
 10
3213.65122000785
 20
1174.984922626661
 10
2870.405768955766
 20
927.0963601801845
 10
2870.405768955766
 20
914.3063683577251
 10
2892.17305744921
 20
914.3063683577251
 10
2893.389497961769
 20
912.7274960083354
 10
2892.17305744921
 20
911.1486236589458
 10
2870.405768955766
 20
911.1486236589458
 10
2870.405768955766
 20
875.2606835396305
 10
2871.48673124898
 20
873.8576544084331
 10
2870.405768955766
 20
872.4546252772356
 10
2870.405768955766
 20
861.9582451748224
 10
2882.381031189787
 20
861.9582451748224
 10
2882.381031189787
 20
871.4737143182006
 10
2883.959903539173
 20
872.6901548307592
 10
2885.538775888562
 20
871.4737143182006
 10
2885.538775888562
 20
861.9582451748206
 10
2892.17305744921
 20
861.9582451748224
 10
2893.389497961769
 20
860.3793728254327
 10
2892.17305744921
 20
858.8005004760431
 10
2885.538775888562
 20
858.8005004760431
 10
2885.538775888562
 20
849.5935744314751
 10
2924.405174019812
 20
849.5935744314751
 10
2924.405174019815
 20
871.4737143182006
 10
2925.984046369201
 20
872.6901548307592
 10
2927.562918718591
 20
871.4737143182006
 10
2927.562918718591
 20
849.5935744314751
 10
2933.891385697265
 20
849.5935744314751
 10
2975.163442243811
 20
879.3998565982887
 97
        0
 75
     0
 76
     1
 52
340.0
 41
2.0
 77
     0
 78
     2
 53
24.99999999999999
 43
1212.075390926944
 44
-889.5362473606205
 45
-8.050877886160327
 46
17.26516334304817
 79
     0
 53
24.99999999999999
 43
1220.514074981682
 44
-892.6076771729226
 45
-8.050877886160327
 46
17.26516334304817
 79
     0
 47
1.234959447673127
 98
        1
 10
2990.012924889197
 20
963.9052704254003
  0
HATCH
  5
109A
330
1F
100
AcDbEntity
  8
STAVBA OBRYS
100
AcDbHatch
 10
0.0
 20
0.0
 30
0.0
210
0.0
220
0.0
230
1.0
  2
AR-SAND
 70
     0
 71
     0
 91
        1
 92
        7
 72
     0
 73
     1
 93
        4
 10
3595.181207158606
 20
535.2817600746361
 10
3449.058763432887
 20
535.2817600746361
 10
3448.979654823451
 20
490.887637352303
 10
3583.816756478528
 20
490.887637352303
 97
        0
 75
     0
 76
     1
 52
0.0
 41
0.35
 77
     0
 78
     4
 53
37.5
 43
2191.315459998528
 44
293.3744859350749
 45
-0.560010953594416
 46
17.12946330652698
 79
     6
 49
0.0
 49
-13.5128
 49
0.0
 49
-15.113
 49
0.0
 49
-14.44625
 53
7.499999999999999
 43
2191.315459998528
 44
293.3744859350749
 45
15.73331490983009
 46
25.08887851989239
 79
     6
 49
0.0
 49
-7.2898
 49
0.0
 49
-12.17929999999999
 49
0.0
 49
-4.66725
 53
327.4999999999999
 43
2180.38075999853
 44
293.3744859350749
 45
27.68473295845102
 46
0.0503014637490992
 79
     6
 49
0.0
 49
-4.444999999999999
 49
0.0
 49
-16.002
 49
0.0
 49
-20.89149999999999
 53
317.5
 43
2180.38075999853
 44
293.3744859350749
 45
26.7244758365304
 46
7.802526314002567
 79
     6
 49
0.0
 49
-2.222499999999999
 49
0.0
 49
-10.49019999999999
 49
0.0
 49
-12.00149999999999
 47
4.017849295243367
 98
        1
 10
3535.67507288741
 20
524.226364473508
  0
LINE
  5
109B
330
1F
100
AcDbEntity
  8
STAVBA OBRYS
100
AcDbLine
 10
3449.058763432887
 20
535.2817600746361
 30
0.0
 11
3595.181207158606
 21
535.2817600746361
 31
0.0
  0
LINE
  5
109C
330
1F
100
AcDbEntity
  8
STAVBA OBRYS
100
AcDbLine
 10
3449.058763432887
 20
547.8282919396638
 30
0.0
 11
3598.392993625878
 21
547.8282919396638
 31
0.0
  0
LINE
  5
109D
330
1F
100
AcDbEntity
  8
POPIS
100
AcDbLine
 10
2933.258207603441
 20
737.3482362228255
 30
0.0
 11
3158.004247195698
 21
737.3482362228255
 31
0.0
  0
TEXT
  5
109E
330
1F
100
AcDbEntity
  8
POPIS
100
AcDbText
 10
2893.280721260173
 20
723.9048947734568
 30
0.0
 40
25.0
  1
06
 41
0.7
  7
SIMPLEX7
100
AcDbText
  0
LINE
  5
109F
330
1F
100
AcDbEntity
  8
POPIS
100
AcDbLine
 10
2933.258207603441
 20
274.8498290368547
 30
0.0
 11
3096.094738058764
 21
274.8498290368529
 31
0.0
  0
TEXT
  5
10A0
330
1F
100
AcDbEntity
  8
POPIS
100
AcDbText
 10
2894.954556505719
 20
261.4064875874841
 30
0.0
 40
25.0
  1
01
 41
0.7
  7
SIMPLEX7
100
AcDbText
  0
LINE
  5
10A1
330
1F
100
AcDbEntity
  8
STAVBA OBRYS
  6
DASHED
100
AcDbLine
 10
3294.730693125202
 20
904.8346810751695
 30
0.0
 11
3134.360361892577
 21
904.8346810751732
 31
0.0
  0
LINE
  5
10A2
330
1F
100
AcDbEntity
  8
STAVBA OBRYS
  6
DASHDOT2
100
AcDbLine
 10
3100.602117390903
 20
911.3971810751714
 30
0.0
 11
3313.378606457001
 21
911.3971810751696
 31
0.0
  0
LINE
  5
10A3
330
1F
100
AcDbEntity
  8
STAVBA OBRYS
  6
DASHED
100
AcDbLine
 10
3298.519554266757
 20
911.3971810751696
 30
0.0
 11
3294.730693125202
 21
904.8346810751695
 31
0.0
  0
LINE
  5
10A4
330
1F
100
AcDbEntity
  8
STAVBA OBRYS
  6
DASHED
100
AcDbLine
 10
3298.519554266757
 20
911.3971810751696
 30
0.0
 11
3294.730693125202
 21
917.9596810751695
 31
0.0
  0
LINE
  5
10A5
330
1F
100
AcDbEntity
  8
STAVBA OBRYS
  6
DASHED
100
AcDbLine
 10
3294.730693125202
 20
917.9596810751695
 30
0.0
 11
3134.360361892577
 21
917.9596810751732
 31
0.0
  0
LWPOLYLINE
  5
10A6
330
1F
100
AcDbEntity
  8
STAVBA OBRYS
  6
DASHED
100
AcDbPolyline
 90
        4
 70
     1
 43
0.0
 10
3128.98708056772
 20
886.3373950656582
 10
3134.360361892577
 20
886.3373950656582
 10
3134.360361892577
 20
936.4569670846808
 10
3128.98708056772
 20
936.4569670846808
  0
TEXT
  5
1103
330
1F
100
AcDbEntity
  8
POPIS
100
AcDbText
 10
2933.355595069273
 20
-141.9225645474111
 30
0.0
 40
25.0
  1
Podkladní EPDM páska tl.1 mm
 41
0.7
  7
SIMPLEX7
100
AcDbText
  0
TEXT
  5
1104
330
1F
100
AcDbEntity
  8
POPIS
100
AcDbText
 10
2879.011891909531
 20
-141.9225645474111
 30
0.0
 40
25.0
  1
09
 41
0.85
  7
SIMPLEX7
100
AcDbText
  0
LINE
  5
1105
330
1F
100
AcDbEntity
  8
PROFILY
100
AcDbLine
 10
3100.846239292398
 20
289.9565379700124
 30
0.0
 11
3100.846239292398
 21
821.1435656322791
 31
0.0
  0
LINE
  5
1106
330
1F
100
AcDbEntity
  8
PROFILY
  6
DASHED
370
    40
100
AcDbLine
 10
3101.046239292398
 20
289.9565379700126
 30
0.0
 11
3101.046239292398
 21
821.1435656322791
 31
0.0
  0
LINE
  5
1107
330
1F
100
AcDbEntity
  8
PROFILY
100
AcDbLine
 10
3101.246239292397
 20
289.9565379700124
 30
0.0
 11
3101.246239292398
 21
821.1435656322791
 31
0.0
  0
TEXT
  5
1108
330
1F
100
AcDbEntity
  8
POPIS
100
AcDbText
 10
2894.368385780799
 20
460.3300567396267
 30
0.0
 40
25.0
  1
09
 41
0.7
  7
SIMPLEX7
100
AcDbText
  0
LINE
  5
1109
330
1F
100
AcDbEntity
  8
POPIS
100
AcDbLine
 10
2932.834064376743
 20
470.5742232761931
 30
0.0
 11
3100.634903317995
 21
470.5742232761913
 31
0.0
  0
INSERT
  5
110A
330
1F
100
AcDbEntity
  8
POPIS
100
AcDbBlockReference
  2
E_PUNKT
 10
3100.69521998014
 20
470.994966342404
 30
0.0
  0
LINE
  5
110B
330
1F
100
AcDbEntity
  8
POPIS
100
AcDbLine
 10
3033.733630641931
 20
830.2988351237914
 30
0.0
 11
3033.733630641931
 21
765.9045503772945
 31
0.0
  0
INSERT
  5
110C
330
1F
100
AcDbEntity
  8
POPIS
100
AcDbBlockReference
  2
_ArchTick
 10
3033.733630641931
 20
821.0076190409218
 30
0.0
 41
15.0
 42
15.0
 43
15.0
 50
90.0
  0
LINE
  5
110D
330
1F
100
AcDbEntity
  8
POPIS
100
AcDbLine
 10
3064.716640497834
 20
777.0854177787486
 30
0.0
 11
3021.233630641931
 21
777.0854177787486
 31
0.0
  0
INSERT
  5
110E
330
1F
100
AcDbEntity
  8
POPIS
100
AcDbBlockReference
  2
_ArchTick
 10
3033.733630641931
 20
777.0854177787486
 30
0.0
 41
15.0
 42
15.0
 43
15.0
 50
90.0
  0
TEXT
  5
110F
330
1F
100
AcDbEntity
  8
POPIS
100
AcDbText
 10
3028.123720249639
 20
786.1253709351499
 30
0.0
 40
25.0
  1
70
 50
90.0
 41
0.7
  7
SIMPLEX7
100
AcDbText
  0
LINE
  5
1110
330
1F
100
AcDbEntity
  8
POPIS
100
AcDbLine
 10
3064.716640497834
 20
821.0076190409218
 30
0.0
 11
3021.233630641931
 21
821.0076190409218
 31
0.0
  0
ENDSEC
  0
SECTION
  2
OBJECTS
  0
DICTIONARY
  5
C
330
0
100
AcDbDictionary
281
     1
  3
ACAD_GROUP
350
D
  3
ACAD_LAYOUT
350
1A
  3
ACAD_MLINESTYLE
350
17
  3
ACAD_PLOTSETTINGS
350
19
  3
ACAD_PLOTSTYLENAME
350
E
  3
AcDbVariableDictionary
350
1112
  0
DICTIONARY
  5
10A8
330
1F
100
AcDbDictionary
280
     1
281
     1
  3
ACAD_LAYOUTSELFREF
360
10E4
  0
DICTIONARY
  5
10AA
330
1B
100
AcDbDictionary
280
     1
281
     1
  3
ACAD_LAYOUTSELFREF
360
10E3
  0
DICTIONARY
  5
10AC
330
23
100
AcDbDictionary
280
     1
281
     1
  3
ACAD_LAYOUTSELFREF
360
10E5
  0
DICTIONARY
  5
D
102
{ACAD_REACTORS
330
C
102
}
330
C
100
AcDbDictionary
281
     1
  0
DICTIONARY
  5
1A
102
{ACAD_REACTORS
330
C
102
}
330
C
100
AcDbDictionary
281
     1
  3
Model
350
22
  3
Rozvržení1
350
1E
  3
Rozvržení2
350
26
  0
DICTIONARY
  5
17
102
{ACAD_REACTORS
330
C
102
}
330
C
100
AcDbDictionary
281
     1
  3
Standard
350
18
  0
DICTIONARY
  5
19
102
{ACAD_REACTORS
330
C
102
}
330
C
100
AcDbDictionary
281
     1
  0
ACDBDICTIONARYWDFLT
  5
E
102
{ACAD_REACTORS
330
C
102
}
330
C
100
AcDbDictionary
281
     1
  3
Normal
350
F
100
AcDbDictionaryWithDefault
340
F
  0
DICTIONARY
  5
1112
102
{ACAD_REACTORS
330
C
102
}
330
C
100
AcDbDictionary
281
     1
  3
DIMASSOC
350
1113
  0
XRECORD
  5
10E4
102
{ACAD_REACTORS
330
10A8
102
}
330
10A8
100
AcDbXrecord
280
     1
340
1F
  0
XRECORD
  5
10E3
102
{ACAD_REACTORS
330
10AA
102
}
330
10AA
100
AcDbXrecord
280
     1
340
1B
  0
XRECORD
  5
10E5
102
{ACAD_REACTORS
330
10AC
102
}
330
10AC
100
AcDbXrecord
280
     1
340
23
  0
LAYOUT
  5
22
102
{ACAD_REACTORS
330
1A
102
}
330
1A
100
AcDbPlotSettings
  1

  2
HP DeskJet 690C
  4

  6

 40
0.0
 41
0.0
 42
0.0
 43
0.0
 44
0.0
 45
0.0
 46
0.0
 47
0.0
 48
0.0
 49
0.0
140
0.0
141
0.0
142
1.0
143
1.0
 70
  1712
 72
     0
 73
     0
 74
     0
  7
monochrome.ctb
 75
     0
147
1.0
148
0.0
149
0.0
100
AcDbLayout
  1
Model
 70
     1
 71
     0
 10
0.0
 20
0.0
 11
12.0
 21
9.0
 12
0.0
 22
0.0
 32
0.0
 14
0.0
 24
0.0
 34
0.0
 15
0.0
 25
0.0
 35
0.0
146
0.0
 13
0.0
 23
0.0
 33
0.0
 16
1.0
 26
0.0
 36
0.0
 17
0.0
 27
1.0
 37
0.0
 76
     0
330
1F
  0
LAYOUT
  5
1E
102
{ACAD_REACTORS
330
1A
102
}
330
1A
100
AcDbPlotSettings
  1

  2
HP DeskJet 690C
  4

  6

 40
0.0
 41
0.0
 42
0.0
 43
0.0
 44
0.0
 45
0.0
 46
0.0
 47
0.0
 48
0.0
 49
0.0
140
0.0
141
0.0
142
1.0
143
1.0
 70
   688
 72
     0
 73
     0
 74
     5
  7
monochrome.ctb
 75
    16
147
1.0
148
0.0
149
0.0
100
AcDbLayout
  1
Rozvržení1
 70
     1
 71
     1
 10
0.0
 20
0.0
 11
420.0
 21
297.0
 12
0.0
 22
0.0
 32
0.0
 14
1.000000000000000E+20
 24
1.000000000000000E+20
 34
1.000000000000000E+20
 15
-1.000000000000000E+20
 25
-1.000000000000000E+20
 35
-1.000000000000000E+20
146
0.0
 13
0.0
 23
0.0
 33
0.0
 16
1.0
 26
0.0
 36
0.0
 17
0.0
 27
1.0
 37
0.0
 76
     0
330
1B
  0
LAYOUT
  5
26
102
{ACAD_REACTORS
330
1A
102
}
330
1A
100
AcDbPlotSettings
  1

  2
HP DeskJet 690C
  4

  6

 40
0.0
 41
0.0
 42
0.0
 43
0.0
 44
0.0
 45
0.0
 46
0.0
 47
0.0
 48
0.0
 49
0.0
140
0.0
141
0.0
142
1.0
143
1.0
 70
   688
 72
     0
 73
     0
 74
     5
  7
monochrome.ctb
 75
    16
147
1.0
148
0.0
149
0.0
100
AcDbLayout
  1
Rozvržení2
 70
     1
 71
     2
 10
0.0
 20
0.0
 11
12.0
 21
9.0
 12
0.0
 22
0.0
 32
0.0
 14
0.0
 24
0.0
 34
0.0
 15
0.0
 25
0.0
 35
0.0
146
0.0
 13
0.0
 23
0.0
 33
0.0
 16
1.0
 26
0.0
 36
0.0
 17
0.0
 27
1.0
 37
0.0
 76
     0
330
23
  0
MLINESTYLE
  5
18
102
{ACAD_REACTORS
330
17
102
}
330
17
100
AcDbMlineStyle
  2
STANDARD
 70
     0
  3

 62
   256
 51
90.0
 52
90.0
 71
     2
 49
0.5
 62
   256
  6
BYLAYER
 49
-0.5
 62
   256
  6
BYLAYER
  0
ACDBPLACEHOLDER
  5
F
102
{ACAD_REACTORS
330
E
102
}
330
E
  0
DICTIONARYVAR
  5
1113
102
{ACAD_REACTORS
330
1112
102
}
330
1112
100
DictionaryVariables
280
     0
  1
1
  0
ENDSEC
  0
EOF
