  0
SECTION
  2
HEADER
  9
$ACADVER
  1
AC1015
  9
$ACADMAINTVER
 70
    14
  9
$DWGCODEPAGE
  3
ANSI_1250
  9
$INSBASE
 10
0.0
 20
0.0
 30
0.0
  9
$EXTMIN
 10
1910.522363649311
 20
-126.6807145012926
 30
0.0
  9
$EXTMAX
 10
2679.688215110684
 20
1183.508335061015
 30
0.0
  9
$LIMMIN
 10
0.0
 20
0.0
  9
$LIMMAX
 10
420.0
 20
297.0
  9
$ORTHOMODE
 70
     0
  9
$REGENMODE
 70
     1
  9
$FILLMODE
 70
     1
  9
$QTEXTMODE
 70
     0
  9
$MIRRTEXT
 70
     1
  9
$LTSCALE
 40
1.0
  9
$ATTMODE
 70
     1
  9
$TEXTSIZE
 40
2.5
  9
$TRACEWID
 40
1.0
  9
$TEXTSTYLE
  7
Standard
  9
$CLAYER
  8
0
  9
$CELTYPE
  6
ByLayer
  9
$CECOLOR
 62
   256
  9
$CELTSCALE
 40
1.0
  9
$DISPSILH
 70
     0
  9
$DIMSCALE
 40
1.0
  9
$DIMASZ
 40
2.5
  9
$DIMEXO
 40
0.625
  9
$DIMDLI
 40
3.75
  9
$DIMRND
 40
0.0
  9
$DIMDLE
 40
0.0
  9
$DIMEXE
 40
1.25
  9
$DIMTP
 40
0.0
  9
$DIMTM
 40
0.0
  9
$DIMTXT
 40
2.5
  9
$DIMCEN
 40
2.5
  9
$DIMTSZ
 40
0.0
  9
$DIMTOL
 70
     0
  9
$DIMLIM
 70
     0
  9
$DIMTIH
 70
     0
  9
$DIMTOH
 70
     0
  9
$DIMSE1
 70
     0
  9
$DIMSE2
 70
     0
  9
$DIMTAD
 70
     1
  9
$DIMZIN
 70
     8
  9
$DIMBLK
  1

  9
$DIMASO
 70
     1
  9
$DIMSHO
 70
     1
  9
$DIMPOST
  1

  9
$DIMAPOST
  1

  9
$DIMALT
 70
     0
  9
$DIMALTD
 70
     3
  9
$DIMALTF
 40
0.03937007874016
  9
$DIMLFAC
 40
1.0
  9
$DIMTOFL
 70
     1
  9
$DIMTVP
 40
0.0
  9
$DIMTIX
 70
     0
  9
$DIMSOXD
 70
     0
  9
$DIMSAH
 70
     0
  9
$DIMBLK1
  1

  9
$DIMBLK2
  1

  9
$DIMSTYLE
  2
ISO-25
  9
$DIMCLRD
 70
     0
  9
$DIMCLRE
 70
     0
  9
$DIMCLRT
 70
     0
  9
$DIMTFAC
 40
1.0
  9
$DIMGAP
 40
0.625
  9
$DIMJUST
 70
     0
  9
$DIMSD1
 70
     0
  9
$DIMSD2
 70
     0
  9
$DIMTOLJ
 70
     0
  9
$DIMTZIN
 70
     8
  9
$DIMALTZ
 70
     0
  9
$DIMALTTZ
 70
     0
  9
$DIMUPT
 70
     0
  9
$DIMDEC
 70
     2
  9
$DIMTDEC
 70
     2
  9
$DIMALTU
 70
     2
  9
$DIMALTTD
 70
     3
  9
$DIMTXSTY
  7
Standard
  9
$DIMAUNIT
 70
     0
  9
$DIMADEC
 70
     0
  9
$DIMALTRND
 40
0.0
  9
$DIMAZIN
 70
     0
  9
$DIMDSEP
 70
    44
  9
$DIMATFIT
 70
     3
  9
$DIMFRAC
 70
     0
  9
$DIMLDRBLK
  1

  9
$DIMLUNIT
 70
     2
  9
$DIMLWD
 70
    -2
  9
$DIMLWE
 70
    -2
  9
$DIMTMOVE
 70
     0
  9
$LUNITS
 70
     2
  9
$LUPREC
 70
     4
  9
$SKETCHINC
 40
1.0
  9
$FILLETRAD
 40
10.0
  9
$AUNITS
 70
     0
  9
$AUPREC
 70
     0
  9
$MENU
  1
.
  9
$ELEVATION
 40
0.0
  9
$PELEVATION
 40
0.0
  9
$THICKNESS
 40
0.0
  9
$LIMCHECK
 70
     0
  9
$CHAMFERA
 40
10.0
  9
$CHAMFERB
 40
10.0
  9
$CHAMFERC
 40
20.0
  9
$CHAMFERD
 40
0.0
  9
$SKPOLY
 70
     0
  9
$TDCREATE
 40
2452339.360978703
  9
$TDUCREATE
 40
2452339.319312037
  9
$TDUPDATE
 40
2455610.258485787
  9
$TDUUPDATE
 40
2455610.216819120
  9
$TDINDWG
 40
0.0059794097
  9
$TDUSRTIMER
 40
0.0059787153
  9
$USRTIMER
 70
     1
  9
$ANGBASE
 50
0.0
  9
$ANGDIR
 70
     0
  9
$PDMODE
 70
     0
  9
$PDSIZE
 40
0.0
  9
$PLINEWID
 40
0.0
  9
$SPLFRAME
 70
     0
  9
$SPLINETYPE
 70
     6
  9
$SPLINESEGS
 70
     8
  9
$HANDSEED
  5
CDD
  9
$SURFTAB1
 70
     6
  9
$SURFTAB2
 70
     6
  9
$SURFTYPE
 70
     6
  9
$SURFU
 70
     6
  9
$SURFV
 70
     6
  9
$UCSBASE
  2

  9
$UCSNAME
  2

  9
$UCSORG
 10
0.0
 20
0.0
 30
0.0
  9
$UCSXDIR
 10
1.0
 20
0.0
 30
0.0
  9
$UCSYDIR
 10
0.0
 20
1.0
 30
0.0
  9
$UCSORTHOREF
  2

  9
$UCSORTHOVIEW
 70
     0
  9
$UCSORGTOP
 10
0.0
 20
0.0
 30
0.0
  9
$UCSORGBOTTOM
 10
0.0
 20
0.0
 30
0.0
  9
$UCSORGLEFT
 10
0.0
 20
0.0
 30
0.0
  9
$UCSORGRIGHT
 10
0.0
 20
0.0
 30
0.0
  9
$UCSORGFRONT
 10
0.0
 20
0.0
 30
0.0
  9
$UCSORGBACK
 10
0.0
 20
0.0
 30
0.0
  9
$PUCSBASE
  2

  9
$PUCSNAME
  2

  9
$PUCSORG
 10
0.0
 20
0.0
 30
0.0
  9
$PUCSXDIR
 10
1.0
 20
0.0
 30
0.0
  9
$PUCSYDIR
 10
0.0
 20
1.0
 30
0.0
  9
$PUCSORTHOREF
  2

  9
$PUCSORTHOVIEW
 70
     0
  9
$PUCSORGTOP
 10
0.0
 20
0.0
 30
0.0
  9
$PUCSORGBOTTOM
 10
0.0
 20
0.0
 30
0.0
  9
$PUCSORGLEFT
 10
0.0
 20
0.0
 30
0.0
  9
$PUCSORGRIGHT
 10
0.0
 20
0.0
 30
0.0
  9
$PUCSORGFRONT
 10
0.0
 20
0.0
 30
0.0
  9
$PUCSORGBACK
 10
0.0
 20
0.0
 30
0.0
  9
$USERI1
 70
     0
  9
$USERI2
 70
     0
  9
$USERI3
 70
     0
  9
$USERI4
 70
     0
  9
$USERI5
 70
     0
  9
$USERR1
 40
0.0
  9
$USERR2
 40
0.0
  9
$USERR3
 40
0.0
  9
$USERR4
 40
0.0
  9
$USERR5
 40
0.0
  9
$WORLDVIEW
 70
     1
  9
$SHADEDGE
 70
     3
  9
$SHADEDIF
 70
    70
  9
$TILEMODE
 70
     1
  9
$MAXACTVP
 70
    48
  9
$PINSBASE
 10
0.0
 20
0.0
 30
0.0
  9
$PLIMCHECK
 70
     0
  9
$PEXTMIN
 10
1.000000000000000E+20
 20
1.000000000000000E+20
 30
1.000000000000000E+20
  9
$PEXTMAX
 10
-1.000000000000000E+20
 20
-1.000000000000000E+20
 30
-1.000000000000000E+20
  9
$PLIMMIN
 10
0.0
 20
0.0
  9
$PLIMMAX
 10
420.0
 20
297.0
  9
$UNITMODE
 70
     0
  9
$VISRETAIN
 70
     1
  9
$PLINEGEN
 70
     0
  9
$PSLTSCALE
 70
     1
  9
$TREEDEPTH
 70
  3020
  9
$CMLSTYLE
  2
Standard
  9
$CMLJUST
 70
     0
  9
$CMLSCALE
 40
20.0
  9
$PROXYGRAPHICS
 70
     1
  9
$MEASUREMENT
 70
     1
  9
$CELWEIGHT
370
    -1
  9
$ENDCAPS
280
     0
  9
$JOINSTYLE
280
     0
  9
$LWDISPLAY
290
     0
  9
$INSUNITS
 70
     4
  9
$HYPERLINKBASE
  1

  9
$STYLESHEET
  1

  9
$XEDIT
290
     1
  9
$CEPSNTYPE
380
     0
  9
$PSTYLEMODE
290
     1
  9
$FINGERPRINTGUID
  2
{9C079773-E80E-4585-A7F4-852C8B38093D}
  9
$VERSIONGUID
  2
{B942C3D2-B19C-4451-8720-B56B59C6B966}
  9
$EXTNAMES
290
     1
  9
$PSVPSCALE
 40
0.0
  9
$OLESTARTUP
290
     0
  0
ENDSEC
  0
SECTION
  2
CLASSES
  0
CLASS
  1
ACDBDICTIONARYWDFLT
  2
AcDbDictionaryWithDefault
  3
AutoCAD 2000
 90
        0
280
     0
281
     0
  0
CLASS
  1
ACDBPLACEHOLDER
  2
AcDbPlaceHolder
  3
AutoCAD 2000
 90
        0
280
     0
281
     0
  0
CLASS
  1
LAYOUT
  2
AcDbLayout
  3
AutoCAD 2000
 90
        0
280
     0
281
     0
  0
CLASS
  1
LONG_TRANSACTION
  2
AcDbLongTransaction
  3
AutoCAD 2000
 90
    32768
280
     0
281
     0
  0
CLASS
  1
LWPOLYLINE
  2
AcDbPolyline
  3
AutoCAD 2000
 90
    32768
280
     0
281
     1
  0
CLASS
  1
HATCH
  2
AcDbHatch
  3
AutoCAD 2000
 90
    32768
280
     0
281
     1
  0
CLASS
  1
XRECORD
  2
AcDbXrecord
  3
AutoCAD 2000
 90
    32768
280
     0
281
     0
  0
CLASS
  1
DICTIONARYVAR
  2
AcDbDictionaryVar
  3
AutoCAD 2000
 90
        0
280
     0
281
     0
  0
ENDSEC
  0
SECTION
  2
TABLES
  0
TABLE
  2
VPORT
  5
8
330
0
100
AcDbSymbolTable
 70
     2
  0
VPORT
  5
CDC
330
8
100
AcDbSymbolTableRecord
100
AcDbViewportTableRecord
  2
*Active
 70
     0
 10
0.0
 20
0.0
 11
1.0
 21
1.0
 12
2295.105289379998
 22
528.4138102798611
 13
0.0
 23
0.0
 14
10.0
 24
10.0
 15
10.0
 25
10.0
 16
0.0
 26
0.0
 36
1.0
 17
0.0
 27
0.0
 37
0.0
 40
1319.811000966682
 41
2.031862745098039
 42
50.0
 43
0.0
 44
0.0
 50
0.0
 51
0.0
 71
     0
 72
   100
 73
     1
 74
     3
 75
     0
 76
     0
 77
     0
 78
     0
281
     0
 65
     1
110
0.0
120
0.0
130
0.0
111
1.0
121
0.0
131
0.0
112
0.0
122
1.0
132
0.0
 79
     0
146
0.0
  0
ENDTAB
  0
TABLE
  2
LTYPE
  5
5
330
0
100
AcDbSymbolTable
 70
     4
  0
LTYPE
  5
14
330
5
100
AcDbSymbolTableRecord
100
AcDbLinetypeTableRecord
  2
ByBlock
 70
     0
  3

 72
    65
 73
     0
 40
0.0
  0
LTYPE
  5
15
330
5
100
AcDbSymbolTableRecord
100
AcDbLinetypeTableRecord
  2
ByLayer
 70
     0
  3

 72
    65
 73
     0
 40
0.0
  0
LTYPE
  5
16
330
5
100
AcDbSymbolTableRecord
100
AcDbLinetypeTableRecord
  2
Continuous
 70
     0
  3
Solid line
 72
    65
 73
     0
 40
0.0
  0
LTYPE
  5
3F
330
5
100
AcDbSymbolTableRecord
100
AcDbLinetypeTableRecord
  2
IZOLACE
 70
     0
  3
Izolace SSSSSSSSSSSSSSSSSSSSSSSSSSSSSSSSSSSSSSS
 72
    65
 73
     4
 40
10.16253999999999
 49
0.00254
 74
     0
 49
-2.54
 74
     4
 75
   134
340
4A
 46
2.54
 50
0.0
 44
-2.54
 45
0.0
 49
-5.08
 74
     4
 75
   134
340
4A
 46
2.54
 50
180.0
 44
2.54
 45
0.0
 49
-2.54
 74
     0
  0
LTYPE
  5
40
330
5
100
AcDbSymbolTableRecord
100
AcDbLinetypeTableRecord
  2
DASHED
 70
     0
  3
Dashed __ __ __ __ __ __ __ __ __ __ __ __ __ _
 72
    65
 73
     2
 40
19.04999999999999
 49
12.7
 74
     0
 49
-6.349999999999999
 74
     0
  0
LTYPE
  5
41
330
5
100
AcDbSymbolTableRecord
100
AcDbLinetypeTableRecord
  2
DASHDOT2
 70
     0
  3
Dash dot (.5x) _._._._._._._._._._._._._._._.
 72
    65
 73
     4
 40
12.7
 49
6.349999999999999
 74
     0
 49
-3.174999999999999
 74
     0
 49
0.0
 74
     0
 49
-3.174999999999999
 74
     0
  0
ENDTAB
  0
TABLE
  2
LAYER
  5
2
330
0
100
AcDbSymbolTable
 70
     8
  0
LAYER
  5
10
330
2
100
AcDbSymbolTableRecord
100
AcDbLayerTableRecord
  2
0
 70
     0
 62
     7
  6
Continuous
370
    -3
390
F
  0
LAYER
  5
42
330
2
100
AcDbSymbolTableRecord
100
AcDbLayerTableRecord
  2
POPIS
 70
     0
 62
    30
  6
Continuous
370
    -3
390
F
  0
LAYER
  5
43
330
2
100
AcDbSymbolTableRecord
100
AcDbLayerTableRecord
  2
SPOJOVACÍ
 70
     0
 62
   180
  6
Continuous
370
    -3
390
F
  0
LAYER
  5
44
330
2
100
AcDbSymbolTableRecord
100
AcDbLayerTableRecord
  2
CETRIS
 70
     0
 62
     1
  6
Continuous
370
    -3
390
F
  0
LAYER
  5
45
330
2
100
AcDbSymbolTableRecord
100
AcDbLayerTableRecord
  2
NOSNÉ KONSTRUKCE
 70
     0
 62
    33
  6
Continuous
370
    -3
390
F
  0
LAYER
  5
46
330
2
100
AcDbSymbolTableRecord
100
AcDbLayerTableRecord
  2
PROFILY
 70
     0
 62
    73
  6
Continuous
370
    -3
390
F
  0
LAYER
  5
47
330
2
100
AcDbSymbolTableRecord
100
AcDbLayerTableRecord
  2
STAVBA OBRYS
 70
     0
 62
     6
  6
Continuous
370
    -3
390
F
  0
LAYER
  5
48
330
2
100
AcDbSymbolTableRecord
100
AcDbLayerTableRecord
  2
Defpoints
 70
     0
 62
     7
  6
Continuous
290
     0
370
    -3
390
F
  0
ENDTAB
  0
TABLE
  2
STYLE
  5
3
330
0
100
AcDbSymbolTable
 70
     3
  0
STYLE
  5
11
330
3
100
AcDbSymbolTableRecord
100
AcDbTextStyleTableRecord
  2
Standard
 70
     0
 40
0.0
 41
1.0
 50
0.0
 71
     0
 42
2.5
  3
txt
  4

  0
STYLE
  5
49
330
3
100
AcDbSymbolTableRecord
100
AcDbTextStyleTableRecord
  2
SIMPLEX7
 70
     0
 40
0.0
 41
0.85
 50
0.0
 71
     0
 42
102.0
  3
ARIAL.TTF
  4

1001
ACAD
1000
Arial CE
1071
    60962
  0
STYLE
  5
4A
330
3
100
AcDbSymbolTableRecord
100
AcDbTextStyleTableRecord
  2

 70
     1
 40
0.0
 41
1.0
 50
0.0
 71
     0
 42
2.5
  3
ltypeshp.shx
  4

  0
ENDTAB
  0
TABLE
  2
VIEW
  5
6
330
0
100
AcDbSymbolTable
 70
     0
  0
ENDTAB
  0
TABLE
  2
UCS
  5
7
330
0
100
AcDbSymbolTable
 70
     0
  0
ENDTAB
  0
TABLE
  2
APPID
  5
9
330
0
100
AcDbSymbolTable
 70
     1
  0
APPID
  5
12
330
9
100
AcDbSymbolTableRecord
100
AcDbRegAppTableRecord
  2
ACAD
 70
     0
  0
ENDTAB
  0
TABLE
  2
DIMSTYLE
  5
A
330
0
100
AcDbSymbolTable
 70
     1
100
AcDbDimStyleTable
 71
     0
  0
DIMSTYLE
105
27
330
A
100
AcDbSymbolTableRecord
100
AcDbDimStyleTableRecord
  2
ISO-25
 70
     0
 41
2.5
 42
0.625
 43
3.75
 44
1.25
 73
     0
 74
     0
 77
     1
 78
     8
140
2.5
141
2.5
143
0.03937007874016
147
0.625
171
     3
172
     1
271
     2
272
     2
274
     3
278
    44
283
     0
284
     8
340
11
  0
ENDTAB
  0
TABLE
  2
BLOCK_RECORD
  5
1
330
0
100
AcDbSymbolTable
 70
     3
  0
BLOCK_RECORD
  5
1F
102
{ACAD_XDICTIONARY
360
C63
102
}
330
1
100
AcDbSymbolTableRecord
100
AcDbBlockTableRecord
  2
*Model_Space
340
22
  0
BLOCK_RECORD
  5
1B
102
{ACAD_XDICTIONARY
360
C65
102
}
330
1
100
AcDbSymbolTableRecord
100
AcDbBlockTableRecord
  2
*Paper_Space
340
1E
  0
BLOCK_RECORD
  5
23
102
{ACAD_XDICTIONARY
360
C67
102
}
330
1
100
AcDbSymbolTableRecord
100
AcDbBlockTableRecord
  2
*Paper_Space0
340
26
  0
BLOCK_RECORD
  5
2B
330
1
100
AcDbSymbolTableRecord
100
AcDbBlockTableRecord
  2
E_PUNKT
340
0
102
{BLKREFS
331
AC4
331
BDB
331
BDC
331
BDF
331
BE2
331
BE3
331
C0D
331
CC8
102
}
  0
BLOCK_RECORD
  5
CA8
330
1
100
AcDbSymbolTableRecord
100
AcDbBlockTableRecord
  2
_ArchTick
340
0
102
{BLKREFS
331
CBE
331
CC2
102
}
  0
ENDTAB
  0
ENDSEC
  0
SECTION
  2
BLOCKS
  0
BLOCK
  5
20
330
1F
100
AcDbEntity
  8
0
100
AcDbBlockBegin
  2
*Model_Space
 70
     0
 10
0.0
 20
0.0
 30
0.0
  3
*Model_Space
  1

  0
ENDBLK
  5
21
330
1F
100
AcDbEntity
  8
0
100
AcDbBlockEnd
  0
BLOCK
  5
1C
330
1B
100
AcDbEntity
 67
     1
  8
0
100
AcDbBlockBegin
  2
*Paper_Space
 70
     0
 10
0.0
 20
0.0
 30
0.0
  3
*Paper_Space
  1

  0
ENDBLK
  5
1D
330
1B
100
AcDbEntity
 67
     1
  8
0
100
AcDbBlockEnd
  0
BLOCK
  5
24
330
23
100
AcDbEntity
  8
0
100
AcDbBlockBegin
  2
*Paper_Space0
 70
     0
 10
0.0
 20
0.0
 30
0.0
  3
*Paper_Space0
  1

  0
ENDBLK
  5
25
330
23
100
AcDbEntity
  8
0
100
AcDbBlockEnd
  0
BLOCK
  5
2D
330
2B
100
AcDbEntity
  8
0
100
AcDbBlockBegin
  2
E_PUNKT
 70
     0
 10
0.0
 20
0.0
 30
0.0
  3
E_PUNKT
  1

  0
LWPOLYLINE
  5
2C
330
2B
100
AcDbEntity
  8
POPIS
100
AcDbPolyline
 90
        2
 70
     1
 43
2.5
 10
1.27761037562675
 20
0.0290683308725193
 42
-1.0
 10
-1.222389624373249
 20
0.0290683308725193
 42
-1.0
  0
ENDBLK
  5
2E
330
2B
100
AcDbEntity
  8
0
100
AcDbBlockEnd
  0
BLOCK
  5
CAA
330
CA8
100
AcDbEntity
  8
0
100
AcDbBlockBegin
  2
_ArchTick
 70
     0
 10
0.0
 20
0.0
 30
0.0
  3
_ArchTick
  1

  0
LWPOLYLINE
  5
CA9
330
CA8
100
AcDbEntity
  8
0
  6
ByBlock
 62
     0
100
AcDbPolyline
 90
        2
 70
     0
 43
0.15
 10
-0.5
 20
-0.5
 10
0.5
 20
0.5
  0
ENDBLK
  5
CAB
330
CA8
100
AcDbEntity
  8
0
100
AcDbBlockEnd
  0
ENDSEC
  0
SECTION
  2
ENTITIES
  0
HATCH
  5
A6B
330
1F
100
AcDbEntity
  8
STAVBA OBRYS
100
AcDbHatch
 10
0.0
 20
0.0
 30
0.0
210
0.0
220
0.0
230
1.0
  2
BRICK
 70
     0
 71
     0
 91
        1
 92
        7
 72
     0
 73
     1
 93
       22
 10
2409.076294838761
 20
946.9870302076028
 10
2279.318108391275
 20
946.987030207601
 10
2279.318108391279
 20
902.6779942009456
 10
2336.995171381299
 20
902.6779942009412
 10
2340.784032522861
 20
896.1154942009356
 10
2336.995171381303
 20
889.552994200943
 10
2279.318108391272
 20
889.5529942009412
 10
2279.318108391275
 20
700.7097587685316
 10
2361.269090706265
 20
700.7097587685298
 10
2365.057951847816
 20
694.1472587685271
 10
2361.269090706261
 20
687.584758768528
 10
2279.318108391287
 20
687.5847587685306
 10
2279.318108391279
 20
674.2518247722123
 10
2279.318108391275
 20
408.8734833465564
 10
2515.907358353973
 20
456.5052296983117
 10
2516.085312182594
 20
556.3692541507348
 10
2409.076294838761
 20
556.3692541507348
 10
2353.571676225864
 20
556.3692541507339
 10
2353.571676225864
 20
662.209773796178
 10
2409.076294838761
 20
662.2097737961771
 10
2409.076294838761
 20
706.603896518512
 10
2409.076294838761
 20
766.3244195681231
 97
        0
 75
     0
 76
     1
 52
0.0
 41
10.0
 77
     0
 78
     3
 53
0.0
 43
-23089.70729549316
 44
-7202.832751328383
 45
0.0
 46
63.5
 79
     0
 53
90.0
 43
-23089.70729549316
 44
-7202.832751328383
 45
-127.0
 46
0.0000000000000078
 79
     2
 49
63.5
 49
-63.5
 53
90.0
 43
-23026.20729549316
 44
-7202.832751328383
 45
-127.0
 46
0.0000000000000078
 79
     2
 49
-63.5
 49
63.5
 47
1.055585287933208
 98
        1
 10
2309.525789554478
 20
913.0130094708198
  0
HATCH
  5
A6C
330
1F
100
AcDbEntity
  8
STAVBA OBRYS
100
AcDbHatch
 10
0.0
 20
0.0
 30
0.0
210
0.0
220
0.0
230
1.0
  2
SOLID
 70
     1
 71
     0
 91
        1
 92
        7
 72
     0
 73
     1
 93
        4
 10
2411.090454962018
 20
818.7879729251921
 10
2409.076294838761
 20
818.7879729251912
 10
2409.076294838764
 20
799.871627638678
 10
2411.090454962018
 20
799.8716276386789
 97
        0
 75
     0
 76
     1
 47
0.2588300915810396
 98
        1
 10
2410.076156331038
 20
809.3241338195053
  0
HATCH
  5
A6D
330
1F
100
AcDbEntity
  8
PROFILY
100
AcDbHatch
 10
0.0
 20
0.0
 30
0.0
210
0.0
220
0.0
230
1.0
  2
SOLID
 70
     1
 71
     0
 91
        1
 92
        7
 72
     0
 73
     1
 93
        4
 10
2246.606803465307
 20
947.0781654079305
 10
2246.606803465307
 20
949.0781654079341
 10
2227.424448320759
 20
949.0781654079341
 10
2227.424448320759
 20
947.0781654079342
 97
        0
 75
     0
 76
     1
 47
0.0801976285649081
 98
        1
 10
2233.265864213369
 20
947.415838478229
  0
HATCH
  5
A6E
330
1F
100
AcDbEntity
  8
PROFILY
100
AcDbHatch
 10
0.0
 20
0.0
 30
0.0
210
0.0
220
0.0
230
1.0
  2
SOLID
 70
     1
 71
     0
 91
        1
 92
        7
 72
     0
 73
     1
 93
        4
 10
2279.348600616264
 20
947.0781654079305
 10
2279.348600616264
 20
949.0781654079341
 10
2260.166245471716
 20
949.0781654079341
 10
2260.166245471716
 20
947.0781654079342
 97
        0
 75
     0
 76
     1
 47
0.0801976285649081
 98
        1
 10
2266.007661364326
 20
947.415838478229
  0
LINE
  5
A6F
330
1F
100
AcDbEntity
  8
PROFILY
100
AcDbLine
 10
2279.057025620365
 20
949.0909895639902
 30
0.0
 11
2193.211015269219
 21
949.0909895639902
 31
0.0
  0
LINE
  5
A70
330
1F
100
AcDbEntity
  8
PROFILY
100
AcDbLine
 10
2279.057025620365
 20
947.0909895639902
 30
0.0
 11
2279.057025620365
 21
948.5909895639903
 31
0.0
  0
LINE
  5
A71
330
1F
100
AcDbEntity
  8
PROFILY
100
AcDbLine
 10
2195.211015269223
 20
947.0909895639893
 30
0.0
 11
2279.057025620365
 21
947.0909895639902
 31
0.0
  0
HATCH
  5
A72
330
1F
100
AcDbEntity
  8
PROFILY
100
AcDbHatch
 10
0.0
 20
0.0
 30
0.0
210
0.0
220
0.0
230
1.0
  2
SOLID
 70
     1
 71
     0
 91
        1
 92
        7
 72
     0
 73
     1
 93
        4
 10
2212.439973201131
 20
947.0781654079305
 10
2212.439973201131
 20
949.0781654079341
 10
2193.257618056582
 20
949.0781654079341
 10
2193.257618056582
 20
947.0781654079342
 97
        0
 75
     0
 76
     1
 47
0.0801976285649081
 98
        1
 10
2199.099033949191
 20
947.415838478229
  0
TEXT
  5
A73
330
1F
100
AcDbEntity
  8
POPIS
100
AcDbText
 10
1976.64756014062
 20
133.7028701190943
 30
0.0
 40
25.0
  1
Pojistná fólie - parozábrana
 41
0.7
  7
SIMPLEX7
100
AcDbText
  0
TEXT
  5
A74
330
1F
100
AcDbEntity
  8
POPIS
100
AcDbText
 10
1976.64756014062
 20
98.08398142100532
 30
0.0
 40
25.0
  1
Vodorovná dřevěná lať š=100 mm (tloušťka dle izolace)
 41
0.7
  7
SIMPLEX7
100
AcDbText
  0
TEXT
  5
A75
330
1F
100
AcDbEntity
  8
POPIS
100
AcDbText
 10
1976.64756014062
 20
169.8096916062827
 30
0.0
 40
25.0
  1
Svislá dřevěné lať 50x25 (100x25), impregnovaná
 41
0.7
  7
SIMPLEX7
100
AcDbText
  0
TEXT
  5
A76
330
1F
100
AcDbEntity
  8
POPIS
100
AcDbText
 10
1977.729062419029
 20
-82.68055694562509
 30
0.0
 40
25.0
  1
Talířová hmoždinka
 41
0.7
  7
SIMPLEX7
100
AcDbText
  0
TEXT
  5
A77
330
1F
100
AcDbEntity
  8
POPIS
100
AcDbText
 10
1923.385359259279
 20
-82.68055694562509
 30
0.0
 40
25.0
  1
09
 41
0.85
  7
SIMPLEX7
100
AcDbText
  0
LINE
  5
A78
330
1F
100
AcDbEntity
  8
POPIS
100
AcDbLine
 10
2180.743726421606
 20
937.1900286420673
 30
0.0
 11
2186.316295598987
 21
929.3891765591702
 31
0.0
  0
LINE
  5
A79
330
1F
100
AcDbEntity
  8
POPIS
100
AcDbLine
 10
2186.316295598987
 20
929.3891765591702
 30
0.0
 11
2182.637454261389
 21
929.3891765591702
 31
0.0
  0
LINE
  5
A7A
330
1F
100
AcDbEntity
  8
POPIS
100
AcDbLine
 10
2175.171157244226
 20
929.3891765591702
 30
0.0
 11
2178.849998581824
 21
929.3891765591702
 31
0.0
  0
LINE
  5
A7B
330
1F
100
AcDbEntity
  8
POPIS
100
AcDbLine
 10
2180.743726421606
 20
937.1900286420673
 30
0.0
 11
2175.171157244226
 21
929.3891765591702
 31
0.0
  0
LINE
  5
A7C
330
1F
100
AcDbEntity
  8
POPIS
100
AcDbLine
 10
2182.637454261389
 20
929.3938976559616
 30
0.0
 11
2184.163200209347
 21
916.4582537568781
 31
0.0
  0
LINE
  5
A7D
330
1F
100
AcDbEntity
  8
POPIS
100
AcDbLine
 10
2178.849998581824
 20
929.3938976559616
 30
0.0
 11
2177.324252633866
 21
916.4582537568781
 31
0.0
  0
HATCH
  5
A7E
330
1F
100
AcDbEntity
  8
POPIS
100
AcDbHatch
 10
0.0
 20
0.0
 30
0.0
210
0.0
220
0.0
230
1.0
  2
SOLID
 70
     1
 71
     0
 91
        1
 92
        7
 72
     0
 73
     1
 93
        8
 10
2182.637454261389
 20
929.3938976559616
 10
2186.316295598991
 20
929.3938976559616
 10
2180.74372642161
 20
937.1947497388569
 10
2175.171157244226
 20
929.3938976559616
 10
2178.849998581824
 20
929.3938976559616
 10
2177.324252633866
 20
916.4582537568762
 10
2180.743726421603
 20
921.8395504043597
 10
2184.163200209343
 20
916.4582537568762
 97
        0
 75
     0
 76
     1
 47
0.3835833255279223
 98
        1
 10
2181.151909168861
 20
926.4857144754619
  0
LINE
  5
A7F
330
1F
100
AcDbEntity
  8
STAVBA OBRYS
  6
DASHED
100
AcDbLine
 10
2365.057951847816
 20
694.1472587685288
 30
0.0
 11
2361.269090706261
 21
700.7097587685288
 31
0.0
  0
LINE
  5
A80
330
1F
100
AcDbEntity
  8
STAVBA OBRYS
  6
DASHED
100
AcDbLine
 10
2365.057951847816
 20
694.1472587685288
 30
0.0
 11
2361.269090706261
 21
687.5847587685289
 31
0.0
  0
LINE
  5
A81
330
1F
100
AcDbEntity
  8
SPOJOVACÍ
  6
DASHED
100
AcDbLine
 10
2340.784032522861
 20
896.1154942009411
 30
0.0
 11
2336.995171381306
 21
889.552994200943
 31
0.0
  0
LINE
  5
A82
330
1F
100
AcDbEntity
  8
SPOJOVACÍ
  6
DASHED
100
AcDbLine
 10
2331.409032522861
 20
896.1154942009411
 30
0.0
 11
2328.774871919683
 21
891.5529942009412
 31
0.0
  0
LINE
  5
A83
330
1F
100
AcDbEntity
  8
SPOJOVACÍ
100
AcDbLine
 10
2327.044893566851
 20
895.8438958460806
 30
0.0
 11
2327.220267961159
 21
896.498401995997
 31
0.0
  0
LINE
  5
A84
330
1F
100
AcDbEntity
  8
SPOJOVACÍ
100
AcDbLine
 10
2328.979504505082
 20
896.0663668962656
 30
0.0
 11
2329.039060721178
 21
896.2886337206468
 31
0.0
  0
LINE
  5
A85
330
1F
100
AcDbEntity
  8
SPOJOVACÍ
  6
DASHED
100
AcDbLine
 10
2331.409032522861
 20
896.1154942009411
 30
0.0
 11
2328.77487191968
 21
900.6779942009485
 31
0.0
  0
LINE
  5
A86
330
1F
100
AcDbEntity
  8
SPOJOVACÍ
  6
DASHED
100
AcDbLine
 10
2340.784032522861
 20
896.1154942009411
 30
0.0
 11
2336.995171381303
 21
902.6779942009412
 31
0.0
  0
LWPOLYLINE
  5
A87
330
1F
100
AcDbEntity
  8
NOSNÉ KONSTRUKCE
100
AcDbPolyline
 90
        2
 70
     0
 43
0.0
 10
2279.196891080534
 20
911.756400538397
 42
0.1112051866389916
 10
2247.925999652871
 20
937.385017214086
  0
LWPOLYLINE
  5
A88
330
1F
100
AcDbEntity
  8
NOSNÉ KONSTRUKCE
100
AcDbPolyline
 90
        2
 70
     0
 43
0.0
 10
2276.661370838218
 20
893.197658974484
 42
0.2104338366210547
 10
2196.576716878437
 20
946.1154942009429
  0
LINE
  5
A89
330
1F
100
AcDbEntity
  8
SPOJOVACÍ
100
AcDbLine
 10
2279.602776306744
 20
893.5473355682184
 30
0.0
 11
2280.92500682829
 21
898.4819670539359
 31
0.0
  0
LINE
  5
A8A
330
1F
100
AcDbEntity
  8
SPOJOVACÍ
100
AcDbLine
 10
2279.967084593835
 20
894.9069526052658
 30
0.0
 11
2280.457747984522
 21
896.7381333087283
 31
0.0
  0
LINE
  5
A8B
330
1F
100
AcDbEntity
  8
SPOJOVACÍ
100
AcDbLine
 10
2240.31064510097
 20
894.4973014109923
 30
0.0
 11
2241.229823739385
 21
897.9277227907946
 31
0.0
  0
LINE
  5
A8C
330
1F
100
AcDbEntity
  8
SPOJOVACÍ
100
AcDbLine
 10
2242.152465728392
 20
894.3734743067684
 30
0.0
 11
2243.13781018867
 21
898.0508298954914
 31
0.0
  0
LINE
  5
A8D
330
1F
100
AcDbEntity
  8
SPOJOVACÍ
100
AcDbLine
 10
2238.471361189699
 20
894.6305956687716
 30
0.0
 11
2239.31900663157
 21
897.7940515246531
 31
0.0
  0
LINE
  5
A8E
330
1F
100
AcDbEntity
  8
SPOJOVACÍ
100
AcDbLine
 10
2245.843748742977
 20
894.1543395339373
 30
0.0
 11
2246.945352657415
 21
898.2655813124361
 31
0.0
  0
LINE
  5
A8F
330
1F
100
AcDbEntity
  8
SPOJOVACÍ
100
AcDbLine
 10
2243.996830912398
 20
894.2591436169946
 30
0.0
 11
2245.042981462011
 21
898.1634306205265
 31
0.0
  0
LINE
  5
A90
330
1F
100
AcDbEntity
  8
SPOJOVACÍ
100
AcDbLine
 10
2275.880546846962
 20
893.6509766352642
 30
0.0
 11
2277.150555190293
 21
898.3907122986124
 31
0.0
  0
LINE
  5
A91
330
1F
100
AcDbEntity
  8
SPOJOVACÍ
100
AcDbLine
 10
2247.693227563312
 20
893.8790433454537
 30
0.0
 11
2248.844938496605
 21
898.1772870641485
 31
0.0
  0
LINE
  5
A92
330
1F
100
AcDbEntity
  8
SPOJOVACÍ
100
AcDbLine
 10
2249.545275973528
 20
893.7933868462691
 30
0.0
 11
2250.741753333027
 21
898.2587011420177
 31
0.0
  0
LINE
  5
A93
330
1F
100
AcDbEntity
  8
SPOJOVACÍ
100
AcDbLine
 10
2251.39990283462
 20
893.7173532567499
 30
0.0
 11
2252.635811159526
 21
898.3298259187973
 31
0.0
  0
LINE
  5
A94
330
1F
100
AcDbEntity
  8
SPOJOVACÍ
100
AcDbLine
 10
2277.710472397037
 20
893.4827564980164
 30
0.0
 11
2279.039139570149
 21
898.4414098944357
 31
0.0
  0
LINE
  5
A95
330
1F
100
AcDbEntity
  8
SPOJOVACÍ
100
AcDbLine
 10
2255.807531724542
 20
893.4827564980164
 30
0.0
 11
2257.136198897654
 21
898.4414098944357
 31
0.0
  0
LINE
  5
A96
330
1F
100
AcDbEntity
  8
SPOJOVACÍ
100
AcDbLine
 10
2253.977606174467
 20
893.6509766352642
 30
0.0
 11
2255.247614517798
 21
898.3907122986124
 31
0.0
  0
LINE
  5
A97
330
1F
100
AcDbEntity
  8
SPOJOVACÍ
100
AcDbLine
 10
2258.06414392134
 20
894.9069526052658
 30
0.0
 11
2258.554807312027
 21
896.7381333087283
 31
0.0
  0
LINE
  5
A98
330
1F
100
AcDbEntity
  8
SPOJOVACÍ
100
AcDbLine
 10
2259.462150989272
 20
894.7454233311777
 30
0.0
 11
2260.028320820475
 21
896.8583979069459
 31
0.0
  0
LINE
  5
A99
330
1F
100
AcDbEntity
  8
SPOJOVACÍ
100
AcDbLine
 10
2261.296384008649
 20
894.5932788882233
 30
0.0
 11
2261.934781982757
 21
896.9758125630447
 31
0.0
  0
LINE
  5
A9A
330
1F
100
AcDbEntity
  8
SPOJOVACÍ
100
AcDbLine
 10
2260.998820431018
 20
893.4827564980164
 30
0.0
 11
2262.351988176907
 21
898.5328472768465
 31
0.0
  0
LINE
  5
A9B
330
1F
100
AcDbEntity
  8
SPOJOVACÍ
100
AcDbLine
 10
2259.123820431018
 20
893.4827564980164
 30
0.0
 11
2260.471517621041
 21
898.512430884411
 31
0.0
  0
LINE
  5
A9C
330
1F
100
AcDbEntity
  8
SPOJOVACÍ
100
AcDbLine
 10
2257.699835634249
 20
893.5473355682184
 30
0.0
 11
2259.022066155794
 21
898.4819670539359
 31
0.0
  0
LINE
  5
A9D
330
1F
100
AcDbEntity
  8
SPOJOVACÍ
100
AcDbLine
 10
2262.869119217434
 20
893.4652113300648
 30
0.0
 11
2264.229778506626
 21
898.5432609291288
 31
0.0
  0
LINE
  5
A9E
330
1F
100
AcDbEntity
  8
SPOJOVACÍ
100
AcDbLine
 10
2264.742066146548
 20
893.4575491652099
 30
0.0
 11
2266.104900273273
 21
898.5437153684429
 31
0.0
  0
LINE
  5
A9F
330
1F
100
AcDbEntity
  8
SPOJOVACÍ
100
AcDbLine
 10
2266.617672325792
 20
893.4598114569631
 30
0.0
 11
2267.977364832023
 21
898.5342529728873
 31
0.0
  0
LINE
  5
AA0
330
1F
100
AcDbEntity
  8
SPOJOVACÍ
100
AcDbLine
 10
2268.495949165922
 20
893.4720407908057
 30
0.0
 11
2269.84718323575
 21
898.5149149923303
 31
0.0
  0
LINE
  5
AA1
330
1F
100
AcDbEntity
  8
SPOJOVACÍ
100
AcDbLine
 10
2270.376908386607
 20
893.4942809051786
 30
0.0
 11
2271.714366240402
 21
898.4857415685178
 31
0.0
  0
LINE
  5
AA2
330
1F
100
AcDbEntity
  8
SPOJOVACÍ
100
AcDbLine
 10
2272.260562022294
 20
893.5265767132364
 30
0.0
 11
2273.578924310205
 21
898.4467717545008
 31
0.0
  0
LINE
  5
AA3
330
1F
100
AcDbEntity
  8
SPOJOVACÍ
100
AcDbLine
 10
2274.207053581974
 20
893.7933868462691
 30
0.0
 11
2275.4408676227
 21
898.3980435333391
 31
0.0
  0
LWPOLYLINE
  5
AA4
330
1F
100
AcDbEntity
  8
STAVBA OBRYS
100
AcDbPolyline
 90
        2
 70
     0
 43
0.0
 10
2279.196891080534
 20
888.8983469190165
 42
0.0020939004487291
 10
2278.687820843745
 20
889.7560703620106
  0
LWPOLYLINE
  5
AA5
330
1F
100
AcDbEntity
  8
NOSNÉ KONSTRUKCE
100
AcDbPolyline
 90
        3
 70
     0
 43
0.0
 10
2242.739625140665
 20
877.1184642500662
 10
2259.494842760393
 20
885.5022051180345
 10
2267.661947409517
 20
893.6835068191317
  0
LWPOLYLINE
  5
AA6
330
1F
100
AcDbEntity
  8
NOSNÉ KONSTRUKCE
100
AcDbPolyline
 90
        2
 70
     0
 43
0.0
 10
2273.583253691574
 20
854.7234343718368
 10
2279.196891080534
 20
857.3106914307132
  0
LINE
  5
AA7
330
1F
100
AcDbEntity
  8
SPOJOVACÍ
100
AcDbLine
 10
2281.460472397037
 20
893.4827564980164
 30
0.0
 11
2282.808169587061
 21
898.512430884411
 31
0.0
  0
LINE
  5
AA8
330
1F
100
AcDbEntity
  8
SPOJOVACÍ
100
AcDbLine
 10
2283.335472397038
 20
893.4827564980164
 30
0.0
 11
2284.688640142926
 21
898.5328472768465
 31
0.0
  0
LINE
  5
AA9
330
1F
100
AcDbEntity
  8
SPOJOVACÍ
100
AcDbLine
 10
2283.633035974669
 20
894.5932788882233
 30
0.0
 11
2284.271433948776
 21
896.9758125630447
 31
0.0
  0
LINE
  5
AAA
330
1F
100
AcDbEntity
  8
SPOJOVACÍ
100
AcDbLine
 10
2281.798802955291
 20
894.7454233311777
 30
0.0
 11
2282.364972786495
 21
896.8583979069459
 31
0.0
  0
LINE
  5
AAB
330
1F
100
AcDbEntity
  8
STAVBA OBRYS
100
AcDbLine
 10
2195.525478148783
 20
946.2751743372768
 30
0.0
 11
2277.566927460779
 21
946.2751743372768
 31
0.0
  0
LINE
  5
AAC
330
1F
100
AcDbEntity
  8
NOSNÉ KONSTRUKCE
100
AcDbLine
 10
2171.819167426148
 20
946.7598009927638
 30
0.0
 11
2173.681896105678
 21
938.5151352369843
 31
0.0
  0
LINE
  5
AAD
330
1F
100
AcDbEntity
  8
NOSNÉ KONSTRUKCE
100
AcDbLine
 10
2181.062919440269
 20
946.7598009927655
 30
0.0
 11
2180.929884485148
 21
938.5151352369843
 31
0.0
  0
LINE
  5
AAE
330
1F
100
AcDbEntity
  8
NOSNÉ KONSTRUKCE
100
AcDbLine
 10
2189.185494560898
 20
938.5151352369843
 30
0.0
 11
2188.973983499298
 21
946.7598009927638
 31
0.0
  0
LINE
  5
AAF
330
1F
100
AcDbEntity
  8
NOSNÉ KONSTRUKCE
100
AcDbLine
 10
2170.17607425743
 20
934.6694589137801
 30
0.0
 11
2171.948763154506
 21
925.8108457985631
 31
0.0
  0
LINE
  5
AB0
330
1F
100
AcDbEntity
  8
NOSNÉ KONSTRUKCE
100
AcDbLine
 10
2188.79397229317
 20
920.9820922596932
 30
0.0
 11
2189.264957124135
 21
935.4176978308801
 31
0.0
  0
LINE
  5
AB1
330
1F
100
AcDbEntity
  8
NOSNÉ KONSTRUKCE
100
AcDbLine
 10
2171.948763154506
 20
925.8108457985631
 30
0.0
 11
2171.393482079621
 21
920.1817677974627
 31
0.0
  0
LINE
  5
AB2
330
1F
100
AcDbEntity
  8
NOSNÉ KONSTRUKCE
100
AcDbLine
 10
2168.966398382487
 20
946.7598009927673
 30
0.0
 11
2192.966398382487
 21
946.7598009927673
 31
0.0
  0
HATCH
  5
AB3
330
1F
100
AcDbEntity
  8
PROFILY
100
AcDbHatch
 10
0.0
 20
0.0
 30
0.0
210
0.0
220
0.0
230
1.0
  2
SOLID
 70
     1
 71
     0
 91
        1
 92
        7
 72
     0
 73
     1
 93
        4
 10
2193.211015269212
 20
928.0704661200338
 10
2195.211015269215
 20
928.0704661200338
 10
2195.211015269215
 20
947.2528212645825
 10
2193.211015269215
 20
947.2528212645825
 97
        0
 75
     0
 76
     1
 47
0.0801976285649081
 98
        1
 10
2193.54868833951
 20
941.4114053719764
  0
TEXT
  5
AB4
330
1F
100
AcDbEntity
  8
POPIS
100
AcDbText
 10
1961.492954086778
 20
385.0616663650594
 30
0.0
 40
25.0
  1
01
 41
0.7
  7
SIMPLEX7
100
AcDbText
  0
LINE
  5
AB5
330
1F
100
AcDbEntity
  8
POPIS
100
AcDbLine
 10
1999.7966051845
 20
398.5050078144299
 30
0.0
 11
2162.633135639823
 21
398.5050078144281
 31
0.0
  0
TEXT
  5
AB6
330
1F
100
AcDbEntity
  8
POPIS
100
AcDbText
 10
1959.819118841232
 20
847.5600735510321
 30
0.0
 40
25.0
  1
06
 41
0.7
  7
SIMPLEX7
100
AcDbText
  0
LINE
  5
AB7
330
1F
100
AcDbEntity
  8
POPIS
100
AcDbLine
 10
1999.7966051845
 20
861.0034150004008
 30
0.0
 11
2224.542644776757
 21
861.0034150004008
 31
0.0
  0
LINE
  5
AB8
330
1F
100
AcDbEntity
  8
POPIS
100
AcDbLine
 10
1999.7966051845
 20
439.9389503407724
 30
0.0
 11
2147.872749236016
 21
439.9389503407705
 31
0.0
  0
TEXT
  5
AB9
330
1F
100
AcDbEntity
  8
POPIS
100
AcDbText
 10
1961.492954086778
 20
426.4956088914018
 30
0.0
 40
25.0
  1
02
 41
0.7
  7
SIMPLEX7
100
AcDbText
  0
TEXT
  5
ABA
330
1F
100
AcDbEntity
  8
POPIS
100
AcDbText
 10
1928.620357342185
 20
502.0491270621801
 30
0.0
 40
25.0
  1
03,04
 41
0.7
  7
SIMPLEX7
100
AcDbText
  0
LINE
  5
ABB
330
1F
100
AcDbEntity
  8
POPIS
100
AcDbLine
 10
1999.7966051845
 20
515.4924685115506
 30
0.0
 11
2180.589955314299
 21
516.0045278625079
 31
0.0
  0
TEXT
  5
ABC
330
1F
100
AcDbEntity
  8
POPIS
100
AcDbText
 10
1959.819118841232
 20
724.606011084406
 30
0.0
 40
25.0
  1
08
 41
0.7
  7
SIMPLEX7
100
AcDbText
  0
LINE
  5
ABD
330
1F
100
AcDbEntity
  8
POPIS
100
AcDbLine
 10
1999.7966051845
 20
738.0493525337747
 30
0.0
 11
2239.858029850166
 21
738.0493525337747
 31
0.0
  0
LINE
  5
ABE
330
1F
100
AcDbEntity
  8
STAVBA OBRYS
  6
DASHED
100
AcDbLine
 10
2361.269090706261
 20
687.5847587685289
 30
0.0
 11
2200.898759473636
 21
687.5847587685325
 31
0.0
  0
LINE
  5
ABF
330
1F
100
AcDbEntity
  8
STAVBA OBRYS
  6
DASHDOT2
100
AcDbLine
 10
2167.140514971962
 20
694.1472587685307
 30
0.0
 11
2379.91700403806
 21
694.1472587685288
 31
0.0
  0
LINE
  5
AC0
330
1F
100
AcDbEntity
  8
STAVBA OBRYS
  6
DASHED
100
AcDbLine
 10
2361.269090706261
 20
700.7097587685288
 30
0.0
 11
2200.898759473636
 21
700.7097587685325
 31
0.0
  0
LWPOLYLINE
  5
AC1
330
1F
100
AcDbEntity
  8
STAVBA OBRYS
  6
DASHED
100
AcDbPolyline
 90
        4
 70
     1
 43
0.0
 10
2195.525478148779
 20
669.0874727590176
 10
2200.898759473636
 20
669.0874727590176
 10
2200.898759473636
 20
719.2070447780402
 10
2195.525478148779
 20
719.2070447780402
  0
LWPOLYLINE
  5
AC2
330
1F
100
AcDbEntity
  8
NOSNÉ KONSTRUKCE
100
AcDbPolyline
 90
        4
 70
     1
 43
0.0
 10
2195.525478148786
 20
946.2751743372768
 10
2279.196891080534
 20
946.2751743372768
 10
2279.196891080534
 20
846.2751743372768
 10
2195.525478148786
 20
846.2751743372768
  0
LINE
  5
AC3
330
1F
100
AcDbEntity
  8
NOSNÉ KONSTRUKCE
100
AcDbLine
 10
2193.033507106201
 20
857.3534382443517
 30
0.0
 11
2191.46357712862
 21
884.3417537241599
 31
0.0
  0
INSERT
  5
AC4
330
1F
100
AcDbEntity
  8
POPIS
100
AcDbBlockReference
  2
E_PUNKT
 10
2226.351329963022
 20
861.7727676577574
 30
0.0
 41
-1.0
 50
180.0
  0
LINE
  5
AC5
330
1F
100
AcDbEntity
  8
SPOJOVACÍ
100
AcDbLine
 10
2195.525478148786
 20
903.6927152914428
 30
0.0
 11
2195.525478148786
 21
882.0529942009448
 31
0.0
  0
LINE
  5
AC6
330
1F
100
AcDbEntity
  8
SPOJOVACÍ
100
AcDbLine
 10
2195.525478148786
 20
896.1154942009448
 30
0.0
 11
2195.525478148786
 21
910.1779942009448
 31
0.0
  0
LINE
  5
AC7
330
1F
100
AcDbEntity
  8
SPOJOVACÍ
100
AcDbLine
 10
2225.666794119858
 20
895.826467644561
 30
0.0
 11
2225.8227600828
 21
896.4085405425063
 31
0.0
  0
LINE
  5
AC8
330
1F
100
AcDbEntity
  8
SPOJOVACÍ
100
AcDbLine
 10
2227.488520288321
 20
895.627646998531
 30
0.0
 11
2227.733050824177
 21
896.5402473823555
 31
0.0
  0
LINE
  5
AC9
330
1F
100
AcDbEntity
  8
SPOJOVACÍ
100
AcDbLine
 10
2195.525478148786
 20
882.0529942009448
 30
0.0
 11
2198.383369643893
 21
882.0529942009448
 31
0.0
  0
LINE
  5
ACA
330
1F
100
AcDbEntity
  8
SPOJOVACÍ
100
AcDbLine
 10
2198.383369643893
 20
910.1779942009448
 30
0.0
 11
2195.525478148786
 21
910.1779942009448
 31
0.0
  0
LINE
  5
ACB
330
1F
100
AcDbEntity
  8
SPOJOVACÍ
100
AcDbLine
 10
2229.312735000309
 20
895.4381137234063
 30
0.0
 11
2229.72189129415
 21
896.9651058002668
 31
0.0
  0
LINE
  5
ACC
330
1F
100
AcDbEntity
  8
SPOJOVACÍ
100
AcDbLine
 10
2231.139444440018
 20
895.2578908988611
 30
0.0
 11
2231.647108013113
 21
897.1525171468069
 31
0.0
  0
LINE
  5
ACD
330
1F
100
AcDbEntity
  8
SPOJOVACÍ
100
AcDbLine
 10
2232.96865501937
 20
895.0870024545688
 30
0.0
 11
2233.569410579851
 21
897.3290527292189
 31
0.0
  0
LINE
  5
ACE
330
1F
100
AcDbEntity
  8
SPOJOVACÍ
100
AcDbLine
 10
2234.800373380826
 20
894.9254731804808
 30
0.0
 11
2235.488816535294
 21
897.4947780110774
 31
0.0
  0
LINE
  5
ACF
330
1F
100
AcDbEntity
  8
SPOJOVACÍ
100
AcDbLine
 10
2236.634606400203
 20
894.7733287375262
 30
0.0
 11
2237.405342989482
 21
897.6497568479731
 31
0.0
  0
LINE
  5
AD0
330
1F
100
AcDbEntity
  8
SPOJOVACÍ
100
AcDbLine
 10
2198.383369643893
 20
882.0529942009448
 30
0.0
 11
2204.137652325547
 21
889.552994200943
 31
0.0
  0
LINE
  5
AD1
330
1F
100
AcDbEntity
  8
SPOJOVACÍ
100
AcDbLine
 10
2198.383369643893
 20
910.1779942009448
 30
0.0
 11
2204.137652325547
 21
902.6779942009467
 31
0.0
  0
LINE
  5
AD2
330
1F
100
AcDbEntity
  8
SPOJOVACÍ
100
AcDbLine
 10
2197.397008914912
 20
884.0529942009448
 30
0.0
 11
2203.151291596569
 21
891.5529942009429
 31
0.0
  0
LINE
  5
AD3
330
1F
100
AcDbEntity
  8
SPOJOVACÍ
100
AcDbLine
 10
2195.525478148786
 20
884.0529942009448
 30
0.0
 11
2197.397008914912
 21
884.0529942009448
 31
0.0
  0
LINE
  5
AD4
330
1F
100
AcDbEntity
  8
SPOJOVACÍ
100
AcDbLine
 10
2197.397008914912
 20
908.1779942009447
 30
0.0
 11
2203.151291596569
 21
900.6779942009465
 31
0.0
  0
LINE
  5
AD5
330
1F
100
AcDbEntity
  8
SPOJOVACÍ
100
AcDbLine
 10
2195.525478148786
 20
908.1779942009447
 30
0.0
 11
2197.397008914912
 21
908.1779942009447
 31
0.0
  0
LWPOLYLINE
  5
AD6
330
1F
100
AcDbEntity
  8
NOSNÉ KONSTRUKCE
100
AcDbPolyline
 90
        6
 70
     0
 43
0.0
 10
2237.059036610965
 20
846.1154942009429
 42
0.0128837512779302
 10
2236.774244650737
 20
849.4486590226893
 42
0.0351641677647434
 10
2236.146484929214
 20
853.0523684770283
 42
0.0187319685742942
 10
2232.762469048223
 20
864.8106058191711
 42
0.0582629403736403
 10
2231.102969180142
 20
868.3904400181031
 42
0.2042445348716764
 10
2195.525478148786
 20
893.6487882076376
  0
LWPOLYLINE
  5
AD7
330
1F
100
AcDbEntity
  8
NOSNÉ KONSTRUKCE
100
AcDbPolyline
 90
        4
 70
     0
 43
0.0
 10
2247.248766214969
 20
846.1154942009429
 42
0.0135911980674876
 10
2243.529634857744
 20
866.4441873834089
 42
0.0219777111230329
 10
2242.623522355756
 20
869.9623006392444
 42
0.2163722049316613
 10
2195.525478148786
 20
902.7225655932738
  0
LWPOLYLINE
  5
AD8
330
1F
100
AcDbEntity
  8
NOSNÉ KONSTRUKCE
100
AcDbPolyline
 90
        8
 70
     0
 43
0.0
 10
2228.434821230924
 20
846.1154942009429
 42
0.0120721047703132
 10
2228.365838540882
 20
847.849382339687
 42
0.044358077361292
 10
2227.970210806209
 20
850.5451823581038
 42
0.0188067511131767
 10
2225.950387357826
 20
857.7874115334102
 42
0.0457786284636091
 10
2224.74236446821
 20
860.6360219162903
 42
0.0295006114745606
 10
2222.326304013911
 20
864.5629211296922
 42
0.0258674098621065
 10
2219.093628699946
 20
868.7087012084461
 42
0.2409478365688615
 10
2195.525478148786
 20
883.1332486534188
 42
0.0884720560394402
  0
LWPOLYLINE
  5
AD9
330
1F
100
AcDbEntity
  8
NOSNÉ KONSTRUKCE
100
AcDbPolyline
 90
        3
 70
     0
 43
0.0
 10
2202.23387560649
 20
851.6328248964613
 10
2218.989093226217
 20
860.0165657644296
 10
2227.156197875342
 20
868.1978674655269
  0
LWPOLYLINE
  5
ADA
330
1F
100
AcDbEntity
  8
NOSNÉ KONSTRUKCE
100
AcDbPolyline
 90
       10
 70
     0
 43
0.0
 10
2219.56776200741
 20
846.1154942009429
 42
0.0168162630274194
 10
2219.43273642835
 20
847.8065323530623
 42
0.0575155827655532
 10
2218.752704148003
 20
850.9061570137797
 42
0.0310289133982999
 10
2215.749902803179
 20
858.1511845384243
 42
0.0882970623535771
 10
2214.112680883085
 20
860.3915535892243
 42
0.0171636441953577
 10
2211.299316821224
 20
862.9054709444694
 42
0.0157521173632038
 10
2208.060461984187
 20
865.436966996976
 42
0.0073640874174249
 10
2203.426812627867
 20
868.7253684227121
 42
0.0194185739168057
 10
2201.60476930819
 20
869.8769374219933
 42
0.0567960585128809
 10
2195.525478148786
 20
872.5288016273694
 42
0.0229547400386702
  0
LWPOLYLINE
  5
ADB
330
1F
100
AcDbEntity
  8
NOSNÉ KONSTRUKCE
100
AcDbPolyline
 90
        4
 70
     0
 43
0.0
 10
2272.916291438869
 20
846.1922437238694
 42
0.0135911980674875
 10
2267.337594403031
 20
876.6852834975685
 42
0.0219777111230329
 10
2265.978425650054
 20
881.9624533813216
 42
0.2158759397126542
 10
2195.525478148786
 20
931.0670206693826
 42
0.0618986513001703
  0
LWPOLYLINE
  5
ADC
330
1F
100
AcDbEntity
  8
NOSNÉ KONSTRUKCE
100
AcDbPolyline
 90
        6
 70
     0
 43
0.0
 10
2257.631697032867
 20
846.1922437238694
 42
0.0128837512779301
 10
2257.204509092528
 20
851.1919909564889
 42
0.0351641677647434
 10
2256.262869510244
 20
856.5975551379974
 42
0.0187319685742942
 10
2251.186845688758
 20
874.2349111512117
 42
0.0582629403736403
 10
2248.697595886635
 20
879.6046624496097
 42
0.0636293101863209
 10
2235.436126293109
 20
896.0859707498343
 42
0.0636293101863209
  0
LWPOLYLINE
  5
ADD
330
1F
100
AcDbEntity
  8
NOSNÉ KONSTRUKCE
100
AcDbPolyline
 90
        2
 70
     0
 43
0.0
 10
2229.156446078287
 20
901.5520886910085
 42
0.1134617175825293
 10
2195.331359339598
 20
917.4921847339115
  0
LWPOLYLINE
  5
ADE
330
1F
100
AcDbEntity
  8
NOSNÉ KONSTRUKCE
100
AcDbPolyline
 90
        3
 70
     0
 43
0.0
 10
2201.137534166945
 20
895.9716645109251
 10
2221.133786598938
 20
905.1876935614449
 10
2225.133724232652
 20
905.8330910367871
  0
LWPOLYLINE
  5
ADF
330
1F
100
AcDbEntity
  8
NOSNÉ KONSTRUKCE
100
AcDbPolyline
 90
        3
 70
     0
 43
0.0
 10
2221.526453231735
 20
852.614663770198
 10
2241.522705663727
 20
861.830692820718
 10
2245.522643297442
 20
862.4760902960602
  0
LWPOLYLINE
  5
AE0
330
1F
100
AcDbEntity
  8
NOSNÉ KONSTRUKCE
100
AcDbPolyline
 90
       11
 70
     0
 43
0.0
 10
2212.617983983725
 20
846.1154942009448
 42
0.0072417954699014
 10
2212.562413615884
 20
846.5268994122194
 42
0.0707158694326265
 10
2212.031287099465
 20
848.463002864813
 42
0.033952657250207
 10
2209.782631260056
 20
852.8160405899866
 42
0.0571374688189033
 10
2207.996474500204
 20
855.1229648736731
 42
0.0274923553235744
 10
2205.399168769651
 20
857.5080401968076
 42
0.0255412025538677
 10
2202.347738731941
 20
859.764753873827
 42
0.0272796991712396
 10
2198.234739578755
 20
862.1810897554892
 42
0.056967459841729
 10
2196.09379229802
 20
862.9938255906886
 42
0.0373408083348504
 10
2195.871437922546
 20
863.0329911316398
 42
0.0052305969362967
 10
2195.525478148786
 20
863.0639480985442
  0
LWPOLYLINE
  5
AED
330
1F
100
AcDbEntity
  8
NOSNÉ KONSTRUKCE
100
AcDbPolyline
 90
        9
 70
     0
 43
0.0
 10
2205.38993296299
 20
846.1154942009448
 42
0.0064239028828688
 10
2205.351064522806
 20
846.3346078602949
 42
0.0832048017309575
 10
2204.566881920128
 20
848.6648214399497
 42
0.0336767237692336
 10
2202.864065361206
 20
851.3930959594103
 42
0.0844635135812105
 10
2201.944255601313
 20
852.2975175644056
 42
0.0495829410719565
 10
2200.195577163959
 20
853.2741670717182
 42
0.0322692699774654
 10
2197.304222982868
 20
854.3156905731189
 42
0.0276160659512937
 10
2196.448646544578
 20
854.5124260020633
 42
0.0126891984598699
 10
2195.525478148786
 20
854.6476283916049
  0
LWPOLYLINE
  5
AF8
330
1F
100
AcDbEntity
  8
NOSNÉ KONSTRUKCE
100
AcDbPolyline
 90
        7
 70
     0
 43
0.0
 10
2200.040246628469
 20
846.1154942009429
 42
0.0203924744732807
 10
2199.13816264406
 20
847.1286242300971
 42
0.0273961979096945
 10
2198.288298293865
 20
847.9168006041231
 42
0.0243529190212958
 10
2197.125177801445
 20
848.7905599487907
 42
0.0398020282482987
 10
2196.350219263889
 20
849.2301886922373
 42
0.104168275620852
 10
2195.963808127545
 20
849.3202051524145
 42
0.007272956268647
 10
2195.525478148786
 20
849.3386585037091
 42
0.007272956268647
  0
HATCH
  5
AF9
330
1F
100
AcDbEntity
  8
PROFILY
100
AcDbHatch
 10
0.0
 20
0.0
 30
0.0
210
0.0
220
0.0
230
1.0
  2
SOLID
 70
     1
 71
     0
 91
        1
 92
        7
 72
     0
 73
     1
 93
        4
 10
2193.211015269212
 20
869.4955783299569
 10
2195.211015269215
 20
869.4955783299569
 10
2195.211015269215
 20
888.6779334745055
 10
2193.211015269215
 20
888.6779334745055
 97
        0
 75
     0
 76
     1
 47
0.0801976285649081
 98
        1
 10
2193.54868833951
 20
882.8365175818994
  0
LWPOLYLINE
  5
AFA
330
1F
100
AcDbEntity
  8
PROFILY
100
AcDbPolyline
 90
        4
 70
     1
 43
0.0
 10
2193.211015269215
 20
888.6784453120613
 10
2193.211015269215
 20
869.4960901675127
 10
2195.211015269215
 20
869.4960901675127
 10
2195.211015269215
 20
888.6784453120613
  0
HATCH
  5
AFB
330
1F
100
AcDbEntity
  8
PROFILY
100
AcDbHatch
 10
0.0
 20
0.0
 30
0.0
210
0.0
220
0.0
230
1.0
  2
SOLID
 70
     1
 71
     0
 91
        1
 92
        7
 72
     0
 73
     1
 93
        4
 10
2193.211015269212
 20
899.5735418682066
 10
2195.211015269215
 20
899.5735418682066
 10
2195.211015269215
 20
918.7558970127552
 10
2193.211015269215
 20
918.7558970127552
 97
        0
 75
     0
 76
     1
 47
0.0801976285649081
 98
        1
 10
2193.54868833951
 20
912.914481120149
  0
LINE
  5
AFC
330
1F
100
AcDbEntity
  8
SPOJOVACÍ
  6
DASHED
100
AcDbLine
 10
2336.995171381306
 20
889.552994200943
 30
0.0
 11
2204.137652325547
 21
889.552994200943
 31
0.0
  0
LINE
  5
AFD
330
1F
100
AcDbEntity
  8
SPOJOVACÍ
  6
DASHED
100
AcDbLine
 10
2336.995171381303
 20
902.6779942009412
 30
0.0
 11
2204.137652325547
 21
902.6779942009467
 31
0.0
  0
LINE
  5
AFE
330
1F
100
AcDbEntity
  8
SPOJOVACÍ
  6
DASHED
100
AcDbLine
 10
2328.774871919683
 20
891.5529942009412
 30
0.0
 11
2203.151291596569
 21
891.5529942009429
 31
0.0
  0
LINE
  5
AFF
330
1F
100
AcDbEntity
  8
SPOJOVACÍ
  6
DASHED
100
AcDbLine
 10
2328.77487191968
 20
900.6779942009485
 30
0.0
 11
2203.151291596569
 21
900.6779942009465
 31
0.0
  0
LINE
  5
B00
330
1F
100
AcDbEntity
  8
SPOJOVACÍ
  6
DASHDOT2
100
AcDbLine
 10
2190.143492293738
 20
896.1154942009429
 30
0.0
 11
2375.390477655023
 21
896.1154942009411
 31
0.0
  0
LINE
  5
B01
330
1F
100
AcDbEntity
  8
NOSNÉ KONSTRUKCE
100
AcDbLine
 10
2181.996399203065
 20
915.4239598976323
 30
0.0
 11
2182.131475048104
 21
913.1739092492512
 31
0.0
  0
LINE
  5
B02
330
1F
100
AcDbEntity
  8
NOSNÉ KONSTRUKCE
100
AcDbLine
 10
2179.120102650319
 20
915.4239598976323
 30
0.0
 11
2179.120102650319
 21
912.7202146651193
 31
0.0
  0
LINE
  5
B03
330
1F
100
AcDbEntity
  8
NOSNÉ KONSTRUKCE
100
AcDbLine
 10
2171.948763154506
 20
914.1562888106104
 30
0.0
 11
2172.424914341136
 21
903.8003265874081
 31
0.0
  0
LINE
  5
B04
330
1F
100
AcDbEntity
  8
NOSNÉ KONSTRUKCE
100
AcDbLine
 10
2171.393482079621
 20
920.1817677974627
 30
0.0
 11
2171.948763154506
 21
914.1562888106104
 31
0.0
  0
LINE
  5
B05
330
1F
100
AcDbEntity
  8
NOSNÉ KONSTRUKCE
100
AcDbLine
 10
2191.46357712862
 20
884.3417537241599
 30
0.0
 11
2189.198936265199
 21
915.4239598976323
 31
0.0
  0
LINE
  5
B06
330
1F
100
AcDbEntity
  8
NOSNÉ KONSTRUKCE
100
AcDbLine
 10
2179.120102650319
 20
912.7202146651193
 30
0.0
 11
2178.246988542197
 21
902.975702856596
 31
0.0
  0
LINE
  5
B07
330
1F
100
AcDbEntity
  8
NOSNÉ KONSTRUKCE
100
AcDbLine
 10
2182.131475048104
 20
913.1739092492512
 30
0.0
 11
2183.823908950792
 21
885.8982959584333
 31
0.0
  0
LINE
  5
B08
330
1F
100
AcDbEntity
  8
NOSNÉ KONSTRUKCE
100
AcDbLine
 10
2168.966398382487
 20
946.7598009927673
 30
0.0
 11
2168.966398382487
 21
386.223339239626
 31
0.0
  0
LINE
  5
B09
330
1F
100
AcDbEntity
  8
SPOJOVACÍ
100
AcDbLine
 10
2152.739049390883
 20
899.2293564995229
 30
0.0
 11
2154.122965182098
 21
899.2293564995248
 31
0.0
  0
LINE
  5
B0A
330
1F
100
AcDbEntity
  8
SPOJOVACÍ
100
AcDbLine
 10
2152.739049390883
 20
888.2742476974595
 30
0.0
 11
2152.739049390883
 21
899.2293564995248
 31
0.0
  0
LINE
  5
B0B
330
1F
100
AcDbEntity
  8
SPOJOVACÍ
100
AcDbLine
 10
2152.739049390883
 20
892.1102158745247
 30
0.0
 11
2152.739049390883
 21
884.9910752495247
 31
0.0
  0
LINE
  5
B0C
330
1F
100
AcDbEntity
  8
SPOJOVACÍ
100
AcDbLine
 10
2153.252421652142
 20
886.8895127495248
 30
0.0
 11
2153.247675558393
 21
886.8895127495248
 31
0.0
  0
LINE
  5
B0D
330
1F
100
AcDbEntity
  8
SPOJOVACÍ
100
AcDbLine
 10
2154.122965182098
 20
884.9910752495247
 30
0.0
 11
2152.739049390883
 21
884.9910752495265
 31
0.0
  0
LINE
  5
B0E
330
1F
100
AcDbEntity
  8
SPOJOVACÍ
100
AcDbLine
 10
2153.252421652142
 20
886.8895127495248
 30
0.0
 11
2153.247675558393
 21
886.8895127495248
 31
0.0
  0
HATCH
  5
B0F
330
1F
100
AcDbEntity
  8
SPOJOVACÍ
100
AcDbHatch
 10
0.0
 20
0.0
 30
0.0
210
0.0
220
0.0
230
1.0
  2
ANSI37
 70
     0
 71
     0
 91
        1
 92
        7
 72
     0
 73
     1
 93
        6
 10
2152.739049390883
 20
892.1102158745247
 10
2152.739049390887
 20
899.2293564995229
 10
2154.122965182098
 20
899.2293564995248
 10
2154.122965182098
 20
892.1102158745247
 10
2154.122965182098
 20
884.9910752495247
 10
2152.739049390883
 20
884.9910752495265
 97
        0
 75
     0
 76
     1
 52
-90.00000000000001
 41
0.9
 77
     0
 78
     2
 53
45.00000000000001
 43
-1688.107250261446
 44
-9190.751096196359
 45
2.02055762724056
 46
-2.020557627240558
 79
     0
 53
315.0
 43
-1688.107250261446
 44
-9190.751096196359
 45
-2.020557627240558
 46
-2.02055762724056
 79
     0
 47
0.0246402553748132
 98
        1
 10
2153.210000832856
 20
891.7093702128381
  0
ELLIPSE
  5
B10
330
1F
100
AcDbEntity
  8
SPOJOVACÍ
100
AcDbEllipse
 10
2152.189754943582
 20
892.1102158745247
 30
0.0
 11
0.0000000000000018
 21
-7.321312510456553
 31
0.0
210
0.0
220
0.0
230
-1.0
 40
0.3214803388886193
 41
-0.2355512395776302
 42
3.377143893167422
  0
LINE
  5
B11
330
1F
100
AcDbEntity
  8
SPOJOVACÍ
100
AcDbLine
 10
2154.122965182098
 20
884.9910752495247
 30
0.0
 11
2152.43614532362
 21
884.9910752495247
 31
0.0
  0
LINE
  5
B12
330
1F
100
AcDbEntity
  8
SPOJOVACÍ
100
AcDbLine
 10
2164.123404006598
 20
894.9521861034259
 30
0.0
 11
2165.646411262093
 21
889.2682456456237
 31
0.0
  0
LINE
  5
B13
330
1F
100
AcDbEntity
  8
SPOJOVACÍ
100
AcDbLine
 10
2165.705435256598
 20
894.9521861034259
 30
0.0
 11
2167.228442512089
 21
889.2682456456237
 31
0.0
  0
LINE
  5
B14
330
1F
100
AcDbEntity
  8
SPOJOVACÍ
100
AcDbLine
 10
2167.287466506598
 20
894.9521861034259
 30
0.0
 11
2168.810473762089
 21
889.2682456456237
 31
0.0
  0
LINE
  5
B15
330
1F
100
AcDbEntity
  8
SPOJOVACÍ
100
AcDbLine
 10
2159.377310256598
 20
894.9521861034259
 30
0.0
 11
2160.900317512093
 21
889.2682456456237
 31
0.0
  0
LINE
  5
B16
330
1F
100
AcDbEntity
  8
SPOJOVACÍ
100
AcDbLine
 10
2160.959341506598
 20
894.9521861034259
 30
0.0
 11
2162.482348762093
 21
889.2682456456237
 31
0.0
  0
LINE
  5
B17
330
1F
100
AcDbEntity
  8
SPOJOVACÍ
100
AcDbLine
 10
2162.541372756598
 20
894.9521861034259
 30
0.0
 11
2164.064380012093
 21
889.2682456456237
 31
0.0
  0
LINE
  5
B18
330
1F
100
AcDbEntity
  8
SPOJOVACÍ
100
AcDbLine
 10
2154.122965182098
 20
892.1102158745247
 30
0.0
 11
2154.122965182098
 21
899.2293564995248
 31
0.0
  0
LINE
  5
B19
330
1F
100
AcDbEntity
  8
SPOJOVACÍ
100
AcDbLine
 10
2152.43614532362
 20
899.2293564995248
 30
0.0
 11
2154.122965182098
 21
899.2293564995248
 31
0.0
  0
LINE
  5
B1A
330
1F
100
AcDbEntity
  8
SPOJOVACÍ
100
AcDbLine
 10
2156.213247756598
 20
894.9521861034259
 30
0.0
 11
2157.736255012089
 21
889.2682456456237
 31
0.0
  0
LINE
  5
B1B
330
1F
100
AcDbEntity
  8
SPOJOVACÍ
100
AcDbLine
 10
2157.795279006598
 20
894.9521861034259
 30
0.0
 11
2159.318286262093
 21
889.2682456456237
 31
0.0
  0
LINE
  5
B1C
330
1F
100
AcDbEntity
  8
SPOJOVACÍ
100
AcDbLine
 10
2154.122965182098
 20
884.9910752495247
 30
0.0
 11
2154.122965182098
 21
892.1102158745247
 31
0.0
  0
LINE
  5
B1D
330
1F
100
AcDbEntity
  8
SPOJOVACÍ
100
AcDbLine
 10
2182.889954954958
 20
889.2682456456237
 30
0.0
 11
2154.122965182098
 21
889.2682456456237
 31
0.0
  0
LINE
  5
B1E
330
1F
100
AcDbEntity
  8
SPOJOVACÍ
100
AcDbLine
 10
2182.889954954958
 20
894.9521861034259
 30
0.0
 11
2154.122965182098
 21
894.9521861034259
 31
0.0
  0
LINE
  5
B1F
330
1F
100
AcDbEntity
  8
CETRIS
100
AcDbLine
 10
2154.679679784408
 20
942.857492605743
 30
0.0
 11
2154.679679784408
 21
494.6839144974505
 31
0.0
  0
SOLID
  5
B20
330
1F
100
AcDbEntity
  8
CETRIS
100
AcDbTrace
 10
2154.679679784408
 20
386.0949696281491
 30
0.0
 11
2166.679679784408
 21
386.1963538416926
 31
0.0
 12
2154.679679784408
 22
942.857492605743
 32
0.0
 13
2166.679679784408
 23
942.857492605743
 33
0.0
  0
LINE
  5
B21
330
1F
100
AcDbEntity
  8
NOSNÉ KONSTRUKCE
100
AcDbLine
 10
2178.246988542197
 20
902.975702856596
 30
0.0
 11
2179.120102650319
 21
890.7586908611389
 31
0.0
  0
LINE
  5
B22
330
1F
100
AcDbEntity
  8
NOSNÉ KONSTRUKCE
100
AcDbLine
 10
2172.424914341136
 20
903.8003265874081
 30
0.0
 11
2171.869633266259
 21
888.4194668407122
 31
0.0
  0
LINE
  5
B23
330
1F
100
AcDbEntity
  8
SPOJOVACÍ
100
AcDbLine
 10
2185.079547877562
 20
892.1102158745247
 30
0.0
 11
2182.889954954958
 21
889.2682456456237
 31
0.0
  0
LINE
  5
B24
330
1F
100
AcDbEntity
  8
SPOJOVACÍ
100
AcDbLine
 10
2185.079547877562
 20
892.1102158745247
 30
0.0
 11
2182.889954954958
 21
894.9521861034259
 31
0.0
  0
LINE
  5
B25
330
1F
100
AcDbEntity
  8
SPOJOVACÍ
100
AcDbLine
 10
2183.107779006598
 20
894.9521861034259
 30
0.0
 11
2184.181580574285
 21
890.9447040955596
 31
0.0
  0
LINE
  5
B26
330
1F
100
AcDbEntity
  8
SPOJOVACÍ
100
AcDbLine
 10
2179.943716506598
 20
894.9521861034259
 30
0.0
 11
2181.46672376209
 21
889.2682456456237
 31
0.0
  0
LINE
  5
B27
330
1F
100
AcDbEntity
  8
SPOJOVACÍ
100
AcDbLine
 10
2178.361685256598
 20
894.9521861034259
 30
0.0
 11
2179.884692512089
 21
889.2682456456237
 31
0.0
  0
LINE
  5
B28
330
1F
100
AcDbEntity
  8
SPOJOVACÍ
100
AcDbLine
 10
2181.525747756598
 20
894.9521861034259
 30
0.0
 11
2183.048755012089
 21
889.2682456456237
 31
0.0
  0
LINE
  5
B29
330
1F
100
AcDbEntity
  8
SPOJOVACÍ
100
AcDbLine
 10
2170.451529006598
 20
894.9521861034259
 30
0.0
 11
2171.974536262089
 21
889.2682456456237
 31
0.0
  0
LINE
  5
B2A
330
1F
100
AcDbEntity
  8
SPOJOVACÍ
100
AcDbLine
 10
2172.033560256598
 20
894.9521861034259
 30
0.0
 11
2173.556567512089
 21
889.2682456456237
 31
0.0
  0
LINE
  5
B2B
330
1F
100
AcDbEntity
  8
SPOJOVACÍ
100
AcDbLine
 10
2173.615591506594
 20
894.9521861034259
 30
0.0
 11
2175.138598762089
 21
889.2682456456237
 31
0.0
  0
LINE
  5
B2C
330
1F
100
AcDbEntity
  8
SPOJOVACÍ
100
AcDbLine
 10
2175.197622756598
 20
894.9521861034259
 30
0.0
 11
2176.720630012089
 21
889.2682456456237
 31
0.0
  0
LINE
  5
B2D
330
1F
100
AcDbEntity
  8
SPOJOVACÍ
100
AcDbLine
 10
2168.869497756598
 20
894.9521861034259
 30
0.0
 11
2170.392505012093
 21
889.2682456456237
 31
0.0
  0
LINE
  5
B2E
330
1F
100
AcDbEntity
  8
SPOJOVACÍ
100
AcDbLine
 10
2176.779654006598
 20
894.9521861034259
 30
0.0
 11
2178.302661262089
 21
889.2682456456237
 31
0.0
  0
LINE
  5
B2F
330
1F
100
AcDbEntity
  8
NOSNÉ KONSTRUKCE
100
AcDbLine
 10
2192.966398382487
 20
946.7598009927673
 30
0.0
 11
2192.966398382494
 21
391.4885736398505
 31
0.0
  0
LINE
  5
B30
330
1F
100
AcDbEntity
  8
PROFILY
100
AcDbLine
 10
2193.211015269219
 20
949.0909895639902
 30
0.0
 11
2193.211015269212
 21
391.5378215642745
 31
0.0
  0
LINE
  5
B31
330
1F
100
AcDbEntity
  8
PROFILY
100
AcDbLine
 10
2195.211015269215
 20
391.9404750775624
 30
0.0
 11
2195.211015269223
 21
947.0909895639893
 31
0.0
  0
LINE
  5
B32
330
1F
100
AcDbEntity
  8
NOSNÉ KONSTRUKCE
100
AcDbLine
 10
2170.176074257426
 20
869.6035551521632
 30
0.0
 11
2171.661256920925
 21
853.275472574152
 31
0.0
  0
LINE
  5
B33
330
1F
100
AcDbEntity
  8
NOSNÉ KONSTRUKCE
100
AcDbLine
 10
2171.661256920925
 20
853.275472574152
 30
0.0
 11
2170.786274751998
 21
831.7039817961608
 31
0.0
  0
LINE
  5
B34
330
1F
100
AcDbEntity
  8
NOSNÉ KONSTRUKCE
100
AcDbLine
 10
2180.428650057177
 20
837.5929916168511
 30
0.0
 11
2180.719688093217
 21
828.2847842700334
 31
0.0
  0
LINE
  5
B35
330
1F
100
AcDbEntity
  8
NOSNÉ KONSTRUKCE
100
AcDbLine
 10
2180.137612021136
 20
864.9358202563975
 30
0.0
 11
2180.428650057177
 21
837.5929916168511
 31
0.0
  0
LINE
  5
B36
330
1F
100
AcDbEntity
  8
NOSNÉ KONSTRUKCE
100
AcDbLine
 10
2185.304784967092
 20
868.9831728168842
 30
0.0
 11
2186.575212258104
 21
844.1057007040194
 31
0.0
  0
LINE
  5
B37
330
1F
100
AcDbEntity
  8
NOSNÉ KONSTRUKCE
100
AcDbLine
 10
2175.596122691721
 20
843.8758588473005
 30
0.0
 11
2175.040987559085
 21
833.4448881914591
 31
0.0
  0
LINE
  5
B38
330
1F
100
AcDbEntity
  8
NOSNÉ KONSTRUKCE
100
AcDbLine
 10
2175.596122691721
 20
863.0732912413673
 30
0.0
 11
2175.596122691721
 21
843.8758588473005
 31
0.0
  0
LINE
  5
B39
330
1F
100
AcDbEntity
  8
NOSNÉ KONSTRUKCE
100
AcDbLine
 10
2193.817538064592
 20
820.6964852868672
 30
0.0
 11
2193.033507106201
 21
857.3534382443517
 31
0.0
  0
LINE
  5
B3A
330
1F
100
AcDbEntity
  8
NOSNÉ KONSTRUKCE
100
AcDbLine
 10
2186.575212258104
 20
844.1057007040194
 30
0.0
 11
2186.575212258104
 21
808.3725168226532
 31
0.0
  0
LINE
  5
B3B
330
1F
100
AcDbEntity
  8
NOSNÉ KONSTRUKCE
100
AcDbLine
 10
2175.040987559085
 20
833.4448881914591
 30
0.0
 11
2174.818921830659
 21
807.7142177067775
 31
0.0
  0
HATCH
  5
B3C
330
1F
100
AcDbEntity
  8
PROFILY
100
AcDbHatch
 10
0.0
 20
0.0
 30
0.0
210
0.0
220
0.0
230
1.0
  2
SOLID
 70
     1
 71
     0
 91
        1
 92
        7
 72
     0
 73
     1
 93
        4
 10
2193.211015269212
 20
831.3759853065544
 10
2195.211015269215
 20
831.3759853065544
 10
2195.211015269215
 20
850.558340451103
 10
2193.211015269215
 20
850.558340451103
 97
        0
 75
     0
 76
     1
 47
0.0801976285649081
 98
        1
 10
2193.54868833951
 20
844.7169245584969
  0
LINE
  5
B3D
330
1F
100
AcDbEntity
  8
NOSNÉ KONSTRUKCE
100
AcDbLine
 10
2179.847712334646
 20
881.5959183348908
 30
0.0
 11
2179.847712334646
 21
874.6147763544335
 31
0.0
  0
LINE
  5
B3E
330
1F
100
AcDbEntity
  8
NOSNÉ KONSTRUKCE
100
AcDbLine
 10
2171.869633266259
 20
888.4194668407122
 30
0.0
 11
2173.456142283503
 21
881.2840326225609
 31
0.0
  0
LINE
  5
B3F
330
1F
100
AcDbEntity
  8
NOSNÉ KONSTRUKCE
100
AcDbLine
 10
2179.120102650319
 20
890.7586908611389
 30
0.0
 11
2179.847712334646
 21
881.5959183348908
 31
0.0
  0
LINE
  5
B40
330
1F
100
AcDbEntity
  8
NOSNÉ KONSTRUKCE
100
AcDbLine
 10
2183.823908950792
 20
885.8982959584333
 30
0.0
 11
2185.304784967092
 21
868.9831728168842
 31
0.0
  0
LINE
  5
B41
330
1F
100
AcDbEntity
  8
NOSNÉ KONSTRUKCE
100
AcDbLine
 10
2173.456142283503
 20
881.2840326225609
 30
0.0
 11
2175.596122691721
 21
863.0732912413673
 31
0.0
  0
LINE
  5
B42
330
1F
100
AcDbEntity
  8
NOSNÉ KONSTRUKCE
100
AcDbLine
 10
2179.847712334646
 20
874.6147763544335
 30
0.0
 11
2180.137612021136
 21
864.9358202563975
 31
0.0
  0
LINE
  5
B43
330
1F
100
AcDbEntity
  8
NOSNÉ KONSTRUKCE
100
AcDbLine
 10
2180.719688093217
 20
828.2847842700334
 30
0.0
 11
2182.756983533946
 21
820.7218669282132
 31
0.0
  0
LINE
  5
B44
330
1F
100
AcDbEntity
  8
NOSNÉ KONSTRUKCE
100
AcDbLine
 10
2187.584296418231
 20
763.516210907695
 30
0.0
 11
2188.055281249196
 21
777.9518164788819
 31
0.0
  0
LINE
  5
B45
330
1F
100
AcDbEntity
  8
NOSNÉ KONSTRUKCE
100
AcDbLine
 10
2173.042483568548
 20
779.8613028620252
 30
0.0
 11
2175.000046414978
 21
768.343990311077
 31
0.0
  0
LINE
  5
B46
330
1F
100
AcDbEntity
  8
NOSNÉ KONSTRUKCE
100
AcDbLine
 10
2168.966398382491
 20
777.2035775617819
 30
0.0
 11
2170.739087279566
 21
768.344964446565
 31
0.0
  0
LINE
  5
B47
330
1F
100
AcDbEntity
  8
NOSNÉ KONSTRUKCE
100
AcDbLine
 10
2188.055281249196
 20
777.9518164788819
 30
0.0
 11
2187.764307624359
 21
789.2939196407655
 31
0.0
  0
LINE
  5
B48
330
1F
100
AcDbEntity
  8
NOSNÉ KONSTRUKCE
100
AcDbLine
 10
2181.591021705878
 20
782.5136753630081
 30
0.0
 11
2179.652481043261
 21
776.8519273143024
 31
0.0
  0
LINE
  5
B49
330
1F
100
AcDbEntity
  8
NOSNÉ KONSTRUKCE
100
AcDbLine
 10
2182.756983533946
 20
820.7218669282132
 30
0.0
 11
2183.919325994204
 21
807.2385870346019
 31
0.0
  0
LINE
  5
B4A
330
1F
100
AcDbEntity
  8
NOSNÉ KONSTRUKCE
100
AcDbLine
 10
2174.818921830659
 20
807.7142177067775
 30
0.0
 11
2173.042483568548
 21
779.8613028620252
 31
0.0
  0
LINE
  5
B4B
330
1F
100
AcDbEntity
  8
NOSNÉ KONSTRUKCE
100
AcDbLine
 10
2183.919325994204
 20
807.2385870346019
 30
0.0
 11
2181.591021705878
 21
782.5136753630081
 31
0.0
  0
LINE
  5
B4C
330
1F
100
AcDbEntity
  8
NOSNÉ KONSTRUKCE
100
AcDbLine
 10
2186.575212258104
 20
808.3725168226532
 30
0.0
 11
2187.764307624359
 21
789.2939196407655
 31
0.0
  0
LINE
  5
B4D
330
1F
100
AcDbEntity
  8
NOSNÉ KONSTRUKCE
100
AcDbLine
 10
2193.503557906763
 20
800.4552486770094
 30
0.0
 11
2193.817538064592
 21
820.6964852868672
 31
0.0
  0
LINE
  5
B4E
330
1F
100
AcDbEntity
  8
NOSNÉ KONSTRUKCE
100
AcDbLine
 10
2192.469644626989
 20
773.6391206646199
 30
0.0
 11
2193.503557906763
 21
800.4552486770094
 31
0.0
  0
LINE
  5
B4F
330
1F
100
AcDbEntity
  8
NOSNÉ KONSTRUKCE
100
AcDbLine
 10
2179.652481043261
 20
776.8519273143024
 30
0.0
 11
2180.921799173165
 21
755.708027897253
 31
0.0
  0
HATCH
  5
B50
330
1F
100
AcDbEntity
  8
PROFILY
100
AcDbHatch
 10
0.0
 20
0.0
 30
0.0
210
0.0
220
0.0
230
1.0
  2
SOLID
 70
     1
 71
     0
 91
        1
 92
        7
 72
     0
 73
     1
 93
        4
 10
2193.211015269212
 20
762.9323740110098
 10
2195.211015269215
 20
762.9323740110098
 10
2195.211015269215
 20
782.1147291555584
 10
2193.211015269215
 20
782.1147291555584
 97
        0
 75
     0
 76
     1
 47
0.0801976285649081
 98
        1
 10
2193.54868833951
 20
776.2733132629523
  0
HATCH
  5
B51
330
1F
100
AcDbEntity
  8
PROFILY
100
AcDbHatch
 10
0.0
 20
0.0
 30
0.0
210
0.0
220
0.0
230
1.0
  2
SOLID
 70
     1
 71
     0
 91
        1
 92
        7
 72
     0
 73
     1
 93
        4
 10
2193.211015269212
 20
797.7626433529053
 10
2195.211015269215
 20
797.7626433529053
 10
2195.211015269215
 20
816.9449984974539
 10
2193.211015269215
 20
816.9449984974539
 97
        0
 75
     0
 76
     1
 47
0.0801976285649081
 98
        1
 10
2193.54868833951
 20
811.1035826048478
  0
LINE
  5
B52
330
1F
100
AcDbEntity
  8
NOSNÉ KONSTRUKCE
100
AcDbLine
 10
2170.183806204681
 20
762.7158864454645
 30
0.0
 11
2170.739087279566
 21
756.6904074586123
 31
0.0
  0
LINE
  5
B53
330
1F
100
AcDbEntity
  8
NOSNÉ KONSTRUKCE
100
AcDbLine
 10
2175.000046414978
 20
768.343990311077
 30
0.0
 11
2177.91042677538
 21
759.6175583256222
 31
0.0
  0
LINE
  5
B54
330
1F
100
AcDbEntity
  8
NOSNÉ KONSTRUKCE
100
AcDbLine
 10
2170.739087279566
 20
756.6904074586123
 30
0.0
 11
2171.215238466197
 21
746.3344452354099
 31
0.0
  0
LINE
  5
B55
330
1F
100
AcDbEntity
  8
NOSNÉ KONSTRUKCE
100
AcDbLine
 10
2177.91042677538
 20
755.2543333131211
 30
0.0
 11
2177.037312667257
 21
745.5098215045977
 31
0.0
  0
LINE
  5
B56
330
1F
100
AcDbEntity
  8
NOSNÉ KONSTRUKCE
100
AcDbLine
 10
2177.91042677538
 20
759.6175583256222
 30
0.0
 11
2177.91042677538
 21
755.2543333131211
 31
0.0
  0
LWPOLYLINE
  5
B57
330
1F
100
AcDbEntity
  8
PROFILY
100
AcDbPolyline
 90
        4
 70
     1
 43
0.0
 10
2193.211015269215
 20
745.5272228488443
 10
2193.211015269215
 20
726.3448677042957
 10
2195.211015269215
 20
726.3448677042957
 10
2195.211015269215
 20
745.5272228488443
  0
HATCH
  5
B58
330
1F
100
AcDbEntity
  8
PROFILY
100
AcDbHatch
 10
0.0
 20
0.0
 30
0.0
210
0.0
220
0.0
230
1.0
  2
SOLID
 70
     1
 71
     0
 91
        1
 92
        7
 72
     0
 73
     1
 93
        4
 10
2193.211015269212
 20
726.3443558667399
 10
2195.211015269215
 20
726.3443558667399
 10
2195.211015269215
 20
745.5267110112886
 10
2193.211015269215
 20
745.5267110112886
 97
        0
 75
     0
 76
     1
 47
0.0801976285649081
 98
        1
 10
2193.54868833951
 20
739.6852951186824
  0
LINE
  5
B59
330
1F
100
AcDbEntity
  8
NOSNÉ KONSTRUKCE
100
AcDbLine
 10
2190.253901253681
 20
726.8758723721616
 30
0.0
 11
2187.584296418231
 21
763.516210907695
 31
0.0
  0
LINE
  5
B5A
330
1F
100
AcDbEntity
  8
NOSNÉ KONSTRUKCE
100
AcDbLine
 10
2180.921799173165
 20
755.708027897253
 30
0.0
 11
2182.614233075852
 21
728.432414606435
 31
0.0
  0
LINE
  5
B5B
330
1F
100
AcDbEntity
  8
NOSNÉ KONSTRUKCE
100
AcDbLine
 10
2171.215238466197
 20
746.3344452354099
 30
0.0
 11
2170.65995739132
 21
730.953585488714
 31
0.0
  0
LINE
  5
B5C
330
1F
100
AcDbEntity
  8
NOSNÉ KONSTRUKCE
100
AcDbLine
 10
2177.037312667257
 20
745.5098215045977
 30
0.0
 11
2177.91042677538
 21
733.2928095091406
 31
0.0
  0
LINE
  5
B5D
330
1F
100
AcDbEntity
  8
NOSNÉ KONSTRUKCE
100
AcDbLine
 10
2170.739087279566
 20
768.344964446565
 30
0.0
 11
2170.183806204681
 21
762.7158864454645
 31
0.0
  0
LINE
  5
B5E
330
1F
100
AcDbEntity
  8
NOSNÉ KONSTRUKCE
100
AcDbLine
 10
2177.91042677538
 20
733.2928095091406
 30
0.0
 11
2178.638036459707
 21
724.1300369828927
 31
0.0
  0
HATCH
  5
B5F
330
1F
100
AcDbEntity
  8
PROFILY
100
AcDbHatch
 10
0.0
 20
0.0
 30
0.0
210
0.0
220
0.0
230
1.0
  2
SOLID
 70
     1
 71
     0
 91
        1
 92
        7
 72
     0
 73
     1
 93
        4
 10
2193.211015269212
 20
693.8292900889041
 10
2195.211015269215
 20
693.8292900889041
 10
2195.211015269215
 20
713.0116452334528
 10
2193.211015269215
 20
713.0116452334528
 97
        0
 75
     0
 76
     1
 47
0.0801976285649081
 98
        1
 10
2193.54868833951
 20
707.1702293408466
  0
LINE
  5
B60
330
1F
100
AcDbEntity
  8
NOSNÉ KONSTRUKCE
100
AcDbLine
 10
2182.614233075852
 20
728.432414606435
 30
0.0
 11
2184.095109092152
 21
711.517291464886
 31
0.0
  0
LINE
  5
B61
330
1F
100
AcDbEntity
  8
NOSNÉ KONSTRUKCE
100
AcDbLine
 10
2191.823831231261
 20
699.8875568923535
 30
0.0
 11
2190.253901253681
 21
726.8758723721616
 31
0.0
  0
LINE
  5
B62
330
1F
100
AcDbEntity
  8
NOSNÉ KONSTRUKCE
100
AcDbLine
 10
2184.095109092152
 20
711.517291464886
 30
0.0
 11
2185.365536383164
 21
686.6398193520212
 31
0.0
  0
LINE
  5
B63
330
1F
100
AcDbEntity
  8
NOSNÉ KONSTRUKCE
100
AcDbLine
 10
2172.246466408564
 20
723.8181512705628
 30
0.0
 11
2174.386446816782
 21
705.6074098893691
 31
0.0
  0
LINE
  5
B64
330
1F
100
AcDbEntity
  8
NOSNÉ KONSTRUKCE
100
AcDbLine
 10
2170.65995739132
 20
730.953585488714
 30
0.0
 11
2172.246466408564
 21
723.8181512705628
 31
0.0
  0
LINE
  5
B65
330
1F
100
AcDbEntity
  8
NOSNÉ KONSTRUKCE
100
AcDbLine
 10
2178.638036459707
 20
717.1488950024354
 30
0.0
 11
2178.927936146196
 21
707.4699389043994
 31
0.0
  0
LINE
  5
B66
330
1F
100
AcDbEntity
  8
NOSNÉ KONSTRUKCE
100
AcDbLine
 10
2178.638036459707
 20
724.1300369828927
 30
0.0
 11
2178.638036459707
 21
717.1488950024354
 31
0.0
  0
LINE
  5
B67
330
1F
100
AcDbEntity
  8
NOSNÉ KONSTRUKCE
100
AcDbLine
 10
2168.966398382487
 20
712.1376738001631
 30
0.0
 11
2170.451581045986
 21
695.8095912221538
 31
0.0
  0
HATCH
  5
B68
330
1F
100
AcDbEntity
  8
POPIS
100
AcDbHatch
 10
0.0
 20
0.0
 30
0.0
210
0.0
220
0.0
230
1.0
  2
SOLID
 70
     1
 71
     0
 91
        1
 92
        7
 72
     0
 73
     1
 93
        8
 10
2182.637454261389
 20
668.623019451184
 10
2186.316295598991
 20
668.623019451184
 10
2180.74372642161
 20
676.4238715340793
 10
2175.171157244226
 20
668.623019451184
 10
2178.849998581824
 20
668.623019451184
 10
2177.324252633866
 20
655.6873755520987
 10
2180.743726421603
 20
661.0686721995821
 10
2184.163200209343
 20
655.6873755520987
 97
        0
 75
     0
 76
     1
 47
0.3835833255279223
 98
        1
 10
2181.151909168861
 20
665.7148362706843
  0
LINE
  5
B69
330
1F
100
AcDbEntity
  8
POPIS
100
AcDbLine
 10
2178.849998581824
 20
668.623019451184
 30
0.0
 11
2177.324252633866
 21
655.6873755521005
 31
0.0
  0
LINE
  5
B6A
330
1F
100
AcDbEntity
  8
POPIS
100
AcDbLine
 10
2182.637454261389
 20
668.623019451184
 30
0.0
 11
2184.163200209347
 21
655.6873755521005
 31
0.0
  0
LINE
  5
B6B
330
1F
100
AcDbEntity
  8
NOSNÉ KONSTRUKCE
100
AcDbLine
 10
2192.607862189653
 20
663.2306039348691
 30
0.0
 11
2191.823831231261
 21
699.8875568923535
 31
0.0
  0
LINE
  5
B6C
330
1F
100
AcDbEntity
  8
NOSNÉ KONSTRUKCE
100
AcDbLine
 10
2174.386446816782
 20
705.6074098893691
 30
0.0
 11
2174.386446816782
 21
686.4099774953024
 31
0.0
  0
LINE
  5
B6D
330
1F
100
AcDbEntity
  8
NOSNÉ KONSTRUKCE
100
AcDbLine
 10
2178.927936146196
 20
707.4699389043994
 30
0.0
 11
2179.218974182237
 21
680.1271102648529
 31
0.0
  0
LINE
  5
B6E
330
1F
100
AcDbEntity
  8
NOSNÉ KONSTRUKCE
100
AcDbLine
 10
2174.386446816782
 20
686.4099774953024
 30
0.0
 11
2173.944966302039
 21
678.1145733248808
 31
0.0
  0
LINE
  5
B6F
330
1F
100
AcDbEntity
  8
NOSNÉ KONSTRUKCE
100
AcDbLine
 10
2179.218974182237
 20
680.1271102648529
 30
0.0
 11
2179.281899810842
 21
678.1145733248808
 31
0.0
  0
LINE
  5
B70
330
1F
100
AcDbEntity
  8
NOSNÉ KONSTRUKCE
100
AcDbLine
 10
2170.451581045986
 20
695.8095912221538
 30
0.0
 11
2169.576598877059
 21
674.2381004441626
 31
0.0
  0
LINE
  5
B71
330
1F
100
AcDbEntity
  8
NOSNÉ KONSTRUKCE
100
AcDbLine
 10
2169.576598877059
 20
674.2381004441626
 30
0.0
 11
2168.966398382487
 21
664.4698553762368
 31
0.0
  0
LINE
  5
B72
330
1F
100
AcDbEntity
  8
NOSNÉ KONSTRUKCE
100
AcDbLine
 10
2185.365536383164
 20
686.6398193520212
 30
0.0
 11
2185.365536383164
 21
678.1145733248808
 31
0.0
  0
LWPOLYLINE
  5
B73
330
1F
100
AcDbEntity
  8
PROFILY
100
AcDbPolyline
 90
        4
 70
     1
 43
0.0
 10
2193.211015269215
 20
643.8553711982945
 10
2193.211015269215
 20
624.6730160537459
 10
2195.211015269215
 20
624.6730160537459
 10
2195.211015269215
 20
643.8553711982945
  0
HATCH
  5
B74
330
1F
100
AcDbEntity
  8
PROFILY
100
AcDbHatch
 10
0.0
 20
0.0
 30
0.0
210
0.0
220
0.0
230
1.0
  2
SOLID
 70
     1
 71
     0
 91
        1
 92
        7
 72
     0
 73
     1
 93
        4
 10
2193.211015269212
 20
624.6725042161902
 10
2195.211015269215
 20
624.6725042161902
 10
2195.211015269215
 20
643.8548593607388
 10
2193.211015269215
 20
643.8548593607388
 97
        0
 75
     0
 76
     1
 47
0.0801976285649081
 98
        1
 10
2193.54868833951
 20
638.0134434681326
  0
LINE
  5
B75
330
1F
100
AcDbEntity
  8
NOSNÉ KONSTRUKCE
100
AcDbLine
 10
2185.365536383164
 20
655.2245525111243
 30
0.0
 11
2185.365536383164
 21
650.9066354706551
 31
0.0
  0
LINE
  5
B76
330
1F
100
AcDbEntity
  8
POPIS
100
AcDbLine
 10
2180.743726421606
 20
676.4191504372897
 30
0.0
 11
2175.171157244226
 21
668.6182983543926
 31
0.0
  0
LINE
  5
B77
330
1F
100
AcDbEntity
  8
POPIS
100
AcDbLine
 10
2175.171157244226
 20
668.6182983543926
 30
0.0
 11
2178.849998581824
 21
668.6182983543926
 31
0.0
  0
LINE
  5
B78
330
1F
100
AcDbEntity
  8
POPIS
100
AcDbLine
 10
2186.316295598987
 20
668.6182983543926
 30
0.0
 11
2182.637454261389
 21
668.6182983543926
 31
0.0
  0
LINE
  5
B79
330
1F
100
AcDbEntity
  8
POPIS
100
AcDbLine
 10
2180.743726421606
 20
676.4191504372897
 30
0.0
 11
2186.316295598987
 21
668.6182983543926
 31
0.0
  0
HATCH
  5
B7A
330
1F
100
AcDbEntity
  8
PROFILY
100
AcDbHatch
 10
0.0
 20
0.0
 30
0.0
210
0.0
220
0.0
230
1.0
  2
SOLID
 70
     1
 71
     0
 91
        1
 92
        7
 72
     0
 73
     1
 93
        4
 10
2193.211015269212
 20
659.4222998385717
 10
2195.211015269215
 20
659.4222998385717
 10
2195.211015269215
 20
678.6046549831203
 10
2193.211015269215
 20
678.6046549831203
 97
        0
 75
     0
 76
     1
 47
0.0801976285649081
 98
        1
 10
2193.54868833951
 20
672.7632390905141
  0
LINE
  5
B7B
330
1F
100
AcDbEntity
  8
NOSNÉ KONSTRUKCE
100
AcDbLine
 10
2173.609245955719
 20
650.2483363547794
 30
0.0
 11
2171.832807693609
 21
622.395421510027
 31
0.0
  0
LINE
  5
B7C
330
1F
100
AcDbEntity
  8
NOSNÉ KONSTRUKCE
100
AcDbLine
 10
2182.709650119265
 20
649.7727056826038
 30
0.0
 11
2180.381345830939
 21
625.04779401101
 31
0.0
  0
LINE
  5
B7D
330
1F
100
AcDbEntity
  8
NOSNÉ KONSTRUKCE
100
AcDbLine
 10
2173.652192643262
 20
655.2245525111243
 30
0.0
 11
2173.609245955719
 21
650.2483363547794
 31
0.0
  0
LINE
  5
B7E
330
1F
100
AcDbEntity
  8
NOSNÉ KONSTRUKCE
100
AcDbLine
 10
2185.365536383164
 20
650.9066354706551
 30
0.0
 11
2184.94242061038
 21
628.0712399750405
 31
0.0
  0
LINE
  5
B7F
330
1F
100
AcDbEntity
  8
NOSNÉ KONSTRUKCE
100
AcDbLine
 10
2182.239667065763
 20
655.2245525111243
 30
0.0
 11
2182.709650119265
 21
649.7727056826038
 31
0.0
  0
LINE
  5
B80
330
1F
100
AcDbEntity
  8
NOSNÉ KONSTRUKCE
100
AcDbLine
 10
2192.293882031824
 20
642.9893673250112
 30
0.0
 11
2192.607862189653
 21
663.2306039348691
 31
0.0
  0
LINE
  5
B81
330
1F
100
AcDbEntity
  8
NOSNÉ KONSTRUKCE
100
AcDbLine
 10
2191.259968752049
 20
616.1732393126217
 30
0.0
 11
2192.293882031824
 21
642.9893673250112
 31
0.0
  0
LINE
  5
B82
330
1F
100
AcDbEntity
  8
NOSNÉ KONSTRUKCE
100
AcDbLine
 10
2189.913972563708
 20
608.8863450655075
 30
0.0
 11
2191.259968752049
 21
616.1732393126217
 31
0.0
  0
LINE
  5
B83
330
1F
100
AcDbEntity
  8
NOSNÉ KONSTRUKCE
100
AcDbLine
 10
2180.381345830939
 20
625.04779401101
 30
0.0
 11
2180.090307794898
 21
611.3763796912385
 31
0.0
  0
LINE
  5
B84
330
1F
100
AcDbEntity
  8
NOSNÉ KONSTRUKCE
100
AcDbLine
 10
2184.94242061038
 20
628.0712399750405
 30
0.0
 11
2185.78847702525
 21
609.2531792352233
 31
0.0
  0
LINE
  5
B85
330
1F
100
AcDbEntity
  8
NOSNÉ KONSTRUKCE
100
AcDbLine
 10
2171.832807693609
 20
622.395421510027
 30
0.0
 11
2172.054844233593
 21
605.9722007112282
 31
0.0
  0
HATCH
  5
B86
330
1F
100
AcDbEntity
  8
PROFILY
100
AcDbHatch
 10
0.0
 20
0.0
 30
0.0
210
0.0
220
0.0
230
1.0
  2
SOLID
 70
     1
 71
     0
 91
        1
 92
        7
 72
     0
 73
     1
 93
        4
 10
2193.211015269212
 20
586.5529111927876
 10
2195.211015269215
 20
586.5529111927876
 10
2195.211015269215
 20
605.7352663373363
 10
2193.211015269215
 20
605.7352663373363
 97
        0
 75
     0
 76
     1
 47
0.0801976285649081
 98
        1
 10
2193.54868833951
 20
599.8938504447301
  0
LINE
  5
B87
330
1F
100
AcDbEntity
  8
NOSNÉ KONSTRUKCE
100
AcDbLine
 10
2189.801801349939
 20
589.267779467998
 30
0.0
 11
2189.913972563708
 21
608.8863450655075
 31
0.0
  0
LINE
  5
B88
330
1F
100
AcDbEntity
  8
NOSNÉ KONSTRUKCE
100
AcDbLine
 10
2180.090307794898
 20
611.3763796912385
 30
0.0
 11
2179.653736146611
 21
602.0681723444172
 31
0.0
  0
LINE
  5
B89
330
1F
100
AcDbEntity
  8
NOSNÉ KONSTRUKCE
100
AcDbLine
 10
2172.054844233593
 20
605.9722007112282
 30
0.0
 11
2172.830877556648
 21
586.019145850139
 31
0.0
  0
LINE
  5
B8A
330
1F
100
AcDbEntity
  8
NOSNÉ KONSTRUKCE
100
AcDbLine
 10
2185.78847702525
 20
609.2531792352233
 30
0.0
 11
2186.209870679479
 21
588.159213281749
 31
0.0
  0
LINE
  5
B8B
330
1F
100
AcDbEntity
  8
NOSNÉ KONSTRUKCE
100
AcDbLine
 10
2180.088118661145
 20
595.7122990709499
 30
0.0
 11
2180.524661120974
 21
579.8592722449243
 31
0.0
  0
HATCH
  5
B8C
330
1F
100
AcDbEntity
  8
PROFILY
100
AcDbHatch
 10
0.0
 20
0.0
 30
0.0
210
0.0
220
0.0
230
1.0
  2
SOLID
 70
     1
 71
     0
 91
        1
 92
        7
 72
     0
 73
     1
 93
        4
 10
2193.211015269212
 20
552.9395692391386
 10
2195.211015269215
 20
552.9395692391386
 10
2195.211015269215
 20
572.1219243836872
 10
2193.211015269215
 20
572.1219243836872
 97
        0
 75
     0
 76
     1
 47
0.0801976285649081
 98
        1
 10
2193.54868833951
 20
566.280508491081
  0
LINE
  5
B8D
330
1F
100
AcDbEntity
  8
NOSNÉ KONSTRUKCE
100
AcDbLine
 10
2180.524661120974
 20
579.8592722449243
 30
0.0
 11
2181.106737193056
 21
567.6422602494708
 31
0.0
  0
LINE
  5
B8E
330
1F
100
AcDbEntity
  8
NOSNÉ KONSTRUKCE
100
AcDbLine
 10
2172.830877556648
 20
586.019145850139
 30
0.0
 11
2175.261107912753
 21
563.0600351474527
 31
0.0
  0
LINE
  5
B8F
330
1F
100
AcDbEntity
  8
NOSNÉ KONSTRUKCE
100
AcDbLine
 10
2168.701587519682
 20
560.6572217270581
 30
0.0
 11
2170.451581045986
 21
541.4178113092453
 31
0.0
  0
LINE
  5
B90
330
1F
100
AcDbEntity
  8
NOSNÉ KONSTRUKCE
100
AcDbLine
 10
2181.106737193056
 20
567.6422602494708
 30
0.0
 11
2182.56195656171
 21
547.5714612710612
 31
0.0
  0
LINE
  5
B91
330
1F
100
AcDbEntity
  8
NOSNÉ KONSTRUKCE
100
AcDbLine
 10
2175.261107912753
 20
563.0600351474527
 30
0.0
 11
2176.250859067514
 21
539.8134642778382
 31
0.0
  0
LINE
  5
B92
330
1F
100
AcDbEntity
  8
NOSNÉ KONSTRUKCE
100
AcDbLine
 10
2191.596365639562
 20
569.4671948504505
 30
0.0
 11
2189.801801349939
 21
589.267779467998
 31
0.0
  0
LINE
  5
B93
330
1F
100
AcDbEntity
  8
NOSNÉ KONSTRUKCE
100
AcDbLine
 10
2186.209870679479
 20
588.159213281749
 30
0.0
 11
2186.421428565868
 21
550.100208762698
 31
0.0
  0
HATCH
  5
B94
330
1F
100
AcDbEntity
  8
PROFILY
100
AcDbHatch
 10
0.0
 20
0.0
 30
0.0
210
0.0
220
0.0
230
1.0
  2
SOLID
 70
     1
 71
     0
 91
        1
 92
        7
 72
     0
 73
     1
 93
        4
 10
2193.211015269212
 20
518.109299897243
 10
2195.211015269215
 20
518.109299897243
 10
2195.211015269215
 20
537.2916550417917
 10
2193.211015269215
 20
537.2916550417917
 97
        0
 75
     0
 76
     1
 47
0.0801976285649081
 98
        1
 10
2193.54868833951
 20
531.4502391491855
  0
LINE
  5
B95
330
1F
100
AcDbEntity
  8
NOSNÉ KONSTRUKCE
100
AcDbLine
 10
2186.421428565868
 20
550.100208762698
 30
0.0
 11
2186.632986452264
 21
520.7101983143543
 31
0.0
  0
LINE
  5
B96
330
1F
100
AcDbEntity
  8
NOSNÉ KONSTRUKCE
100
AcDbLine
 10
2181.685106331978
 20
533.8417792174181
 30
0.0
 11
2180.66645861161
 21
525.2607820525331
 31
0.0
  0
LINE
  5
B97
330
1F
100
AcDbEntity
  8
NOSNÉ KONSTRUKCE
100
AcDbLine
 10
2182.56195656171
 20
547.5714612710612
 30
0.0
 11
2181.685106331978
 21
533.8417792174181
 31
0.0
  0
LINE
  5
B98
330
1F
100
AcDbEntity
  8
NOSNÉ KONSTRUKCE
100
AcDbLine
 10
2170.451581045986
 20
541.4178113092453
 30
0.0
 11
2169.576598877059
 21
519.8463205312541
 31
0.0
  0
LINE
  5
B99
330
1F
100
AcDbEntity
  8
NOSNÉ KONSTRUKCE
100
AcDbLine
 10
2176.250859067514
 20
539.8134642778382
 30
0.0
 11
2174.023926266419
 21
519.5345610957478
 31
0.0
  0
LINE
  5
B9A
330
1F
100
AcDbEntity
  8
NOSNÉ KONSTRUKCE
100
AcDbLine
 10
2191.073396178953
 20
509.5901711165602
 30
0.0
 11
2192.966398382487
 21
527.2468373364386
 31
0.0
  0
LINE
  5
B9B
330
1F
100
AcDbEntity
  8
NOSNÉ KONSTRUKCE
100
AcDbLine
 10
2186.632986452264
 20
520.7101983143543
 30
0.0
 11
2185.784536584485
 21
493.0979310144244
 31
0.0
  0
LINE
  5
B9C
330
1F
100
AcDbEntity
  8
NOSNÉ KONSTRUKCE
100
AcDbLine
 10
2180.66645861161
 20
525.2607820525331
 30
0.0
 11
2180.826138822461
 21
520.8719487522444
 31
0.0
  0
LINE
  5
B9D
330
1F
100
AcDbEntity
  8
NOSNÉ KONSTRUKCE
100
AcDbLine
 10
2174.023926266419
 20
519.5345610957478
 30
0.0
 11
2171.796964276873
 21
494.3095571274784
 31
0.0
  0
LINE
  5
B9E
330
1F
100
AcDbEntity
  8
NOSNÉ KONSTRUKCE
100
AcDbLine
 10
2180.826138822461
 20
520.8719487522444
 30
0.0
 11
2179.211268431406
 21
487.5916662431004
 31
0.0
  0
HATCH
  5
B9F
330
1F
100
AcDbEntity
  8
PROFILY
100
AcDbHatch
 10
0.0
 20
0.0
 30
0.0
210
0.0
220
0.0
230
1.0
  2
SOLID
 70
     1
 71
     0
 91
        1
 92
        7
 72
     0
 73
     1
 93
        4
 10
2193.211015269212
 20
481.5212817529732
 10
2195.211015269215
 20
481.5212817529732
 10
2195.211015269215
 20
500.7036368975218
 10
2193.211015269215
 20
500.7036368975218
 97
        0
 75
     0
 76
     1
 47
0.0801976285649081
 98
        1
 10
2193.54868833951
 20
494.8622210049157
  0
LWPOLYLINE
  5
BA0
330
1F
100
AcDbEntity
  8
PROFILY
100
AcDbPolyline
 90
        4
 70
     1
 43
0.0
 10
2193.211015269215
 20
500.7041487350774
 10
2193.211015269215
 20
481.5217935905288
 10
2195.211015269215
 20
481.5217935905288
 10
2195.211015269215
 20
500.7041487350774
  0
HATCH
  5
BA1
330
1F
100
AcDbEntity
  8
PROFILY
100
AcDbHatch
 10
0.0
 20
0.0
 30
0.0
210
0.0
220
0.0
230
1.0
  2
SOLID
 70
     1
 71
     0
 91
        1
 92
        7
 72
     0
 73
     1
 93
        4
 10
2193.211015269212
 20
449.0062159751373
 10
2195.211015269215
 20
449.0062159751373
 10
2195.211015269215
 20
468.1885711196859
 10
2193.211015269215
 20
468.1885711196859
 97
        0
 75
     0
 76
     1
 47
0.0801976285649081
 98
        1
 10
2193.54868833951
 20
462.3471552270798
  0
LINE
  5
BA2
330
1F
100
AcDbEntity
  8
POPIS
100
AcDbLine
 10
2180.743726421606
 20
481.7384905646063
 30
0.0
 11
2186.316295598987
 21
473.9376384817092
 31
0.0
  0
LINE
  5
BA3
330
1F
100
AcDbEntity
  8
POPIS
100
AcDbLine
 10
2186.316295598987
 20
473.9376384817092
 30
0.0
 11
2182.637454261389
 21
473.9376384817092
 31
0.0
  0
LINE
  5
BA4
330
1F
100
AcDbEntity
  8
POPIS
100
AcDbLine
 10
2182.637454261389
 20
473.9423595785005
 30
0.0
 11
2184.163200209347
 21
461.0067156794171
 31
0.0
  0
LINE
  5
BA5
330
1F
100
AcDbEntity
  8
POPIS
100
AcDbLine
 10
2178.849998581824
 20
473.9423595785005
 30
0.0
 11
2177.324252633866
 21
461.0067156794171
 31
0.0
  0
LINE
  5
BA6
330
1F
100
AcDbEntity
  8
POPIS
100
AcDbLine
 10
2175.171157244226
 20
473.9376384817092
 30
0.0
 11
2178.849998581824
 21
473.9376384817092
 31
0.0
  0
LINE
  5
BA7
330
1F
100
AcDbEntity
  8
POPIS
100
AcDbLine
 10
2180.743726421606
 20
481.7384905646063
 30
0.0
 11
2175.171157244226
 21
473.9376384817092
 31
0.0
  0
HATCH
  5
BA8
330
1F
100
AcDbEntity
  8
POPIS
100
AcDbHatch
 10
0.0
 20
0.0
 30
0.0
210
0.0
220
0.0
230
1.0
  2
SOLID
 70
     1
 71
     0
 91
        1
 92
        7
 72
     0
 73
     1
 93
        8
 10
2182.637454261389
 20
473.9423595785005
 10
2186.316295598991
 20
473.9423595785005
 10
2180.74372642161
 20
481.7432116613958
 10
2175.171157244226
 20
473.9423595785005
 10
2178.849998581824
 20
473.9423595785005
 10
2177.324252633866
 20
461.0067156794152
 10
2180.743726421603
 20
466.3880123268986
 10
2184.163200209343
 20
461.0067156794152
 97
        0
 75
     0
 76
     1
 47
0.3835833255279223
 98
        1
 10
2181.151909168861
 20
471.0341763980009
  0
LINE
  5
BA9
330
1F
100
AcDbEntity
  8
NOSNÉ KONSTRUKCE
100
AcDbLine
 10
2172.291854448479
 20
469.3318753360904
 30
0.0
 11
2173.776495774844
 21
456.966668469518
 31
0.0
  0
LINE
  5
BAA
330
1F
100
AcDbEntity
  8
NOSNÉ KONSTRUKCE
100
AcDbLine
 10
2191.823831231261
 20
443.5756969332429
 30
0.0
 11
2190.253901253681
 21
470.5640124130509
 31
0.0
  0
LINE
  5
BAB
330
1F
100
AcDbEntity
  8
NOSNÉ KONSTRUKCE
100
AcDbLine
 10
2189.380962276257
 20
476.6056909122921
 30
0.0
 11
2190.253901253681
 21
470.5640124130509
 31
0.0
  0
LINE
  5
BAC
330
1F
100
AcDbEntity
  8
NOSNÉ KONSTRUKCE
100
AcDbLine
 10
2185.784536584485
 20
493.0979310144244
 30
0.0
 11
2185.140685174466
 21
482.8019450924816
 31
0.0
  0
LINE
  5
BAD
330
1F
100
AcDbEntity
  8
NOSNÉ KONSTRUKCE
100
AcDbLine
 10
2171.796964276873
 20
494.3095571274784
 30
0.0
 11
2172.291854448479
 21
469.3318753360904
 31
0.0
  0
LINE
  5
BAE
330
1F
100
AcDbEntity
  8
NOSNÉ KONSTRUKCE
100
AcDbLine
 10
2189.380962276257
 20
476.6056909122921
 30
0.0
 11
2191.073396178953
 21
509.5901711165602
 31
0.0
  0
LINE
  5
BAF
330
1F
100
AcDbEntity
  8
CETRIS
100
AcDbLine
 10
2154.679679784408
 20
494.6839144974505
 30
0.0
 11
2154.679679784408
 21
388.4277061352218
 31
0.0
  0
LINE
  5
BB0
330
1F
100
AcDbEntity
  8
SPOJOVACÍ
100
AcDbLine
 10
2152.43614532362
 20
447.1506370189613
 30
0.0
 11
2154.122965182098
 21
447.1506370189613
 31
0.0
  0
LINE
  5
BB1
330
1F
100
AcDbEntity
  8
SPOJOVACÍ
100
AcDbLine
 10
2154.122965182098
 20
440.0314963939613
 30
0.0
 11
2154.122965182098
 21
447.1506370189613
 31
0.0
  0
ELLIPSE
  5
BB2
330
1F
100
AcDbEntity
  8
SPOJOVACÍ
100
AcDbEllipse
 10
2152.189754943582
 20
440.0314963939613
 30
0.0
 11
0.0000000000000018
 21
-7.321312510456553
 31
0.0
210
0.0
220
0.0
230
-1.0
 40
0.3214803388886193
 41
-0.2355512395776302
 42
3.377143893167422
  0
HATCH
  5
BB3
330
1F
100
AcDbEntity
  8
SPOJOVACÍ
100
AcDbHatch
 10
0.0
 20
0.0
 30
0.0
210
0.0
220
0.0
230
1.0
  2
ANSI37
 70
     0
 71
     0
 91
        1
 92
        7
 72
     0
 73
     1
 93
        6
 10
2152.739049390883
 20
440.0314963939613
 10
2152.739049390887
 20
447.1506370189595
 10
2154.122965182098
 20
447.1506370189613
 10
2154.122965182098
 20
440.0314963939613
 10
2154.122965182098
 20
432.9123557689613
 10
2152.739049390883
 20
432.9123557689631
 97
        0
 75
     0
 76
     1
 52
-90.00000000000001
 41
0.9
 77
     0
 78
     2
 53
45.00000000000001
 43
-1688.107250261446
 44
-9642.829815676924
 45
2.02055762724056
 46
-2.020557627240558
 79
     0
 53
315.0
 43
-1688.107250261446
 44
-9642.829815676924
 45
-2.020557627240558
 46
-2.02055762724056
 79
     0
 47
0.0246402553748132
 98
        1
 10
2153.210000832856
 20
439.6306507322747
  0
LINE
  5
BB4
330
1F
100
AcDbEntity
  8
SPOJOVACÍ
100
AcDbLine
 10
2152.739049390883
 20
436.195528216896
 30
0.0
 11
2152.739049390883
 21
447.1506370189613
 31
0.0
  0
LINE
  5
BB5
330
1F
100
AcDbEntity
  8
SPOJOVACÍ
100
AcDbLine
 10
2152.739049390883
 20
447.1506370189595
 30
0.0
 11
2154.122965182098
 21
447.1506370189613
 31
0.0
  0
LINE
  5
BB6
330
1F
100
AcDbEntity
  8
NOSNÉ KONSTRUKCE
100
AcDbLine
 10
2183.956253016295
 20
460.023684532874
 30
0.0
 11
2184.095109092152
 21
455.2054315057753
 31
0.0
  0
LINE
  5
BB7
330
1F
100
AcDbEntity
  8
NOSNÉ KONSTRUKCE
100
AcDbLine
 10
2192.93800998608
 20
391.482858296074
 30
0.0
 11
2191.823831231261
 21
443.5756969332429
 31
0.0
  0
LINE
  5
BB8
330
1F
100
AcDbEntity
  8
NOSNÉ KONSTRUKCE
100
AcDbLine
 10
2168.966398382487
 20
455.8258138410451
 30
0.0
 11
2175.144793070053
 21
387.9006076441132
 31
0.0
  0
LINE
  5
BB9
330
1F
100
AcDbEntity
  8
NOSNÉ KONSTRUKCE
100
AcDbLine
 10
2174.386446816782
 20
449.2955499302584
 30
0.0
 11
2174.386446816778
 21
387.7479322525273
 31
0.0
  0
LINE
  5
BBA
330
1F
100
AcDbEntity
  8
NOSNÉ KONSTRUKCE
100
AcDbLine
 10
2178.927936146196
 20
451.1580789452887
 30
0.0
 11
2179.591721457833
 21
388.7958933134518
 31
0.0
  0
LINE
  5
BBB
330
1F
100
AcDbEntity
  8
NOSNÉ KONSTRUKCE
100
AcDbLine
 10
2184.095109092152
 20
455.2054315057753
 30
0.0
 11
2187.406128419171
 21
390.3691425220699
 31
0.0
  0
LINE
  5
BBC
330
1F
100
AcDbEntity
  8
NOSNÉ KONSTRUKCE
100
AcDbLine
 10
2173.776495774844
 20
456.966668469518
 30
0.0
 11
2174.386446816782
 21
449.2955499302584
 31
0.0
  0
LINE
  5
BBD
330
1F
100
AcDbEntity
  8
NOSNÉ KONSTRUKCE
100
AcDbLine
 10
2178.662397563898
 20
460.023684532874
 30
0.0
 11
2178.927936146196
 21
451.1580789452887
 31
0.0
  0
LINE
  5
BBE
330
1F
100
AcDbEntity
  8
SPOJOVACÍ
100
AcDbLine
 10
2185.079547877562
 20
440.0314963939595
 30
0.0
 11
2182.889954954958
 21
437.1895261650601
 31
0.0
  0
LINE
  5
BBF
330
1F
100
AcDbEntity
  8
SPOJOVACÍ
100
AcDbLine
 10
2185.079547877562
 20
440.0314963939595
 30
0.0
 11
2182.889954954958
 21
442.8734666228606
 31
0.0
  0
LINE
  5
BC0
330
1F
100
AcDbEntity
  8
SPOJOVACÍ
100
AcDbLine
 10
2183.107779006598
 20
442.8734666228606
 30
0.0
 11
2184.181580574285
 21
438.8659846149944
 31
0.0
  0
LINE
  5
BC1
330
1F
100
AcDbEntity
  8
SPOJOVACÍ
100
AcDbLine
 10
2179.943716506598
 20
442.8734666228606
 30
0.0
 11
2181.46672376209
 21
437.1895261650601
 31
0.0
  0
LINE
  5
BC2
330
1F
100
AcDbEntity
  8
SPOJOVACÍ
100
AcDbLine
 10
2178.361685256598
 20
442.8734666228606
 30
0.0
 11
2179.884692512089
 21
437.1895261650601
 31
0.0
  0
LINE
  5
BC3
330
1F
100
AcDbEntity
  8
SPOJOVACÍ
100
AcDbLine
 10
2181.525747756598
 20
442.8734666228606
 30
0.0
 11
2183.048755012089
 21
437.1895261650601
 31
0.0
  0
LINE
  5
BC4
330
1F
100
AcDbEntity
  8
SPOJOVACÍ
100
AcDbLine
 10
2170.451529006598
 20
442.8734666228606
 30
0.0
 11
2171.974536262089
 21
437.1895261650601
 31
0.0
  0
LINE
  5
BC5
330
1F
100
AcDbEntity
  8
SPOJOVACÍ
100
AcDbLine
 10
2172.033560256598
 20
442.8734666228606
 30
0.0
 11
2173.556567512089
 21
437.1895261650601
 31
0.0
  0
LINE
  5
BC6
330
1F
100
AcDbEntity
  8
SPOJOVACÍ
100
AcDbLine
 10
2173.615591506594
 20
442.8734666228606
 30
0.0
 11
2175.138598762089
 21
437.1895261650601
 31
0.0
  0
LINE
  5
BC7
330
1F
100
AcDbEntity
  8
SPOJOVACÍ
100
AcDbLine
 10
2175.197622756598
 20
442.8734666228606
 30
0.0
 11
2176.720630012089
 21
437.1895261650601
 31
0.0
  0
LINE
  5
BC8
330
1F
100
AcDbEntity
  8
SPOJOVACÍ
100
AcDbLine
 10
2164.123404006598
 20
442.8734666228606
 30
0.0
 11
2165.646411262093
 21
437.1895261650601
 31
0.0
  0
LINE
  5
BC9
330
1F
100
AcDbEntity
  8
SPOJOVACÍ
100
AcDbLine
 10
2165.705435256598
 20
442.8734666228606
 30
0.0
 11
2167.228442512089
 21
437.1895261650601
 31
0.0
  0
LINE
  5
BCA
330
1F
100
AcDbEntity
  8
SPOJOVACÍ
100
AcDbLine
 10
2167.287466506598
 20
442.8734666228606
 30
0.0
 11
2168.810473762089
 21
437.1895261650601
 31
0.0
  0
LINE
  5
BCB
330
1F
100
AcDbEntity
  8
SPOJOVACÍ
100
AcDbLine
 10
2159.377310256598
 20
442.8734666228606
 30
0.0
 11
2160.900317512093
 21
437.1895261650601
 31
0.0
  0
LINE
  5
BCC
330
1F
100
AcDbEntity
  8
SPOJOVACÍ
100
AcDbLine
 10
2160.959341506598
 20
442.8734666228606
 30
0.0
 11
2162.482348762093
 21
437.1895261650601
 31
0.0
  0
LINE
  5
BCD
330
1F
100
AcDbEntity
  8
SPOJOVACÍ
100
AcDbLine
 10
2162.541372756598
 20
442.8734666228606
 30
0.0
 11
2164.064380012093
 21
437.1895261650601
 31
0.0
  0
LINE
  5
BCE
330
1F
100
AcDbEntity
  8
SPOJOVACÍ
100
AcDbLine
 10
2157.795279006598
 20
442.8734666228606
 30
0.0
 11
2159.318286262093
 21
437.1895261650601
 31
0.0
  0
LINE
  5
BCF
330
1F
100
AcDbEntity
  8
SPOJOVACÍ
100
AcDbLine
 10
2168.869497756598
 20
442.8734666228606
 30
0.0
 11
2170.392505012093
 21
437.1895261650601
 31
0.0
  0
LINE
  5
BD0
330
1F
100
AcDbEntity
  8
SPOJOVACÍ
100
AcDbLine
 10
2182.889954954958
 20
437.1895261650601
 30
0.0
 11
2154.122965182098
 21
437.1895261650601
 31
0.0
  0
LINE
  5
BD1
330
1F
100
AcDbEntity
  8
SPOJOVACÍ
100
AcDbLine
 10
2182.889954954958
 20
442.8734666228606
 30
0.0
 11
2154.122965182098
 21
442.8734666228606
 31
0.0
  0
LINE
  5
BD2
330
1F
100
AcDbEntity
  8
SPOJOVACÍ
100
AcDbLine
 10
2176.779654006598
 20
442.8734666228606
 30
0.0
 11
2178.302661262089
 21
437.1895261650601
 31
0.0
  0
LINE
  5
BD3
330
1F
100
AcDbEntity
  8
SPOJOVACÍ
100
AcDbLine
 10
2154.122965182098
 20
432.9123557689613
 30
0.0
 11
2154.122965182098
 21
440.0314963939613
 31
0.0
  0
LINE
  5
BD4
330
1F
100
AcDbEntity
  8
SPOJOVACÍ
100
AcDbLine
 10
2154.122965182098
 20
432.9123557689613
 30
0.0
 11
2152.43614532362
 21
432.9123557689613
 31
0.0
  0
LINE
  5
BD5
330
1F
100
AcDbEntity
  8
SPOJOVACÍ
100
AcDbLine
 10
2153.252421652142
 20
434.8107932689613
 30
0.0
 11
2153.247675558393
 21
434.8107932689613
 31
0.0
  0
LINE
  5
BD6
330
1F
100
AcDbEntity
  8
SPOJOVACÍ
100
AcDbLine
 10
2154.122965182098
 20
432.9123557689613
 30
0.0
 11
2152.739049390883
 21
432.9123557689631
 31
0.0
  0
LINE
  5
BD7
330
1F
100
AcDbEntity
  8
SPOJOVACÍ
100
AcDbLine
 10
2153.252421652142
 20
434.8107932689613
 30
0.0
 11
2153.247675558393
 21
434.8107932689613
 31
0.0
  0
LINE
  5
BD8
330
1F
100
AcDbEntity
  8
SPOJOVACÍ
100
AcDbLine
 10
2152.739049390883
 20
440.0314963939613
 30
0.0
 11
2152.739049390883
 21
432.9123557689613
 31
0.0
  0
HATCH
  5
BD9
330
1F
100
AcDbEntity
  8
PROFILY
100
AcDbHatch
 10
0.0
 20
0.0
 30
0.0
210
0.0
220
0.0
230
1.0
  2
SOLID
 70
     1
 71
     0
 91
        1
 92
        7
 72
     0
 73
     1
 93
        4
 10
2193.211015269212
 20
414.5992257248049
 10
2195.211015269215
 20
414.5992257248049
 10
2195.211015269215
 20
433.7815808693535
 10
2193.211015269215
 20
433.7815808693535
 97
        0
 75
     0
 76
     1
 47
0.0801976285649081
 98
        1
 10
2193.54868833951
 20
427.9401649767473
  0
LINE
  5
BDA
330
1F
100
AcDbEntity
  8
STAVBA OBRYS
  6
IZOLACE
 48
4.0
100
AcDbLine
 10
2237.392379417663
 20
846.2751743372768
 30
0.0
 11
2236.738001215232
 21
402.0947323119103
 31
0.0
  0
INSERT
  5
BDB
330
1F
100
AcDbEntity
  8
POPIS
100
AcDbBlockReference
  2
E_PUNKT
 10
2149.041911100631
 20
439.9467374350911
 30
0.0
  0
INSERT
  5
BDC
330
1F
100
AcDbEntity
  8
POPIS
100
AcDbBlockReference
  2
E_PUNKT
 10
2180.524121463587
 20
516.1329739922198
 30
0.0
  0
LINE
  5
BDD
330
1F
100
AcDbEntity
  8
POPIS
100
AcDbLine
 10
1999.7966051845
 20
564.4849649762559
 30
0.0
 11
2194.920444669191
 21
564.4849649762559
 31
0.0
  0
TEXT
  5
BDE
330
1F
100
AcDbEntity
  8
POPIS
100
AcDbText
 10
1959.819118841232
 20
551.0416235268872
 30
0.0
 40
25.0
  1
05
 41
0.7
  7
SIMPLEX7
100
AcDbText
  0
INSERT
  5
BDF
330
1F
100
AcDbEntity
  8
POPIS
100
AcDbBlockReference
  2
E_PUNKT
 10
2194.375056016794
 20
565.0342632847073
 30
0.0
  0
LINE
  5
BE0
330
1F
100
AcDbEntity
  8
POPIS
100
AcDbLine
 10
1999.7966051845
 20
684.5845495014123
 30
0.0
 11
2201.066711171491
 21
684.5845495014123
 31
0.0
  0
TEXT
  5
BE1
330
1F
100
AcDbEntity
  8
POPIS
100
AcDbText
 10
1959.819118841232
 20
671.1412080520435
 30
0.0
 40
25.0
  1
09
 41
0.7
  7
SIMPLEX7
100
AcDbText
  0
INSERT
  5
BE2
330
1F
100
AcDbEntity
  8
POPIS
100
AcDbBlockReference
  2
E_PUNKT
 10
2200.977052445637
 20
685.0717499790566
 30
0.0
  0
INSERT
  5
BE3
330
1F
100
AcDbEntity
  8
POPIS
100
AcDbBlockReference
  2
E_PUNKT
 10
2240.589031018765
 20
738.1146204289448
 30
0.0
  0
LINE
  5
BE4
330
1F
100
AcDbEntity
  8
STAVBA OBRYS
100
AcDbLine
 10
2195.525478148786
 20
946.2751743372768
 30
0.0
 11
2195.52547814879
 21
466.1794171654878
 31
0.0
  0
LINE
  5
BE5
330
1F
100
AcDbEntity
  8
STAVBA OBRYS
100
AcDbLine
 10
2515.907358353969
 20
456.5052296983107
 30
0.0
 11
2516.085312182597
 21
556.3692541507348
 31
0.0
  0
LINE
  5
BE6
330
1F
100
AcDbEntity
  8
POPIS
100
AcDbLine
 10
1999.7966051845
 20
965.3898398859041
 30
0.0
 11
2111.012060651214
 21
965.3898398859015
 31
0.0
  0
TEXT
  5
BE7
330
1F
100
AcDbEntity
  8
POPIS
100
AcDbText
 10
1958.416995146505
 20
951.9464984365317
 30
0.0
 40
25.0
  1
07
 41
0.7
  7
SIMPLEX7
100
AcDbText
  0
HATCH
  5
BE8
330
1F
100
AcDbEntity
  8
STAVBA OBRYS
100
AcDbHatch
 10
0.0
 20
0.0
 30
0.0
210
0.0
220
0.0
230
1.0
  2
AR-SAND
 70
     0
 71
     0
 91
        1
 92
        7
 72
     0
 73
     1
 93
        4
 10
2662.386199362242
 20
706.603896518512
 10
2409.076294838761
 20
706.603896518512
 10
2409.076294838761
 20
662.2097737961789
 10
2651.021748682165
 20
662.2097737961789
 97
        0
 75
     0
 76
     1
 52
0.0
 41
0.35
 77
     0
 78
     4
 53
37.5
 43
1258.520452202164
 44
-987.298091527546
 45
-0.560010953594416
 46
17.12946330652698
 79
     6
 49
0.0
 49
-13.5128
 49
0.0
 49
-15.113
 49
0.0
 49
-14.44625
 53
7.499999999999999
 43
1258.520452202164
 44
-987.298091527546
 45
15.73331490983009
 46
25.08887851989239
 79
     6
 49
0.0
 49
-7.2898
 49
0.0
 49
-12.17929999999999
 49
0.0
 49
-4.66725
 53
327.4999999999999
 43
1247.585752202162
 44
-987.298091527546
 45
27.68473295845102
 46
0.0503014637490992
 79
     6
 49
0.0
 49
-4.444999999999999
 49
0.0
 49
-16.002
 49
0.0
 49
-20.89149999999999
 53
317.5
 43
1247.585752202162
 44
-987.298091527546
 45
26.7244758365304
 46
7.802526314002567
 79
     6
 49
0.0
 49
-2.222499999999999
 49
0.0
 49
-10.49019999999999
 49
0.0
 49
-12.00149999999999
 47
0.9960938612785552
 98
        1
 10
2580.800344532669
 20
684.0655598145472
  0
HATCH
  5
BE9
330
1F
100
AcDbEntity
  8
STAVBA OBRYS
100
AcDbHatch
 10
0.0
 20
0.0
 30
0.0
210
0.0
220
0.0
230
1.0
  2
AR-CONC
 70
     0
 71
     0
 91
        1
 92
        7
 72
     0
 73
     1
 93
        5
 10
2651.021748682165
 20
662.2097737961789
 10
2353.571676225864
 20
662.2097737961789
 10
2353.571676225864
 20
556.3692541507348
 10
2409.076294838761
 20
556.3692541507348
 10
2623.927635954956
 20
556.3692541507348
 97
        0
 75
     0
 76
     1
 52
0.0
 41
0.35
 77
     0
 78
    13
 53
50.0
 43
1258.520452202164
 44
-987.298091527546
 45
63.7646341486014
 46
-5.57867993861608
 79
     2
 49
6.667499999999999
 49
-73.3425
 53
355.0
 43
1258.520452202164
 44
-987.298091527546
 45
-12.33498909148344
 46
66.86982500876299
 79
     2
 49
5.333999999999999
 49
-58.67399999999999
 53
100.451
 43
1263.834152202166
 44
-987.7629790275463
 45
51.42987558308573
 46
61.29084073710215
 79
     2
 49
5.6665
 49
-62.3315
 53
46.1842
 43
1258.520452202164
 44
-969.5180915275464
 45
94.87766431224546
 46
-14.7148147764545
 79
     2
 49
10.00124999999999
 49
-110.0137499999999
 53
96.63559999999998
 43
1266.426917202164
 44
-970.7443165275458
 45
83.09148206318299
 46
86.59894456151723
 79
     2
 49
8.499749999999972
 49
-93.49724999999978
 53
351.184
 43
1258.520452202164
 44
-969.5180915275464
 45
83.09161203487688
 46
86.59879125120918
 79
     2
 49
8.000999999999999
 49
-88.01099999999999
 53
21.0
 43
1267.410452202163
 44
-973.963091527546
 45
53.06520794238414
 46
-35.79293148086687
 79
     2
 49
6.667499999999999
 49
-73.3425
 53
326.0
 43
1267.410452202163
 44
-973.963091527546
 45
21.63070992167647
 46
64.46578814281174
 79
     2
 49
5.333999999999999
 49
-58.67399999999999
 53
71.45140000000001
 43
1271.832527202162
 44
-976.9458265275465
 45
74.69577176954356
 46
28.6730002006201
 79
     2
 49
5.6665
 49
-62.3315
 53
37.5
 43
1258.520452202164
 44
-987.298091527546
 45
1.081011137707135
 46
29.59426360560359
 79
     6
 49
0.0
 49
-57.96279999999999
 49
0.0
 49
-59.56299999999999
 49
0.0
 49
-58.89624999999999
 53
7.499999999999999
 43
1258.520452202164
 44
-987.298091527546
 45
23.38688187860701
 46
35.06320118634183
 79
     6
 49
0.0
 49
-33.95979999999999
 49
0.0
 49
-56.62929999999999
 49
0.0
 49
-22.44725
 53
327.4999999999999
 43
1238.695752202163
 44
-987.298091527546
 45
47.45670830840498
 46
-2.005060397435712
 79
     6
 49
0.0
 49
-22.22499999999999
 49
0.0
 49
-69.342
 49
0.0
 49
-92.01149999999998
 53
317.5
 43
1229.805752202163
 44
-987.298091527546
 45
51.84521348510632
 46
8.899271861666553
 79
     6
 49
0.0
 49
-28.8925
 49
0.0
 49
-46.05019999999999
 49
0.0
 49
-65.3415
 47
1.943322863705773
 98
        1
 10
2468.158423090205
 20
619.824542245647
  0
LINE
  5
BEA
330
1F
100
AcDbEntity
  8
STAVBA OBRYS
100
AcDbLine
 10
2409.076294838761
 20
706.603896518512
 30
0.0
 11
2409.076294838761
 21
662.2097737961789
 31
0.0
  0
LINE
  5
BEB
330
1F
100
AcDbEntity
  8
STAVBA OBRYS
100
AcDbLine
 10
2409.076294838761
 20
706.603896518512
 30
0.0
 11
2662.386199362242
 21
706.603896518512
 31
0.0
  0
LINE
  5
BEC
330
1F
100
AcDbEntity
  8
STAVBA OBRYS
  6
IZOLACE
 48
1.399999999999999
100
AcDbLine
 10
2409.076294838761
 20
721.5340272809148
 30
0.0
 11
2666.208163268537
 21
721.534027280913
 31
0.0
  0
LINE
  5
BED
330
1F
100
AcDbEntity
  8
STAVBA OBRYS
  6
IZOLACE
 48
1.399999999999999
100
AcDbLine
 10
2409.076294838761
 20
751.3942888057203
 30
0.0
 11
2673.852091081128
 21
751.3942888057203
 31
0.0
  0
LINE
  5
BEE
330
1F
100
AcDbEntity
  8
STAVBA OBRYS
100
AcDbLine
 10
2409.076294838761
 20
766.3244195681231
 30
0.0
 11
2409.076294838761
 21
706.603896518512
 31
0.0
  0
LINE
  5
BEF
330
1F
100
AcDbEntity
  8
STAVBA OBRYS
100
AcDbLine
 10
2409.076294838761
 20
736.4641580433176
 30
0.0
 11
2670.030127174833
 21
736.4641580433176
 31
0.0
  0
LINE
  5
BF0
330
1F
100
AcDbEntity
  8
STAVBA OBRYS
100
AcDbLine
 10
2353.571676225864
 20
662.2097737961789
 30
0.0
 11
2651.021748682165
 21
662.2097737961789
 31
0.0
  0
LINE
  5
BF1
330
1F
100
AcDbEntity
  8
STAVBA OBRYS
100
AcDbLine
 10
2353.571676225864
 20
556.3692541507348
 30
0.0
 11
2353.571676225864
 21
662.2097737961789
 31
0.0
  0
LINE
  5
BF2
330
1F
100
AcDbEntity
  8
STAVBA OBRYS
100
AcDbLine
 10
2409.076294838761
 20
556.3692541507348
 30
0.0
 11
2353.571676225864
 21
556.3692541507348
 31
0.0
  0
LINE
  5
BF3
330
1F
100
AcDbEntity
  8
STAVBA OBRYS
100
AcDbLine
 10
2279.318108391275
 20
949.0909895639902
 30
0.0
 11
2411.090454962022
 21
949.0909895639902
 31
0.0
  0
LINE
  5
BF4
330
1F
100
AcDbEntity
  8
STAVBA OBRYS
100
AcDbLine
 10
2411.090454962022
 20
768.4283789245105
 30
0.0
 11
2411.090454962022
 21
949.0909895639902
 31
0.0
  0
LINE
  5
BF5
330
1F
100
AcDbEntity
  8
STAVBA OBRYS
100
AcDbLine
 10
2411.090454962018
 20
768.4283789245105
 30
0.0
 11
2679.688215110681
 21
768.4283789245105
 31
0.0
  0
LINE
  5
BF6
330
1F
100
AcDbEntity
  8
STAVBA OBRYS
100
AcDbLine
 10
2409.076294838761
 20
766.3244195681231
 30
0.0
 11
2409.076294838761
 21
946.9870302076028
 31
0.0
  0
LINE
  5
BF7
330
1F
100
AcDbEntity
  8
STAVBA OBRYS
100
AcDbLine
 10
2409.076294838761
 20
556.3692541507348
 30
0.0
 11
2623.927635954956
 21
556.3692541507348
 31
0.0
  0
HATCH
  5
BF8
330
1F
100
AcDbEntity
  8
PROFILY
100
AcDbHatch
 10
0.0
 20
0.0
 30
0.0
210
0.0
220
0.0
230
1.0
  2
SOLID
 70
     1
 71
     0
 91
        2
 92
        7
 72
     1
 73
     1
 93
       18
 10
2426.92341573105
 20
958.3902491435051
 42
0.0
 10
2426.92341573105
 20
936.6594589931187
 42
0.0
 10
2420.531385390751
 20
943.1217640265671
 42
0.0
 10
2418.79841573105
 20
941.4076396411887
 42
0.0
 10
2427.970759177814
 20
932.1344544294674
 42
0.6701573805495633
 10
2429.36091573105
 20
932.7058292245924
 42
0.0
 10
2429.36091573105
 20
960.7704629010454
 42
0.0
 10
2113.158509005284
 20
965.5660992606184
 42
-0.1548638422138271
 10
2113.387234580416
 20
964.8453367830201
 42
-1.0
 10
2110.887234580416
 20
964.8453367830201
 42
-0.1626375651849663
 10
2111.138287515154
 20
965.5967386467414
 42
0.0
 10
2110.46873612145
 20
965.6068932974973
 42
0.0
 10
2110.46873612145
 20
937.6581378589158
 42
0.6701573805506788
 10
2111.858892674682
 20
937.086763063789
 42
0.0
 10
2121.03123612145
 20
946.3599482755103
 42
0.0
 10
2119.298266461749
 20
948.0740726608887
 42
0.0
 10
2112.90623612145
 20
941.6117676274403
 42
0.0
 10
2112.90623612145
 20
963.4252012072479
 42
0.0
 97
        0
 92
       23
 72
     0
 73
     1
 93
        8
 10
2421.929202326567
 20
953.5718163697978
 10
2422.684398630253
 20
943.100916732366
 10
2425.115583591135
 20
943.2762619232867
 10
2424.201809129729
 20
955.9458693219854
 10
2115.60822010514
 20
960.6261076894966
 10
2114.714068261365
 20
948.2285705576082
 10
2117.145253222247
 20
948.0532253666874
 10
2117.8948656289
 20
958.4467035110296
 97
        0
 75
     0
 76
     1
 47
0.4153941033642652
 98
        2
 10
2275.477172842992
 20
961.8251722029176
 10
2274.645875964696
 20
956.8404371690681
  0
LINE
  5
BF9
330
1F
100
AcDbEntity
  8
PROFILY
100
AcDbLine
 10
2426.92341573105
 20
958.3902491435051
 30
0.0
 11
2426.92341573105
 21
936.6594589931187
 31
0.0
  0
LINE
  5
BFA
330
1F
100
AcDbEntity
  8
PROFILY
100
AcDbLine
 10
2429.36091573105
 20
960.7704629010454
 30
0.0
 11
2429.36091573105
 21
932.7058292245942
 31
0.0
  0
ARC
  5
BFB
330
1F
100
AcDbEntity
  8
PROFILY
100
AcDbCircle
 10
2428.54841573105
 20
932.7058292245942
 30
0.0
 40
0.8125
100
AcDbArc
 50
224.6867669083368
 51
0.0
  0
LINE
  5
BFC
330
1F
100
AcDbEntity
  8
PROFILY
100
AcDbLine
 10
2426.92341573105
 20
936.6594589931187
 30
0.0
 11
2420.531385390751
 21
943.1217640265671
 31
0.0
  0
LINE
  5
BFD
330
1F
100
AcDbEntity
  8
PROFILY
100
AcDbLine
 10
2418.79841573105
 20
941.4076396411887
 30
0.0
 11
2420.531385390751
 21
943.1217640265671
 31
0.0
  0
LINE
  5
BFE
330
1F
100
AcDbEntity
  8
PROFILY
100
AcDbLine
 10
2427.970759177818
 20
932.1344544294639
 30
0.0
 11
2418.79841573105
 21
941.4076396411887
 31
0.0
  0
LINE
  5
BFF
330
1F
100
AcDbEntity
  8
PROFILY
100
AcDbLine
 10
2425.115583591135
 20
943.2762619232867
 30
0.0
 11
2422.684398630253
 21
943.100916732366
 31
0.0
  0
LINE
  5
C00
330
1F
100
AcDbEntity
  8
PROFILY
100
AcDbLine
 10
2424.201809129729
 20
955.9458693219854
 30
0.0
 11
2425.115583591135
 21
943.2762619232867
 31
0.0
  0
LINE
  5
C01
330
1F
100
AcDbEntity
  8
PROFILY
100
AcDbLine
 10
2421.929202326567
 20
953.5718163697978
 30
0.0
 11
2422.684398630253
 21
943.100916732366
 31
0.0
  0
LINE
  5
C02
330
1F
100
AcDbEntity
  8
STAVBA OBRYS
100
AcDbLine
 10
2409.076294838761
 20
766.3244195681231
 30
0.0
 11
2677.674054987424
 21
766.3244195681231
 31
0.0
  0
LINE
  5
C03
330
1F
100
AcDbEntity
  8
PROFILY
100
AcDbLine
 10
2114.714068261365
 20
948.2285705576082
 30
0.0
 11
2117.145253222247
 21
948.0532253666874
 31
0.0
  0
LINE
  5
C04
330
1F
100
AcDbEntity
  8
PROFILY
100
AcDbLine
 10
2424.201809129729
 20
955.9458693219854
 30
0.0
 11
2115.60822010514
 21
960.6261076894984
 31
0.0
  0
LINE
  5
C05
330
1F
100
AcDbEntity
  8
PROFILY
100
AcDbLine
 10
2421.929202326567
 20
953.5718163697978
 30
0.0
 11
2117.8948656289
 21
958.4467035110296
 31
0.0
  0
LINE
  5
C06
330
1F
100
AcDbEntity
  8
PROFILY
100
AcDbLine
 10
2117.8948656289
 20
958.4467035110296
 30
0.0
 11
2117.145253222247
 21
948.0532253666874
 31
0.0
  0
LINE
  5
C07
330
1F
100
AcDbEntity
  8
PROFILY
100
AcDbLine
 10
2115.60822010514
 20
960.6261076894984
 30
0.0
 11
2114.714068261365
 21
948.2285705576082
 31
0.0
  0
LINE
  5
C08
330
1F
100
AcDbEntity
  8
STAVBA OBRYS
100
AcDbLine
 10
2279.318108391275
 20
946.9870302076028
 30
0.0
 11
2409.076294838764
 21
946.9870302076028
 31
0.0
  0
LINE
  5
C09
330
1F
100
AcDbEntity
  8
STAVBA OBRYS
100
AcDbLine
 10
2279.318108391279
 20
674.2518247722123
 30
0.0
 11
2279.318108391275
 21
408.8734833465564
 31
0.0
  0
LINE
  5
C0A
330
1F
100
AcDbEntity
  8
STAVBA OBRYS
100
AcDbLine
 10
2277.688144771525
 20
674.2003840586271
 30
0.0
 11
2277.688144771525
 21
408.5453280575452
 31
0.0
  0
LINE
  5
C0B
330
1F
100
AcDbEntity
  8
PROFILY
100
AcDbLine
 10
2426.92341573105
 20
958.3902491435051
 30
0.0
 11
2112.90623612145
 21
963.4252012072479
 31
0.0
  0
LINE
  5
C0C
330
1F
100
AcDbEntity
  8
PROFILY
100
AcDbLine
 10
2429.36091573105
 20
960.7704629010454
 30
0.0
 11
2110.46873612145
 21
965.6068932974973
 31
0.0
  0
INSERT
  5
C0D
330
1F
100
AcDbEntity
  8
POPIS
100
AcDbBlockReference
  2
E_PUNKT
 10
2112.10962420479
 20
964.8162684521462
 30
0.0
  0
LINE
  5
C0E
330
1F
100
AcDbEntity
  8
PROFILY
100
AcDbLine
 10
2111.858892674682
 20
937.0867630637853
 30
0.0
 11
2121.03123612145
 21
946.3599482755103
 31
0.0
  0
LINE
  5
C0F
330
1F
100
AcDbEntity
  8
PROFILY
100
AcDbLine
 10
2121.03123612145
 20
946.3599482755103
 30
0.0
 11
2119.298266461749
 21
948.0740726608887
 31
0.0
  0
LINE
  5
C10
330
1F
100
AcDbEntity
  8
PROFILY
100
AcDbLine
 10
2112.90623612145
 20
941.6117676274403
 30
0.0
 11
2119.298266461749
 21
948.0740726608887
 31
0.0
  0
ARC
  5
C11
330
1F
100
AcDbEntity
  8
PROFILY
100
AcDbCircle
 10
2111.28123612145
 20
937.6581378589158
 30
0.0
 40
0.8125
100
AcDbArc
 50
180.0
 51
315.3132330916632
  0
LINE
  5
C12
330
1F
100
AcDbEntity
  8
PROFILY
100
AcDbLine
 10
2110.46873612145
 20
965.6068932974973
 30
0.0
 11
2110.46873612145
 21
937.6581378589158
 31
0.0
  0
LINE
  5
C13
330
1F
100
AcDbEntity
  8
PROFILY
100
AcDbLine
 10
2112.90623612145
 20
963.4252012072479
 30
0.0
 11
2112.90623612145
 21
941.6117676274403
 31
0.0
  0
LINE
  5
C14
330
1F
100
AcDbEntity
  8
STAVBA OBRYS
100
AcDbLine
 10
2279.318108391275
 20
946.9870302076028
 30
0.0
 11
2279.318108391279
 21
674.2518247722123
 31
0.0
  0
TEXT
  5
C15
330
1F
100
AcDbEntity
  8
POPIS
100
AcDbText
 10
1910.522363649311
 20
1065.650304177097
 30
0.0
 40
35.0
  1
ŘEZ-ATIKA, PL. STŘECHA
 41
0.85
  7
SIMPLEX7
100
AcDbText
  0
TEXT
  5
C16
330
1F
100
AcDbEntity
  8
POPIS
100
AcDbText
 10
1910.522363649311
 20
1120.275047202897
 30
0.0
 40
50.0
  1
HORNÍ ZAKONČENÍ
 41
0.85
  7
SIMPLEX7
100
AcDbText
  0
CIRCLE
  5
C17
330
1F
100
AcDbEntity
  8
POPIS
100
AcDbCircle
 10
2149.692730274612
 20
306.3862986512917
 30
0.0
 40
11.13656048292026
  0
TEXT
  5
C18
330
1F
100
AcDbEntity
  8
POPIS
100
AcDbText
 10
2145.310446764288
 20
300.2761372833461
 30
0.0
 40
12.0
  1
R
 41
0.85
  7
SIMPLEX7
100
AcDbText
  0
TEXT
  5
C19
330
1F
100
AcDbEntity
  8
POPIS
100
AcDbText
 10
1922.963812820636
 20
98.19057153423409
 30
0.0
 40
25.0
  1
06
 41
0.85
  7
SIMPLEX7
100
AcDbText
  0
TEXT
  5
C1A
330
1F
100
AcDbEntity
  8
POPIS
100
AcDbText
 10
1922.963812820636
 20
133.809460232323
 30
0.0
 40
25.0
  1
05
 41
0.85
  7
SIMPLEX7
100
AcDbText
  0
TEXT
  5
C1B
330
1F
100
AcDbEntity
  8
POPIS
100
AcDbText
 10
1977.307515980385
 20
-46.97981358607512
 30
0.0
 40
25.0
  1
Tepelná izolace (np. ORSIL, ROCKWOOL, ISOVER, NOBASIL)
 41
0.7
  7
SIMPLEX7
100
AcDbText
  0
TEXT
  5
C1C
330
1F
100
AcDbEntity
  8
POPIS
100
AcDbText
 10
1922.963812820636
 20
-46.97981358607512
 30
0.0
 40
25.0
  1
08
 41
0.85
  7
SIMPLEX7
100
AcDbText
  0
TEXT
  5
C1D
330
1F
100
AcDbEntity
  8
POPIS
100
AcDbText
 10
1977.307515980385
 20
60.00723169170806
 30
0.0
 40
25.0
  1
Oplechování - klempířský výrobek
 41
0.7
  7
SIMPLEX7
100
AcDbText
  0
TEXT
  5
C1E
330
1F
100
AcDbEntity
  8
POPIS
100
AcDbText
 10
1922.963812820636
 20
60.00723169170806
 30
0.0
 40
25.0
  1
07
 41
0.85
  7
SIMPLEX7
100
AcDbText
  0
TEXT
  5
C1F
330
1F
100
AcDbEntity
  8
POPIS
100
AcDbText
 10
1922.963812820636
 20
169.9162817195115
 30
0.0
 40
25.0
  1
04
 41
0.85
  7
SIMPLEX7
100
AcDbText
  0
TEXT
  5
C20
330
1F
100
AcDbEntity
  8
POPIS
100
AcDbText
 10
1977.307515980385
 20
205.3204429376723
 30
0.0
 40
25.0
  1
Vzduchová mezera - min. 25 mm
 41
0.7
  7
SIMPLEX7
100
AcDbText
  0
TEXT
  5
C21
330
1F
100
AcDbEntity
  8
POPIS
100
AcDbText
 10
1922.963812820636
 20
205.3204429376723
 30
0.0
 40
25.0
  1
03
 41
0.85
  7
SIMPLEX7
100
AcDbText
  0
TEXT
  5
C22
330
1F
100
AcDbEntity
  8
POPIS
100
AcDbText
 10
1977.307515980385
 20
239.2706311823944
 30
0.0
 40
25.0
  1
Nerezový vrut s podložkou (np. SFS, EJOT)
 41
0.7
  7
SIMPLEX7
100
AcDbText
  0
TEXT
  5
C23
330
1F
100
AcDbEntity
  8
POPIS
100
AcDbText
 10
1922.963812820636
 20
239.2706311823944
 30
0.0
 40
25.0
  1
02
 41
0.85
  7
SIMPLEX7
100
AcDbText
  0
TEXT
  5
C24
330
1F
100
AcDbEntity
  8
POPIS
100
AcDbText
 10
1977.307515980385
 20
275.8656427980235
 30
0.0
 40
25.0
  1
Deska CETRIS   (BASIC,FINISH,LASUR)
 41
0.7
  7
SIMPLEX7
100
AcDbText
  0
TEXT
  5
C25
330
1F
100
AcDbEntity
  8
POPIS
100
AcDbText
 10
1922.963812820636
 20
275.8656427980235
 30
0.0
 40
25.0
  1
01
 41
0.85
  7
SIMPLEX7
100
AcDbText
  0
LINE
  5
C26
330
1F
100
AcDbEntity
  8
STAVBA OBRYS
100
AcDbLine
 10
2677.674054987424
 20
766.3244195681231
 30
0.0
 11
2679.688215110681
 21
768.4283789245105
 31
0.0
  0
LINE
  5
C27
330
1F
100
AcDbEntity
  8
STAVBA OBRYS
100
AcDbLine
 10
2669.323651959131
 20
766.3244195681231
 30
0.0
 11
2669.323651959131
 21
768.4283789245105
 31
0.0
  0
LINE
  5
C28
330
1F
100
AcDbEntity
  8
STAVBA OBRYS
100
AcDbLine
 10
2648.594525656031
 20
766.3244195681231
 30
0.0
 11
2648.594525656031
 21
768.4283789245105
 31
0.0
  0
LINE
  5
C29
330
1F
100
AcDbEntity
  8
STAVBA OBRYS
100
AcDbLine
 10
2627.865399352931
 20
766.3244195681231
 30
0.0
 11
2627.865399352931
 21
768.4283789245105
 31
0.0
  0
LINE
  5
C2A
330
1F
100
AcDbEntity
  8
STAVBA OBRYS
100
AcDbLine
 10
2586.40714674673
 20
766.3244195681231
 30
0.0
 11
2586.40714674673
 21
768.4283789245105
 31
0.0
  0
LINE
  5
C2B
330
1F
100
AcDbEntity
  8
STAVBA OBRYS
100
AcDbLine
 10
2607.13627304983
 20
766.3244195681231
 30
0.0
 11
2607.13627304983
 21
768.4283789245105
 31
0.0
  0
LINE
  5
C2C
330
1F
100
AcDbEntity
  8
STAVBA OBRYS
100
AcDbLine
 10
2544.94889414053
 20
766.3244195681231
 30
0.0
 11
2544.94889414053
 21
768.4283789245105
 31
0.0
  0
LINE
  5
C2D
330
1F
100
AcDbEntity
  8
STAVBA OBRYS
100
AcDbLine
 10
2565.67802044363
 20
766.3244195681231
 30
0.0
 11
2565.67802044363
 21
768.4283789245105
 31
0.0
  0
LINE
  5
C2E
330
1F
100
AcDbEntity
  8
STAVBA OBRYS
100
AcDbLine
 10
2503.421407802358
 20
766.3244195681231
 30
0.0
 11
2503.421407802358
 21
768.4283789245105
 31
0.0
  0
LINE
  5
C2F
330
1F
100
AcDbEntity
  8
STAVBA OBRYS
100
AcDbLine
 10
2524.150534105459
 20
766.3244195681231
 30
0.0
 11
2524.150534105459
 21
768.4283789245105
 31
0.0
  0
LINE
  5
C30
330
1F
100
AcDbEntity
  8
STAVBA OBRYS
100
AcDbLine
 10
2503.490641534329
 20
766.3244195681231
 30
0.0
 11
2503.490641534329
 21
768.4283789245105
 31
0.0
  0
LINE
  5
C31
330
1F
100
AcDbEntity
  8
STAVBA OBRYS
100
AcDbLine
 10
2524.219767837429
 20
766.3244195681231
 30
0.0
 11
2524.219767837429
 21
768.4283789245105
 31
0.0
  0
LINE
  5
C32
330
1F
100
AcDbEntity
  8
STAVBA OBRYS
100
AcDbLine
 10
2461.963155196158
 20
766.3244195681231
 30
0.0
 11
2461.963155196158
 21
768.4283789245105
 31
0.0
  0
LINE
  5
C33
330
1F
100
AcDbEntity
  8
STAVBA OBRYS
100
AcDbLine
 10
2482.692281499258
 20
766.3244195681231
 30
0.0
 11
2482.692281499258
 21
768.4283789245105
 31
0.0
  0
LINE
  5
C34
330
1F
100
AcDbEntity
  8
STAVBA OBRYS
100
AcDbLine
 10
2420.504902589958
 20
766.3244195681231
 30
0.0
 11
2420.504902589958
 21
768.4283789245105
 31
0.0
  0
LINE
  5
C35
330
1F
100
AcDbEntity
  8
STAVBA OBRYS
100
AcDbLine
 10
2441.234028893058
 20
766.3244195681231
 30
0.0
 11
2441.234028893058
 21
768.4283789245105
 31
0.0
  0
LINE
  5
C36
330
1F
100
AcDbEntity
  8
STAVBA OBRYS
100
AcDbLine
 10
2411.090454962018
 20
768.4283789245105
 30
0.0
 11
2409.076294838761
 21
768.4283789245105
 31
0.0
  0
LINE
  5
C37
330
1F
100
AcDbEntity
  8
STAVBA OBRYS
100
AcDbLine
 10
2411.090454962018
 20
787.3447242110246
 30
0.0
 11
2409.076294838761
 21
787.3447242110246
 31
0.0
  0
LINE
  5
C38
330
1F
100
AcDbEntity
  8
STAVBA OBRYS
100
AcDbLine
 10
2411.090454962018
 20
799.871627638678
 30
0.0
 11
2409.076294838761
 21
799.871627638678
 31
0.0
  0
LINE
  5
C39
330
1F
100
AcDbEntity
  8
STAVBA OBRYS
100
AcDbLine
 10
2411.090454962018
 20
818.7879729251921
 30
0.0
 11
2409.076294838761
 21
818.7879729251921
 31
0.0
  0
LINE
  5
C3A
330
1F
100
AcDbEntity
  8
STAVBA OBRYS
100
AcDbLine
 10
2411.090454962018
 20
844.093760070567
 30
0.0
 11
2409.076294838761
 21
844.093760070567
 31
0.0
  0
LINE
  5
C3B
330
1F
100
AcDbEntity
  8
STAVBA OBRYS
100
AcDbLine
 10
2411.090454962018
 20
881.9264506435953
 30
0.0
 11
2409.076294838761
 21
881.9264506435953
 31
0.0
  0
LINE
  5
C3C
330
1F
100
AcDbEntity
  8
STAVBA OBRYS
100
AcDbLine
 10
2411.090454962022
 20
926.3831196520854
 30
0.0
 11
2409.076294838764
 21
926.3831196520854
 31
0.0
  0
LINE
  5
C3D
330
1F
100
AcDbEntity
  8
STAVBA OBRYS
100
AcDbLine
 10
2411.090454962022
 20
945.2994649385995
 30
0.0
 11
2409.076294838764
 21
945.2994649385995
 31
0.0
  0
LINE
  5
C3E
330
1F
100
AcDbEntity
  8
STAVBA OBRYS
100
AcDbLine
 10
2390.724708751641
 20
946.9870302076028
 30
0.0
 11
2390.724708751641
 21
949.0909895639902
 31
0.0
  0
LINE
  5
C3F
330
1F
100
AcDbEntity
  8
STAVBA OBRYS
100
AcDbLine
 10
2372.373122664518
 20
946.9870302076028
 30
0.0
 11
2372.373122664518
 21
949.0909895639902
 31
0.0
  0
LINE
  5
C40
330
1F
100
AcDbEntity
  8
STAVBA OBRYS
100
AcDbLine
 10
2354.021536577395
 20
946.9870302076028
 30
0.0
 11
2354.021536577395
 21
949.0909895639902
 31
0.0
  0
LINE
  5
C41
330
1F
100
AcDbEntity
  8
STAVBA OBRYS
100
AcDbLine
 10
2335.669950490272
 20
946.9870302076028
 30
0.0
 11
2335.669950490272
 21
949.0909895639902
 31
0.0
  0
LINE
  5
C42
330
1F
100
AcDbEntity
  8
STAVBA OBRYS
100
AcDbLine
 10
2317.318364403149
 20
946.9870302076028
 30
0.0
 11
2317.318364403149
 21
949.0909895639902
 31
0.0
  0
LINE
  5
C43
330
1F
100
AcDbEntity
  8
STAVBA OBRYS
100
AcDbLine
 10
2298.966778316026
 20
946.9870302076028
 30
0.0
 11
2298.966778316026
 21
949.0909895639902
 31
0.0
  0
HATCH
  5
C44
330
1F
100
AcDbEntity
  8
STAVBA OBRYS
100
AcDbHatch
 10
0.0
 20
0.0
 30
0.0
210
0.0
220
0.0
230
1.0
  2
SOLID
 70
     1
 71
     0
 91
        8
 92
        7
 72
     0
 73
     1
 93
        4
 10
2298.966778316022
 20
949.0909895639902
 10
2279.318108391275
 20
949.0909895639902
 10
2279.318108391275
 20
946.9870302076028
 10
2298.966778316026
 20
946.9870302076028
 97
        0
 92
        7
 72
     0
 73
     1
 93
        4
 10
2335.669950490272
 20
949.0909895639902
 10
2317.318364403149
 20
949.0909895639902
 10
2317.318364403149
 20
946.9870302076028
 10
2335.669950490272
 20
946.9870302076028
 97
        0
 92
        7
 72
     0
 73
     1
 93
        4
 10
2372.373122664522
 20
949.0909895639902
 10
2354.021536577395
 20
949.0909895639902
 10
2354.021536577395
 20
946.9870302076028
 10
2372.373122664515
 20
946.9870302076028
 97
        0
 92
        7
 72
     0
 73
     1
 93
        4
 10
2409.076294838764
 20
949.0909895639902
 10
2390.724708751641
 20
949.0909895639902
 10
2390.724708751641
 20
946.9870302076028
 10
2409.076294838761
 20
946.9870302076028
 97
        0
 92
        7
 72
     0
 73
     1
 93
        4
 10
2411.090454962022
 20
949.0909895639902
 10
2409.076294838764
 20
949.0909895639902
 10
2409.076294838764
 20
945.2994649385995
 10
2411.090454962022
 20
945.2994649385995
 97
        0
 92
        7
 72
     0
 73
     1
 93
        4
 10
2411.090454962022
 20
926.3831196520854
 10
2409.076294838764
 20
926.3831196520854
 10
2409.076294838764
 20
907.4667743655714
 10
2411.090454962022
 20
907.4667743655714
 97
        0
 92
        7
 72
     0
 73
     1
 93
        4
 10
2411.090454962022
 20
888.5504290790573
 10
2409.076294838761
 20
888.5504290790573
 10
2409.076294838761
 20
869.6340837925431
 10
2411.090454962022
 20
869.6340837925431
 97
        0
 92
        7
 72
     0
 73
     1
 93
        4
 10
2411.090454962022
 20
850.7177385060289
 10
2409.076294838764
 20
850.7177385060289
 10
2409.076294838764
 20
831.801393219515
 10
2411.090454962022
 20
831.801393219515
 97
        0
 75
     0
 76
     1
 47
0.2980317030967905
 98
        8
 10
2288.658703669961
 20
947.8513959909555
 10
2326.827606619558
 20
947.5533707923036
 10
2361.1199431631
 20
947.2553455936481
 10
2400.779805548232
 20
947.5533707923036
 10
2410.322053746157
 20
946.6592766877633
 10
2410.023837901162
 20
914.7698771058545
 10
2410.322053746157
 20
880.4962204089838
 10
2410.023837901162
 20
840.5599738862269
  0
HATCH
  5
C45
330
1F
100
AcDbEntity
  8
STAVBA OBRYS
100
AcDbHatch
 10
0.0
 20
0.0
 30
0.0
210
0.0
220
0.0
230
1.0
  2
SOLID
 70
     1
 71
     0
 91
        8
 92
        7
 72
     0
 73
     1
 93
        4
 10
2411.090454962018
 20
787.3447242110246
 10
2409.076294838761
 20
787.3447242110246
 10
2409.076294838764
 20
768.4283789245105
 10
2411.090454962018
 20
768.4283789245105
 97
        0
 92
        7
 72
     0
 73
     1
 93
        4
 10
2441.234028893058
 20
768.4283789245105
 10
2420.504902589958
 20
768.4283789245105
 10
2420.504902589958
 20
766.3244195681231
 10
2441.234028893058
 20
766.3244195681231
 97
        0
 92
        7
 72
     0
 73
     1
 93
        4
 10
2482.692281499258
 20
768.4283789245105
 10
2461.963155196158
 20
768.4283789245105
 10
2461.963155196158
 20
766.3244195681231
 10
2482.692281499258
 20
766.3244195681231
 97
        0
 92
        7
 72
     0
 73
     1
 93
        4
 10
2524.150534105459
 20
768.4283789245105
 10
2503.490641534329
 20
768.4283789245105
 10
2503.490641534329
 20
766.3244195681231
 10
2524.150534105459
 20
766.3244195681231
 97
        0
 92
        7
 72
     0
 73
     1
 93
        4
 10
2565.67802044363
 20
768.4283789245105
 10
2544.94889414053
 20
768.4283789245105
 10
2544.94889414053
 20
766.3244195681231
 10
2565.67802044363
 20
766.3244195681231
 97
        0
 92
        7
 72
     0
 73
     1
 93
        4
 10
2607.13627304983
 20
768.4283789245105
 10
2586.40714674673
 20
768.4283789245105
 10
2586.40714674673
 20
766.3244195681231
 10
2607.13627304983
 20
766.3244195681231
 97
        0
 92
        7
 72
     0
 73
     1
 93
        4
 10
2648.594525656031
 20
768.4283789245105
 10
2627.865399352931
 20
768.4283789245105
 10
2627.865399352931
 20
766.3244195681231
 10
2648.594525656031
 20
766.3244195681231
 97
        0
 92
        7
 72
     0
 73
     1
 93
        4
 10
2679.688215110684
 20
768.4283789245105
 10
2669.323651959131
 20
768.4283789245105
 10
2669.323651959131
 20
766.3244195681231
 10
2677.674054987424
 20
766.3244195681231
 97
        0
 75
     0
 76
     1
 47
0.3390471718564263
 98
        8
 10
2410.038062898784
 20
774.8625037069555
 10
2430.820634695615
 20
767.5921288275799
 10
2472.206992529632
 20
767.5921288275799
 10
2518.342582939935
 20
767.2530886096624
 10
2551.926574496364
 20
767.5921288275799
 10
2603.829128681639
 20
767.2530886096624
 10
2632.32461398151
 20
767.9311690454974
 10
2675.531891301289
 20
767.2540510559643
  0
LINE
  5
C46
330
1F
100
AcDbEntity
  8
STAVBA OBRYS
100
AcDbLine
 10
2525.910963089032
 20
458.5192229943673
 30
0.0
 11
2526.067508446337
 21
546.3692541507348
 31
0.0
  0
LINE
  5
C47
330
1F
100
AcDbEntity
  8
STAVBA OBRYS
100
AcDbLine
 10
2526.067508446337
 20
546.3692541507348
 30
0.0
 11
2623.927635954956
 21
546.3692541507348
 31
0.0
  0
HATCH
  5
C48
330
1F
100
AcDbEntity
  8
STAVBA OBRYS
100
AcDbHatch
 10
0.0
 20
0.0
 30
0.0
210
0.0
220
0.0
230
1.0
  2
AR-SAND
 70
     0
 71
     0
 91
        1
 92
        7
 72
     0
 73
     1
 93
        6
 10
2623.927635954956
 20
556.3692541507348
 10
2516.085312182597
 20
556.3692541507348
 10
2515.91097896592
 20
458.5370425792548
 10
2525.910963089032
 20
458.519222994369
 10
2526.067508446337
 20
546.3692541507348
 10
2623.927635954956
 20
546.3692541507348
 97
        0
 75
     0
 76
     1
 52
0.0
 41
0.1
 77
     0
 78
     4
 53
37.5
 43
-10573.53288432124
 44
4059.674665440512
 45
-0.1600031295984046
 46
4.894132373293423
 79
     6
 49
0.0
 49
-3.8608
 49
0.0
 49
-4.318
 49
0.0
 49
-4.1275
 53
7.499999999999999
 43
-10573.53288432124
 44
4059.674665440512
 45
4.495232831380026
 46
7.168251005683543
 79
     6
 49
0.0
 49
-2.0828
 49
0.0
 49
-3.4798
 49
0.0
 49
-1.3335
 53
327.4999999999999
 43
-10576.65708432124
 44
4059.674665440512
 45
7.909923702414579
 46
0.0143718467854569
 79
     6
 49
0.0
 49
-1.27
 49
0.0
 49
-4.572
 49
0.0
 49
-5.969
 53
317.5
 43
-10576.65708432124
 44
4059.674665440512
 45
7.635564524722972
 46
2.229293232572162
 79
     6
 49
0.0
 49
-0.635
 49
0.0
 49
-2.997199999999999
 49
0.0
 49
-3.429
 47
0.5527599474937909
 98
        1
 10
2523.192687408301
 20
552.2189239193517
  0
LINE
  5
C49
330
1F
100
AcDbEntity
  8
PROFILY
100
AcDbLine
 10
2281.51338437009
 20
18.83521770089783
 30
0.0
 11
1962.62120476049
 21
23.67164809734958
 31
0.0
  0
LINE
  5
C4A
330
1F
100
AcDbEntity
  8
PROFILY
100
AcDbLine
 10
2279.07588437009
 20
16.45500394335749
 30
0.0
 11
1965.05870476049
 21
21.48995600710031
 31
0.0
  0
LINE
  5
C4B
330
1F
100
AcDbEntity
  8
PROFILY
100
AcDbLine
 10
2274.081670965607
 20
11.63657116965032
 30
0.0
 11
1970.04733426794
 21
16.51145831088206
 31
0.0
  0
LINE
  5
C4C
330
1F
100
AcDbEntity
  8
PROFILY
100
AcDbLine
 10
2276.35427776877
 20
14.01062412183773
 30
0.0
 11
1967.76068874418
 21
18.69086248935082
 31
0.0
  0
HATCH
  5
C4D
330
1F
100
AcDbEntity
  8
PROFILY
100
AcDbHatch
 10
0.0
 20
0.0
 30
0.0
210
0.0
220
0.0
230
1.0
  2
SOLID
 70
     1
 71
     0
 91
        2
 92
        7
 72
     1
 73
     1
 93
       18
 10
2279.07588437009
 20
16.45500394335749
 42
0.0
 10
2279.07588437009
 20
-5.275786207028886
 42
0.0
 10
2272.683854029791
 20
1.186518826419614
 42
0.0
 10
2270.95088437009
 20
-0.5276055589588396
 42
0.0
 10
2280.123227816854
 20
-9.800790770680123
 42
0.6701573805495633
 10
2281.51338437009
 20
-9.229415975555184
 42
0.0
 10
2281.51338437009
 20
18.83521770089783
 42
0.0
 10
1965.310977644324
 20
23.63085406047094
 42
-0.1548638422138271
 10
1965.539703219456
 20
22.9100915828726
 42
-1.0
 10
1963.039703219457
 20
22.9100915828726
 42
-0.1626375651849663
 10
1963.290756154195
 20
23.66149344659379
 42
0.0
 10
1962.62120476049
 20
23.67164809734958
 42
0.0
 10
1962.62120476049
 20
-4.27710734123184
 42
0.6701573805506788
 10
1964.011361313722
 20
-4.848482136358597
 42
0.0
 10
1973.18370476049
 20
4.424703075362685
 42
0.0
 10
1971.450735100789
 20
6.13882746074114
 42
0.0
 10
1965.05870476049
 20
-0.3234775727073611
 42
0.0
 10
1965.05870476049
 20
21.48995600710031
 42
0.0
 97
        0
 92
       23
 72
     0
 73
     1
 93
        8
 10
2274.081670965607
 20
11.63657116965032
 10
2274.836867269293
 20
1.165671532218311
 10
2277.268052230175
 20
1.341016723139091
 10
2276.35427776877
 20
14.01062412183773
 10
1967.76068874418
 20
18.690862489349
 10
1966.866536900405
 20
6.293325357460616
 10
1969.297721861287
 20
6.117980166539837
 10
1970.04733426794
 20
16.51145831088206
 97
        0
 75
     0
 76
     1
 47
0.4153941033642652
 98
        2
 10
2127.629641482032
 20
19.88992700277003
 10
2126.798344603737
 20
14.90519196892046
  0
LINE
  5
C4E
330
1F
100
AcDbEntity
  8
PROFILY
100
AcDbLine
 10
2274.081670965607
 20
11.63657116965032
 30
0.0
 11
2274.836867269293
 21
1.165671532218311
 31
0.0
  0
LINE
  5
C4F
330
1F
100
AcDbEntity
  8
PROFILY
100
AcDbLine
 10
2276.35427776877
 20
14.01062412183773
 30
0.0
 11
2277.268052230175
 21
1.341016723139091
 31
0.0
  0
LINE
  5
C50
330
1F
100
AcDbEntity
  8
PROFILY
100
AcDbLine
 10
2277.268052230175
 20
1.341016723139091
 30
0.0
 11
2274.836867269293
 21
1.165671532218311
 31
0.0
  0
LINE
  5
C51
330
1F
100
AcDbEntity
  8
PROFILY
100
AcDbLine
 10
2280.123227816857
 20
-9.800790770683761
 30
0.0
 11
2270.95088437009
 21
-0.5276055589588396
 31
0.0
  0
LINE
  5
C52
330
1F
100
AcDbEntity
  8
PROFILY
100
AcDbLine
 10
2270.95088437009
 20
-0.5276055589588396
 30
0.0
 11
2272.683854029791
 21
1.186518826419614
 31
0.0
  0
LINE
  5
C53
330
1F
100
AcDbEntity
  8
PROFILY
100
AcDbLine
 10
2279.07588437009
 20
-5.275786207028886
 30
0.0
 11
2272.683854029791
 21
1.186518826419614
 31
0.0
  0
ARC
  5
C54
330
1F
100
AcDbEntity
  8
PROFILY
100
AcDbCircle
 10
2280.70088437009
 20
-9.229415975553365
 30
0.0
 40
0.8125
100
AcDbArc
 50
224.6867669083368
 51
0.0
  0
LINE
  5
C55
330
1F
100
AcDbEntity
  8
PROFILY
100
AcDbLine
 10
2281.51338437009
 20
18.83521770089783
 30
0.0
 11
2281.51338437009
 21
-9.229415975553365
 31
0.0
  0
LINE
  5
C56
330
1F
100
AcDbEntity
  8
PROFILY
100
AcDbLine
 10
2279.07588437009
 20
16.45500394335749
 30
0.0
 11
2279.07588437009
 21
-5.275786207028886
 31
0.0
  0
LINE
  5
C57
330
1F
100
AcDbEntity
  8
PROFILY
100
AcDbLine
 10
1965.05870476049
 20
21.48995600710031
 30
0.0
 11
1965.05870476049
 21
-0.3234775727073611
 31
0.0
  0
LINE
  5
C58
330
1F
100
AcDbEntity
  8
PROFILY
100
AcDbLine
 10
1962.62120476049
 20
23.67164809734958
 30
0.0
 11
1962.62120476049
 21
-4.27710734123184
 31
0.0
  0
ARC
  5
C59
330
1F
100
AcDbEntity
  8
PROFILY
100
AcDbCircle
 10
1963.43370476049
 20
-4.27710734123184
 30
0.0
 40
0.8125
100
AcDbArc
 50
180.0
 51
315.3132330916632
  0
LINE
  5
C5A
330
1F
100
AcDbEntity
  8
PROFILY
100
AcDbLine
 10
1965.05870476049
 20
-0.3234775727073611
 30
0.0
 11
1971.450735100789
 21
6.13882746074114
 31
0.0
  0
LINE
  5
C5B
330
1F
100
AcDbEntity
  8
PROFILY
100
AcDbLine
 10
1973.18370476049
 20
4.424703075362685
 30
0.0
 11
1971.450735100789
 21
6.13882746074114
 31
0.0
  0
LINE
  5
C5C
330
1F
100
AcDbEntity
  8
PROFILY
100
AcDbLine
 10
1964.011361313722
 20
-4.848482136362235
 30
0.0
 11
1973.18370476049
 21
4.424703075362685
 31
0.0
  0
LINE
  5
C5D
330
1F
100
AcDbEntity
  8
PROFILY
100
AcDbLine
 10
1967.76068874418
 20
18.69086248935082
 30
0.0
 11
1966.866536900405
 21
6.293325357460616
 31
0.0
  0
LINE
  5
C5E
330
1F
100
AcDbEntity
  8
PROFILY
100
AcDbLine
 10
1970.04733426794
 20
16.51145831088206
 30
0.0
 11
1969.297721861287
 21
6.117980166539837
 31
0.0
  0
LINE
  5
C5F
330
1F
100
AcDbEntity
  8
PROFILY
100
AcDbLine
 10
1966.866536900405
 20
6.293325357460616
 30
0.0
 11
1969.297721861287
 21
6.117980166539837
 31
0.0
  0
LINE
  5
C60
330
1F
100
AcDbEntity
  8
PROFILY
100
AcDbLine
 10
2371.311738113495
 20
973.7588456999196
 30
0.0
 11
2371.311738113495
 21
929.0186813915038
 31
0.0
  0
LINE
  5
C61
330
1F
100
AcDbEntity
  8
PROFILY
100
AcDbLine
 10
2317.082665116538
 20
973.7588456999196
 30
0.0
 11
2317.082665116538
 21
929.0186813915038
 31
0.0
  0
INSERT
  5
CBE
330
1F
100
AcDbEntity
  8
POPIS
100
AcDbBlockReference
  2
_ArchTick
 10
2099.880232627449
 20
941.7196308365374
 30
0.0
 41
15.0
 42
15.0
 43
15.0
 50
90.0
  0
LINE
  5
CBF
330
1F
100
AcDbEntity
  8
POPIS
100
AcDbLine
 10
2099.880232627449
 20
951.0108469194069
 30
0.0
 11
2099.880232627449
 21
886.61656217291
 31
0.0
  0
TEXT
  5
CC0
330
1F
100
AcDbEntity
  8
POPIS
100
AcDbText
 10
2094.270322235157
 20
906.8373827307654
 30
0.0
 40
25.0
  1
70
 50
90.0
 41
0.7
  7
SIMPLEX7
100
AcDbText
  0
LINE
  5
CC1
330
1F
100
AcDbEntity
  8
POPIS
100
AcDbLine
 10
2128.67430025035
 20
890.7567635014961
 30
0.0
 11
2087.380232627448
 21
890.7567635014961
 31
0.0
  0
INSERT
  5
CC2
330
1F
100
AcDbEntity
  8
POPIS
100
AcDbBlockReference
  2
_ArchTick
 10
2099.880232627449
 20
890.7567635014961
 30
0.0
 41
15.0
 42
15.0
 43
15.0
 50
270.0
  0
LINE
  5
CC3
330
1F
100
AcDbEntity
  8
POPIS
100
AcDbLine
 10
2130.863242483352
 20
941.7196308365374
 30
0.0
 11
2087.380232627448
 21
941.7196308365374
 31
0.0
  0
LINE
  5
CC4
330
1F
100
AcDbEntity
  8
PROFILY
100
AcDbLine
 10
2167.68546492131
 20
387.3537953113709
 30
0.0
 11
2167.68546492131
 21
942.8533302485103
 31
0.0
  0
LINE
  5
CC5
330
1F
100
AcDbEntity
  8
PROFILY
  6
DASHED
370
    40
100
AcDbLine
 10
2167.48546492131
 20
387.3501623591456
 30
0.0
 11
2167.48546492131
 21
942.8533302485103
 31
0.0
  0
LINE
  5
CC6
330
1F
100
AcDbEntity
  8
PROFILY
100
AcDbLine
 10
2167.28546492131
 20
387.3465294069203
 30
0.0
 11
2167.28546492131
 21
942.8533302485103
 31
0.0
  0
LINE
  5
CC7
330
1F
100
AcDbEntity
  8
POPIS
100
AcDbLine
 10
1999.684625980057
 20
645.4685853115197
 30
0.0
 11
2167.48546492131
 21
645.4685853115179
 31
0.0
  0
INSERT
  5
CC8
330
1F
100
AcDbEntity
  8
POPIS
100
AcDbBlockReference
  2
E_PUNKT
 10
2167.545781583454
 20
645.8893283777306
 30
0.0
  0
TEXT
  5
CC9
330
1F
100
AcDbEntity
  8
POPIS
100
AcDbText
 10
1957.672625881062
 20
632.0252438621491
 30
0.0
 40
25.0
  1
10
 41
0.7
  7
SIMPLEX7
100
AcDbText
  0
TEXT
  5
CCA
330
1F
100
AcDbEntity
  8
POPIS
100
AcDbText
 10
1976.883519965278
 20
-119.2796230961084
 30
0.0
 40
25.0
  1
Podkladní EPDM páska tl.1 mm
 41
0.7
  7
SIMPLEX7
100
AcDbText
  0
TEXT
  5
CCB
330
1F
100
AcDbEntity
  8
POPIS
100
AcDbText
 10
1922.539816805536
 20
-119.2796230961084
 30
0.0
 40
25.0
  1
10
 41
0.85
  7
SIMPLEX7
100
AcDbText
  0
ENDSEC
  0
SECTION
  2
OBJECTS
  0
DICTIONARY
  5
C
330
0
100
AcDbDictionary
281
     1
  3
ACAD_GROUP
350
D
  3
ACAD_LAYOUT
350
1A
  3
ACAD_MLINESTYLE
350
17
  3
ACAD_PLOTSETTINGS
350
19
  3
ACAD_PLOTSTYLENAME
350
E
  3
AcDbVariableDictionary
350
CCE
  0
DICTIONARY
  5
C63
330
1F
100
AcDbDictionary
280
     1
281
     1
  3
ACAD_LAYOUTSELFREF
360
C9F
  0
DICTIONARY
  5
C65
330
1B
100
AcDbDictionary
280
     1
281
     1
  3
ACAD_LAYOUTSELFREF
360
C9E
  0
DICTIONARY
  5
C67
330
23
100
AcDbDictionary
280
     1
281
     1
  3
ACAD_LAYOUTSELFREF
360
CA0
  0
DICTIONARY
  5
D
102
{ACAD_REACTORS
330
C
102
}
330
C
100
AcDbDictionary
281
     1
  0
DICTIONARY
  5
1A
102
{ACAD_REACTORS
330
C
102
}
330
C
100
AcDbDictionary
281
     1
  3
Model
350
22
  3
Rozvržení1
350
1E
  3
Rozvržení2
350
26
  0
DICTIONARY
  5
17
102
{ACAD_REACTORS
330
C
102
}
330
C
100
AcDbDictionary
281
     1
  3
Standard
350
18
  0
DICTIONARY
  5
19
102
{ACAD_REACTORS
330
C
102
}
330
C
100
AcDbDictionary
281
     1
  0
ACDBDICTIONARYWDFLT
  5
E
102
{ACAD_REACTORS
330
C
102
}
330
C
100
AcDbDictionary
281
     1
  3
Normal
350
F
100
AcDbDictionaryWithDefault
340
F
  0
DICTIONARY
  5
CCE
102
{ACAD_REACTORS
330
C
102
}
330
C
100
AcDbDictionary
281
     1
  3
DIMASSOC
350
CCF
  0
XRECORD
  5
C9F
102
{ACAD_REACTORS
330
C63
102
}
330
C63
100
AcDbXrecord
280
     1
340
1F
  0
XRECORD
  5
C9E
102
{ACAD_REACTORS
330
C65
102
}
330
C65
100
AcDbXrecord
280
     1
340
1B
  0
XRECORD
  5
CA0
102
{ACAD_REACTORS
330
C67
102
}
330
C67
100
AcDbXrecord
280
     1
340
23
  0
LAYOUT
  5
22
102
{ACAD_REACTORS
330
1A
102
}
330
1A
100
AcDbPlotSettings
  1

  2
HP DeskJet 690C
  4

  6

 40
0.0
 41
0.0
 42
0.0
 43
0.0
 44
0.0
 45
0.0
 46
0.0
 47
0.0
 48
0.0
 49
0.0
140
0.0
141
0.0
142
1.0
143
1.0
 70
  1712
 72
     0
 73
     0
 74
     0
  7
monochrome.ctb
 75
     0
147
1.0
148
0.0
149
0.0
100
AcDbLayout
  1
Model
 70
     1
 71
     0
 10
0.0
 20
0.0
 11
12.0
 21
9.0
 12
0.0
 22
0.0
 32
0.0
 14
0.0
 24
0.0
 34
0.0
 15
0.0
 25
0.0
 35
0.0
146
0.0
 13
0.0
 23
0.0
 33
0.0
 16
1.0
 26
0.0
 36
0.0
 17
0.0
 27
1.0
 37
0.0
 76
     0
330
1F
  0
LAYOUT
  5
1E
102
{ACAD_REACTORS
330
1A
102
}
330
1A
100
AcDbPlotSettings
  1

  2
HP DeskJet 690C
  4

  6

 40
0.0
 41
0.0
 42
0.0
 43
0.0
 44
0.0
 45
0.0
 46
0.0
 47
0.0
 48
0.0
 49
0.0
140
0.0
141
0.0
142
1.0
143
1.0
 70
   688
 72
     0
 73
     0
 74
     5
  7
monochrome.ctb
 75
    16
147
1.0
148
0.0
149
0.0
100
AcDbLayout
  1
Rozvržení1
 70
     1
 71
     1
 10
0.0
 20
0.0
 11
420.0
 21
297.0
 12
0.0
 22
0.0
 32
0.0
 14
1.000000000000000E+20
 24
1.000000000000000E+20
 34
1.000000000000000E+20
 15
-1.000000000000000E+20
 25
-1.000000000000000E+20
 35
-1.000000000000000E+20
146
0.0
 13
0.0
 23
0.0
 33
0.0
 16
1.0
 26
0.0
 36
0.0
 17
0.0
 27
1.0
 37
0.0
 76
     0
330
1B
  0
LAYOUT
  5
26
102
{ACAD_REACTORS
330
1A
102
}
330
1A
100
AcDbPlotSettings
  1

  2
HP DeskJet 690C
  4

  6

 40
0.0
 41
0.0
 42
0.0
 43
0.0
 44
0.0
 45
0.0
 46
0.0
 47
0.0
 48
0.0
 49
0.0
140
0.0
141
0.0
142
1.0
143
1.0
 70
   688
 72
     0
 73
     0
 74
     5
  7
monochrome.ctb
 75
    16
147
1.0
148
0.0
149
0.0
100
AcDbLayout
  1
Rozvržení2
 70
     1
 71
     2
 10
0.0
 20
0.0
 11
12.0
 21
9.0
 12
0.0
 22
0.0
 32
0.0
 14
0.0
 24
0.0
 34
0.0
 15
0.0
 25
0.0
 35
0.0
146
0.0
 13
0.0
 23
0.0
 33
0.0
 16
1.0
 26
0.0
 36
0.0
 17
0.0
 27
1.0
 37
0.0
 76
     0
330
23
  0
MLINESTYLE
  5
18
102
{ACAD_REACTORS
330
17
102
}
330
17
100
AcDbMlineStyle
  2
STANDARD
 70
     0
  3

 62
   256
 51
90.0
 52
90.0
 71
     2
 49
0.5
 62
   256
  6
BYLAYER
 49
-0.5
 62
   256
  6
BYLAYER
  0
ACDBPLACEHOLDER
  5
F
102
{ACAD_REACTORS
330
E
102
}
330
E
  0
DICTIONARYVAR
  5
CCF
102
{ACAD_REACTORS
330
CCE
102
}
330
CCE
100
DictionaryVariables
280
     0
  1
1
  0
ENDSEC
  0
EOF
