  0
SECTION
  2
HEADER
  9
$ACADVER
  1
AC1015
  9
$ACADMAINTVER
 70
    14
  9
$DWGCODEPAGE
  3
ANSI_1250
  9
$INSBASE
 10
0.0
 20
0.0
 30
0.0
  9
$EXTMIN
 10
-2831.754051505416
 20
-8624.536834102746
 30
-0.0015258207003583
  9
$EXTMAX
 10
-1506.927709857107
 20
-8073.563687587142
 30
0.0000000349246037
  9
$LIMMIN
 10
0.0
 20
0.0
  9
$LIMMAX
 10
420.0
 20
297.0
  9
$ORTHOMODE
 70
     1
  9
$REGENMODE
 70
     1
  9
$FILLMODE
 70
     1
  9
$QTEXTMODE
 70
     0
  9
$MIRRTEXT
 70
     1
  9
$LTSCALE
 40
1.0
  9
$ATTMODE
 70
     1
  9
$TEXTSIZE
 40
102.0
  9
$TRACEWID
 40
1.0
  9
$TEXTSTYLE
  7
SIMPLEX7
  9
$CLAYER
  8
STAVBA OBRYS
  9
$CELTYPE
  6
ByLayer
  9
$CECOLOR
 62
   256
  9
$CELTSCALE
 40
1.0
  9
$DISPSILH
 70
     0
  9
$DIMSCALE
 40
1.0
  9
$DIMASZ
 40
2.5
  9
$DIMEXO
 40
0.625
  9
$DIMDLI
 40
3.75
  9
$DIMRND
 40
0.0
  9
$DIMDLE
 40
0.0
  9
$DIMEXE
 40
1.25
  9
$DIMTP
 40
0.0
  9
$DIMTM
 40
0.0
  9
$DIMTXT
 40
2.5
  9
$DIMCEN
 40
2.5
  9
$DIMTSZ
 40
0.0
  9
$DIMTOL
 70
     0
  9
$DIMLIM
 70
     0
  9
$DIMTIH
 70
     0
  9
$DIMTOH
 70
     0
  9
$DIMSE1
 70
     0
  9
$DIMSE2
 70
     0
  9
$DIMTAD
 70
     1
  9
$DIMZIN
 70
     8
  9
$DIMBLK
  1

  9
$DIMASO
 70
     1
  9
$DIMSHO
 70
     1
  9
$DIMPOST
  1

  9
$DIMAPOST
  1

  9
$DIMALT
 70
     0
  9
$DIMALTD
 70
     3
  9
$DIMALTF
 40
0.03937007874016
  9
$DIMLFAC
 40
1.0
  9
$DIMTOFL
 70
     1
  9
$DIMTVP
 40
0.0
  9
$DIMTIX
 70
     0
  9
$DIMSOXD
 70
     0
  9
$DIMSAH
 70
     0
  9
$DIMBLK1
  1

  9
$DIMBLK2
  1

  9
$DIMSTYLE
  2
ISO-25
  9
$DIMCLRD
 70
     0
  9
$DIMCLRE
 70
     0
  9
$DIMCLRT
 70
     0
  9
$DIMTFAC
 40
1.0
  9
$DIMGAP
 40
0.625
  9
$DIMJUST
 70
     0
  9
$DIMSD1
 70
     0
  9
$DIMSD2
 70
     0
  9
$DIMTOLJ
 70
     0
  9
$DIMTZIN
 70
     8
  9
$DIMALTZ
 70
     0
  9
$DIMALTTZ
 70
     0
  9
$DIMUPT
 70
     0
  9
$DIMDEC
 70
     2
  9
$DIMTDEC
 70
     2
  9
$DIMALTU
 70
     2
  9
$DIMALTTD
 70
     3
  9
$DIMTXSTY
  7
Standard
  9
$DIMAUNIT
 70
     0
  9
$DIMADEC
 70
     0
  9
$DIMALTRND
 40
0.0
  9
$DIMAZIN
 70
     0
  9
$DIMDSEP
 70
    44
  9
$DIMATFIT
 70
     3
  9
$DIMFRAC
 70
     0
  9
$DIMLDRBLK
  1

  9
$DIMLUNIT
 70
     2
  9
$DIMLWD
 70
    -2
  9
$DIMLWE
 70
    -2
  9
$DIMTMOVE
 70
     0
  9
$LUNITS
 70
     2
  9
$LUPREC
 70
     4
  9
$SKETCHINC
 40
1.0
  9
$FILLETRAD
 40
0.0
  9
$AUNITS
 70
     0
  9
$AUPREC
 70
     0
  9
$MENU
  1
.
  9
$ELEVATION
 40
0.0
  9
$PELEVATION
 40
0.0
  9
$THICKNESS
 40
0.0
  9
$LIMCHECK
 70
     0
  9
$CHAMFERA
 40
10.0
  9
$CHAMFERB
 40
10.0
  9
$CHAMFERC
 40
20.0
  9
$CHAMFERD
 40
0.0
  9
$SKPOLY
 70
     0
  9
$TDCREATE
 40
2452681.284131944
  9
$TDUCREATE
 40
2452681.242465277
  9
$TDUPDATE
 40
2455601.580604988
  9
$TDUUPDATE
 40
2455601.538938321
  9
$TDINDWG
 40
0.6496895139
  9
$TDUSRTIMER
 40
0.6496895139
  9
$USRTIMER
 70
     1
  9
$ANGBASE
 50
0.0
  9
$ANGDIR
 70
     0
  9
$PDMODE
 70
     0
  9
$PDSIZE
 40
0.0
  9
$PLINEWID
 40
0.0
  9
$SPLFRAME
 70
     0
  9
$SPLINETYPE
 70
     6
  9
$SPLINESEGS
 70
     8
  9
$HANDSEED
  5
6118
  9
$SURFTAB1
 70
     6
  9
$SURFTAB2
 70
     6
  9
$SURFTYPE
 70
     6
  9
$SURFU
 70
     6
  9
$SURFV
 70
     6
  9
$UCSBASE
  2

  9
$UCSNAME
  2

  9
$UCSORG
 10
0.0
 20
0.0
 30
0.0
  9
$UCSXDIR
 10
1.0
 20
0.0
 30
0.0
  9
$UCSYDIR
 10
0.0
 20
1.0
 30
0.0
  9
$UCSORTHOREF
  2

  9
$UCSORTHOVIEW
 70
     0
  9
$UCSORGTOP
 10
0.0
 20
0.0
 30
0.0
  9
$UCSORGBOTTOM
 10
0.0
 20
0.0
 30
0.0
  9
$UCSORGLEFT
 10
0.0
 20
0.0
 30
0.0
  9
$UCSORGRIGHT
 10
0.0
 20
0.0
 30
0.0
  9
$UCSORGFRONT
 10
0.0
 20
0.0
 30
0.0
  9
$UCSORGBACK
 10
0.0
 20
0.0
 30
0.0
  9
$PUCSBASE
  2

  9
$PUCSNAME
  2

  9
$PUCSORG
 10
0.0
 20
0.0
 30
0.0
  9
$PUCSXDIR
 10
1.0
 20
0.0
 30
0.0
  9
$PUCSYDIR
 10
0.0
 20
1.0
 30
0.0
  9
$PUCSORTHOREF
  2

  9
$PUCSORTHOVIEW
 70
     0
  9
$PUCSORGTOP
 10
0.0
 20
0.0
 30
0.0
  9
$PUCSORGBOTTOM
 10
0.0
 20
0.0
 30
0.0
  9
$PUCSORGLEFT
 10
0.0
 20
0.0
 30
0.0
  9
$PUCSORGRIGHT
 10
0.0
 20
0.0
 30
0.0
  9
$PUCSORGFRONT
 10
0.0
 20
0.0
 30
0.0
  9
$PUCSORGBACK
 10
0.0
 20
0.0
 30
0.0
  9
$USERI1
 70
     0
  9
$USERI2
 70
     0
  9
$USERI3
 70
     0
  9
$USERI4
 70
     0
  9
$USERI5
 70
     0
  9
$USERR1
 40
0.0
  9
$USERR2
 40
0.0
  9
$USERR3
 40
0.0
  9
$USERR4
 40
0.0
  9
$USERR5
 40
0.0
  9
$WORLDVIEW
 70
     1
  9
$SHADEDGE
 70
     3
  9
$SHADEDIF
 70
    70
  9
$TILEMODE
 70
     1
  9
$MAXACTVP
 70
    64
  9
$PINSBASE
 10
0.0
 20
0.0
 30
0.0
  9
$PLIMCHECK
 70
     0
  9
$PEXTMIN
 10
1.000000000000000E+20
 20
1.000000000000000E+20
 30
1.000000000000000E+20
  9
$PEXTMAX
 10
-1.000000000000000E+20
 20
-1.000000000000000E+20
 30
-1.000000000000000E+20
  9
$PLIMMIN
 10
0.0
 20
0.0
  9
$PLIMMAX
 10
420.0
 20
297.0
  9
$UNITMODE
 70
     0
  9
$VISRETAIN
 70
     1
  9
$PLINEGEN
 70
     0
  9
$PSLTSCALE
 70
     1
  9
$TREEDEPTH
 70
  3020
  9
$CMLSTYLE
  2
Standard
  9
$CMLJUST
 70
     0
  9
$CMLSCALE
 40
20.0
  9
$PROXYGRAPHICS
 70
     1
  9
$MEASUREMENT
 70
     1
  9
$CELWEIGHT
370
    -1
  9
$ENDCAPS
280
     0
  9
$JOINSTYLE
280
     0
  9
$LWDISPLAY
290
     1
  9
$INSUNITS
 70
     4
  9
$HYPERLINKBASE
  1

  9
$STYLESHEET
  1

  9
$XEDIT
290
     1
  9
$CEPSNTYPE
380
     0
  9
$PSTYLEMODE
290
     1
  9
$FINGERPRINTGUID
  2
{CED30962-9BF9-4233-B154-46CCBBBAD92E}
  9
$VERSIONGUID
  2
{70BB70FA-2955-4F34-BDB1-E386D0E5C017}
  9
$EXTNAMES
290
     1
  9
$PSVPSCALE
 40
0.0
  9
$OLESTARTUP
290
     0
  0
ENDSEC
  0
SECTION
  2
CLASSES
  0
CLASS
  1
ACDBDICTIONARYWDFLT
  2
AcDbDictionaryWithDefault
  3
AutoCAD 2000
 90
        0
280
     0
281
     0
  0
CLASS
  1
ACDBPLACEHOLDER
  2
AcDbPlaceHolder
  3
AutoCAD 2000
 90
        0
280
     0
281
     0
  0
CLASS
  1
LAYOUT
  2
AcDbLayout
  3
AutoCAD 2000
 90
        0
280
     0
281
     0
  0
CLASS
  1
DICTIONARYVAR
  2
AcDbDictionaryVar
  3
AutoCAD 2000
 90
        0
280
     0
281
     0
  0
ENDSEC
  0
SECTION
  2
TABLES
  0
TABLE
  2
VPORT
  5
8
330
0
100
AcDbSymbolTable
 70
     2
  0
VPORT
  5
6117
330
8
100
AcDbSymbolTableRecord
100
AcDbViewportTableRecord
  2
*Active
 70
     0
 10
0.0
 20
0.0
 11
1.0
 21
1.0
 12
-2169.340880681262
 22
-8349.050260844945
 13
0.0
 23
0.0
 14
10.0
 24
10.0
 15
10.0
 25
10.0
 16
0.0
 26
0.0
 36
1.0
 17
0.0
 27
0.0
 37
0.0
 40
654.3821829946377
 41
2.031862745098039
 42
50.0
 43
0.0
 44
0.0
 50
0.0
 51
0.0
 71
     0
 72
   100
 73
     1
 74
     3
 75
     0
 76
     0
 77
     0
 78
     0
281
     0
 65
     1
110
0.0
120
0.0
130
0.0
111
1.0
121
0.0
131
0.0
112
0.0
122
1.0
132
0.0
 79
     0
146
0.0
  0
ENDTAB
  0
TABLE
  2
LTYPE
  5
5
330
0
100
AcDbSymbolTable
 70
     5
  0
LTYPE
  5
14
330
5
100
AcDbSymbolTableRecord
100
AcDbLinetypeTableRecord
  2
ByBlock
 70
     0
  3

 72
    65
 73
     0
 40
0.0
  0
LTYPE
  5
15
330
5
100
AcDbSymbolTableRecord
100
AcDbLinetypeTableRecord
  2
ByLayer
 70
     0
  3

 72
    65
 73
     0
 40
0.0
  0
LTYPE
  5
16
330
5
100
AcDbSymbolTableRecord
100
AcDbLinetypeTableRecord
  2
Continuous
 70
     0
  3
Solid line
 72
    65
 73
     0
 40
0.0
  0
LTYPE
  5
2F
330
5
100
AcDbSymbolTableRecord
100
AcDbLinetypeTableRecord
  2
DASHED
 70
     0
  3
Dashed __ __ __ __ __ __ __ __ __ __ __ __ __ _
 72
    65
 73
     2
 40
19.04999999999999
 49
12.7
 74
     0
 49
-6.349999999999999
 74
     0
  0
LTYPE
  5
30
330
5
100
AcDbSymbolTableRecord
100
AcDbLinetypeTableRecord
  2
IZOLACE
 70
     0
  3
Izolace SSSSSSSSSSSSSSSSSSSSSSSSSSSSSSSSSSSSSSS
 72
    65
 73
     4
 40
10.16253999999999
 49
0.00254
 74
     0
 49
-2.54
 74
     4
 75
   134
340
38
 46
2.54
 50
0.0
 44
-2.54
 45
0.0
 49
-5.08
 74
     4
 75
   134
340
38
 46
2.54
 50
180.0
 44
2.54
 45
0.0
 49
-2.54
 74
     0
  0
LTYPE
  5
11D2
330
5
100
AcDbSymbolTableRecord
100
AcDbLinetypeTableRecord
  2
DASHDOT2
 70
     0
  3
Dash dot (.5x) _._._._._._._._._._._._._._._.
 72
    65
 73
     4
 40
12.7
 49
6.349999999999999
 74
     0
 49
-3.174999999999999
 74
     0
 49
0.0
 74
     0
 49
-3.174999999999999
 74
     0
  0
LTYPE
  5
11D3
330
5
100
AcDbSymbolTableRecord
100
AcDbLinetypeTableRecord
  2
CIKCAK
 70
     0
  3
Cik-cak /\/\/\/\/\/\/\/\/\/\/\/\/\/\/\/\/\/\/\/
 72
    65
 73
     4
 40
20.32254
 49
0.00254
 74
     0
 49
-5.08
 74
     4
 75
   131
340
38
 46
5.08
 50
0.0
 44
-5.08
 45
0.0
 49
-10.16
 74
     4
 75
   131
340
38
 46
5.08
 50
180.0
 44
5.08
 45
0.0
 49
-5.08
 74
     0
  0
ENDTAB
  0
TABLE
  2
LAYER
  5
2
330
0
100
AcDbSymbolTable
 70
     8
  0
LAYER
  5
10
330
2
100
AcDbSymbolTableRecord
100
AcDbLayerTableRecord
  2
0
 70
     0
 62
     7
  6
Continuous
370
    -3
390
F
  0
LAYER
  5
31
330
2
100
AcDbSymbolTableRecord
100
AcDbLayerTableRecord
  2
POPIS
 70
     0
 62
    30
  6
Continuous
370
    -3
390
F
  0
LAYER
  5
32
330
2
100
AcDbSymbolTableRecord
100
AcDbLayerTableRecord
  2
SPOJOVACÍ
 70
     0
 62
     5
  6
Continuous
370
    -3
390
F
  0
LAYER
  5
33
330
2
100
AcDbSymbolTableRecord
100
AcDbLayerTableRecord
  2
CETRIS
 70
     0
 62
     1
  6
Continuous
370
    -3
390
F
  0
LAYER
  5
34
330
2
100
AcDbSymbolTableRecord
100
AcDbLayerTableRecord
  2
izolace
 70
     0
 62
     3
  6
Continuous
370
    -3
390
F
  0
LAYER
  5
35
330
2
100
AcDbSymbolTableRecord
100
AcDbLayerTableRecord
  2
nášlap_vrstvy
 70
     0
 62
     6
  6
Continuous
370
    -3
390
F
  0
LAYER
  5
36
330
2
100
AcDbSymbolTableRecord
100
AcDbLayerTableRecord
  2
STAVBA OBRYS
 70
     0
 62
    40
  6
Continuous
370
    -3
390
F
  0
LAYER
  5
8B0
330
2
100
AcDbSymbolTableRecord
100
AcDbLayerTableRecord
  2
Defpoints
 70
     0
 62
     7
  6
Continuous
290
     0
370
    -3
390
F
  0
ENDTAB
  0
TABLE
  2
STYLE
  5
3
330
0
100
AcDbSymbolTable
 70
     3
  0
STYLE
  5
11
330
3
100
AcDbSymbolTableRecord
100
AcDbTextStyleTableRecord
  2
Standard
 70
     0
 40
0.0
 41
1.0
 50
0.0
 71
     0
 42
2.5
  3
verdana.TTF
  4

1001
ACAD
1000
Verdana
1071
       34
  0
STYLE
  5
37
330
3
100
AcDbSymbolTableRecord
100
AcDbTextStyleTableRecord
  2
SIMPLEX7
 70
     0
 40
0.0
 41
0.85
 50
0.0
 71
     0
 42
102.0
  3
ARIAL.TTF
  4

1001
ACAD
1000
Arial CE
1071
    60962
  0
STYLE
  5
38
330
3
100
AcDbSymbolTableRecord
100
AcDbTextStyleTableRecord
  2

 70
     1
 40
0.0
 41
1.0
 50
0.0
 71
     0
 42
2.5
  3
ltypeshp.shx
  4

  0
ENDTAB
  0
TABLE
  2
VIEW
  5
6
330
0
100
AcDbSymbolTable
 70
     0
  0
ENDTAB
  0
TABLE
  2
UCS
  5
7
330
0
100
AcDbSymbolTable
 70
     0
  0
ENDTAB
  0
TABLE
  2
APPID
  5
9
330
0
100
AcDbSymbolTable
 70
     1
  0
APPID
  5
12
330
9
100
AcDbSymbolTableRecord
100
AcDbRegAppTableRecord
  2
ACAD
 70
     0
  0
ENDTAB
  0
TABLE
  2
DIMSTYLE
  5
A
330
0
100
AcDbSymbolTable
 70
     2
100
AcDbDimStyleTable
 71
     1
340
27
  0
DIMSTYLE
105
27
330
A
100
AcDbSymbolTableRecord
100
AcDbDimStyleTableRecord
  2
ISO-25
 70
     0
 41
2.5
 42
0.625
 43
3.75
 44
1.25
 73
     0
 74
     0
 77
     1
 78
     8
140
2.5
141
2.5
143
0.03937007874016
147
0.625
171
     3
172
     1
271
     2
272
     2
274
     3
278
    44
283
     0
284
     8
340
11
  0
DIMSTYLE
105
5925
330
A
100
AcDbSymbolTableRecord
100
AcDbDimStyleTableRecord
  2
STANDARD
 70
     0
340
11
  0
ENDTAB
  0
TABLE
  2
BLOCK_RECORD
  5
1
330
0
100
AcDbSymbolTable
 70
     3
  0
BLOCK_RECORD
  5
1F
330
1
100
AcDbSymbolTableRecord
100
AcDbBlockTableRecord
  2
*Model_Space
340
22
  0
BLOCK_RECORD
  5
1B
330
1
100
AcDbSymbolTableRecord
100
AcDbBlockTableRecord
  2
*Paper_Space
340
1E
  0
BLOCK_RECORD
  5
23
330
1
100
AcDbSymbolTableRecord
100
AcDbBlockTableRecord
  2
*Paper_Space0
340
26
  0
BLOCK_RECORD
  5
2B
330
1
100
AcDbSymbolTableRecord
100
AcDbBlockTableRecord
  2
E_PUNKT
340
0
102
{BLKREFS
331
6B5
331
6B1
331
842
331
83F
331
75F
331
79A
331
73F
331
766
331
649
331
60D
331
60C
331
197D
331
1A72
331
1A77
331
1AC8
331
1AC9
331
1ACB
331
1AE2
331
181B
331
183F
331
1FA2
331
1FB8
331
1FBA
331
1FC4
331
1FCC
331
2008
331
224F
331
2272
331
227D
331
22F0
331
2313
331
2314
331
2355
331
23A6
331
23B1
331
24C9
331
2A02
331
2A12
331
2AC1
331
2BCD
331
2BE5
331
2C54
331
2CD0
331
2CC6
331
2CCF
331
2BE0
331
2BEB
331
2DA0
331
2DA5
331
2DE7
331
2DED
331
2DEE
331
2DEF
331
2DF2
331
2DF3
331
2DF6
331
2E8E
331
314E
331
3236
331
3206
331
32FE
331
32BF
331
3304
331
2ECD
331
3239
331
2FB9
331
3150
331
4E7F
331
4E9C
331
4EA7
331
4EAE
331
4EB8
331
5B4F
331
5B54
102
}
  0
ENDTAB
  0
ENDSEC
  0
SECTION
  2
BLOCKS
  0
BLOCK
  5
20
330
1F
100
AcDbEntity
  8
0
100
AcDbBlockBegin
  2
*Model_Space
 70
     0
 10
0.0
 20
0.0
 30
0.0
  3
*Model_Space
  1

  0
ENDBLK
  5
21
330
1F
100
AcDbEntity
  8
0
100
AcDbBlockEnd
  0
BLOCK
  5
1C
330
1B
100
AcDbEntity
 67
     1
  8
0
100
AcDbBlockBegin
  2
*Paper_Space
 70
     0
 10
0.0
 20
0.0
 30
0.0
  3
*Paper_Space
  1

  0
ENDBLK
  5
1D
330
1B
100
AcDbEntity
 67
     1
  8
0
100
AcDbBlockEnd
  0
BLOCK
  5
24
330
23
100
AcDbEntity
  8
0
100
AcDbBlockBegin
  2
*Paper_Space0
 70
     0
 10
0.0
 20
0.0
 30
0.0
  3
*Paper_Space0
  1

  0
ENDBLK
  5
25
330
23
100
AcDbEntity
  8
0
100
AcDbBlockEnd
  0
BLOCK
  5
2D
330
2B
100
AcDbEntity
  8
0
100
AcDbBlockBegin
  2
E_PUNKT
 70
     0
 10
0.0
 20
0.0
 30
0.0
  3
E_PUNKT
  1

  0
LWPOLYLINE
  5
2C
330
2B
100
AcDbEntity
  8
POPIS
100
AcDbPolyline
 90
        2
 70
     1
 43
2.5
 10
1.27761037562675
 20
0.0290683308725193
 42
-1.0
 10
-1.222389624373249
 20
0.0290683308725193
 42
-1.0
  0
ENDBLK
  5
2E
330
2B
100
AcDbEntity
  8
0
100
AcDbBlockEnd
  0
ENDSEC
  0
SECTION
  2
ENTITIES
  0
HATCH
  5
2236
330
1F
100
AcDbEntity
  8
CETRIS
370
    20
100
AcDbHatch
 10
0.0
 20
0.0
 30
0.0
210
0.0
220
0.0
230
1.0
  2
ANSI31
 70
     0
 71
     0
 91
        4
 92
        7
 72
     1
 73
     1
 93
       20
 10
-2486.425961230654
 20
-8361.542057327779
 42
0.0
 10
-2487.20626710039
 20
-8360.249447835064
 42
0.0
 10
-2488.294684402745
 20
-8359.202051285432
 42
0.0
 10
-2489.617375784629
 20
-8358.472793461688
 42
0.0
 10
-2489.617375784632
 20
-8357.296865220494
 42
0.0
 10
-2559.53364989126
 20
-8357.296865220494
 42
0.0
 10
-2559.533649891264
 20
-8363.101050550564
 42
-1.0
 10
-2559.533649891264
 20
-8365.601050550564
 42
-1.0
 10
-2559.533649891264
 20
-8363.101050550564
 42
0.0
 10
-2559.533649891264
 20
-8357.296865220494
 42
0.0
 10
-2610.619572575723
 20
-8357.296865220494
 42
0.0
 10
-2610.619572575727
 20
-8369.296865220492
 42
0.0
 10
-2485.941916351368
 20
-8369.296865220492
 42
0.0
 10
-2485.941916351368
 20
-8368.316047798691
 42
0.0
 10
-2486.600983107825
 20
-8368.094438875477
 42
0.0
 10
-2486.97108145563
 20
-8367.881130962146
 42
0.0
 10
-2486.600983107821
 20
-8367.510121044293
 42
0.0
 10
-2485.941916351365
 20
-8367.731729967461
 42
0.0
 10
-2485.941916351368
 20
-8363.764470546131
 42
0.0
 10
-2486.006637983641
 20
-8362.993280397482
 42
0.0
 97
        0
 92
        7
 72
     0
 73
     1
 93
       13
 10
-2467.211969874419
 20
-8357.296865220494
 10
-2479.621074162906
 20
-8357.296865220494
 10
-2479.621074162902
 20
-8358.472793461688
 10
-2480.322073245332
 20
-8358.80278262682
 10
-2481.534464378079
 20
-8359.702504467058
 10
-2482.473383826642
 20
-8360.885725286294
 10
-2483.074109958821
 20
-8362.271315151813
 10
-2483.296533591884
 20
-8363.764470546156
 10
-2483.296533591887
 20
-8368.621230794124
 10
-2482.63746683542
 20
-8368.842839717293
 10
-2482.267368491894
 20
-8369.057059203079
 10
-2482.507174507917
 20
-8369.296865220492
 10
-2467.211969874419
 20
-8369.296865220492
 97
        0
 92
        7
 72
     0
 73
     1
 93
       13
 10
-2610.619572575723
 20
-8357.296865220494
 10
-2656.159115837281
 20
-8357.296865220494
 10
-2656.159115837281
 20
-8358.472793461686
 10
-2656.860114919733
 20
-8358.802782626806
 10
-2658.072506052451
 20
-8359.702504467049
 10
-2659.011425501036
 20
-8360.885725286287
 10
-2659.612151633201
 20
-8362.271315151799
 10
-2659.834575266266
 20
-8363.764470546122
 10
-2659.834575266263
 20
-8368.621230794126
 10
-2659.17550850981
 20
-8368.842839717293
 10
-2658.805410166284
 20
-8369.057059203084
 10
-2659.045216182307
 20
-8369.296865220492
 10
-2610.619572575723
 20
-8369.296865220492
 97
        0
 92
        7
 72
     0
 73
     1
 93
       15
 10
-2662.479958025755
 20
-8363.764470546122
 10
-2662.544679658028
 20
-8362.993280397487
 10
-2662.964002905052
 20
-8361.542057327779
 10
-2663.74430877478
 20
-8360.249447835048
 10
-2664.83272607712
 20
-8359.20205128543
 10
-2666.155417459
 20
-8358.472793461691
 10
-2666.155417459004
 20
-8357.296865220495
 10
-2805.142013017862
 20
-8357.296865220494
 10
-2805.142013017862
 20
-8369.296865220492
 10
-2662.479958025748
 20
-8369.296865220492
 10
-2662.479958025748
 20
-8368.316047798687
 10
-2663.139024782211
 20
-8368.094438875473
 10
-2663.509123130009
 20
-8367.881130962144
 10
-2663.139024782211
 20
-8367.510121044293
 10
-2662.479958025748
 20
-8367.731729967461
 97
        0
 75
     0
 76
     1
 52
90.0
 41
1.0
 77
     0
 78
     1
 53
135.0
 43
-32058.84570721413
 44
-3633.503141128534
 45
-2.245064030267288
 46
-2.245064030267287
 79
     0
 47
0.6948296927952456
 98
        4
 10
-2498.677942537275
 20
-8361.745688201912
 10
-2476.429771821766
 20
-8363.135364331553
 10
-2635.643471862955
 20
-8364.525013735114
 10
-2691.959235744509
 20
-8365.219838436892
  0
HATCH
  5
2237
330
1F
100
AcDbEntity
  8
CETRIS
370
    20
100
AcDbHatch
 10
0.0
 20
0.0
 30
0.0
210
0.0
220
0.0
230
1.0
  2
ANSI31
 70
     0
 71
     0
 91
        1
 92
        7
 72
     1
 73
     1
 93
       49
 10
-2486.600983107825
 20
-8377.267590727951
 42
0.0
 10
-2486.971081455626
 20
-8377.053371242171
 42
0.0
 10
-2486.600983107821
 20
-8376.68327289651
 42
0.0
 10
-2485.941916351365
 20
-8376.904881819722
 42
0.0
 10
-2485.941916351365
 20
-8374.431786224537
 42
0.0
 10
-2486.600983107821
 20
-8374.210177301369
 42
0.0
 10
-2486.971081455633
 20
-8373.995957815584
 42
0.0
 10
-2486.600983107829
 20
-8373.625859469919
 42
0.0
 10
-2485.941916351365
 20
-8373.847468393089
 42
0.0
 10
-2485.941916351361
 20
-8371.374221218411
 42
0.0
 10
-2486.60098310781
 20
-8371.152763874521
 42
0.0
 10
-2486.971081455626
 20
-8370.938544388732
 42
0.0
 10
-2486.600983107825
 20
-8370.568446043064
 42
0.0
 10
-2485.941916351365
 20
-8370.789903387002
 42
0.0
 10
-2485.941916351365
 20
-8369.296865220492
 42
0.0
 10
-2610.619572575719
 20
-8369.296865220492
 42
0.0
 10
-2610.619572575719
 20
-8374.742162656184
 42
-1.0
 10
-2610.619572575719
 20
-8377.242162656186
 42
-1.0
 10
-2610.619572575719
 20
-8374.742162656184
 42
0.0
 10
-2610.619572575719
 20
-8369.296865220492
 42
0.0
 10
-2659.045216182311
 20
-8369.296865220492
 42
0.0
 10
-2659.175508509814
 20
-8369.427157548747
 42
0.0
 10
-2659.562998963391
 20
-8369.296865220492
 42
0.0
 10
-2659.834575266266
 20
-8369.296865220492
 42
0.0
 10
-2659.834575266263
 20
-8371.67879580021
 42
0.0
 10
-2659.175508509803
 20
-8371.900253144149
 42
0.0
 10
-2658.805410166277
 20
-8372.114472629935
 42
0.0
 10
-2659.175508509803
 20
-8372.484570975329
 42
0.0
 10
-2659.83457526627
 20
-8372.263113631435
 42
0.0
 10
-2659.83457526627
 20
-8374.736969219753
 42
0.0
 10
-2659.175508509799
 20
-8374.95857814293
 42
0.0
 10
-2658.80541016628
 20
-8375.171886056515
 42
0.0
 10
-2659.175508509807
 20
-8375.542895974369
 42
0.0
 10
-2659.834575266266
 20
-8375.321287051201
 42
0.0
 10
-2659.83457526627
 20
-8377.794382646568
 42
0.0
 10
-2659.175508509799
 20
-8378.01599156978
 42
0.0
 10
-2658.805410166288
 20
-8378.229299483107
 42
0.0
 10
-2659.175508509807
 20
-8378.60030940096
 42
0.0
 10
-2659.834575266259
 20
-8378.378700477789
 42
0.0
 10
-2659.834575266274
 20
-8380.851796073146
 42
0.0
 10
-2659.175508509803
 20
-8381.073404996362
 42
0.0
 10
-2658.80852381445
 20
-8381.285822247354
 42
0.0
 10
-2485.941916351368
 20
-8381.285822247354
 42
0.0
 10
-2485.941916351365
 20
-8380.546613077754
 42
0.0
 10
-2486.600983107829
 20
-8380.32500415454
 42
0.0
 10
-2486.971081455626
 20
-8380.111696241213
 42
0.0
 10
-2486.600983107825
 20
-8379.740686323092
 42
0.0
 10
-2485.941916351365
 20
-8379.962295246306
 42
0.0
 10
-2485.941916351365
 20
-8377.489199651122
 42
0.0
 97
        0
 75
     0
 76
     1
 52
0.0
 41
1.0
 77
     0
 78
     1
 53
45.0
 43
-32058.84570721413
 44
-3633.503141128534
 45
-2.245064030267287
 46
2.245064030267288
 79
     0
 47
0.2602611707434061
 98
        2
 10
-2474.161615153798
 20
-8374.523268053156
 10
-2519.735266723447
 20
-8377.38613932133
  0
HATCH
  5
2239
330
1F
100
AcDbEntity
  8
STAVBA OBRYS
370
    20
100
AcDbHatch
 10
0.0
 20
0.0
 30
0.0
210
0.0
220
0.0
230
1.0
  2
AR-CONC
 70
     0
 71
     0
 91
        1
 92
        7
 72
     0
 73
     1
 93
        4
 10
-2147.196350506796
 20
-8554.119793321389
 10
-2805.142013017865
 20
-8554.119793321389
 10
-2805.142013017865
 20
-8564.11979332139
 10
-2147.196350506793
 20
-8564.11979332139
 97
        0
 75
     0
 76
     1
 52
90.0
 41
0.1
 77
     0
 78
    13
 53
140.0
 43
-31978.81970873903
 44
-4546.706738216552
 45
1.593908553890309
 46
18.2184668996004
 79
     2
 49
1.905
 49
-20.955
 53
85.00000000000001
 43
-31978.81970873903
 44
-4546.706738216552
 45
-19.10566428821799
 46
-3.524282597566697
 79
     2
 49
1.524
 49
-16.764
 53
190.4509999999999
 43
-31978.68688373902
 44
-4545.188538216551
 45
-17.51166878202918
 46
14.69425016659592
 79
     2
 49
1.619
 49
-17.809
 53
136.1841999999999
 43
-31983.89970873903
 44
-4546.706738216552
 45
4.204232793272717
 46
27.10790408921299
 79
     2
 49
2.857499999999999
 49
-31.4325
 53
186.6355999999999
 43
-31983.54935873902
 44
-4544.44774821655
 45
-24.74255558900492
 46
23.74042344662371
 79
     2
 49
2.4285
 49
-26.7135
 53
81.18400000000004
 43
-31983.89970873903
 44
-4546.706738216552
 45
-24.74251178605976
 46
23.74046058139339
 79
     2
 49
2.286
 49
-25.146
 53
111.0
 43
-31982.62970873903
 44
-4544.166738216551
 45
10.22655185167625
 46
15.16148798353833
 79
     2
 49
1.905
 49
-20.955
 53
56.00000000000004
 43
-31982.62970873903
 44
-4544.166738216551
 45
-18.41879661223192
 46
6.180202834764708
 79
     2
 49
1.524
 49
-16.764
 53
161.4514
 43
-31981.77749873903
 44
-4542.903288216552
 45
-8.192285771605742
 46
21.34164907701245
 79
     2
 49
1.618999999999996
 49
-17.80899999999993
 53
127.5
 43
-31978.81970873903
 44
-4546.706738216552
 45
-8.455503887315311
 46
0.3088603250591822
 79
     6
 49
0.0
 49
-16.5608
 49
0.0
 49
-17.018
 49
0.0
 49
-16.8275
 53
97.49999999999985
 43
-31978.81970873903
 44
-4546.706738216552
 45
-10.01805748181195
 46
6.681966251030575
 79
     6
 49
0.0
 49
-9.702799999999998
 49
0.0
 49
-16.17979999999999
 49
0.0
 49
-6.413499999999999
 53
57.5
 43
-31978.81970873903
 44
-4552.370938216551
 45
0.5728743992673473
 46
13.55905951668713
 79
     6
 49
0.0
 49
-6.35
 49
0.0
 49
-19.812
 49
0.0
 49
-26.289
 53
47.5
 43
-31978.81970873903
 44
-4554.910938216552
 45
-2.5426491033333
 46
14.8129181386018
 79
     6
 49
0.0
 49
-8.255
 49
0.0
 49
-13.1572
 49
0.0
 49
-18.669
 47
1.084445008349079
 98
        1
 10
-2438.9974773862
 20
-8560.521074127347
  0
LINE
  5
223A
330
1F
100
AcDbEntity
  8
CETRIS
100
AcDbLine
 10
-2805.142013017865
 20
-8357.296865220494
 30
0.0
 11
-2467.211969874419
 21
-8357.296865220494
 31
0.0
  0
LINE
  5
223B
330
1F
100
AcDbEntity
  8
CETRIS
100
AcDbLine
 10
-2805.142013017865
 20
-8381.296865220493
 30
0.0
 11
-2467.211969874419
 21
-8381.296865220493
 31
0.0
  0
LINE
  5
223C
330
1F
100
AcDbEntity
  8
izolace
  6
IZOLACE
 48
2.5
370
    20
100
AcDbLine
 10
-2805.142013017865
 20
-8406.296865220493
 30
0.0
 11
-2547.211969874419
 21
-8406.296865220493
 31
0.0
  0
LINE
  5
223D
330
1F
100
AcDbEntity
  8
CETRIS
100
AcDbLine
 10
-2805.142013017865
 20
-8369.296865220492
 30
0.0
 11
-2467.211969874419
 21
-8369.296865220492
 31
0.0
  0
LWPOLYLINE
  5
223E
330
1F
100
AcDbEntity
  8
nášlap_vrstvy
100
AcDbPolyline
 90
        2
 70
     0
 43
0.0
 10
-2805.142013017865
 20
-8354.675104857975
 10
-2465.030729530894
 20
-8354.675104857975
  0
LWPOLYLINE
  5
223F
330
1F
100
AcDbEntity
  8
izolace
100
AcDbPolyline
 90
        4
 70
     0
 43
0.0
 10
-2805.142013017865
 20
-8431.296865220494
 10
-2452.211969874419
 20
-8431.296865220494
 10
-2452.211969874416
 20
-8434.296865220494
 10
-2805.142013017865
 20
-8434.296865220494
  0
LINE
  5
2240
330
1F
100
AcDbEntity
  8
STAVBA OBRYS
100
AcDbLine
 10
-2805.142013017862
 20
-8554.119793321389
 30
0.0
 11
-2147.196350506793
 21
-8554.119793321389
 31
0.0
  0
LINE
  5
2241
330
1F
100
AcDbEntity
  8
STAVBA OBRYS
100
AcDbLine
 10
-2805.142013017865
 20
-8564.11979332139
 30
0.0
 11
-2147.196350506793
 21
-8564.11979332139
 31
0.0
  0
LWPOLYLINE
  5
2242
330
1F
100
AcDbEntity
  8
nášlap_vrstvy
100
AcDbPolyline
 90
        2
 70
     0
 43
0.0
 10
-2465.030729530894
 20
-8350.336615832027
 10
-2805.142013017865
 20
-8350.336615832027
  0
LWPOLYLINE
  5
2243
330
1F
100
AcDbEntity
  8
STAVBA OBRYS
100
AcDbPolyline
 90
        4
 70
     1
 43
0.0
 10
-2527.669035782719
 20
-8431.296865220494
 10
-2551.310768492555
 20
-8431.296865220494
 10
-2551.310768492555
 20
-8434.296865220494
 10
-2527.669035782719
 20
-8434.296865220494
  0
HATCH
  5
2244
330
1F
100
AcDbEntity
  8
izolace
100
AcDbHatch
 10
0.0
 20
0.0
 30
0.0
210
0.0
220
0.0
230
1.0
  2
SOLID
 70
     1
 71
     0
 91
        1
 92
        7
 72
     0
 73
     1
 93
        4
 10
-2551.310768492551
 20
-8431.296865220494
 10
-2551.310768492551
 20
-8434.296865220494
 10
-2527.669035782716
 20
-8434.296865220494
 10
-2527.669035782716
 20
-8431.296865220494
 97
        0
 75
     0
 76
     1
 47
0.1901250437635136
 98
        1
 10
-2541.952973734211
 20
-8432.113676771573
  0
TEXT
  5
2245
330
1F
100
AcDbEntity
  8
POPIS
100
AcDbText
 10
-2638.659081971299
 20
-8511.544297847805
 30
0.0
 40
25.0
  1
10
 41
0.85
  7
SIMPLEX7
100
AcDbText
  0
TEXT
  5
2246
330
1F
100
AcDbEntity
  8
POPIS
100
AcDbText
 10
-2698.042014239737
 20
-8511.544297847805
 30
0.0
 40
25.0
  1
11
 41
0.85
  7
SIMPLEX7
100
AcDbText
  0
TEXT
  5
2247
330
1F
100
AcDbEntity
  8
POPIS
100
AcDbText
 10
-2756.879674438357
 20
-8511.544297847805
 30
0.0
 40
25.0
  1
12
 41
0.85
  7
SIMPLEX7
100
AcDbText
  0
HATCH
  5
2248
330
1F
100
AcDbEntity
  8
CETRIS
370
    20
100
AcDbHatch
 10
0.0
 20
0.0
 30
0.0
210
0.0
220
0.0
230
1.0
  2
ANSI31
 70
     0
 71
     0
 91
        1
 92
        7
 72
     0
 73
     1
 93
       24
 10
-2663.509123130012
 20
-8373.995957815582
 10
-2663.139024782207
 20
-8373.625859469919
 10
-2662.479958025752
 20
-8373.847468393091
 10
-2662.479958025752
 20
-8371.374221218411
 10
-2663.139024782196
 20
-8371.152763874516
 10
-2663.509123130012
 20
-8370.938544388732
 10
-2663.139024782204
 20
-8370.568446043064
 10
-2662.479958025752
 20
-8370.789903387001
 10
-2662.479958025748
 20
-8369.296865220492
 10
-2805.142013017862
 20
-8369.296865220492
 10
-2805.142013017865
 20
-8381.296865220493
 10
-2662.479958025752
 20
-8381.296865220493
 10
-2662.479958025748
 20
-8380.546613077754
 10
-2663.139024782219
 20
-8380.32500415454
 10
-2663.509123130016
 20
-8380.111696241213
 10
-2663.139024782211
 20
-8379.740686323092
 10
-2662.479958025748
 20
-8379.962295246306
 10
-2662.479958025748
 20
-8377.489199651121
 10
-2663.139024782222
 20
-8377.267590727951
 10
-2663.509123130012
 20
-8377.053371242171
 10
-2663.139024782207
 20
-8376.68327289651
 10
-2662.479958025741
 20
-8376.904881819724
 10
-2662.479958025748
 20
-8374.431786224537
 10
-2663.139024782207
 20
-8374.210177301367
 97
        0
 75
     0
 76
     1
 52
0.0
 41
1.0
 77
     0
 78
     1
 53
45.0
 43
-32058.84570721413
 44
-3633.503141128534
 45
-2.245064030267287
 46
2.245064030267288
 79
     0
 47
0.6948296927952456
 98
        1
 10
-2779.561560175711
 20
-8374.252639738278
  0
LINE
  5
2249
330
1F
100
AcDbEntity
  8
izolace
100
AcDbLine
 10
-2805.142013017865
 20
-8434.296865220494
 30
0.0
 11
-2766.251394825367
 21
-8434.296865220494
 31
0.0
  0
HATCH
  5
224A
330
1F
100
AcDbEntity
  8
izolace
100
AcDbHatch
 10
0.0
 20
0.0
 30
0.0
210
0.0
220
0.0
230
1.0
  2
SOLID
 70
     1
 71
     0
 91
        1
 92
        7
 72
     0
 73
     1
 93
        4
 10
-2787.728095590907
 20
-8431.296865220494
 10
-2787.728095590903
 20
-8434.296865220494
 10
-2764.086362881068
 20
-8434.296865220494
 10
-2764.086362881068
 20
-8431.296865220494
 97
        0
 75
     0
 76
     1
 47
0.1901250437635136
 98
        1
 10
-2778.370300832563
 20
-8432.113676771573
  0
LWPOLYLINE
  5
224B
330
1F
100
AcDbEntity
  8
izolace
100
AcDbPolyline
 90
        4
 70
     1
 43
0.0
 10
-2764.086362881071
 20
-8431.296865220494
 10
-2787.728095590907
 20
-8431.296865220494
 10
-2787.728095590907
 20
-8434.296865220494
 10
-2764.086362881071
 20
-8434.296865220494
  0
LINE
  5
224C
330
1F
100
AcDbEntity
  8
POPIS
370
    20
100
AcDbLine
 10
-2559.533649891264
 20
-8285.003406467305
 30
0.0
 11
-2559.533649891264
 21
-8364.351050550565
 31
0.0
  0
LINE
  5
224D
330
1F
100
AcDbEntity
  8
POPIS
370
    20
100
AcDbLine
 10
-2610.619572575719
 20
-8285.003406467305
 30
0.0
 11
-2610.619572575719
 21
-8374.742162656184
 31
0.0
  0
LINE
  5
224E
330
1F
100
AcDbEntity
  8
POPIS
370
    20
100
AcDbLine
 10
-2661.36517971178
 20
-8285.003406467305
 30
0.0
 11
-2661.36517971178
 21
-8360.301293378334
 31
0.0
  0
INSERT
  5
224F
330
1F
100
AcDbEntity
  8
POPIS
100
AcDbBlockReference
  2
E_PUNKT
 10
-2661.394248042654
 20
-8359.206116914537
 30
0.0
 50
270.0
  0
LINE
  5
2250
330
1F
100
AcDbEntity
  8
SPOJOVACÍ
  6
DASHED
100
AcDbLine
 10
-2666.155417459008
 20
-8357.296865220494
 30
0.0
 11
-2656.159115837285
 21
-8357.296865220494
 31
0.0
  0
LINE
  5
2251
330
1F
100
AcDbEntity
  8
SPOJOVACÍ
  6
DASHED
100
AcDbLine
 10
-2666.155417459008
 20
-8358.47279346169
 30
0.0
 11
-2656.159115837285
 21
-8358.47279346169
 31
0.0
  0
LINE
  5
2252
330
1F
100
AcDbEntity
  8
SPOJOVACÍ
  6
DASHED
100
AcDbLine
 10
-2660.739766540161
 20
-8389.009553264916
 30
0.0
 11
-2660.477233724416
 21
-8386.907467587631
 31
0.0
  0
LINE
  5
2253
330
1F
100
AcDbEntity
  8
SPOJOVACÍ
  6
DASHED
100
AcDbLine
 10
-2663.509123130012
 20
-8367.881130962146
 30
0.0
 11
-2658.80541016628
 21
-8369.057059203079
 31
0.0
  0
LINE
  5
2254
330
1F
100
AcDbEntity
  8
SPOJOVACÍ
  6
DASHED
100
AcDbLine
 10
-2663.139024782207
 20
-8368.094438875473
 30
0.0
 11
-2659.175508509807
 21
-8369.427157548747
 31
0.0
  0
LINE
  5
2255
330
1F
100
AcDbEntity
  8
SPOJOVACÍ
  6
DASHED
100
AcDbLine
 10
-2663.139024782207
 20
-8367.510121044293
 30
0.0
 11
-2659.175508509807
 21
-8368.842839717293
 31
0.0
  0
LINE
  5
2256
330
1F
100
AcDbEntity
  8
SPOJOVACÍ
  6
DASHED
100
AcDbLine
 10
-2663.509123130012
 20
-8370.93854438873
 30
0.0
 11
-2658.80541016628
 21
-8372.114472629935
 31
0.0
  0
LINE
  5
2257
330
1F
100
AcDbEntity
  8
SPOJOVACÍ
  6
DASHED
100
AcDbLine
 10
-2663.139024782207
 20
-8371.152763874516
 30
0.0
 11
-2659.175508509807
 21
-8372.484570975329
 31
0.0
  0
LINE
  5
2258
330
1F
100
AcDbEntity
  8
SPOJOVACÍ
  6
DASHED
100
AcDbLine
 10
-2663.139024782207
 20
-8370.568446043064
 30
0.0
 11
-2659.175508509807
 21
-8371.900253144147
 31
0.0
  0
LINE
  5
2259
330
1F
100
AcDbEntity
  8
SPOJOVACÍ
  6
DASHED
100
AcDbLine
 10
-2662.889253978161
 20
-8383.341396828667
 30
0.0
 11
-2659.587539179318
 21
-8384.451691865665
 31
0.0
  0
LINE
  5
225A
330
1F
100
AcDbEntity
  8
SPOJOVACÍ
  6
DASHED
100
AcDbLine
 10
-2662.889253978161
 20
-8382.757078997215
 30
0.0
 11
-2659.587539179318
 21
-8383.867374034213
 31
0.0
  0
LINE
  5
225B
330
1F
100
AcDbEntity
  8
SPOJOVACÍ
  6
DASHED
100
AcDbLine
 10
-2663.26026389548
 20
-8383.127177342883
 30
0.0
 11
-2659.217440835792
 21
-8384.080681947541
 31
0.0
  0
LINE
  5
225C
330
1F
100
AcDbEntity
  8
SPOJOVACÍ
  6
DASHED
100
AcDbLine
 10
-2662.336841175691
 20
-8386.294891015422
 30
0.0
 11
-2660.02327072892
 21
-8387.073373742381
 31
0.0
  0
LINE
  5
225D
330
1F
100
AcDbEntity
  8
SPOJOVACÍ
  6
DASHED
100
AcDbLine
 10
-2662.336841175691
 20
-8385.710573183969
 30
0.0
 11
-2660.02327072892
 21
-8386.489055911201
 31
0.0
  0
LINE
  5
225E
330
1F
100
AcDbEntity
  8
SPOJOVACÍ
  6
DASHED
100
AcDbLine
 10
-2662.706939523496
 20
-8386.081583102095
 30
0.0
 11
-2659.653172385393
 21
-8386.702363824529
 31
0.0
  0
LINE
  5
225F
330
1F
100
AcDbEntity
  8
SPOJOVACÍ
  6
DASHED
100
AcDbLine
 10
-2661.783516803708
 20
-8389.249296774627
 30
0.0
 11
-2660.412512092133
 21
-8389.710552348159
 31
0.0
  0
LINE
  5
2260
330
1F
100
AcDbEntity
  8
SPOJOVACÍ
  6
DASHED
100
AcDbLine
 10
-2661.783516803708
 20
-8388.664978943181
 30
0.0
 11
-2660.412512092133
 21
-8389.126234516714
 31
0.0
  0
LINE
  5
2261
330
1F
100
AcDbEntity
  8
SPOJOVACÍ
  6
DASHED
100
AcDbLine
 10
-2662.153615147234
 20
-8389.035077288847
 30
0.0
 11
-2660.042413748606
 21
-8389.339542430304
 31
0.0
  0
LINE
  5
2262
330
1F
100
AcDbEntity
  8
SPOJOVACÍ
  6
DASHED
100
AcDbLine
 10
-2663.509123130012
 20
-8373.995957815584
 30
0.0
 11
-2658.80541016628
 21
-8375.171886056516
 31
0.0
  0
LINE
  5
2263
330
1F
100
AcDbEntity
  8
SPOJOVACÍ
  6
DASHED
100
AcDbLine
 10
-2663.139024782207
 20
-8374.210177301369
 30
0.0
 11
-2659.175508509807
 21
-8375.542895974369
 31
0.0
  0
LINE
  5
2264
330
1F
100
AcDbEntity
  8
SPOJOVACÍ
  6
DASHED
100
AcDbLine
 10
-2663.139024782207
 20
-8373.625859469917
 30
0.0
 11
-2659.175508509807
 21
-8374.958578142924
 31
0.0
  0
LINE
  5
2265
330
1F
100
AcDbEntity
  8
SPOJOVACÍ
  6
DASHED
100
AcDbLine
 10
-2663.509123130012
 20
-8377.053371242174
 30
0.0
 11
-2658.80541016628
 21
-8378.229299483107
 31
0.0
  0
LINE
  5
2266
330
1F
100
AcDbEntity
  8
SPOJOVACÍ
  6
DASHED
100
AcDbLine
 10
-2663.139024782207
 20
-8377.267590727951
 30
0.0
 11
-2659.175508509807
 21
-8378.60030940096
 31
0.0
  0
LINE
  5
2267
330
1F
100
AcDbEntity
  8
SPOJOVACÍ
  6
DASHED
100
AcDbLine
 10
-2663.139024782207
 20
-8376.683272896507
 30
0.0
 11
-2659.175508509807
 21
-8378.01599156978
 31
0.0
  0
LINE
  5
2268
330
1F
100
AcDbEntity
  8
SPOJOVACÍ
  6
DASHED
100
AcDbLine
 10
-2663.509123130012
 20
-8380.111696241213
 30
0.0
 11
-2658.80541016628
 21
-8381.287624482148
 31
0.0
  0
LINE
  5
2269
330
1F
100
AcDbEntity
  8
SPOJOVACÍ
  6
DASHED
100
AcDbLine
 10
-2663.139024782207
 20
-8380.32500415454
 30
0.0
 11
-2659.175508509807
 21
-8381.657722827814
 31
0.0
  0
LINE
  5
226A
330
1F
100
AcDbEntity
  8
SPOJOVACÍ
  6
DASHED
100
AcDbLine
 10
-2663.139024782207
 20
-8379.74068632309
 30
0.0
 11
-2659.175508509807
 21
-8381.073404996362
 31
0.0
  0
LINE
  5
226B
330
1F
100
AcDbEntity
  8
SPOJOVACÍ
  6
DASHED
100
AcDbLine
 10
-2662.153615147234
 20
-8389.035077288847
 30
0.0
 11
-2661.783516803708
 21
-8388.664978943181
 31
0.0
  0
LINE
  5
226C
330
1F
100
AcDbEntity
  8
SPOJOVACÍ
  6
DASHED
100
AcDbLine
 10
-2706.086055512313
 20
-8388.664978943181
 30
0.0
 11
-2704.715050800738
 21
-8389.126234516714
 31
0.0
  0
LINE
  5
226D
330
1F
100
AcDbEntity
  8
SPOJOVACÍ
  6
DASHED
100
AcDbLine
 10
-2706.456153855839
 20
-8389.035077288847
 30
0.0
 11
-2706.086055512313
 21
-8388.664978943181
 31
0.0
  0
LINE
  5
226E
330
1F
100
AcDbEntity
  8
SPOJOVACÍ
  6
DASHED
100
AcDbLine
 10
-2705.042305248766
 20
-8389.009553264916
 30
0.0
 11
-2704.779772433021
 21
-8386.907467587631
 31
0.0
  0
HATCH
  5
226F
330
1F
100
AcDbEntity
  8
izolace
100
AcDbHatch
 10
0.0
 20
0.0
 30
0.0
210
0.0
220
0.0
230
1.0
  2
SOLID
 70
     1
 71
     0
 91
        1
 92
        7
 72
     0
 73
     1
 93
        4
 10
-2740.444630171233
 20
-8431.296865220494
 10
-2740.444630171236
 20
-8434.296865220494
 10
-2716.802897461397
 20
-8434.296865220494
 10
-2716.802897461397
 20
-8431.296865220494
 97
        0
 75
     0
 76
     1
 47
0.1901250437635136
 98
        1
 10
-2731.086835412892
 20
-8432.113676771573
  0
LWPOLYLINE
  5
2270
330
1F
100
AcDbEntity
  8
izolace
100
AcDbPolyline
 90
        4
 70
     1
 43
0.0
 10
-2716.802897461401
 20
-8431.296865220494
 10
-2740.444630171236
 20
-8431.296865220494
 10
-2740.444630171236
 20
-8434.296865220494
 10
-2716.802897461401
 20
-8434.296865220494
  0
LINE
  5
2271
330
1F
100
AcDbEntity
  8
POPIS
370
    20
100
AcDbLine
 10
-2734.797342738892
 20
-8480.026392845294
 30
0.0
 11
-2734.797342738892
 21
-8446.425342756645
 31
0.0
  0
INSERT
  5
2272
330
1F
100
AcDbEntity
  8
POPIS
100
AcDbBlockReference
  2
E_PUNKT
 10
-2734.826411069766
 20
-8446.23781277547
 30
0.0
 50
270.0
  0
LINE
  5
2273
330
1F
100
AcDbEntity
  8
POPIS
370
    20
100
AcDbLine
 10
-2675.959682540272
 20
-8480.026392845294
 30
0.0
 11
-2675.959682540272
 21
-8432.894272126542
 31
0.0
  0
HATCH
  5
2274
330
1F
100
AcDbEntity
  8
izolace
100
AcDbHatch
 10
0.0
 20
0.0
 30
0.0
210
0.0
220
0.0
230
1.0
  2
SOLID
 70
     1
 71
     0
 91
        1
 92
        7
 72
     0
 73
     1
 93
        4
 10
-2693.161164751566
 20
-8431.296865220494
 10
-2693.161164751566
 20
-8434.296865220494
 10
-2669.519432041727
 20
-8434.296865220494
 10
-2669.519432041727
 20
-8431.296865220494
 97
        0
 75
     0
 76
     1
 47
0.1901250437635136
 98
        1
 10
-2683.803369993222
 20
-8432.113676771573
  0
LWPOLYLINE
  5
2275
330
1F
100
AcDbEntity
  8
izolace
100
AcDbPolyline
 90
        4
 70
     1
 43
0.0
 10
-2669.519432041731
 20
-8431.296865220494
 10
-2693.161164751566
 20
-8431.296865220494
 10
-2693.161164751566
 20
-8434.296865220494
 10
-2669.519432041731
 20
-8434.296865220494
  0
LINE
  5
2276
330
1F
100
AcDbEntity
  8
SPOJOVACÍ
  6
DASHED
100
AcDbLine
 10
-2706.456153855839
 20
-8389.035077288847
 30
0.0
 11
-2704.344952457212
 21
-8389.339542430304
 31
0.0
  0
LINE
  5
2277
330
1F
100
AcDbEntity
  8
SPOJOVACÍ
  6
DASHED
100
AcDbLine
 10
-2706.456153855839
 20
-8389.035077288847
 30
0.0
 11
-2706.086055512313
 21
-8389.249296774627
 31
0.0
  0
LINE
  5
2278
330
1F
100
AcDbEntity
  8
SPOJOVACÍ
  6
DASHED
100
AcDbLine
 10
-2706.086055512313
 20
-8389.249296774627
 30
0.0
 11
-2704.715050800738
 21
-8389.710552348159
 31
0.0
  0
LINE
  5
2279
330
1F
100
AcDbEntity
  8
SPOJOVACÍ
  6
DASHED
100
AcDbLine
 10
-2704.344952457212
 20
-8389.339542430304
 30
0.0
 11
-2704.715050800738
 21
-8389.126234516714
 31
0.0
  0
LINE
  5
227A
330
1F
100
AcDbEntity
  8
SPOJOVACÍ
  6
DASHED
100
AcDbLine
 10
-2704.344952457212
 20
-8389.339542430304
 30
0.0
 11
-2704.715050800738
 21
-8389.710552348159
 31
0.0
  0
LINE
  5
227B
330
1F
100
AcDbEntity
  8
SPOJOVACÍ
  6
DASHED
100
AcDbLine
 10
-2705.838107851572
 20
-8389.319487840035
 30
0.0
 11
-2705.459805356752
 21
-8392.346819381485
 31
0.0
  0
LINE
  5
227C
330
1F
100
AcDbEntity
  8
SPOJOVACÍ
  6
DASHED
100
AcDbLine
 10
-2705.459805356752
 20
-8392.346819381485
 30
0.0
 11
-2705.112496315245
 21
-8389.567435500241
 31
0.0
  0
INSERT
  5
227D
330
1F
100
AcDbEntity
  8
POPIS
100
AcDbBlockReference
  2
E_PUNKT
 10
-2675.988750871145
 20
-8434.269254844867
 30
0.0
 50
270.0
  0
LINE
  5
227E
330
1F
100
AcDbEntity
  8
SPOJOVACÍ
  6
DASHED
100
AcDbLine
 10
-2661.157266648146
 20
-8392.346819381485
 30
0.0
 11
-2660.80995760664
 21
-8389.567435500241
 31
0.0
  0
LINE
  5
227F
330
1F
100
AcDbEntity
  8
SPOJOVACÍ
  6
DASHED
100
AcDbLine
 10
-2661.535569142967
 20
-8389.319487840035
 30
0.0
 11
-2661.157266648146
 21
-8392.346819381485
 31
0.0
  0
LINE
  5
2280
330
1F
100
AcDbEntity
  8
SPOJOVACÍ
  6
DASHED
100
AcDbLine
 10
-2662.153615147234
 20
-8389.035077288847
 30
0.0
 11
-2661.783516803708
 21
-8389.249296774627
 31
0.0
  0
LINE
  5
2281
330
1F
100
AcDbEntity
  8
SPOJOVACÍ
  6
DASHED
100
AcDbLine
 10
-2707.441563490813
 20
-8371.152763874516
 30
0.0
 11
-2703.478047218412
 21
-8372.484570975329
 31
0.0
  0
LINE
  5
2282
330
1F
100
AcDbEntity
  8
SPOJOVACÍ
  6
DASHED
100
AcDbLine
 10
-2703.107948874886
 20
-8372.114472629935
 30
0.0
 11
-2703.478047218412
 21
-8372.484570975329
 31
0.0
  0
LINE
  5
2283
330
1F
100
AcDbEntity
  8
SPOJOVACÍ
  6
DASHED
100
AcDbLine
 10
-2704.137113974872
 20
-8372.253031616377
 30
0.0
 11
-2704.137113974872
 21
-8374.730685072989
 31
0.0
  0
LINE
  5
2284
330
1F
100
AcDbEntity
  8
SPOJOVACÍ
  6
DASHED
100
AcDbLine
 10
-2706.782496734353
 20
-8371.365160215656
 30
0.0
 11
-2706.782496734353
 21
-8373.83552109423
 31
0.0
  0
LINE
  5
2285
330
1F
100
AcDbEntity
  8
SPOJOVACÍ
  6
DASHED
100
AcDbLine
 10
-2707.441563490813
 20
-8379.74068632309
 30
0.0
 11
-2703.478047218412
 21
-8381.073404996362
 31
0.0
  0
LINE
  5
2286
330
1F
100
AcDbEntity
  8
SPOJOVACÍ
  6
DASHED
100
AcDbLine
 10
-2707.441563490813
 20
-8380.32500415454
 30
0.0
 11
-2703.478047218412
 21
-8381.657722827814
 31
0.0
  0
LINE
  5
2287
330
1F
100
AcDbEntity
  8
SPOJOVACÍ
  6
DASHED
100
AcDbLine
 10
-2707.811661838618
 20
-8380.111696241213
 30
0.0
 11
-2703.107948874886
 21
-8381.287624482148
 31
0.0
  0
LINE
  5
2288
330
1F
100
AcDbEntity
  8
SPOJOVACÍ
  6
DASHED
100
AcDbLine
 10
-2707.441563490813
 20
-8376.683272896507
 30
0.0
 11
-2703.478047218412
 21
-8378.01599156978
 31
0.0
  0
LINE
  5
2289
330
1F
100
AcDbEntity
  8
SPOJOVACÍ
  6
DASHED
100
AcDbLine
 10
-2707.441563490813
 20
-8377.267590727951
 30
0.0
 11
-2703.478047218412
 21
-8378.60030940096
 31
0.0
  0
LINE
  5
228A
330
1F
100
AcDbEntity
  8
SPOJOVACÍ
  6
DASHED
100
AcDbLine
 10
-2707.811661838618
 20
-8377.053371242174
 30
0.0
 11
-2703.107948874886
 21
-8378.229299483107
 31
0.0
  0
LINE
  5
228B
330
1F
100
AcDbEntity
  8
SPOJOVACÍ
  6
DASHED
100
AcDbLine
 10
-2707.441563490813
 20
-8373.625859469917
 30
0.0
 11
-2703.478047218412
 21
-8374.958578142924
 31
0.0
  0
LINE
  5
228C
330
1F
100
AcDbEntity
  8
SPOJOVACÍ
  6
DASHED
100
AcDbLine
 10
-2707.441563490813
 20
-8374.210177301369
 30
0.0
 11
-2703.478047218412
 21
-8375.542895974369
 31
0.0
  0
LINE
  5
228D
330
1F
100
AcDbEntity
  8
SPOJOVACÍ
  6
DASHED
100
AcDbLine
 10
-2707.811661838618
 20
-8373.995957815584
 30
0.0
 11
-2703.107948874886
 21
-8375.171886056516
 31
0.0
  0
LINE
  5
228E
330
1F
100
AcDbEntity
  8
SPOJOVACÍ
  6
DASHED
100
AcDbLine
 10
-2707.009478232102
 20
-8386.081583102095
 30
0.0
 11
-2703.955711093999
 21
-8386.702363824529
 31
0.0
  0
LINE
  5
228F
330
1F
100
AcDbEntity
  8
SPOJOVACÍ
  6
DASHED
100
AcDbLine
 10
-2706.639379884297
 20
-8385.710573183969
 30
0.0
 11
-2704.325809437525
 21
-8386.489055911201
 31
0.0
  0
LINE
  5
2290
330
1F
100
AcDbEntity
  8
SPOJOVACÍ
  6
DASHED
100
AcDbLine
 10
-2706.639379884297
 20
-8386.294891015422
 30
0.0
 11
-2704.325809437525
 21
-8387.073373742381
 31
0.0
  0
LINE
  5
2291
330
1F
100
AcDbEntity
  8
SPOJOVACÍ
  6
DASHED
100
AcDbLine
 10
-2707.562802604085
 20
-8383.127177342883
 30
0.0
 11
-2703.519979544397
 21
-8384.080681947541
 31
0.0
  0
LINE
  5
2292
330
1F
100
AcDbEntity
  8
SPOJOVACÍ
  6
DASHED
100
AcDbLine
 10
-2707.191792686767
 20
-8382.757078997215
 30
0.0
 11
-2703.890077887924
 21
-8383.867374034213
 31
0.0
  0
LINE
  5
2293
330
1F
100
AcDbEntity
  8
SPOJOVACÍ
  6
DASHED
100
AcDbLine
 10
-2707.191792686767
 20
-8383.341396828667
 30
0.0
 11
-2703.890077887924
 21
-8384.451691865665
 31
0.0
  0
LINE
  5
2294
330
1F
100
AcDbEntity
  8
SPOJOVACÍ
  6
DASHED
100
AcDbLine
 10
-2706.560073097009
 20
-8383.543765874936
 30
0.0
 11
-2706.27566254448
 21
-8385.819050285279
 31
0.0
  0
LINE
  5
2295
330
1F
100
AcDbEntity
  8
SPOJOVACÍ
  6
DASHED
100
AcDbLine
 10
-2706.782496734353
 20
-8380.540135212779
 30
0.0
 11
-2706.782496734353
 21
-8381.762553639829
 31
0.0
  0
LINE
  5
2296
330
1F
100
AcDbEntity
  8
SPOJOVACÍ
  6
DASHED
100
AcDbLine
 10
-2707.009478232102
 20
-8386.081583102095
 30
0.0
 11
-2706.639379884297
 21
-8385.710573183969
 31
0.0
  0
LINE
  5
2297
330
1F
100
AcDbEntity
  8
SPOJOVACÍ
  6
DASHED
100
AcDbLine
 10
-2707.009478232102
 20
-8386.081583102095
 30
0.0
 11
-2706.639379884297
 21
-8386.294891015422
 31
0.0
  0
LINE
  5
2298
330
1F
100
AcDbEntity
  8
SPOJOVACÍ
  6
DASHED
100
AcDbLine
 10
-2707.562802604085
 20
-8383.127177342883
 30
0.0
 11
-2707.191792686767
 21
-8382.757078997215
 31
0.0
  0
LINE
  5
2299
330
1F
100
AcDbEntity
  8
SPOJOVACÍ
  6
DASHED
100
AcDbLine
 10
-2707.562802604085
 20
-8383.127177342883
 30
0.0
 11
-2707.191792686767
 21
-8383.341396828667
 31
0.0
  0
LINE
  5
229A
330
1F
100
AcDbEntity
  8
SPOJOVACÍ
  6
DASHED
100
AcDbLine
 10
-2706.782496734353
 20
-8381.762553639829
 30
0.0
 11
-2706.635733597685
 21
-8382.9357471642
 31
0.0
  0
LINE
  5
229B
330
1F
100
AcDbEntity
  8
SPOJOVACÍ
  6
DASHED
100
AcDbLine
 10
-2707.811661838618
 20
-8380.111696241213
 30
0.0
 11
-2707.441563490813
 21
-8379.74068632309
 31
0.0
  0
LINE
  5
229C
330
1F
100
AcDbEntity
  8
SPOJOVACÍ
  6
DASHED
100
AcDbLine
 10
-2707.811661838618
 20
-8380.111696241213
 30
0.0
 11
-2707.441563490813
 21
-8380.32500415454
 31
0.0
  0
LINE
  5
229D
330
1F
100
AcDbEntity
  8
SPOJOVACÍ
  6
DASHED
100
AcDbLine
 10
-2707.811661838618
 20
-8377.053371242174
 30
0.0
 11
-2707.441563490813
 21
-8376.683272896507
 31
0.0
  0
LINE
  5
229E
330
1F
100
AcDbEntity
  8
SPOJOVACÍ
  6
DASHED
100
AcDbLine
 10
-2707.811661838618
 20
-8377.053371242174
 30
0.0
 11
-2707.441563490813
 21
-8377.267590727951
 31
0.0
  0
LINE
  5
229F
330
1F
100
AcDbEntity
  8
SPOJOVACÍ
  6
DASHED
100
AcDbLine
 10
-2707.811661838618
 20
-8373.995957815584
 30
0.0
 11
-2707.441563490813
 21
-8373.625859469917
 31
0.0
  0
LINE
  5
22A0
330
1F
100
AcDbEntity
  8
SPOJOVACÍ
  6
DASHED
100
AcDbLine
 10
-2707.811661838618
 20
-8373.995957815584
 30
0.0
 11
-2707.441563490813
 21
-8374.210177301369
 31
0.0
  0
LINE
  5
22A1
330
1F
100
AcDbEntity
  8
SPOJOVACÍ
  6
DASHED
100
AcDbLine
 10
-2706.782496734353
 20
-8377.488191219587
 30
0.0
 11
-2706.782496734353
 21
-8379.955817381327
 31
0.0
  0
LINE
  5
22A2
330
1F
100
AcDbEntity
  8
SPOJOVACÍ
  6
DASHED
100
AcDbLine
 10
-2706.782496734353
 20
-8374.418015781035
 30
0.0
 11
-2706.782496734353
 21
-8376.895669237647
 31
0.0
  0
LINE
  5
22A3
330
1F
100
AcDbEntity
  8
SPOJOVACÍ
  6
DASHED
100
AcDbLine
 10
-2704.137113974872
 20
-8378.372416331023
 30
0.0
 11
-2704.137113974872
 21
-8380.840954064952
 31
0.0
  0
LINE
  5
22A4
330
1F
100
AcDbEntity
  8
SPOJOVACÍ
  6
DASHED
100
AcDbLine
 10
-2703.107948874886
 20
-8381.287624482148
 30
0.0
 11
-2703.478047218412
 21
-8381.073404996362
 31
0.0
  0
LINE
  5
22A5
330
1F
100
AcDbEntity
  8
SPOJOVACÍ
  6
DASHED
100
AcDbLine
 10
-2703.107948874886
 20
-8381.287624482148
 30
0.0
 11
-2703.478047218412
 21
-8381.657722827814
 31
0.0
  0
LINE
  5
22A6
330
1F
100
AcDbEntity
  8
SPOJOVACÍ
  6
DASHED
100
AcDbLine
 10
-2703.955711093999
 20
-8386.702363824529
 30
0.0
 11
-2704.325809437525
 21
-8386.489055911201
 31
0.0
  0
LINE
  5
22A7
330
1F
100
AcDbEntity
  8
SPOJOVACÍ
  6
DASHED
100
AcDbLine
 10
-2703.955711093999
 20
-8386.702363824529
 30
0.0
 11
-2704.325809437525
 21
-8387.073373742381
 31
0.0
  0
LINE
  5
22A8
330
1F
100
AcDbEntity
  8
SPOJOVACÍ
  6
DASHED
100
AcDbLine
 10
-2703.519979544397
 20
-8384.080681947541
 30
0.0
 11
-2703.890077887924
 21
-8383.867374034213
 31
0.0
  0
LINE
  5
22A9
330
1F
100
AcDbEntity
  8
SPOJOVACÍ
  6
DASHED
100
AcDbLine
 10
-2703.519979544397
 20
-8384.080681947541
 30
0.0
 11
-2703.890077887924
 21
-8384.451691865665
 31
0.0
  0
LINE
  5
22AA
330
1F
100
AcDbEntity
  8
SPOJOVACÍ
  6
DASHED
100
AcDbLine
 10
-2704.37776905811
 20
-8383.69417530089
 30
0.0
 11
-2704.137113974872
 21
-8381.762553639829
 31
0.0
  0
LINE
  5
22AB
330
1F
100
AcDbEntity
  8
SPOJOVACÍ
  6
DASHED
100
AcDbLine
 10
-2704.709581370821
 20
-8386.346850635471
 30
0.0
 11
-2704.44796012459
 21
-8384.252969108676
 31
0.0
  0
LINE
  5
22AC
330
1F
100
AcDbEntity
  8
SPOJOVACÍ
  6
DASHED
100
AcDbLine
 10
-2706.198178900498
 20
-8386.437096291151
 30
0.0
 11
-2705.913768352248
 21
-8388.711469129299
 31
0.0
  0
LINE
  5
22AD
330
1F
100
AcDbEntity
  8
SPOJOVACÍ
  6
DASHED
100
AcDbLine
 10
-2704.137113974872
 20
-8381.432564474705
 30
0.0
 11
-2704.137113974872
 21
-8381.762553639829
 31
0.0
  0
LINE
  5
22AE
330
1F
100
AcDbEntity
  8
SPOJOVACÍ
  6
DASHED
100
AcDbLine
 10
-2703.107948874886
 20
-8378.229299483107
 30
0.0
 11
-2703.478047218412
 21
-8378.01599156978
 31
0.0
  0
LINE
  5
22AF
330
1F
100
AcDbEntity
  8
SPOJOVACÍ
  6
DASHED
100
AcDbLine
 10
-2703.107948874886
 20
-8378.229299483107
 30
0.0
 11
-2703.478047218412
 21
-8378.60030940096
 31
0.0
  0
LINE
  5
22B0
330
1F
100
AcDbEntity
  8
SPOJOVACÍ
  6
DASHED
100
AcDbLine
 10
-2703.107948874886
 20
-8375.171886056516
 30
0.0
 11
-2703.478047218412
 21
-8374.958578142924
 31
0.0
  0
LINE
  5
22B1
330
1F
100
AcDbEntity
  8
SPOJOVACÍ
  6
DASHED
100
AcDbLine
 10
-2703.107948874886
 20
-8375.171886056516
 30
0.0
 11
-2703.478047218412
 21
-8375.542895974369
 31
0.0
  0
LINE
  5
22B2
330
1F
100
AcDbEntity
  8
SPOJOVACÍ
  6
DASHED
100
AcDbLine
 10
-2704.137113974872
 20
-8375.313179759794
 30
0.0
 11
-2704.137113974872
 21
-8377.783540638368
 31
0.0
  0
LINE
  5
22B3
330
1F
100
AcDbEntity
  8
SPOJOVACÍ
  6
DASHED
100
AcDbLine
 10
-2707.441563490813
 20
-8370.568446043064
 30
0.0
 11
-2703.478047218412
 21
-8371.900253144147
 31
0.0
  0
LINE
  5
22B4
330
1F
100
AcDbEntity
  8
SPOJOVACÍ
  6
DASHED
100
AcDbLine
 10
-2707.811661838618
 20
-8370.93854438873
 30
0.0
 11
-2703.107948874886
 21
-8372.114472629935
 31
0.0
  0
LINE
  5
22B5
330
1F
100
AcDbEntity
  8
SPOJOVACÍ
  6
DASHED
100
AcDbLine
 10
-2707.441563490813
 20
-8367.510121044293
 30
0.0
 11
-2703.478047218412
 21
-8368.842839717293
 31
0.0
  0
LINE
  5
22B6
330
1F
100
AcDbEntity
  8
SPOJOVACÍ
  6
DASHED
100
AcDbLine
 10
-2707.441563490813
 20
-8368.094438875473
 30
0.0
 11
-2703.478047218412
 21
-8369.427157548747
 31
0.0
  0
LINE
  5
22B7
330
1F
100
AcDbEntity
  8
SPOJOVACÍ
  6
DASHED
100
AcDbLine
 10
-2707.811661838618
 20
-8367.881130962146
 30
0.0
 11
-2703.107948874886
 21
-8369.057059203079
 31
0.0
  0
LINE
  5
22B8
330
1F
100
AcDbEntity
  8
SPOJOVACÍ
  6
DASHED
100
AcDbLine
 10
-2710.457956167613
 20
-8358.47279346169
 30
0.0
 11
-2700.461654545891
 21
-8358.47279346169
 31
0.0
  0
LINE
  5
22B9
330
1F
100
AcDbEntity
  8
SPOJOVACÍ
  6
DASHED
100
AcDbLine
 10
-2710.457956167613
 20
-8357.296865220494
 30
0.0
 11
-2700.461654545891
 21
-8357.296865220494
 31
0.0
  0
LINE
  5
22BA
330
1F
100
AcDbEntity
  8
SPOJOVACÍ
  6
DASHED
100
AcDbLine
 10
-2706.782496734353
 20
-8363.76447054616
 30
0.0
 11
-2706.782496734353
 21
-8367.721605813246
 31
0.0
  0
LINE
  5
22BB
330
1F
100
AcDbEntity
  8
SPOJOVACÍ
  6
DASHED
100
AcDbLine
 10
-2707.811661838618
 20
-8370.93854438873
 30
0.0
 11
-2707.441563490813
 21
-8370.568446043064
 31
0.0
  0
LINE
  5
22BC
330
1F
100
AcDbEntity
  8
SPOJOVACÍ
  6
DASHED
100
AcDbLine
 10
-2707.811661838618
 20
-8370.93854438873
 30
0.0
 11
-2707.441563490813
 21
-8371.152763874516
 31
0.0
  0
LINE
  5
22BD
330
1F
100
AcDbEntity
  8
SPOJOVACÍ
  6
DASHED
100
AcDbLine
 10
-2707.811661838618
 20
-8367.881130962146
 30
0.0
 11
-2707.441563490813
 21
-8367.510121044293
 31
0.0
  0
LINE
  5
22BE
330
1F
100
AcDbEntity
  8
SPOJOVACÍ
  6
DASHED
100
AcDbLine
 10
-2707.811661838618
 20
-8367.881130962146
 30
0.0
 11
-2707.441563490813
 21
-8368.094438875473
 31
0.0
  0
LINE
  5
22BF
330
1F
100
AcDbEntity
  8
SPOJOVACÍ
  6
DASHED
100
AcDbLine
 10
-2706.782496734353
 20
-8368.305012072239
 30
0.0
 11
-2706.782496734353
 21
-8370.773549806166
 31
0.0
  0
LINE
  5
22C0
330
1F
100
AcDbEntity
  8
SPOJOVACÍ
  6
DASHED
100
AcDbLine
 10
-2710.457956167613
 20
-8358.47279346169
 30
0.0
 11
-2709.135264785733
 21
-8359.202051285434
 31
0.0
  0
LINE
  5
22C1
330
1F
100
AcDbEntity
  8
SPOJOVACÍ
  6
DASHED
100
AcDbLine
 10
-2709.135264785733
 20
-8359.202051285434
 30
0.0
 11
-2708.046847483382
 21
-8360.249447835057
 31
0.0
  0
LINE
  5
22C2
330
1F
100
AcDbEntity
  8
SPOJOVACÍ
  6
DASHED
100
AcDbLine
 10
-2708.046847483382
 20
-8360.249447835057
 30
0.0
 11
-2707.26654161365
 21
-8361.54205732779
 31
0.0
  0
LINE
  5
22C3
330
1F
100
AcDbEntity
  8
SPOJOVACÍ
  6
DASHED
100
AcDbLine
 10
-2707.26654161365
 20
-8361.54205732779
 30
0.0
 11
-2706.847218366636
 21
-8362.9932803975
 31
0.0
  0
LINE
  5
22C4
330
1F
100
AcDbEntity
  8
SPOJOVACÍ
  6
DASHED
100
AcDbLine
 10
-2706.847218366636
 20
-8362.9932803975
 30
0.0
 11
-2706.782496734353
 21
-8363.76447054616
 31
0.0
  0
LINE
  5
22C5
330
1F
100
AcDbEntity
  8
SPOJOVACÍ
  6
DASHED
100
AcDbLine
 10
-2710.457956167613
 20
-8357.296865220494
 30
0.0
 11
-2710.457956167613
 21
-8358.47279346169
 31
0.0
  0
LINE
  5
22C6
330
1F
100
AcDbEntity
  8
SPOJOVACÍ
  6
DASHED
100
AcDbLine
 10
-2704.137113974872
 20
-8363.76447054616
 30
0.0
 11
-2704.137113974872
 21
-8368.608565641508
 31
0.0
  0
LINE
  5
22C7
330
1F
100
AcDbEntity
  8
SPOJOVACÍ
  6
DASHED
100
AcDbLine
 10
-2703.107948874886
 20
-8372.114472629935
 30
0.0
 11
-2703.478047218412
 21
-8371.900253144147
 31
0.0
  0
LINE
  5
22C8
330
1F
100
AcDbEntity
  8
SPOJOVACÍ
  6
DASHED
100
AcDbLine
 10
-2703.107948874886
 20
-8369.057059203079
 30
0.0
 11
-2703.478047218412
 21
-8368.842839717293
 31
0.0
  0
LINE
  5
22C9
330
1F
100
AcDbEntity
  8
SPOJOVACÍ
  6
DASHED
100
AcDbLine
 10
-2703.107948874886
 20
-8369.057059203079
 30
0.0
 11
-2703.478047218412
 21
-8369.427157548747
 31
0.0
  0
LINE
  5
22CA
330
1F
100
AcDbEntity
  8
SPOJOVACÍ
  6
DASHED
100
AcDbLine
 10
-2704.137113974872
 20
-8369.200176050998
 30
0.0
 11
-2704.137113974872
 21
-8371.668713784925
 31
0.0
  0
LINE
  5
22CB
330
1F
100
AcDbEntity
  8
SPOJOVACÍ
  6
DASHED
100
AcDbLine
 10
-2702.375044761057
 20
-8359.702504467049
 30
0.0
 11
-2701.162653628335
 21
-8358.802782626815
 31
0.0
  0
LINE
  5
22CC
330
1F
100
AcDbEntity
  8
SPOJOVACÍ
  6
DASHED
100
AcDbLine
 10
-2701.162653628335
 20
-8358.802782626815
 30
0.0
 11
-2700.461654545891
 21
-8358.47279346169
 31
0.0
  0
LINE
  5
22CD
330
1F
100
AcDbEntity
  8
SPOJOVACÍ
  6
DASHED
100
AcDbLine
 10
-2700.461654545891
 20
-8357.296865220494
 30
0.0
 11
-2700.461654545891
 21
-8358.47279346169
 31
0.0
  0
LINE
  5
22CE
330
1F
100
AcDbEntity
  8
SPOJOVACÍ
  6
DASHED
100
AcDbLine
 10
-2704.137113974872
 20
-8363.76447054616
 30
0.0
 11
-2703.914690341806
 21
-8362.271315151799
 31
0.0
  0
LINE
  5
22CF
330
1F
100
AcDbEntity
  8
SPOJOVACÍ
  6
DASHED
100
AcDbLine
 10
-2703.914690341806
 20
-8362.271315151799
 30
0.0
 11
-2703.313964209641
 21
-8360.885725286289
 31
0.0
  0
LINE
  5
22D0
330
1F
100
AcDbEntity
  8
SPOJOVACÍ
  6
DASHED
100
AcDbLine
 10
-2703.313964209641
 20
-8360.885725286289
 30
0.0
 11
-2702.375044761057
 21
-8359.702504467049
 31
0.0
  0
LINE
  5
22D1
330
1F
100
AcDbEntity
  8
SPOJOVACÍ
  6
DASHED
100
AcDbLine
 10
-2662.479958025748
 20
-8371.365160215656
 30
0.0
 11
-2662.479958025748
 21
-8373.83552109423
 31
0.0
  0
LINE
  5
22D2
330
1F
100
AcDbEntity
  8
SPOJOVACÍ
  6
DASHED
100
AcDbLine
 10
-2662.479958025748
 20
-8380.540135212779
 30
0.0
 11
-2662.479958025748
 21
-8381.762553639829
 31
0.0
  0
LINE
  5
22D3
330
1F
100
AcDbEntity
  8
SPOJOVACÍ
  6
DASHED
100
AcDbLine
 10
-2662.479958025748
 20
-8381.762553639829
 30
0.0
 11
-2662.333194889079
 21
-8382.9357471642
 31
0.0
  0
LINE
  5
22D4
330
1F
100
AcDbEntity
  8
SPOJOVACÍ
  6
DASHED
100
AcDbLine
 10
-2662.257534388404
 20
-8383.543765874936
 30
0.0
 11
-2661.973123835875
 21
-8385.819050285279
 31
0.0
  0
LINE
  5
22D5
330
1F
100
AcDbEntity
  8
SPOJOVACÍ
  6
DASHED
100
AcDbLine
 10
-2661.895640191893
 20
-8386.437096291151
 30
0.0
 11
-2661.611229643642
 21
-8388.711469129299
 31
0.0
  0
LINE
  5
22D6
330
1F
100
AcDbEntity
  8
SPOJOVACÍ
  6
DASHED
100
AcDbLine
 10
-2663.26026389548
 20
-8383.127177342883
 30
0.0
 11
-2662.889253978161
 21
-8383.341396828667
 31
0.0
  0
LINE
  5
22D7
330
1F
100
AcDbEntity
  8
SPOJOVACÍ
  6
DASHED
100
AcDbLine
 10
-2663.26026389548
 20
-8383.127177342883
 30
0.0
 11
-2662.889253978161
 21
-8382.757078997215
 31
0.0
  0
LINE
  5
22D8
330
1F
100
AcDbEntity
  8
SPOJOVACÍ
  6
DASHED
100
AcDbLine
 10
-2662.706939523496
 20
-8386.081583102095
 30
0.0
 11
-2662.336841175691
 21
-8386.294891015422
 31
0.0
  0
LINE
  5
22D9
330
1F
100
AcDbEntity
  8
SPOJOVACÍ
  6
DASHED
100
AcDbLine
 10
-2662.706939523496
 20
-8386.081583102095
 30
0.0
 11
-2662.336841175691
 21
-8385.710573183969
 31
0.0
  0
LINE
  5
22DA
330
1F
100
AcDbEntity
  8
SPOJOVACÍ
  6
DASHED
100
AcDbLine
 10
-2662.479958025748
 20
-8374.418015781035
 30
0.0
 11
-2662.479958025748
 21
-8376.895669237647
 31
0.0
  0
LINE
  5
22DB
330
1F
100
AcDbEntity
  8
SPOJOVACÍ
  6
DASHED
100
AcDbLine
 10
-2662.479958025748
 20
-8377.488191219587
 30
0.0
 11
-2662.479958025748
 21
-8379.955817381327
 31
0.0
  0
LINE
  5
22DC
330
1F
100
AcDbEntity
  8
SPOJOVACÍ
  6
DASHED
100
AcDbLine
 10
-2663.509123130012
 20
-8373.995957815584
 30
0.0
 11
-2663.139024782207
 21
-8374.210177301369
 31
0.0
  0
LINE
  5
22DD
330
1F
100
AcDbEntity
  8
SPOJOVACÍ
  6
DASHED
100
AcDbLine
 10
-2663.509123130012
 20
-8373.995957815584
 30
0.0
 11
-2663.139024782207
 21
-8373.625859469917
 31
0.0
  0
LINE
  5
22DE
330
1F
100
AcDbEntity
  8
SPOJOVACÍ
  6
DASHED
100
AcDbLine
 10
-2663.509123130012
 20
-8377.053371242174
 30
0.0
 11
-2663.139024782207
 21
-8377.267590727951
 31
0.0
  0
LINE
  5
22DF
330
1F
100
AcDbEntity
  8
SPOJOVACÍ
  6
DASHED
100
AcDbLine
 10
-2663.509123130012
 20
-8377.053371242174
 30
0.0
 11
-2663.139024782207
 21
-8376.683272896507
 31
0.0
  0
LINE
  5
22E0
330
1F
100
AcDbEntity
  8
SPOJOVACÍ
  6
DASHED
100
AcDbLine
 10
-2663.509123130012
 20
-8380.111696241213
 30
0.0
 11
-2663.139024782207
 21
-8380.32500415454
 31
0.0
  0
LINE
  5
22E1
330
1F
100
AcDbEntity
  8
SPOJOVACÍ
  6
DASHED
100
AcDbLine
 10
-2663.509123130012
 20
-8380.111696241213
 30
0.0
 11
-2663.139024782207
 21
-8379.74068632309
 31
0.0
  0
LINE
  5
22E2
330
1F
100
AcDbEntity
  8
CETRIS
100
AcDbLine
 10
-2684.248930787358
 20
-8357.296865220494
 30
0.0
 11
-2684.248930787358
 21
-8369.296865220492
 31
0.0
  0
LINE
  5
22E3
330
1F
100
AcDbEntity
  8
SPOJOVACÍ
  6
DASHED
100
AcDbLine
 10
-2662.479958025748
 20
-8363.76447054616
 30
0.0
 11
-2662.479958025748
 21
-8367.721605813246
 31
0.0
  0
LINE
  5
22E4
330
1F
100
AcDbEntity
  8
SPOJOVACÍ
  6
DASHED
100
AcDbLine
 10
-2662.479958025748
 20
-8368.305012072239
 30
0.0
 11
-2662.479958025748
 21
-8370.773549806166
 31
0.0
  0
LINE
  5
22E5
330
1F
100
AcDbEntity
  8
SPOJOVACÍ
  6
DASHED
100
AcDbLine
 10
-2663.509123130012
 20
-8367.881130962146
 30
0.0
 11
-2663.139024782207
 21
-8368.094438875473
 31
0.0
  0
LINE
  5
22E6
330
1F
100
AcDbEntity
  8
SPOJOVACÍ
  6
DASHED
100
AcDbLine
 10
-2663.509123130012
 20
-8367.881130962146
 30
0.0
 11
-2663.139024782207
 21
-8367.510121044293
 31
0.0
  0
LINE
  5
22E7
330
1F
100
AcDbEntity
  8
SPOJOVACÍ
  6
DASHED
100
AcDbLine
 10
-2663.509123130012
 20
-8370.93854438873
 30
0.0
 11
-2663.139024782207
 21
-8371.152763874516
 31
0.0
  0
LINE
  5
22E8
330
1F
100
AcDbEntity
  8
SPOJOVACÍ
  6
DASHED
100
AcDbLine
 10
-2663.509123130012
 20
-8370.93854438873
 30
0.0
 11
-2663.139024782207
 21
-8370.568446043064
 31
0.0
  0
LINE
  5
22E9
330
1F
100
AcDbEntity
  8
SPOJOVACÍ
  6
DASHED
100
AcDbLine
 10
-2666.155417459008
 20
-8357.296865220494
 30
0.0
 11
-2666.155417459008
 21
-8358.47279346169
 31
0.0
  0
LINE
  5
22EA
330
1F
100
AcDbEntity
  8
SPOJOVACÍ
  6
DASHED
100
AcDbLine
 10
-2662.544679658031
 20
-8362.9932803975
 30
0.0
 11
-2662.479958025748
 21
-8363.76447054616
 31
0.0
  0
LINE
  5
22EB
330
1F
100
AcDbEntity
  8
SPOJOVACÍ
  6
DASHED
100
AcDbLine
 10
-2662.964002905045
 20
-8361.54205732779
 30
0.0
 11
-2662.544679658031
 21
-8362.9932803975
 31
0.0
  0
LINE
  5
22EC
330
1F
100
AcDbEntity
  8
SPOJOVACÍ
  6
DASHED
100
AcDbLine
 10
-2663.744308774776
 20
-8360.249447835057
 30
0.0
 11
-2662.964002905045
 21
-8361.54205732779
 31
0.0
  0
LINE
  5
22ED
330
1F
100
AcDbEntity
  8
SPOJOVACÍ
  6
DASHED
100
AcDbLine
 10
-2664.832726077128
 20
-8359.202051285434
 30
0.0
 11
-2663.744308774776
 21
-8360.249447835057
 31
0.0
  0
LINE
  5
22EE
330
1F
100
AcDbEntity
  8
SPOJOVACÍ
  6
DASHED
100
AcDbLine
 10
-2666.155417459008
 20
-8358.47279346169
 30
0.0
 11
-2664.832726077128
 21
-8359.202051285434
 31
0.0
  0
LINE
  5
22EF
330
1F
100
AcDbEntity
  8
POPIS
370
    20
100
AcDbLine
 10
-2616.576750271834
 20
-8480.026392845294
 30
0.0
 11
-2616.576750271834
 21
-8403.513382216408
 31
0.0
  0
INSERT
  5
22F0
330
1F
100
AcDbEntity
  8
POPIS
100
AcDbBlockReference
  2
E_PUNKT
 10
-2616.605818602708
 20
-8403.512022738288
 30
0.0
 50
270.0
  0
HATCH
  5
22F1
330
1F
100
AcDbEntity
  8
izolace
100
AcDbHatch
 10
0.0
 20
0.0
 30
0.0
210
0.0
220
0.0
230
1.0
  2
SOLID
 70
     1
 71
     0
 91
        1
 92
        7
 72
     0
 73
     1
 93
        4
 10
-2645.877699331895
 20
-8431.296865220494
 10
-2645.877699331892
 20
-8434.296865220494
 10
-2622.235966622056
 20
-8434.296865220494
 10
-2622.235966622056
 20
-8431.296865220494
 97
        0
 75
     0
 76
     1
 47
0.1901250437635136
 98
        1
 10
-2636.519904573552
 20
-8432.113676771573
  0
LWPOLYLINE
  5
22F2
330
1F
100
AcDbEntity
  8
izolace
100
AcDbPolyline
 90
        4
 70
     1
 43
0.0
 10
-2622.23596662206
 20
-8431.296865220494
 10
-2645.877699331895
 20
-8431.296865220494
 10
-2645.877699331895
 20
-8434.296865220494
 10
-2622.23596662206
 20
-8434.296865220494
  0
LINE
  5
22F3
330
1F
100
AcDbEntity
  8
SPOJOVACÍ
  6
DASHED
100
AcDbLine
 10
-2660.042413748606
 20
-8389.339542430304
 30
0.0
 11
-2660.412512092133
 21
-8389.710552348159
 31
0.0
  0
LINE
  5
22F4
330
1F
100
AcDbEntity
  8
SPOJOVACÍ
  6
DASHED
100
AcDbLine
 10
-2660.042413748606
 20
-8389.339542430304
 30
0.0
 11
-2660.412512092133
 21
-8389.126234516714
 31
0.0
  0
HATCH
  5
22F5
330
1F
100
AcDbEntity
  8
izolace
100
AcDbHatch
 10
0.0
 20
0.0
 30
0.0
210
0.0
220
0.0
230
1.0
  2
SOLID
 70
     1
 71
     0
 91
        1
 92
        7
 72
     0
 73
     1
 93
        4
 10
-2598.594233912221
 20
-8431.296865220494
 10
-2598.594233912221
 20
-8434.296865220494
 10
-2574.952501202386
 20
-8434.296865220494
 10
-2574.952501202386
 20
-8431.296865220494
 97
        0
 75
     0
 76
     1
 47
0.1901250437635136
 98
        1
 10
-2589.236439153882
 20
-8432.113676771573
  0
LWPOLYLINE
  5
22F6
330
1F
100
AcDbEntity
  8
izolace
100
AcDbPolyline
 90
        4
 70
     1
 43
0.0
 10
-2574.95250120239
 20
-8431.296865220494
 10
-2598.594233912225
 20
-8431.296865220494
 10
-2598.594233912225
 20
-8434.296865220494
 10
-2574.95250120239
 20
-8434.296865220494
  0
LINE
  5
22F7
330
1F
100
AcDbEntity
  8
SPOJOVACÍ
  6
DASHED
100
AcDbLine
 10
-2659.834575266266
 20
-8372.253031616377
 30
0.0
 11
-2659.834575266266
 21
-8374.730685072989
 31
0.0
  0
LINE
  5
22F8
330
1F
100
AcDbEntity
  8
SPOJOVACÍ
  6
DASHED
100
AcDbLine
 10
-2658.80541016628
 20
-8372.114472629935
 30
0.0
 11
-2659.175508509807
 21
-8372.484570975329
 31
0.0
  0
LINE
  5
22F9
330
1F
100
AcDbEntity
  8
SPOJOVACÍ
  6
DASHED
100
AcDbLine
 10
-2659.834575266266
 20
-8378.372416331023
 30
0.0
 11
-2659.834575266266
 21
-8380.840954064952
 31
0.0
  0
LINE
  5
22FA
330
1F
100
AcDbEntity
  8
SPOJOVACÍ
  6
DASHED
100
AcDbLine
 10
-2659.834575266266
 20
-8381.432564474705
 30
0.0
 11
-2659.834575266266
 21
-8381.762553639829
 31
0.0
  0
LINE
  5
22FB
330
1F
100
AcDbEntity
  8
SPOJOVACÍ
  6
DASHED
100
AcDbLine
 10
-2660.407042662215
 20
-8386.346850635471
 30
0.0
 11
-2660.145421415984
 21
-8384.252969108676
 31
0.0
  0
LINE
  5
22FC
330
1F
100
AcDbEntity
  8
SPOJOVACÍ
  6
DASHED
100
AcDbLine
 10
-2660.075230349505
 20
-8383.69417530089
 30
0.0
 11
-2659.834575266266
 21
-8381.762553639829
 31
0.0
  0
LINE
  5
22FD
330
1F
100
AcDbEntity
  8
SPOJOVACÍ
  6
DASHED
100
AcDbLine
 10
-2659.217440835792
 20
-8384.080681947541
 30
0.0
 11
-2659.587539179318
 21
-8384.451691865665
 31
0.0
  0
LINE
  5
22FE
330
1F
100
AcDbEntity
  8
SPOJOVACÍ
  6
DASHED
100
AcDbLine
 10
-2659.217440835792
 20
-8384.080681947541
 30
0.0
 11
-2659.587539179318
 21
-8383.867374034213
 31
0.0
  0
LINE
  5
22FF
330
1F
100
AcDbEntity
  8
SPOJOVACÍ
  6
DASHED
100
AcDbLine
 10
-2659.653172385393
 20
-8386.702363824529
 30
0.0
 11
-2660.02327072892
 21
-8387.073373742381
 31
0.0
  0
LINE
  5
2300
330
1F
100
AcDbEntity
  8
SPOJOVACÍ
  6
DASHED
100
AcDbLine
 10
-2659.653172385393
 20
-8386.702363824529
 30
0.0
 11
-2660.02327072892
 21
-8386.489055911201
 31
0.0
  0
LINE
  5
2301
330
1F
100
AcDbEntity
  8
SPOJOVACÍ
  6
DASHED
100
AcDbLine
 10
-2658.80541016628
 20
-8381.287624482148
 30
0.0
 11
-2659.175508509807
 21
-8381.657722827814
 31
0.0
  0
LINE
  5
2302
330
1F
100
AcDbEntity
  8
SPOJOVACÍ
  6
DASHED
100
AcDbLine
 10
-2658.80541016628
 20
-8381.287624482148
 30
0.0
 11
-2659.175508509807
 21
-8381.073404996362
 31
0.0
  0
LINE
  5
2303
330
1F
100
AcDbEntity
  8
SPOJOVACÍ
  6
DASHED
100
AcDbLine
 10
-2659.834575266266
 20
-8375.313179759794
 30
0.0
 11
-2659.834575266266
 21
-8377.783540638368
 31
0.0
  0
LINE
  5
2304
330
1F
100
AcDbEntity
  8
SPOJOVACÍ
  6
DASHED
100
AcDbLine
 10
-2658.80541016628
 20
-8375.171886056516
 30
0.0
 11
-2659.175508509807
 21
-8375.542895974369
 31
0.0
  0
LINE
  5
2305
330
1F
100
AcDbEntity
  8
SPOJOVACÍ
  6
DASHED
100
AcDbLine
 10
-2658.80541016628
 20
-8375.171886056516
 30
0.0
 11
-2659.175508509807
 21
-8374.958578142924
 31
0.0
  0
LINE
  5
2306
330
1F
100
AcDbEntity
  8
SPOJOVACÍ
  6
DASHED
100
AcDbLine
 10
-2658.80541016628
 20
-8378.229299483107
 30
0.0
 11
-2659.175508509807
 21
-8378.60030940096
 31
0.0
  0
LINE
  5
2307
330
1F
100
AcDbEntity
  8
SPOJOVACÍ
  6
DASHED
100
AcDbLine
 10
-2658.80541016628
 20
-8378.229299483107
 30
0.0
 11
-2659.175508509807
 21
-8378.01599156978
 31
0.0
  0
LINE
  5
2308
330
1F
100
AcDbEntity
  8
SPOJOVACÍ
  6
DASHED
100
AcDbLine
 10
-2659.834575266266
 20
-8363.76447054616
 30
0.0
 11
-2659.834575266266
 21
-8368.608565641508
 31
0.0
  0
LINE
  5
2309
330
1F
100
AcDbEntity
  8
SPOJOVACÍ
  6
DASHED
100
AcDbLine
 10
-2659.834575266266
 20
-8369.200176050998
 30
0.0
 11
-2659.834575266266
 21
-8371.668713784925
 31
0.0
  0
LINE
  5
230A
330
1F
100
AcDbEntity
  8
SPOJOVACÍ
  6
DASHED
100
AcDbLine
 10
-2658.80541016628
 20
-8369.057059203079
 30
0.0
 11
-2659.175508509807
 21
-8369.427157548747
 31
0.0
  0
LINE
  5
230B
330
1F
100
AcDbEntity
  8
SPOJOVACÍ
  6
DASHED
100
AcDbLine
 10
-2658.80541016628
 20
-8369.057059203079
 30
0.0
 11
-2659.175508509807
 21
-8368.842839717293
 31
0.0
  0
LINE
  5
230C
330
1F
100
AcDbEntity
  8
SPOJOVACÍ
  6
DASHED
100
AcDbLine
 10
-2658.80541016628
 20
-8372.114472629935
 30
0.0
 11
-2659.175508509807
 21
-8371.900253144147
 31
0.0
  0
LINE
  5
230D
330
1F
100
AcDbEntity
  8
SPOJOVACÍ
  6
DASHED
100
AcDbLine
 10
-2659.011425501036
 20
-8360.885725286289
 30
0.0
 11
-2658.072506052451
 21
-8359.702504467049
 31
0.0
  0
LINE
  5
230E
330
1F
100
AcDbEntity
  8
SPOJOVACÍ
  6
DASHED
100
AcDbLine
 10
-2659.612151633201
 20
-8362.271315151799
 30
0.0
 11
-2659.011425501036
 21
-8360.885725286289
 31
0.0
  0
LINE
  5
230F
330
1F
100
AcDbEntity
  8
SPOJOVACÍ
  6
DASHED
100
AcDbLine
 10
-2659.834575266266
 20
-8363.76447054616
 30
0.0
 11
-2659.612151633201
 21
-8362.271315151799
 31
0.0
  0
LINE
  5
2310
330
1F
100
AcDbEntity
  8
SPOJOVACÍ
  6
DASHED
100
AcDbLine
 10
-2656.159115837285
 20
-8357.296865220494
 30
0.0
 11
-2656.159115837285
 21
-8358.47279346169
 31
0.0
  0
LINE
  5
2311
330
1F
100
AcDbEntity
  8
SPOJOVACÍ
  6
DASHED
100
AcDbLine
 10
-2656.86011491973
 20
-8358.802782626815
 30
0.0
 11
-2656.159115837285
 21
-8358.47279346169
 31
0.0
  0
LINE
  5
2312
330
1F
100
AcDbEntity
  8
SPOJOVACÍ
  6
DASHED
100
AcDbLine
 10
-2658.072506052451
 20
-8359.702504467049
 30
0.0
 11
-2656.86011491973
 21
-8358.802782626815
 31
0.0
  0
INSERT
  5
2313
330
1F
100
AcDbEntity
  8
POPIS
100
AcDbBlockReference
  2
E_PUNKT
 10
-2610.648640906593
 20
-8375.964552280558
 30
0.0
 50
270.0
  0
INSERT
  5
2314
330
1F
100
AcDbEntity
  8
POPIS
100
AcDbBlockReference
  2
E_PUNKT
 10
-2559.562718222138
 20
-8364.323440174938
 30
0.0
 50
270.0
  0
TEXT
  5
2315
330
1F
100
AcDbEntity
  8
POPIS
100
AcDbText
 10
-2683.83600099158
 20
-8276.154045394582
 30
0.0
 40
25.0
  1
06
 41
0.85
  7
SIMPLEX7
100
AcDbText
  0
TEXT
  5
2316
330
1F
100
AcDbEntity
  8
POPIS
100
AcDbText
 10
-2582.004471171064
 20
-8276.154045394582
 30
0.0
 40
25.0
  1
04
 41
0.85
  7
SIMPLEX7
100
AcDbText
  0
TEXT
  5
2317
330
1F
100
AcDbEntity
  8
POPIS
100
AcDbText
 10
-2633.090393855519
 20
-8276.154045394582
 30
0.0
 40
25.0
  1
05
 41
0.85
  7
SIMPLEX7
100
AcDbText
  0
TEXT
  5
2318
330
1F
100
AcDbEntity
  8
POPIS
100
AcDbText
 10
-2484.515409127128
 20
-8511.544297847805
 30
0.0
 40
25.0
  1
03
 41
0.85
  7
SIMPLEX7
100
AcDbText
  0
TEXT
  5
2319
330
1F
100
AcDbEntity
  8
POPIS
100
AcDbText
 10
-2542.336836037207
 20
-8511.544297847805
 30
0.0
 40
25.0
  1
08
 41
0.85
  7
SIMPLEX7
100
AcDbText
  0
HATCH
  5
231A
330
1F
100
AcDbEntity
  8
STAVBA OBRYS
370
    20
100
AcDbHatch
 10
0.0
 20
0.0
 30
0.0
210
0.0
220
0.0
230
1.0
  2
AR-CONC
 70
     0
 71
     0
 91
        1
 92
        7
 72
     1
 73
     1
 93
       13
 10
-2265.30971425017
 20
-8354.675104857978
 42
0.0
 10
-2312.192029064341
 20
-8354.675104857978
 42
0.0
 10
-2312.192029064338
 20
-8363.101050550564
 42
-1.0
 10
-2312.192029064338
 20
-8365.601050550564
 42
-1.0
 10
-2312.192029064338
 20
-8363.101050550564
 42
0.0
 10
-2312.192029064341
 20
-8354.675104857975
 42
0.0
 10
-2452.211969874419
 20
-8354.675104857978
 42
0.0
 10
-2452.211969874419
 20
-8355.355497108453
 42
0.0
 10
-2444.686345151998
 20
-8355.355497108453
 42
0.0
 10
-2444.686345152002
 20
-8356.293188835159
 42
0.0
 10
-2452.211969874423
 20
-8356.293188835159
 42
0.0
 10
-2452.211969874416
 20
-8369.296865220496
 42
0.0
 10
-2265.30971425017
 20
-8369.296865220492
 42
0.0
 97
        0
 75
     0
 76
     1
 52
90.0
 41
0.15
 77
     0
 78
    13
 53
140.0
 43
-32058.84570721413
 44
-3633.503141128534
 45
2.390862830835464
 46
27.3277003494006
 79
     2
 49
2.857499999999999
 49
-31.4325
 53
85.00000000000001
 43
-32058.84570721413
 44
-3633.503141128534
 45
-28.65849643232699
 46
-5.286423896350046
 79
     2
 49
2.286
 49
-25.14599999999999
 53
190.4509999999999
 43
-32058.64646971413
 44
-3631.225841128534
 45
-26.26750317304378
 46
22.04137524989388
 79
     2
 49
2.4285
 49
-26.7135
 53
136.1841999999999
 43
-32066.46570721413
 44
-3633.503141128534
 45
6.306349189909074
 46
40.66185613381948
 79
     2
 49
4.286249999999999
 49
-47.14875
 53
186.6355999999999
 43
-32065.94018221414
 44
-3630.114656128535
 45
-37.11383338350738
 46
35.61063516993557
 79
     2
 49
3.642749999999999
 49
-40.07024999999999
 53
81.18400000000004
 43
-32066.46570721413
 44
-3633.503141128534
 45
-37.11376767908964
 46
35.61069087209009
 79
     2
 49
3.428999999999999
 49
-37.719
 53
111.0
 43
-32064.56070721414
 44
-3629.693141128535
 45
15.33982777751437
 46
22.74223197530749
 79
     2
 49
2.857499999999999
 49
-31.4325
 53
56.00000000000004
 43
-32064.56070721414
 44
-3629.693141128535
 45
-27.62819491834789
 46
9.270304252147061
 79
     2
 49
2.286
 49
-25.14599999999999
 53
161.4514
 43
-32063.28239221414
 44
-3627.797966128534
 45
-12.28842865740861
 46
32.01247361551866
 79
     2
 49
2.428499999999993
 49
-26.71349999999995
 53
127.5
 43
-32058.84570721413
 44
-3633.503141128534
 45
-12.68325583097296
 46
0.4632904875887732
 79
     6
 49
0.0
 49
-24.8412
 49
0.0
 49
-25.527
 49
0.0
 49
-25.24125
 53
97.49999999999985
 43
-32058.84570721413
 44
-3633.503141128534
 45
-15.02708622271792
 46
10.02294937654586
 79
     6
 49
0.0
 49
-14.55419999999999
 49
0.0
 49
-24.26969999999999
 49
0.0
 49
-9.620249999999998
 53
57.5
 43
-32058.84570721413
 44
-3641.999441128534
 45
0.8593115989010209
 46
20.3385892750307
 79
     6
 49
0.0
 49
-9.525
 49
0.0
 49
-29.71799999999999
 49
0.0
 49
-39.43349999999999
 53
47.5
 43
-32058.84570721413
 44
-3645.809441128534
 45
-3.81397365499995
 46
22.2193772079027
 79
     6
 49
0.0
 49
-12.38249999999999
 49
0.0
 49
-19.7358
 49
0.0
 49
-28.00349999999999
 47
0.56013321377044
 98
        1
 10
-2374.170878191713
 20
-8366.031081955542
  0
LINE
  5
231C
330
1F
100
AcDbEntity
  8
STAVBA OBRYS
100
AcDbLine
 10
-2452.211969874416
 20
-8369.296865220492
 30
0.0
 11
-2147.196350506789
 21
-8369.296865220492
 31
0.0
  0
LINE
  5
231D
330
1F
100
AcDbEntity
  8
STAVBA OBRYS
100
AcDbLine
 10
-2452.211969874416
 20
-8434.296865220494
 30
0.0
 11
-2147.196350506789
 21
-8434.296865220494
 31
0.0
  0
LWPOLYLINE
  5
231E
330
1F
100
AcDbEntity
  8
nášlap_vrstvy
100
AcDbPolyline
 90
        4
 70
     0
 43
0.0
 10
-2454.393210217944
 20
-8354.675104857975
 10
-2147.196350506796
 20
-8354.675104857975
 10
-2147.196350506796
 20
-8350.336615832027
 10
-2454.393210217944
 20
-8350.336615832027
  0
LINE
  5
231F
330
1F
100
AcDbEntity
  8
POPIS
370
    20
100
AcDbLine
 10
-2512.211092005809
 20
-8285.003406467305
 30
0.0
 11
-2512.211092005809
 21
-8350.415462268685
 31
0.0
  0
LINE
  5
2320
330
1F
100
AcDbEntity
  8
POPIS
370
    20
100
AcDbLine
 10
-2459.76683829455
 20
-8285.003406467305
 30
0.0
 11
-2459.76683829455
 21
-8349.835142834043
 31
0.0
  0
LINE
  5
2321
330
1F
100
AcDbEntity
  8
SPOJOVACÍ
  6
DASHED
100
AcDbLine
 10
-2485.245475129325
 20
-8388.664978943181
 30
0.0
 11
-2483.87447041775
 21
-8389.126234516714
 31
0.0
  0
LINE
  5
2322
330
1F
100
AcDbEntity
  8
SPOJOVACÍ
  6
DASHED
100
AcDbLine
 10
-2485.615573472851
 20
-8389.035077288847
 30
0.0
 11
-2485.245475129325
 21
-8388.664978943181
 31
0.0
  0
LINE
  5
2323
330
1F
100
AcDbEntity
  8
SPOJOVACÍ
  6
DASHED
100
AcDbLine
 10
-2484.201724865778
 20
-8389.009553264916
 30
0.0
 11
-2483.939192050033
 21
-8386.907467587631
 31
0.0
  0
LWPOLYLINE
  5
2324
330
1F
100
AcDbEntity
  8
izolace
100
AcDbPolyline
 90
        4
 70
     1
 43
0.0
 10
-2467.211969874419
 20
-8357.296865220494
 10
-2452.211969874419
 20
-8357.296865220494
 10
-2452.211969874416
 20
-8431.296865220494
 10
-2467.211969874419
 20
-8431.296865220494
  0
LINE
  5
2326
330
1F
100
AcDbEntity
  8
izolace
  6
IZOLACE
 48
0.7
370
    20
100
AcDbLine
 10
-2459.711969874419
 20
-8431.296865220494
 30
0.0
 11
-2459.711969874419
 21
-8357.296865220494
 31
0.0
  0
HATCH
  5
2347
330
1F
100
AcDbEntity
  8
izolace
100
AcDbHatch
 10
0.0
 20
0.0
 30
0.0
210
0.0
220
0.0
230
1.0
  2
SOLID
 70
     1
 71
     0
 91
        1
 92
        7
 72
     0
 73
     1
 93
        4
 10
-2504.027303072884
 20
-8431.296865220494
 10
-2504.027303072881
 20
-8434.296865220494
 10
-2480.385570363049
 20
-8434.296865220494
 10
-2480.385570363045
 20
-8431.296865220494
 97
        0
 75
     0
 76
     1
 47
0.1901250437635136
 98
        1
 10
-2494.669508314541
 20
-8432.113676771573
  0
LWPOLYLINE
  5
2348
330
1F
100
AcDbEntity
  8
izolace
100
AcDbPolyline
 90
        4
 70
     1
 43
0.0
 10
-2480.385570363049
 20
-8431.296865220494
 10
-2504.027303072884
 20
-8431.296865220494
 10
-2504.027303072884
 20
-8434.296865220494
 10
-2480.385570363049
 20
-8434.296865220494
  0
LINE
  5
2349
330
1F
100
AcDbEntity
  8
SPOJOVACÍ
  6
DASHED
100
AcDbLine
 10
-2485.615573472851
 20
-8389.035077288847
 30
0.0
 11
-2483.504372074223
 21
-8389.339542430304
 31
0.0
  0
LINE
  5
234A
330
1F
100
AcDbEntity
  8
SPOJOVACÍ
  6
DASHED
100
AcDbLine
 10
-2485.245475129325
 20
-8389.249296774627
 30
0.0
 11
-2483.87447041775
 21
-8389.710552348159
 31
0.0
  0
LINE
  5
234B
330
1F
100
AcDbEntity
  8
SPOJOVACÍ
  6
DASHED
100
AcDbLine
 10
-2484.997527468584
 20
-8389.319487840035
 30
0.0
 11
-2484.619224973763
 21
-8392.346819381485
 31
0.0
  0
LINE
  5
234C
330
1F
100
AcDbEntity
  8
SPOJOVACÍ
  6
DASHED
100
AcDbLine
 10
-2485.615573472851
 20
-8389.035077288847
 30
0.0
 11
-2485.245475129325
 21
-8389.249296774627
 31
0.0
  0
LINE
  5
234D
330
1F
100
AcDbEntity
  8
SPOJOVACÍ
  6
DASHED
100
AcDbLine
 10
-2483.504372074223
 20
-8389.339542430304
 30
0.0
 11
-2483.87447041775
 21
-8389.126234516714
 31
0.0
  0
LINE
  5
234E
330
1F
100
AcDbEntity
  8
SPOJOVACÍ
  6
DASHED
100
AcDbLine
 10
-2483.504372074223
 20
-8389.339542430304
 30
0.0
 11
-2483.87447041775
 21
-8389.710552348159
 31
0.0
  0
LINE
  5
234F
330
1F
100
AcDbEntity
  8
SPOJOVACÍ
  6
DASHED
100
AcDbLine
 10
-2484.619224973763
 20
-8392.346819381485
 30
0.0
 11
-2484.271915932257
 21
-8389.567435500241
 31
0.0
  0
HATCH
  5
2351
330
1F
100
AcDbEntity
  8
izolace
100
AcDbHatch
 10
0.0
 20
0.0
 30
0.0
210
0.0
220
0.0
230
1.0
  2
SOLID
 70
     1
 71
     0
 91
        1
 92
        7
 72
     0
 73
     1
 93
        4
 10
-2452.211969874419
 20
-8431.296865220494
 10
-2456.743837653214
 20
-8431.296865220494
 10
-2456.743837653217
 20
-8434.296865220494
 10
-2452.211969874419
 20
-8434.296865220494
 97
        0
 75
     0
 76
     1
 47
0.1987085112534441
 98
        1
 10
-2454.773080688274
 20
-8433.004410022677
  0
LWPOLYLINE
  5
2352
330
1F
100
AcDbEntity
  8
izolace
100
AcDbPolyline
 90
        4
 70
     1
 43
0.0
 10
-2452.211969874416
 20
-8431.296865220494
 10
-2456.743837653214
 20
-8431.296865220494
 10
-2456.743837653214
 20
-8434.296865220494
 10
-2452.211969874419
 20
-8434.296865220494
  0
HATCH
  5
2353
330
1F
100
AcDbEntity
  8
CETRIS
370
    20
100
AcDbHatch
 10
0.0
 20
0.0
 30
0.0
210
0.0
220
0.0
230
1.0
  2
ANSI31
 70
     0
 71
     0
 91
        1
 92
        1
 93
        4
 72
     1
 10
-2467.211969874419
 20
-8369.296865220492
 11
-2483.297843856208
 21
-8369.296865220492
 72
     1
 10
-2483.297843856208
 20
-8369.296865220492
 11
-2483.297843856208
 21
-8381.303408009866
 72
     1
 10
-2483.297843856208
 20
-8381.303408009866
 11
-2467.211969874419
 21
-8381.303408009866
 72
     1
 10
-2467.211969874419
 20
-8381.303408009866
 11
-2467.211969874419
 21
-8369.296865220492
 97
        0
 75
     0
 76
     1
 52
0.0
 41
1.0
 77
     0
 78
     1
 53
45.0
 43
-32058.84570721413
 44
-3633.503141128534
 45
-2.245064030267287
 46
2.245064030267288
 79
     0
 98
        1
 10
-32058.84570721413
 20
-3633.503141128534
  0
INSERT
  5
2355
330
1F
100
AcDbEntity
  8
POPIS
100
AcDbBlockReference
  2
E_PUNKT
 10
-2515.515639400492
 20
-8385.543991533236
 30
0.0
 50
270.0
  0
LINE
  5
2356
330
1F
100
AcDbEntity
  8
SPOJOVACÍ
  6
DASHED
100
AcDbLine
 10
-2486.600983107825
 20
-8371.152763874516
 30
0.0
 11
-2482.637466835424
 21
-8372.484570975329
 31
0.0
  0
LINE
  5
2357
330
1F
100
AcDbEntity
  8
SPOJOVACÍ
  6
DASHED
100
AcDbLine
 10
-2482.267368491898
 20
-8372.114472629935
 30
0.0
 11
-2482.637466835424
 21
-8372.484570975329
 31
0.0
  0
LINE
  5
2358
330
1F
100
AcDbEntity
  8
SPOJOVACÍ
  6
DASHED
100
AcDbLine
 10
-2483.296533591884
 20
-8372.253031616377
 30
0.0
 11
-2483.296533591884
 21
-8374.730685072989
 31
0.0
  0
LINE
  5
2359
330
1F
100
AcDbEntity
  8
SPOJOVACÍ
  6
DASHED
100
AcDbLine
 10
-2485.941916351365
 20
-8371.365160215656
 30
0.0
 11
-2485.941916351365
 21
-8373.83552109423
 31
0.0
  0
LINE
  5
235A
330
1F
100
AcDbEntity
  8
SPOJOVACÍ
  6
DASHED
100
AcDbLine
 10
-2486.600983107825
 20
-8379.74068632309
 30
0.0
 11
-2482.637466835424
 21
-8381.073404996362
 31
0.0
  0
LINE
  5
235B
330
1F
100
AcDbEntity
  8
SPOJOVACÍ
  6
DASHED
100
AcDbLine
 10
-2486.600983107825
 20
-8380.32500415454
 30
0.0
 11
-2482.637466835424
 21
-8381.657722827814
 31
0.0
  0
LINE
  5
235C
330
1F
100
AcDbEntity
  8
SPOJOVACÍ
  6
DASHED
100
AcDbLine
 10
-2486.97108145563
 20
-8380.111696241213
 30
0.0
 11
-2482.267368491898
 21
-8381.287624482148
 31
0.0
  0
LINE
  5
235D
330
1F
100
AcDbEntity
  8
SPOJOVACÍ
  6
DASHED
100
AcDbLine
 10
-2483.296533591884
 20
-8378.372416331023
 30
0.0
 11
-2483.296533591884
 21
-8380.840954064952
 31
0.0
  0
LINE
  5
235E
330
1F
100
AcDbEntity
  8
SPOJOVACÍ
  6
DASHED
100
AcDbLine
 10
-2485.941916351365
 20
-8380.540135212779
 30
0.0
 11
-2485.941916351365
 21
-8381.762553639829
 31
0.0
  0
LINE
  5
235F
330
1F
100
AcDbEntity
  8
SPOJOVACÍ
  6
DASHED
100
AcDbLine
 10
-2486.168897849113
 20
-8386.081583102095
 30
0.0
 11
-2483.115130711011
 21
-8386.702363824529
 31
0.0
  0
LINE
  5
2360
330
1F
100
AcDbEntity
  8
SPOJOVACÍ
  6
DASHED
100
AcDbLine
 10
-2485.798799501308
 20
-8385.710573183969
 30
0.0
 11
-2483.485229054537
 21
-8386.489055911201
 31
0.0
  0
LINE
  5
2361
330
1F
100
AcDbEntity
  8
SPOJOVACÍ
  6
DASHED
100
AcDbLine
 10
-2485.798799501308
 20
-8386.294891015422
 30
0.0
 11
-2483.485229054537
 21
-8387.073373742381
 31
0.0
  0
LINE
  5
2362
330
1F
100
AcDbEntity
  8
SPOJOVACÍ
  6
DASHED
100
AcDbLine
 10
-2486.722222221097
 20
-8383.127177342883
 30
0.0
 11
-2482.679399161409
 21
-8384.080681947541
 31
0.0
  0
LINE
  5
2363
330
1F
100
AcDbEntity
  8
SPOJOVACÍ
  6
DASHED
100
AcDbLine
 10
-2486.351212303778
 20
-8382.757078997215
 30
0.0
 11
-2483.049497504935
 21
-8383.867374034213
 31
0.0
  0
LINE
  5
2364
330
1F
100
AcDbEntity
  8
SPOJOVACÍ
  6
DASHED
100
AcDbLine
 10
-2486.351212303778
 20
-8383.341396828667
 30
0.0
 11
-2483.049497504935
 21
-8384.451691865665
 31
0.0
  0
LINE
  5
2365
330
1F
100
AcDbEntity
  8
SPOJOVACÍ
  6
DASHED
100
AcDbLine
 10
-2486.168897849113
 20
-8386.081583102095
 30
0.0
 11
-2485.798799501308
 21
-8385.710573183969
 31
0.0
  0
LINE
  5
2366
330
1F
100
AcDbEntity
  8
SPOJOVACÍ
  6
DASHED
100
AcDbLine
 10
-2486.168897849113
 20
-8386.081583102095
 30
0.0
 11
-2485.798799501308
 21
-8386.294891015422
 31
0.0
  0
LINE
  5
2367
330
1F
100
AcDbEntity
  8
SPOJOVACÍ
  6
DASHED
100
AcDbLine
 10
-2486.722222221097
 20
-8383.127177342883
 30
0.0
 11
-2486.351212303778
 21
-8382.757078997215
 31
0.0
  0
LINE
  5
2368
330
1F
100
AcDbEntity
  8
SPOJOVACÍ
  6
DASHED
100
AcDbLine
 10
-2486.722222221097
 20
-8383.127177342883
 30
0.0
 11
-2486.351212303778
 21
-8383.341396828667
 31
0.0
  0
LINE
  5
2369
330
1F
100
AcDbEntity
  8
SPOJOVACÍ
  6
DASHED
100
AcDbLine
 10
-2485.357598517511
 20
-8386.437096291151
 30
0.0
 11
-2485.07318796926
 21
-8388.711469129299
 31
0.0
  0
LINE
  5
236A
330
1F
100
AcDbEntity
  8
SPOJOVACÍ
  6
DASHED
100
AcDbLine
 10
-2485.719492714021
 20
-8383.543765874936
 30
0.0
 11
-2485.435082161492
 21
-8385.819050285279
 31
0.0
  0
LINE
  5
236B
330
1F
100
AcDbEntity
  8
SPOJOVACÍ
  6
DASHED
100
AcDbLine
 10
-2485.941916351365
 20
-8381.762553639829
 30
0.0
 11
-2485.795153214696
 21
-8382.9357471642
 31
0.0
  0
LINE
  5
236C
330
1F
100
AcDbEntity
  8
SPOJOVACÍ
  6
DASHED
100
AcDbLine
 10
-2482.267368491898
 20
-8381.287624482148
 30
0.0
 11
-2482.637466835424
 21
-8381.073404996362
 31
0.0
  0
LINE
  5
236D
330
1F
100
AcDbEntity
  8
SPOJOVACÍ
  6
DASHED
100
AcDbLine
 10
-2482.267368491898
 20
-8381.287624482148
 30
0.0
 11
-2482.637466835424
 21
-8381.657722827814
 31
0.0
  0
LINE
  5
236E
330
1F
100
AcDbEntity
  8
SPOJOVACÍ
  6
DASHED
100
AcDbLine
 10
-2483.115130711011
 20
-8386.702363824529
 30
0.0
 11
-2483.485229054537
 21
-8386.489055911201
 31
0.0
  0
LINE
  5
236F
330
1F
100
AcDbEntity
  8
SPOJOVACÍ
  6
DASHED
100
AcDbLine
 10
-2483.115130711011
 20
-8386.702363824529
 30
0.0
 11
-2483.485229054537
 21
-8387.073373742381
 31
0.0
  0
LINE
  5
2370
330
1F
100
AcDbEntity
  8
SPOJOVACÍ
  6
DASHED
100
AcDbLine
 10
-2482.679399161409
 20
-8384.080681947541
 30
0.0
 11
-2483.049497504935
 21
-8383.867374034213
 31
0.0
  0
LINE
  5
2371
330
1F
100
AcDbEntity
  8
SPOJOVACÍ
  6
DASHED
100
AcDbLine
 10
-2482.679399161409
 20
-8384.080681947541
 30
0.0
 11
-2483.049497504935
 21
-8384.451691865665
 31
0.0
  0
LINE
  5
2372
330
1F
100
AcDbEntity
  8
SPOJOVACÍ
  6
DASHED
100
AcDbLine
 10
-2483.537188675122
 20
-8383.69417530089
 30
0.0
 11
-2483.296533591884
 21
-8381.762553639829
 31
0.0
  0
LINE
  5
2373
330
1F
100
AcDbEntity
  8
SPOJOVACÍ
  6
DASHED
100
AcDbLine
 10
-2483.869000987832
 20
-8386.346850635471
 30
0.0
 11
-2483.607379741601
 21
-8384.252969108676
 31
0.0
  0
LINE
  5
2374
330
1F
100
AcDbEntity
  8
SPOJOVACÍ
  6
DASHED
100
AcDbLine
 10
-2483.296533591884
 20
-8381.432564474705
 30
0.0
 11
-2483.296533591884
 21
-8381.762553639829
 31
0.0
  0
LINE
  5
2375
330
1F
100
AcDbEntity
  8
SPOJOVACÍ
  6
DASHED
100
AcDbLine
 10
-2486.600983107825
 20
-8376.683272896507
 30
0.0
 11
-2482.637466835424
 21
-8378.01599156978
 31
0.0
  0
LINE
  5
2376
330
1F
100
AcDbEntity
  8
SPOJOVACÍ
  6
DASHED
100
AcDbLine
 10
-2486.600983107825
 20
-8377.267590727951
 30
0.0
 11
-2482.637466835424
 21
-8378.60030940096
 31
0.0
  0
LINE
  5
2377
330
1F
100
AcDbEntity
  8
SPOJOVACÍ
  6
DASHED
100
AcDbLine
 10
-2486.97108145563
 20
-8377.053371242174
 30
0.0
 11
-2482.267368491898
 21
-8378.229299483107
 31
0.0
  0
LINE
  5
2378
330
1F
100
AcDbEntity
  8
SPOJOVACÍ
  6
DASHED
100
AcDbLine
 10
-2486.600983107825
 20
-8373.625859469917
 30
0.0
 11
-2482.637466835424
 21
-8374.958578142924
 31
0.0
  0
LINE
  5
2379
330
1F
100
AcDbEntity
  8
SPOJOVACÍ
  6
DASHED
100
AcDbLine
 10
-2486.600983107825
 20
-8374.210177301369
 30
0.0
 11
-2482.637466835424
 21
-8375.542895974369
 31
0.0
  0
LINE
  5
237A
330
1F
100
AcDbEntity
  8
SPOJOVACÍ
  6
DASHED
100
AcDbLine
 10
-2486.97108145563
 20
-8373.995957815584
 30
0.0
 11
-2482.267368491898
 21
-8375.171886056516
 31
0.0
  0
LINE
  5
237B
330
1F
100
AcDbEntity
  8
SPOJOVACÍ
  6
DASHED
100
AcDbLine
 10
-2486.97108145563
 20
-8380.111696241213
 30
0.0
 11
-2486.600983107825
 21
-8379.74068632309
 31
0.0
  0
LINE
  5
237C
330
1F
100
AcDbEntity
  8
SPOJOVACÍ
  6
DASHED
100
AcDbLine
 10
-2486.97108145563
 20
-8380.111696241213
 30
0.0
 11
-2486.600983107825
 21
-8380.32500415454
 31
0.0
  0
LINE
  5
237D
330
1F
100
AcDbEntity
  8
SPOJOVACÍ
  6
DASHED
100
AcDbLine
 10
-2486.97108145563
 20
-8377.053371242174
 30
0.0
 11
-2486.600983107825
 21
-8376.683272896507
 31
0.0
  0
LINE
  5
237E
330
1F
100
AcDbEntity
  8
SPOJOVACÍ
  6
DASHED
100
AcDbLine
 10
-2486.97108145563
 20
-8377.053371242174
 30
0.0
 11
-2486.600983107825
 21
-8377.267590727951
 31
0.0
  0
LINE
  5
237F
330
1F
100
AcDbEntity
  8
SPOJOVACÍ
  6
DASHED
100
AcDbLine
 10
-2486.97108145563
 20
-8373.995957815584
 30
0.0
 11
-2486.600983107825
 21
-8373.625859469917
 31
0.0
  0
LINE
  5
2380
330
1F
100
AcDbEntity
  8
SPOJOVACÍ
  6
DASHED
100
AcDbLine
 10
-2486.97108145563
 20
-8373.995957815584
 30
0.0
 11
-2486.600983107825
 21
-8374.210177301369
 31
0.0
  0
LINE
  5
2381
330
1F
100
AcDbEntity
  8
SPOJOVACÍ
  6
DASHED
100
AcDbLine
 10
-2485.941916351365
 20
-8377.488191219587
 30
0.0
 11
-2485.941916351365
 21
-8379.955817381327
 31
0.0
  0
LINE
  5
2382
330
1F
100
AcDbEntity
  8
SPOJOVACÍ
  6
DASHED
100
AcDbLine
 10
-2485.941916351365
 20
-8374.418015781035
 30
0.0
 11
-2485.941916351365
 21
-8376.895669237647
 31
0.0
  0
LINE
  5
2383
330
1F
100
AcDbEntity
  8
SPOJOVACÍ
  6
DASHED
100
AcDbLine
 10
-2482.267368491898
 20
-8378.229299483107
 30
0.0
 11
-2482.637466835424
 21
-8378.01599156978
 31
0.0
  0
LINE
  5
2384
330
1F
100
AcDbEntity
  8
SPOJOVACÍ
  6
DASHED
100
AcDbLine
 10
-2482.267368491898
 20
-8378.229299483107
 30
0.0
 11
-2482.637466835424
 21
-8378.60030940096
 31
0.0
  0
LINE
  5
2385
330
1F
100
AcDbEntity
  8
SPOJOVACÍ
  6
DASHED
100
AcDbLine
 10
-2482.267368491898
 20
-8375.171886056516
 30
0.0
 11
-2482.637466835424
 21
-8374.958578142924
 31
0.0
  0
LINE
  5
2386
330
1F
100
AcDbEntity
  8
SPOJOVACÍ
  6
DASHED
100
AcDbLine
 10
-2482.267368491898
 20
-8375.171886056516
 30
0.0
 11
-2482.637466835424
 21
-8375.542895974369
 31
0.0
  0
LINE
  5
2387
330
1F
100
AcDbEntity
  8
SPOJOVACÍ
  6
DASHED
100
AcDbLine
 10
-2483.296533591884
 20
-8375.313179759794
 30
0.0
 11
-2483.296533591884
 21
-8377.783540638368
 31
0.0
  0
LINE
  5
2388
330
1F
100
AcDbEntity
  8
SPOJOVACÍ
  6
DASHED
100
AcDbLine
 10
-2485.941916351365
 20
-8363.76447054616
 30
0.0
 11
-2485.941916351365
 21
-8367.721605813246
 31
0.0
  0
LINE
  5
2389
330
1F
100
AcDbEntity
  8
SPOJOVACÍ
  6
DASHED
100
AcDbLine
 10
-2483.296533591884
 20
-8363.76447054616
 30
0.0
 11
-2483.296533591884
 21
-8368.608565641508
 31
0.0
  0
LINE
  5
238A
330
1F
100
AcDbEntity
  8
SPOJOVACÍ
  6
DASHED
100
AcDbLine
 10
-2486.600983107825
 20
-8370.568446043064
 30
0.0
 11
-2482.637466835424
 21
-8371.900253144147
 31
0.0
  0
LINE
  5
238B
330
1F
100
AcDbEntity
  8
SPOJOVACÍ
  6
DASHED
100
AcDbLine
 10
-2486.97108145563
 20
-8370.93854438873
 30
0.0
 11
-2482.267368491898
 21
-8372.114472629935
 31
0.0
  0
LINE
  5
238C
330
1F
100
AcDbEntity
  8
SPOJOVACÍ
  6
DASHED
100
AcDbLine
 10
-2486.600983107825
 20
-8367.510121044293
 30
0.0
 11
-2482.637466835424
 21
-8368.842839717293
 31
0.0
  0
LINE
  5
238D
330
1F
100
AcDbEntity
  8
SPOJOVACÍ
  6
DASHED
100
AcDbLine
 10
-2486.600983107825
 20
-8368.094438875473
 30
0.0
 11
-2482.637466835424
 21
-8369.427157548747
 31
0.0
  0
LINE
  5
238E
330
1F
100
AcDbEntity
  8
SPOJOVACÍ
  6
DASHED
100
AcDbLine
 10
-2486.97108145563
 20
-8367.881130962146
 30
0.0
 11
-2482.267368491898
 21
-8369.057059203079
 31
0.0
  0
LINE
  5
238F
330
1F
100
AcDbEntity
  8
SPOJOVACÍ
  6
DASHED
100
AcDbLine
 10
-2486.97108145563
 20
-8370.93854438873
 30
0.0
 11
-2486.600983107825
 21
-8370.568446043064
 31
0.0
  0
LINE
  5
2390
330
1F
100
AcDbEntity
  8
SPOJOVACÍ
  6
DASHED
100
AcDbLine
 10
-2486.97108145563
 20
-8370.93854438873
 30
0.0
 11
-2486.600983107825
 21
-8371.152763874516
 31
0.0
  0
LINE
  5
2391
330
1F
100
AcDbEntity
  8
SPOJOVACÍ
  6
DASHED
100
AcDbLine
 10
-2486.97108145563
 20
-8367.881130962146
 30
0.0
 11
-2486.600983107825
 21
-8367.510121044293
 31
0.0
  0
LINE
  5
2392
330
1F
100
AcDbEntity
  8
SPOJOVACÍ
  6
DASHED
100
AcDbLine
 10
-2486.97108145563
 20
-8367.881130962146
 30
0.0
 11
-2486.600983107825
 21
-8368.094438875473
 31
0.0
  0
LINE
  5
2393
330
1F
100
AcDbEntity
  8
SPOJOVACÍ
  6
DASHED
100
AcDbLine
 10
-2485.941916351365
 20
-8368.305012072239
 30
0.0
 11
-2485.941916351365
 21
-8370.773549806166
 31
0.0
  0
LINE
  5
2394
330
1F
100
AcDbEntity
  8
SPOJOVACÍ
  6
DASHED
100
AcDbLine
 10
-2482.267368491898
 20
-8372.114472629935
 30
0.0
 11
-2482.637466835424
 21
-8371.900253144147
 31
0.0
  0
LINE
  5
2395
330
1F
100
AcDbEntity
  8
SPOJOVACÍ
  6
DASHED
100
AcDbLine
 10
-2482.267368491898
 20
-8369.057059203079
 30
0.0
 11
-2482.637466835424
 21
-8368.842839717293
 31
0.0
  0
LINE
  5
2396
330
1F
100
AcDbEntity
  8
SPOJOVACÍ
  6
DASHED
100
AcDbLine
 10
-2482.267368491898
 20
-8369.057059203079
 30
0.0
 11
-2482.637466835424
 21
-8369.427157548747
 31
0.0
  0
LINE
  5
2397
330
1F
100
AcDbEntity
  8
SPOJOVACÍ
  6
DASHED
100
AcDbLine
 10
-2483.296533591884
 20
-8369.200176050998
 30
0.0
 11
-2483.296533591884
 21
-8371.668713784925
 31
0.0
  0
LINE
  5
2398
330
1F
100
AcDbEntity
  8
SPOJOVACÍ
  6
DASHED
100
AcDbLine
 10
-2489.617375784625
 20
-8358.47279346169
 30
0.0
 11
-2479.621074162902
 21
-8358.47279346169
 31
0.0
  0
LINE
  5
2399
330
1F
100
AcDbEntity
  8
SPOJOVACÍ
  6
DASHED
100
AcDbLine
 10
-2489.617375784625
 20
-8357.296865220494
 30
0.0
 11
-2479.621074162902
 21
-8357.296865220494
 31
0.0
  0
LINE
  5
239A
330
1F
100
AcDbEntity
  8
SPOJOVACÍ
  6
DASHED
100
AcDbLine
 10
-2489.617375784625
 20
-8358.47279346169
 30
0.0
 11
-2488.294684402745
 21
-8359.202051285434
 31
0.0
  0
LINE
  5
239B
330
1F
100
AcDbEntity
  8
SPOJOVACÍ
  6
DASHED
100
AcDbLine
 10
-2488.294684402745
 20
-8359.202051285434
 30
0.0
 11
-2487.206267100393
 21
-8360.249447835057
 31
0.0
  0
LINE
  5
239C
330
1F
100
AcDbEntity
  8
SPOJOVACÍ
  6
DASHED
100
AcDbLine
 10
-2487.206267100393
 20
-8360.249447835057
 30
0.0
 11
-2486.425961230661
 21
-8361.54205732779
 31
0.0
  0
LINE
  5
239D
330
1F
100
AcDbEntity
  8
SPOJOVACÍ
  6
DASHED
100
AcDbLine
 10
-2486.425961230661
 20
-8361.54205732779
 30
0.0
 11
-2486.006637983648
 21
-8362.9932803975
 31
0.0
  0
LINE
  5
239E
330
1F
100
AcDbEntity
  8
SPOJOVACÍ
  6
DASHED
100
AcDbLine
 10
-2486.006637983648
 20
-8362.9932803975
 30
0.0
 11
-2485.941916351365
 21
-8363.76447054616
 31
0.0
  0
LINE
  5
239F
330
1F
100
AcDbEntity
  8
SPOJOVACÍ
  6
DASHED
100
AcDbLine
 10
-2489.617375784625
 20
-8357.296865220494
 30
0.0
 11
-2489.617375784625
 21
-8358.47279346169
 31
0.0
  0
LINE
  5
23A0
330
1F
100
AcDbEntity
  8
SPOJOVACÍ
  6
DASHED
100
AcDbLine
 10
-2481.534464378068
 20
-8359.702504467049
 30
0.0
 11
-2480.322073245346
 21
-8358.802782626815
 31
0.0
  0
LINE
  5
23A1
330
1F
100
AcDbEntity
  8
SPOJOVACÍ
  6
DASHED
100
AcDbLine
 10
-2480.322073245346
 20
-8358.802782626815
 30
0.0
 11
-2479.621074162902
 21
-8358.47279346169
 31
0.0
  0
LINE
  5
23A2
330
1F
100
AcDbEntity
  8
SPOJOVACÍ
  6
DASHED
100
AcDbLine
 10
-2479.621074162902
 20
-8357.296865220494
 30
0.0
 11
-2479.621074162902
 21
-8358.47279346169
 31
0.0
  0
LINE
  5
23A3
330
1F
100
AcDbEntity
  8
SPOJOVACÍ
  6
DASHED
100
AcDbLine
 10
-2483.296533591884
 20
-8363.76447054616
 30
0.0
 11
-2483.074109958818
 21
-8362.271315151799
 31
0.0
  0
LINE
  5
23A4
330
1F
100
AcDbEntity
  8
SPOJOVACÍ
  6
DASHED
100
AcDbLine
 10
-2483.074109958818
 20
-8362.271315151799
 30
0.0
 11
-2482.473383826653
 21
-8360.885725286289
 31
0.0
  0
LINE
  5
23A5
330
1F
100
AcDbEntity
  8
SPOJOVACÍ
  6
DASHED
100
AcDbLine
 10
-2482.473383826653
 20
-8360.885725286289
 30
0.0
 11
-2481.534464378068
 21
-8359.702504467049
 31
0.0
  0
INSERT
  5
23A6
330
1F
100
AcDbEntity
  8
POPIS
100
AcDbBlockReference
  2
E_PUNKT
 10
-2512.159359851632
 20
-8348.644082025431
 30
0.0
 50
270.0
  0
HATCH
  5
23A7
330
1F
100
AcDbEntity
  8
izolace
100
AcDbHatch
 10
0.0
 20
0.0
 30
0.0
210
0.0
220
0.0
230
1.0
  2
SOLID
 70
     1
 71
     0
 91
        1
 92
        7
 72
     0
 73
     1
 93
       12
 10
-2455.175286236789
 20
-8350.336615832025
 10
-2464.24865351205
 20
-8350.336615832027
 10
-2464.24865351205
 20
-8355.355497108453
 10
-2474.73759459684
 20
-8355.355497108453
 10
-2474.73759459684
 20
-8356.293188835159
 10
-2463.186721999535
 20
-8356.293188835159
 10
-2463.186721999535
 20
-8351.432396479451
 10
-2456.237217749304
 20
-8351.432396479451
 10
-2456.2372177493
 20
-8356.293188835159
 10
-2444.686345151998
 20
-8356.293188835159
 10
-2444.686345152002
 20
-8355.355497108453
 10
-2455.175286236789
 20
-8355.355497108453
 97
        0
 75
     0
 76
     1
 47
0.1079746841384943
 98
        1
 10
-2462.661048075725
 20
-8350.764004080149
  0
LINE
  5
23A8
330
1F
100
AcDbEntity
  8
izolace
100
AcDbLine
 10
-2456.237217749304
 20
-8351.432396479451
 30
0.0
 11
-2456.237217749304
 21
-8356.293188835159
 31
0.0
  0
LINE
  5
23A9
330
1F
100
AcDbEntity
  8
izolace
100
AcDbLine
 10
-2444.686345151998
 20
-8356.293188835159
 30
0.0
 11
-2444.686345151998
 21
-8355.355497108453
 31
0.0
  0
LINE
  5
23AA
330
1F
100
AcDbEntity
  8
izolace
100
AcDbLine
 10
-2474.73759459684
 20
-8356.293188835159
 30
0.0
 11
-2474.73759459684
 21
-8355.355497108453
 31
0.0
  0
LINE
  5
23AB
330
1F
100
AcDbEntity
  8
izolace
100
AcDbLine
 10
-2463.186721999535
 20
-8351.432396479451
 30
0.0
 11
-2463.186721999535
 21
-8356.293188835159
 31
0.0
  0
LINE
  5
23AC
330
1F
100
AcDbEntity
  8
izolace
100
AcDbLine
 10
-2444.686345151998
 20
-8356.293188835159
 30
0.0
 11
-2456.237217749304
 21
-8356.293188835159
 31
0.0
  0
LINE
  5
23AD
330
1F
100
AcDbEntity
  8
izolace
100
AcDbLine
 10
-2474.73759459684
 20
-8356.293188835159
 30
0.0
 11
-2463.186721999535
 21
-8356.293188835159
 31
0.0
  0
LINE
  5
23AE
330
1F
100
AcDbEntity
  8
izolace
100
AcDbLine
 10
-2444.686345151998
 20
-8355.355497108453
 30
0.0
 11
-2455.175286236789
 21
-8355.355497108453
 31
0.0
  0
LINE
  5
23AF
330
1F
100
AcDbEntity
  8
izolace
100
AcDbLine
 10
-2463.186721999535
 20
-8351.432396479451
 30
0.0
 11
-2456.237217749304
 21
-8351.432396479451
 31
0.0
  0
LINE
  5
23B0
330
1F
100
AcDbEntity
  8
izolace
100
AcDbLine
 10
-2464.24865351205
 20
-8350.336615832027
 30
0.0
 11
-2455.175286236789
 21
-8350.336615832027
 31
0.0
  0
INSERT
  5
23B1
330
1F
100
AcDbEntity
  8
POPIS
100
AcDbBlockReference
  2
E_PUNKT
 10
-2460.252943921483
 20
-8348.644082025431
 30
0.0
 50
270.0
  0
LINE
  5
23B2
330
1F
100
AcDbEntity
  8
izolace
100
AcDbLine
 10
-2474.73759459684
 20
-8355.355497108453
 30
0.0
 11
-2464.24865351205
 21
-8355.355497108453
 31
0.0
  0
LINE
  5
23B3
330
1F
100
AcDbEntity
  8
izolace
100
AcDbLine
 10
-2464.24865351205
 20
-8350.336615832027
 30
0.0
 11
-2464.24865351205
 21
-8355.355497108453
 31
0.0
  0
LINE
  5
23B4
330
1F
100
AcDbEntity
  8
nášlap_vrstvy
100
AcDbLine
 10
-2465.030729530894
 20
-8354.675104857975
 30
0.0
 11
-2465.030729530894
 21
-8350.336615832027
 31
0.0
  0
LINE
  5
23B5
330
1F
100
AcDbEntity
  8
nášlap_vrstvy
100
AcDbLine
 10
-2454.393210217944
 20
-8354.675104857975
 30
0.0
 11
-2454.393210217944
 21
-8350.336615832027
 31
0.0
  0
LINE
  5
23B6
330
1F
100
AcDbEntity
  8
izolace
100
AcDbLine
 10
-2455.175286236789
 20
-8350.336615832027
 30
0.0
 11
-2455.175286236789
 21
-8355.355497108453
 31
0.0
  0
LINE
  5
23B7
330
1F
100
AcDbEntity
  8
nášlap_vrstvy
100
AcDbLine
 10
-2454.393210217944
 20
-8350.336615832027
 30
0.0
 11
-2454.393210217944
 21
-8354.675104857975
 31
0.0
  0
TEXT
  5
23B8
330
1F
100
AcDbEntity
  8
POPIS
100
AcDbText
 10
-2536.579835765517
 20
-8276.154045394582
 30
0.0
 40
25.0
  1
02
 41
0.85
  7
SIMPLEX7
100
AcDbText
  0
TEXT
  5
23B9
330
1F
100
AcDbEntity
  8
POPIS
100
AcDbText
 10
-2482.237659574351
 20
-8276.154045394582
 30
0.0
 40
25.0
  1
01
 41
0.85
  7
SIMPLEX7
100
AcDbText
  0
HATCH
  5
23BA
330
1F
100
AcDbEntity
  8
STAVBA OBRYS
100
AcDbHatch
 10
0.0
 20
0.0
 30
0.0
210
0.0
220
0.0
230
1.0
  2
AR-CONC
 70
     0
 71
     0
 91
        1
 92
        7
 72
     0
 73
     1
 93
        4
 10
-2147.196350506793
 20
-8354.675104857978
 10
-2265.309714250167
 20
-8354.675104857975
 10
-2265.30971425017
 20
-8369.296865220496
 10
-2147.196350506793
 20
-8369.296865220496
 97
        0
 75
     0
 76
     1
 52
90.0
 41
0.15
 77
     0
 78
    13
 53
140.0
 43
-32058.84570721413
 44
-3633.503141128534
 45
2.390862830835464
 46
27.3277003494006
 79
     2
 49
2.857499999999999
 49
-31.4325
 53
85.00000000000001
 43
-32058.84570721413
 44
-3633.503141128534
 45
-28.65849643232699
 46
-5.286423896350046
 79
     2
 49
2.286
 49
-25.14599999999999
 53
190.4509999999999
 43
-32058.64646971413
 44
-3631.225841128534
 45
-26.26750317304378
 46
22.04137524989388
 79
     2
 49
2.4285
 49
-26.7135
 53
136.1841999999999
 43
-32066.46570721413
 44
-3633.503141128534
 45
6.306349189909074
 46
40.66185613381948
 79
     2
 49
4.286249999999999
 49
-47.14875
 53
186.6355999999999
 43
-32065.94018221414
 44
-3630.114656128535
 45
-37.11383338350738
 46
35.61063516993557
 79
     2
 49
3.642749999999999
 49
-40.07024999999999
 53
81.18400000000004
 43
-32066.46570721413
 44
-3633.503141128534
 45
-37.11376767908964
 46
35.61069087209009
 79
     2
 49
3.428999999999999
 49
-37.719
 53
111.0
 43
-32064.56070721414
 44
-3629.693141128535
 45
15.33982777751437
 46
22.74223197530749
 79
     2
 49
2.857499999999999
 49
-31.4325
 53
56.00000000000004
 43
-32064.56070721414
 44
-3629.693141128535
 45
-27.62819491834789
 46
9.270304252147061
 79
     2
 49
2.286
 49
-25.14599999999999
 53
161.4514
 43
-32063.28239221414
 44
-3627.797966128534
 45
-12.28842865740861
 46
32.01247361551866
 79
     2
 49
2.428499999999993
 49
-26.71349999999995
 53
127.5
 43
-32058.84570721413
 44
-3633.503141128534
 45
-12.68325583097296
 46
0.4632904875887732
 79
     6
 49
0.0
 49
-24.8412
 49
0.0
 49
-25.527
 49
0.0
 49
-25.24125
 53
97.49999999999985
 43
-32058.84570721413
 44
-3633.503141128534
 45
-15.02708622271792
 46
10.02294937654586
 79
     6
 49
0.0
 49
-14.55419999999999
 49
0.0
 49
-24.26969999999999
 49
0.0
 49
-9.620249999999998
 53
57.5
 43
-32058.84570721413
 44
-3641.999441128534
 45
0.8593115989010209
 46
20.3385892750307
 79
     6
 49
0.0
 49
-9.525
 49
0.0
 49
-29.71799999999999
 49
0.0
 49
-39.43349999999999
 53
47.5
 43
-32058.84570721413
 44
-3645.809441128534
 45
-3.81397365499995
 46
22.2193772079027
 79
     6
 49
0.0
 49
-12.38249999999999
 49
0.0
 49
-19.7358
 49
0.0
 49
-28.00349999999999
 47
0.6232788170057386
 98
        1
 10
-2190.418341963336
 20
-8361.904307503591
  0
LWPOLYLINE
  5
24A7
330
1F
100
AcDbEntity
  8
STAVBA OBRYS
100
AcDbPolyline
 90
        2
 70
     0
 43
0.0
 10
-2547.211969874419
 20
-8394.680388110817
 42
0.0123329222360395
 10
-2543.876012882614
 20
-8406.296865220493
  0
LWPOLYLINE
  5
24A8
330
1F
100
AcDbEntity
  8
STAVBA OBRYS
370
    20
100
AcDbPolyline
 90
        2
 70
     0
 43
0.0
 10
-2538.935257940599
 20
-8381.296865220493
 42
0.0167354774094603
 10
-2534.198883965359
 20
-8406.296865220493
 42
0.0133702840819155
  0
LWPOLYLINE
  5
24A9
330
1F
100
AcDbEntity
  8
STAVBA OBRYS
370
    20
100
AcDbPolyline
 90
        3
 70
     0
 43
0.0
 10
-2513.212944957368
 20
-8387.796034789749
 10
-2533.209197389361
 20
-8397.012063840268
 10
-2537.209135023075
 20
-8397.65746131561
  0
LWPOLYLINE
  5
24AA
330
1F
100
AcDbEntity
  8
STAVBA OBRYS
370
    20
100
AcDbPolyline
 90
        5
 70
     0
 43
0.0
 10
-2528.745528336594
 20
-8381.296865220493
 42
0.0128837512779298
 10
-2528.46073637637
 20
-8384.630030042238
 42
0.0351641677647434
 10
-2527.832976654847
 20
-8388.233739496579
 42
0.0187319685742942
 10
-2524.448960773856
 20
-8399.991976838721
 42
0.1091451068841891
 10
-2520.711362757865
 20
-8406.296865220493
 42
0.0205166500055637
  0
LINE
  5
24AB
330
1F
100
AcDbEntity
  8
SPOJOVACÍ
  6
DASHED
100
AcDbLine
 10
-2504.803743575999
 20
-8375.764470546164
 30
0.0
 11
-2504.803743575999
 21
-8380.608565641514
 31
0.0
  0
LINE
  5
24AC
330
1F
100
AcDbEntity
  8
SPOJOVACÍ
  6
DASHED
100
AcDbLine
 10
-2507.44912633548
 20
-8375.764470546164
 30
0.0
 11
-2507.44912633548
 21
-8379.72160581325
 31
0.0
  0
LWPOLYLINE
  5
24AD
330
1F
100
AcDbEntity
  8
STAVBA OBRYS
370
    20
100
AcDbPolyline
 90
        4
 70
     0
 43
0.0
 10
-2467.211969874419
 20
-8400.162644665323
 42
-0.0091633840917308
 10
-2468.948492632992
 20
-8401.184193927726
 42
-0.0157521173632038
 10
-2472.59108954783
 20
-8403.089486722878
 42
-0.0099613453131199
 10
-2479.575390030905
 20
-8406.296865220493
 42
-0.0099613453131199
  0
POLYLINE
  5
24AE
330
1F
100
AcDbEntity
  8
STAVBA OBRYS
370
    20
100
AcDb2dPolyline
 66
     1
 10
0.0
 20
0.0
 30
0.0
  0
VERTEX
  5
24AF
330
24AE
100
AcDbEntity
  8
STAVBA OBRYS
370
    20
100
AcDbVertex
100
AcDb2dVertex
 10
-2497.07642468862
 20
-8381.296865220495
 30
0.0
 42
0.0064239028828688
  0
VERTEX
  5
24B0
330
24AE
100
AcDbEntity
  8
STAVBA OBRYS
370
    20
100
AcDbVertex
100
AcDb2dVertex
 10
-2497.037556248439
 20
-8381.515978879845
 30
0.0
 42
0.0832048017309575
  0
VERTEX
  5
24B1
330
24AE
100
AcDbEntity
  8
STAVBA OBRYS
370
    20
100
AcDbVertex
100
AcDb2dVertex
 10
-2496.253373645757
 20
-8383.846192459499
 30
0.0
 42
0.0336767237692336
  0
VERTEX
  5
24B2
330
24AE
100
AcDbEntity
  8
STAVBA OBRYS
370
    20
100
AcDbVertex
100
AcDb2dVertex
 10
-2494.550557086836
 20
-8386.574466978961
 30
0.0
 42
0.0844635135812105
  0
VERTEX
  5
24B3
330
24AE
100
AcDbEntity
  8
STAVBA OBRYS
370
    20
100
AcDbVertex
100
AcDb2dVertex
 10
-2493.630747326943
 20
-8387.478888583954
 30
0.0
 42
0.0495829410719565
  0
VERTEX
  5
24B4
330
24AE
100
AcDbEntity
  8
STAVBA OBRYS
370
    20
100
AcDbVertex
100
AcDb2dVertex
 10
-2491.882068889589
 20
-8388.455538091269
 30
0.0
 42
0.0322692699774654
  0
VERTEX
  5
24B5
330
24AE
100
AcDbEntity
  8
STAVBA OBRYS
370
    20
100
AcDbVertex
100
AcDb2dVertex
 10
-2488.990714708498
 20
-8389.497061592669
 30
0.0
 42
0.0276160659512937
  0
VERTEX
  5
24B6
330
24AE
100
AcDbEntity
  8
STAVBA OBRYS
370
    20
100
AcDbVertex
100
AcDb2dVertex
 10
-2488.135138270211
 20
-8389.693797021612
 30
0.0
 42
0.3050950297317707
  0
VERTEX
  5
24B7
330
24AE
100
AcDbEntity
  8
STAVBA OBRYS
370
    20
100
AcDbVertex
100
AcDb2dVertex
 10
-2469.405124591556
 20
-8381.296865220493
 30
0.0
  0
SEQEND
  5
24B8
330
24AE
100
AcDbEntity
  8
STAVBA OBRYS
370
    20
  0
POLYLINE
  5
24B9
330
1F
100
AcDbEntity
  8
STAVBA OBRYS
370
    20
100
AcDb2dPolyline
 66
     1
 10
0.0
 20
0.0
 30
0.0
  0
VERTEX
  5
24BA
330
24B9
100
AcDbEntity
  8
STAVBA OBRYS
370
    20
100
AcDbVertex
100
AcDb2dVertex
 10
-2504.304475709358
 20
-8381.296865220495
 30
0.0
 42
0.0072417954699014
  0
VERTEX
  5
24BB
330
24B9
100
AcDbEntity
  8
STAVBA OBRYS
370
    20
100
AcDbVertex
100
AcDb2dVertex
 10
-2504.248905341514
 20
-8381.70827043177
 30
0.0
 42
0.0707158694326265
  0
VERTEX
  5
24BC
330
24B9
100
AcDbEntity
  8
STAVBA OBRYS
370
    20
100
AcDbVertex
100
AcDb2dVertex
 10
-2503.717778825094
 20
-8383.644373884363
 30
0.0
 42
0.033952657250207
  0
VERTEX
  5
24BD
330
24B9
100
AcDbEntity
  8
STAVBA OBRYS
370
    20
100
AcDbVertex
100
AcDb2dVertex
 10
-2501.469122985685
 20
-8387.997411609537
 30
0.0
 42
0.0571374688189033
  0
VERTEX
  5
24BE
330
24B9
100
AcDbEntity
  8
STAVBA OBRYS
370
    20
100
AcDbVertex
100
AcDb2dVertex
 10
-2499.682966225833
 20
-8390.304335893222
 30
0.0
 42
0.0274923553235744
  0
VERTEX
  5
24BF
330
24B9
100
AcDbEntity
  8
STAVBA OBRYS
370
    20
100
AcDbVertex
100
AcDb2dVertex
 10
-2497.085660495281
 20
-8392.689411216357
 30
0.0
 42
0.0255412025538677
  0
VERTEX
  5
24C0
330
24B9
100
AcDbEntity
  8
STAVBA OBRYS
370
    20
100
AcDbVertex
100
AcDb2dVertex
 10
-2494.03423045757
 20
-8394.946124893378
 30
0.0
 42
0.0272796991712396
  0
VERTEX
  5
24C1
330
24B9
100
AcDbEntity
  8
STAVBA OBRYS
370
    20
100
AcDbVertex
100
AcDb2dVertex
 10
-2489.921231304385
 20
-8397.36246077504
 30
0.0
 42
0.056967459841729
  0
VERTEX
  5
24C2
330
24B9
100
AcDbEntity
  8
STAVBA OBRYS
370
    20
100
AcDbVertex
100
AcDb2dVertex
 10
-2487.780284023653
 20
-8398.175196610237
 30
0.0
 42
0.0373408083348504
  0
VERTEX
  5
24C3
330
24B9
100
AcDbEntity
  8
STAVBA OBRYS
370
    20
100
AcDbVertex
100
AcDb2dVertex
 10
-2487.557929648179
 20
-8398.21436215119
 30
0.0
 42
0.3086229257275778
  0
VERTEX
  5
24C4
330
24B9
100
AcDbEntity
  8
STAVBA OBRYS
370
    20
100
AcDbVertex
100
AcDb2dVertex
 10
-2467.064969045259
 20
-8388.975130717218
 30
0.0
  0
SEQEND
  5
24C5
330
24B9
100
AcDbEntity
  8
STAVBA OBRYS
370
    20
  0
LWPOLYLINE
  5
24C6
330
1F
100
AcDbEntity
  8
STAVBA OBRYS
370
    20
100
AcDbPolyline
 90
        3
 70
     0
 43
0.0
 10
-2493.920367332123
 20
-8386.814195916011
 10
-2510.675584951851
 20
-8395.197936783979
 10
-2516.763929888677
 20
-8401.296865220492
  0
LWPOLYLINE
  5
24C7
330
1F
100
AcDbEntity
  8
STAVBA OBRYS
370
    20
100
AcDbPolyline
 90
        8
 70
     0
 43
0.0
 10
-2511.254253733043
 20
-8381.296865220493
 42
0.0168162630274195
 10
-2511.119228153979
 20
-8382.987903372612
 42
0.0575155827655532
 10
-2510.439195873636
 20
-8386.087528033328
 42
0.0310289133982999
 10
-2507.436394528808
 20
-8393.332555557973
 42
0.0882970623535771
 10
-2505.799172608715
 20
-8395.572924608774
 42
0.0171636441953577
 10
-2502.985808546857
 20
-8398.086841964019
 42
0.0157521173632038
 10
-2499.74695370982
 20
-8400.618338016526
 42
0.0129211249237282
 10
-2491.553998241959
 20
-8406.296865220493
 42
0.0014948023799519
  0
LWPOLYLINE
  5
24C8
330
1F
100
AcDbEntity
  8
STAVBA OBRYS
370
    20
100
AcDbPolyline
 90
        7
 70
     0
 43
0.0
 10
-2520.121312956553
 20
-8381.296865220493
 42
0.0120721047703132
 10
-2520.052330266516
 20
-8383.030753359237
 42
0.044358077361292
 10
-2519.656702531842
 20
-8385.726553377654
 42
0.0188067511131767
 10
-2517.636879083459
 20
-8392.96878255296
 42
0.0457786284636091
 10
-2516.428856193843
 20
-8395.817392935839
 42
0.0295006114745606
 10
-2514.012795739544
 20
-8399.744292149241
 42
0.0420069540385954
 10
-2508.55482345097
 20
-8406.296865220493
 42
0.0094449184784486
  0
INSERT
  5
24C9
330
1F
100
AcDbEntity
  8
POPIS
100
AcDbBlockReference
  2
E_PUNKT
 10
-2541.040285519963
 20
-8420.828866747902
 30
0.0
 50
270.0
  0
LINE
  5
24CA
330
1F
100
AcDbEntity
  8
SPOJOVACÍ
  6
DASHED
100
AcDbLine
 10
-2503.774578476012
 20
-8384.114472629939
 30
0.0
 11
-2504.144676819539
 21
-8383.900253144153
 31
0.0
  0
LINE
  5
24CB
330
1F
100
AcDbEntity
  8
SPOJOVACÍ
  6
DASHED
100
AcDbLine
 10
-2503.774578476012
 20
-8384.114472629939
 30
0.0
 11
-2504.144676819539
 21
-8384.484570975335
 31
0.0
  0
LINE
  5
24CC
330
1F
100
AcDbEntity
  8
SPOJOVACÍ
  6
DASHED
100
AcDbLine
 10
-2503.774578476012
 20
-8387.171886056522
 30
0.0
 11
-2504.144676819539
 21
-8387.542895974375
 31
0.0
  0
LINE
  5
24CD
330
1F
100
AcDbEntity
  8
SPOJOVACÍ
  6
DASHED
100
AcDbLine
 10
-2503.774578476012
 20
-8387.171886056522
 30
0.0
 11
-2504.144676819539
 21
-8386.95857814293
 31
0.0
  0
LINE
  5
24CE
330
1F
100
AcDbEntity
  8
SPOJOVACÍ
  6
DASHED
100
AcDbLine
 10
-2503.774578476012
 20
-8390.229299483111
 30
0.0
 11
-2504.144676819539
 21
-8390.600309400964
 31
0.0
  0
LINE
  5
24CF
330
1F
100
AcDbEntity
  8
SPOJOVACÍ
  6
DASHED
100
AcDbLine
 10
-2503.774578476012
 20
-8390.229299483111
 30
0.0
 11
-2504.144676819539
 21
-8390.015991569784
 31
0.0
  0
LINE
  5
24D0
330
1F
100
AcDbEntity
  8
SPOJOVACÍ
  6
DASHED
100
AcDbLine
 10
-2503.774578476012
 20
-8381.057059203085
 30
0.0
 11
-2504.144676819539
 21
-8381.427157548751
 31
0.0
  0
LINE
  5
24D1
330
1F
100
AcDbEntity
  8
SPOJOVACÍ
  6
DASHED
100
AcDbLine
 10
-2503.774578476012
 20
-8381.057059203085
 30
0.0
 11
-2504.144676819539
 21
-8380.842839717299
 31
0.0
  0
LINE
  5
24D2
330
1F
100
AcDbEntity
  8
SPOJOVACÍ
  6
DASHED
100
AcDbLine
 10
-2503.774578476012
 20
-8393.287624482153
 30
0.0
 11
-2504.144676819539
 21
-8393.657722827818
 31
0.0
  0
LINE
  5
24D3
330
1F
100
AcDbEntity
  8
SPOJOVACÍ
  6
DASHED
100
AcDbLine
 10
-2503.774578476012
 20
-8393.287624482153
 30
0.0
 11
-2504.144676819539
 21
-8393.073404996368
 31
0.0
  0
LINE
  5
24D4
330
1F
100
AcDbEntity
  8
SPOJOVACÍ
  6
DASHED
100
AcDbLine
 10
-2508.478291439744
 20
-8379.881130962152
 30
0.0
 11
-2508.10819309194
 21
-8380.094438875479
 31
0.0
  0
LINE
  5
24D5
330
1F
100
AcDbEntity
  8
SPOJOVACÍ
  6
DASHED
100
AcDbLine
 10
-2508.478291439744
 20
-8379.881130962152
 30
0.0
 11
-2508.10819309194
 21
-8379.510121044299
 31
0.0
  0
LINE
  5
24D6
330
1F
100
AcDbEntity
  8
SPOJOVACÍ
  6
DASHED
100
AcDbLine
 10
-2507.44912633548
 20
-8383.36516021566
 30
0.0
 11
-2507.44912633548
 21
-8385.835521094234
 31
0.0
  0
LINE
  5
24D7
330
1F
100
AcDbEntity
  8
SPOJOVACÍ
  6
DASHED
100
AcDbLine
 10
-2504.803743575999
 20
-8384.253031616383
 30
0.0
 11
-2504.803743575999
 21
-8386.730685072995
 31
0.0
  0
LINE
  5
24D8
330
1F
100
AcDbEntity
  8
SPOJOVACÍ
  6
DASHED
100
AcDbLine
 10
-2508.478291439744
 20
-8385.995957815588
 30
0.0
 11
-2508.10819309194
 21
-8386.210177301375
 31
0.0
  0
LINE
  5
24D9
330
1F
100
AcDbEntity
  8
SPOJOVACÍ
  6
DASHED
100
AcDbLine
 10
-2508.478291439744
 20
-8385.995957815588
 30
0.0
 11
-2508.10819309194
 21
-8385.625859469923
 31
0.0
  0
LINE
  5
24DA
330
1F
100
AcDbEntity
  8
SPOJOVACÍ
  6
DASHED
100
AcDbLine
 10
-2504.803743575999
 20
-8387.3131797598
 30
0.0
 11
-2504.803743575999
 21
-8389.783540638374
 31
0.0
  0
LINE
  5
24DB
330
1F
100
AcDbEntity
  8
SPOJOVACÍ
  6
DASHED
100
AcDbLine
 10
-2508.478291439744
 20
-8389.053371242178
 30
0.0
 11
-2508.10819309194
 21
-8389.267590727957
 31
0.0
  0
LINE
  5
24DC
330
1F
100
AcDbEntity
  8
SPOJOVACÍ
  6
DASHED
100
AcDbLine
 10
-2508.478291439744
 20
-8389.053371242178
 30
0.0
 11
-2508.10819309194
 21
-8388.683272896512
 31
0.0
  0
LINE
  5
24DD
330
1F
100
AcDbEntity
  8
SPOJOVACÍ
  6
DASHED
100
AcDbLine
 10
-2507.44912633548
 20
-8386.418015781041
 30
0.0
 11
-2507.44912633548
 21
-8388.895669237653
 31
0.0
  0
LINE
  5
24DE
330
1F
100
AcDbEntity
  8
SPOJOVACÍ
  6
DASHED
100
AcDbLine
 10
-2504.803743575999
 20
-8381.200176051002
 30
0.0
 11
-2504.803743575999
 21
-8383.668713784931
 31
0.0
  0
LINE
  5
24DF
330
1F
100
AcDbEntity
  8
SPOJOVACÍ
  6
DASHED
100
AcDbLine
 10
-2508.478291439744
 20
-8382.938544388734
 30
0.0
 11
-2508.10819309194
 21
-8383.152763874521
 31
0.0
  0
LINE
  5
24E0
330
1F
100
AcDbEntity
  8
SPOJOVACÍ
  6
DASHED
100
AcDbLine
 10
-2508.478291439744
 20
-8382.938544388734
 30
0.0
 11
-2508.10819309194
 21
-8382.56844604307
 31
0.0
  0
LINE
  5
24E1
330
1F
100
AcDbEntity
  8
SPOJOVACÍ
  6
DASHED
100
AcDbLine
 10
-2507.44912633548
 20
-8380.305012072243
 30
0.0
 11
-2507.44912633548
 21
-8382.773549806172
 31
0.0
  0
LINE
  5
24E2
330
1F
100
AcDbEntity
  8
SPOJOVACÍ
  6
DASHED
100
AcDbLine
 10
-2507.44912633548
 20
-8393.762553639836
 30
0.0
 11
-2507.302363198812
 21
-8394.935747164206
 31
0.0
  0
LINE
  5
24E3
330
1F
100
AcDbEntity
  8
SPOJOVACÍ
  6
DASHED
100
AcDbLine
 10
-2505.044398659237
 20
-8395.694175300896
 30
0.0
 11
-2504.803743575999
 21
-8393.762553639836
 31
0.0
  0
LINE
  5
24E4
330
1F
100
AcDbEntity
  8
SPOJOVACÍ
  6
DASHED
100
AcDbLine
 10
-2508.229432205212
 20
-8395.127177342887
 30
0.0
 11
-2507.858422287893
 21
-8395.341396828674
 31
0.0
  0
LINE
  5
24E5
330
1F
100
AcDbEntity
  8
SPOJOVACÍ
  6
DASHED
100
AcDbLine
 10
-2508.229432205212
 20
-8395.127177342887
 30
0.0
 11
-2507.858422287893
 21
-8394.757078997221
 31
0.0
  0
LINE
  5
24E6
330
1F
100
AcDbEntity
  8
SPOJOVACÍ
  6
DASHED
100
AcDbLine
 10
-2507.858422287893
 20
-8395.341396828674
 30
0.0
 11
-2504.55670748905
 21
-8396.451691865669
 31
0.0
  0
LINE
  5
24E7
330
1F
100
AcDbEntity
  8
SPOJOVACÍ
  6
DASHED
100
AcDbLine
 10
-2507.858422287893
 20
-8394.757078997221
 30
0.0
 11
-2504.55670748905
 21
-8395.867374034217
 31
0.0
  0
LINE
  5
24E8
330
1F
100
AcDbEntity
  8
SPOJOVACÍ
  6
DASHED
100
AcDbLine
 10
-2506.864808501625
 20
-8398.437096291157
 30
0.0
 11
-2506.580397953374
 21
-8400.711469129303
 31
0.0
  0
LINE
  5
24E9
330
1F
100
AcDbEntity
  8
SPOJOVACÍ
  6
DASHED
100
AcDbLine
 10
-2505.708934849893
 20
-8401.009553264922
 30
0.0
 11
-2505.446402034148
 21
-8398.907467587637
 31
0.0
  0
LINE
  5
24EA
330
1F
100
AcDbEntity
  8
SPOJOVACÍ
  6
DASHED
100
AcDbLine
 10
-2507.676107833228
 20
-8398.081583102099
 30
0.0
 11
-2507.306009485423
 21
-8398.294891015426
 31
0.0
  0
LINE
  5
24EB
330
1F
100
AcDbEntity
  8
SPOJOVACÍ
  6
DASHED
100
AcDbLine
 10
-2507.676107833228
 20
-8398.081583102099
 30
0.0
 11
-2507.306009485423
 21
-8397.710573183974
 31
0.0
  0
LINE
  5
24EC
330
1F
100
AcDbEntity
  8
SPOJOVACÍ
  6
DASHED
100
AcDbLine
 10
-2504.622340695126
 20
-8398.702363824533
 30
0.0
 11
-2504.992439038652
 21
-8399.073373742387
 31
0.0
  0
LINE
  5
24ED
330
1F
100
AcDbEntity
  8
SPOJOVACÍ
  6
DASHED
100
AcDbLine
 10
-2504.622340695126
 20
-8398.702363824533
 30
0.0
 11
-2504.992439038652
 21
-8398.489055911205
 31
0.0
  0
LINE
  5
24EE
330
1F
100
AcDbEntity
  8
SPOJOVACÍ
  6
DASHED
100
AcDbLine
 10
-2507.306009485423
 20
-8398.294891015426
 30
0.0
 11
-2504.992439038652
 21
-8399.073373742387
 31
0.0
  0
LINE
  5
24EF
330
1F
100
AcDbEntity
  8
SPOJOVACÍ
  6
DASHED
100
AcDbLine
 10
-2507.306009485423
 20
-8397.710573183974
 30
0.0
 11
-2504.992439038652
 21
-8398.489055911205
 31
0.0
  0
LINE
  5
24F0
330
1F
100
AcDbEntity
  8
SPOJOVACÍ
  6
DASHED
100
AcDbLine
 10
-2507.676107833228
 20
-8398.081583102099
 30
0.0
 11
-2504.622340695126
 21
-8398.702363824533
 31
0.0
  0
LINE
  5
24F1
330
1F
100
AcDbEntity
  8
SPOJOVACÍ
  6
DASHED
100
AcDbLine
 10
-2507.122783456966
 20
-8401.035077288852
 30
0.0
 11
-2506.75268511344
 21
-8400.664978943188
 31
0.0
  0
LINE
  5
24F2
330
1F
100
AcDbEntity
  8
SPOJOVACÍ
  6
DASHED
100
AcDbLine
 10
-2506.75268511344
 20
-8400.664978943188
 30
0.0
 11
-2505.381680401865
 21
-8401.12623451672
 31
0.0
  0
LINE
  5
24F3
330
1F
100
AcDbEntity
  8
SPOJOVACÍ
  6
DASHED
100
AcDbLine
 10
-2507.226702698136
 20
-8395.543765874942
 30
0.0
 11
-2506.942292145607
 21
-8397.819050285285
 31
0.0
  0
LINE
  5
24F4
330
1F
100
AcDbEntity
  8
SPOJOVACÍ
  6
DASHED
100
AcDbLine
 10
-2505.376210971947
 20
-8398.346850635476
 30
0.0
 11
-2505.114589725716
 21
-8396.25296910868
 31
0.0
  0
LINE
  5
24F5
330
1F
100
AcDbEntity
  8
SPOJOVACÍ
  6
DASHED
100
AcDbLine
 10
-2507.44912633548
 20
-8392.540135212785
 30
0.0
 11
-2507.44912633548
 21
-8393.762553639836
 31
0.0
  0
LINE
  5
24F6
330
1F
100
AcDbEntity
  8
SPOJOVACÍ
  6
DASHED
100
AcDbLine
 10
-2504.803743575999
 20
-8393.432564474709
 30
0.0
 11
-2504.803743575999
 21
-8393.762553639836
 31
0.0
  0
LINE
  5
24F7
330
1F
100
AcDbEntity
  8
SPOJOVACÍ
  6
DASHED
100
AcDbLine
 10
-2508.478291439744
 20
-8392.11169624122
 30
0.0
 11
-2508.10819309194
 21
-8392.325004154548
 31
0.0
  0
LINE
  5
24F8
330
1F
100
AcDbEntity
  8
SPOJOVACÍ
  6
DASHED
100
AcDbLine
 10
-2508.478291439744
 20
-8392.11169624122
 30
0.0
 11
-2508.10819309194
 21
-8391.740686323094
 31
0.0
  0
LINE
  5
24F9
330
1F
100
AcDbEntity
  8
SPOJOVACÍ
  6
DASHED
370
    20
100
AcDbLine
 10
-2506.126434957879
 20
-8404.34681938149
 30
0.0
 11
-2505.779125916372
 21
-8401.567435500247
 31
0.0
  0
LINE
  5
24FA
330
1F
100
AcDbEntity
  8
SPOJOVACÍ
  6
DASHED
370
    20
100
AcDbLine
 10
-2506.504737452699
 20
-8401.319487840041
 30
0.0
 11
-2506.126434957879
 21
-8404.34681938149
 31
0.0
  0
LINE
  5
24FB
330
1F
100
AcDbEntity
  8
SPOJOVACÍ
  6
DASHED
100
AcDbLine
 10
-2505.011582058338
 20
-8401.339542430312
 30
0.0
 11
-2505.381680401865
 21
-8401.710552348164
 31
0.0
  0
LINE
  5
24FC
330
1F
100
AcDbEntity
  8
SPOJOVACÍ
  6
DASHED
100
AcDbLine
 10
-2506.75268511344
 20
-8401.249296774631
 30
0.0
 11
-2505.381680401865
 21
-8401.710552348164
 31
0.0
  0
LINE
  5
24FD
330
1F
100
AcDbEntity
  8
SPOJOVACÍ
  6
DASHED
100
AcDbLine
 10
-2507.122783456966
 20
-8401.035077288852
 30
0.0
 11
-2506.75268511344
 21
-8401.249296774631
 31
0.0
  0
LINE
  5
24FE
330
1F
100
AcDbEntity
  8
SPOJOVACÍ
  6
DASHED
100
AcDbLine
 10
-2505.011582058338
 20
-8401.339542430312
 30
0.0
 11
-2505.381680401865
 21
-8401.12623451672
 31
0.0
  0
LINE
  5
24FF
330
1F
100
AcDbEntity
  8
SPOJOVACÍ
  6
DASHED
100
AcDbLine
 10
-2507.122783456966
 20
-8401.035077288852
 30
0.0
 11
-2505.011582058338
 21
-8401.339542430312
 31
0.0
  0
LINE
  5
2500
330
1F
100
AcDbEntity
  8
SPOJOVACÍ
  6
DASHED
100
AcDbLine
 10
-2507.44912633548
 20
-8389.488191219593
 30
0.0
 11
-2507.44912633548
 21
-8391.955817381333
 31
0.0
  0
LINE
  5
2501
330
1F
100
AcDbEntity
  8
SPOJOVACÍ
  6
DASHED
100
AcDbLine
 10
-2504.803743575999
 20
-8390.372416331029
 30
0.0
 11
-2504.803743575999
 21
-8392.840954064956
 31
0.0
  0
LINE
  5
2502
330
1F
100
AcDbEntity
  8
SPOJOVACÍ
  6
DASHED
100
AcDbLine
 10
-2504.186609145524
 20
-8396.080681947545
 30
0.0
 11
-2504.55670748905
 21
-8396.451691865669
 31
0.0
  0
LINE
  5
2503
330
1F
100
AcDbEntity
  8
SPOJOVACÍ
  6
DASHED
100
AcDbLine
 10
-2504.186609145524
 20
-8396.080681947545
 30
0.0
 11
-2504.55670748905
 21
-8395.867374034217
 31
0.0
  0
LINE
  5
2504
330
1F
100
AcDbEntity
  8
SPOJOVACÍ
  6
DASHED
100
AcDbLine
 10
-2508.229432205212
 20
-8395.127177342887
 30
0.0
 11
-2504.186609145524
 21
-8396.080681947545
 31
0.0
  0
LINE
  5
2505
330
1F
100
AcDbEntity
  8
SPOJOVACÍ
  6
DASHED
100
AcDbLine
 10
-2508.478291439744
 20
-8382.938544388734
 30
0.0
 11
-2503.774578476012
 21
-8384.114472629939
 31
0.0
  0
LINE
  5
2506
330
1F
100
AcDbEntity
  8
SPOJOVACÍ
  6
DASHED
100
AcDbLine
 10
-2508.10819309194
 20
-8383.152763874521
 30
0.0
 11
-2504.144676819539
 21
-8384.484570975335
 31
0.0
  0
LINE
  5
2507
330
1F
100
AcDbEntity
  8
SPOJOVACÍ
  6
DASHED
100
AcDbLine
 10
-2508.478291439744
 20
-8389.053371242178
 30
0.0
 11
-2503.774578476012
 21
-8390.229299483111
 31
0.0
  0
LINE
  5
2508
330
1F
100
AcDbEntity
  8
SPOJOVACÍ
  6
DASHED
100
AcDbLine
 10
-2508.10819309194
 20
-8389.267590727957
 30
0.0
 11
-2504.144676819539
 21
-8390.600309400964
 31
0.0
  0
LINE
  5
2509
330
1F
100
AcDbEntity
  8
SPOJOVACÍ
  6
DASHED
100
AcDbLine
 10
-2508.10819309194
 20
-8388.683272896512
 30
0.0
 11
-2504.144676819539
 21
-8390.015991569784
 31
0.0
  0
LINE
  5
250A
330
1F
100
AcDbEntity
  8
SPOJOVACÍ
  6
DASHED
100
AcDbLine
 10
-2508.478291439744
 20
-8392.11169624122
 30
0.0
 11
-2503.774578476012
 21
-8393.287624482153
 31
0.0
  0
LINE
  5
250B
330
1F
100
AcDbEntity
  8
SPOJOVACÍ
  6
DASHED
100
AcDbLine
 10
-2508.10819309194
 20
-8392.325004154548
 30
0.0
 11
-2504.144676819539
 21
-8393.657722827818
 31
0.0
  0
LINE
  5
250C
330
1F
100
AcDbEntity
  8
SPOJOVACÍ
  6
DASHED
100
AcDbLine
 10
-2508.10819309194
 20
-8391.740686323094
 30
0.0
 11
-2504.144676819539
 21
-8393.073404996368
 31
0.0
  0
LINE
  5
250D
330
1F
100
AcDbEntity
  8
SPOJOVACÍ
  6
DASHED
100
AcDbLine
 10
-2508.478291439744
 20
-8385.995957815588
 30
0.0
 11
-2503.774578476012
 21
-8387.171886056522
 31
0.0
  0
LINE
  5
250E
330
1F
100
AcDbEntity
  8
SPOJOVACÍ
  6
DASHED
100
AcDbLine
 10
-2508.10819309194
 20
-8386.210177301375
 30
0.0
 11
-2504.144676819539
 21
-8387.542895974375
 31
0.0
  0
LINE
  5
250F
330
1F
100
AcDbEntity
  8
SPOJOVACÍ
  6
DASHED
100
AcDbLine
 10
-2508.10819309194
 20
-8385.625859469923
 30
0.0
 11
-2504.144676819539
 21
-8386.95857814293
 31
0.0
  0
LINE
  5
2510
330
1F
100
AcDbEntity
  8
SPOJOVACÍ
  6
DASHED
100
AcDbLine
 10
-2508.478291439744
 20
-8379.881130962152
 30
0.0
 11
-2503.774578476012
 21
-8381.057059203085
 31
0.0
  0
LINE
  5
2511
330
1F
100
AcDbEntity
  8
SPOJOVACÍ
  6
DASHED
100
AcDbLine
 10
-2508.10819309194
 20
-8380.094438875479
 30
0.0
 11
-2504.144676819539
 21
-8381.427157548751
 31
0.0
  0
LINE
  5
2512
330
1F
100
AcDbEntity
  8
SPOJOVACÍ
  6
DASHED
100
AcDbLine
 10
-2508.10819309194
 20
-8379.510121044299
 30
0.0
 11
-2504.144676819539
 21
-8380.842839717299
 31
0.0
  0
LINE
  5
2513
330
1F
100
AcDbEntity
  8
SPOJOVACÍ
  6
DASHED
100
AcDbLine
 10
-2508.10819309194
 20
-8382.56844604307
 30
0.0
 11
-2504.144676819539
 21
-8383.900253144153
 31
0.0
  0
LWPOLYLINE
  5
2514
330
1F
100
AcDbEntity
  8
STAVBA OBRYS
370
    20
100
AcDbPolyline
 90
        7
 70
     0
 43
0.0
 10
-2491.726738354103
 20
-8381.296865220493
 42
0.0203924744732807
 10
-2490.824654369693
 20
-8382.309995249647
 42
0.0273961979096945
 10
-2489.974790019498
 20
-8383.098171623673
 42
0.0243529190212958
 10
-2488.811669527079
 20
-8383.971930968341
 42
0.0398020282482987
 10
-2488.036710989518
 20
-8384.411559711788
 42
0.104168275620852
 10
-2487.650299853178
 20
-8384.501576171963
 42
0.1828126674292254
 10
-2477.471326523737
 20
-8381.296865220493
 42
0.007272956268647
  0
LINE
  5
2515
330
1F
100
AcDbEntity
  8
0
100
AcDbLine
 10
-2467.211969874419
 20
-8406.296865220493
 30
0.0
 11
-2467.211969874419
 21
-8431.296865220494
 31
0.0
  0
LINE
  5
2516
330
1F
100
AcDbEntity
  8
SPOJOVACÍ
  6
DASHED
100
AcDbLine
 10
-2511.12458576874
 20
-8370.472793461695
 30
0.0
 11
-2509.80189438686
 21
-8371.20205128544
 31
0.0
  0
LINE
  5
2517
330
1F
100
AcDbEntity
  8
SPOJOVACÍ
  6
DASHED
100
AcDbLine
 10
-2511.12458576874
 20
-8369.296865220498
 30
0.0
 11
-2501.128284147017
 21
-8369.296865220498
 31
0.0
  0
LINE
  5
2518
330
1F
100
AcDbEntity
  8
SPOJOVACÍ
  6
DASHED
100
AcDbLine
 10
-2511.12458576874
 20
-8370.472793461695
 30
0.0
 11
-2501.128284147017
 21
-8370.472793461695
 31
0.0
  0
LINE
  5
2519
330
1F
100
AcDbEntity
  8
SPOJOVACÍ
  6
DASHED
100
AcDbLine
 10
-2511.12458576874
 20
-8369.296865220498
 30
0.0
 11
-2511.12458576874
 21
-8370.472793461695
 31
0.0
  0
LINE
  5
251A
330
1F
100
AcDbEntity
  8
SPOJOVACÍ
  6
DASHED
100
AcDbLine
 10
-2503.980593810768
 20
-8372.885725286295
 30
0.0
 11
-2503.041674362183
 21
-8371.702504467053
 31
0.0
  0
LINE
  5
251B
330
1F
100
AcDbEntity
  8
SPOJOVACÍ
  6
DASHED
100
AcDbLine
 10
-2501.829283229461
 20
-8370.802782626821
 30
0.0
 11
-2501.128284147017
 21
-8370.472793461695
 31
0.0
  0
LINE
  5
251C
330
1F
100
AcDbEntity
  8
SPOJOVACÍ
  6
DASHED
100
AcDbLine
 10
-2503.041674362183
 20
-8371.702504467053
 30
0.0
 11
-2501.829283229461
 21
-8370.802782626821
 31
0.0
  0
LINE
  5
251D
330
1F
100
AcDbEntity
  8
SPOJOVACÍ
  6
DASHED
100
AcDbLine
 10
-2501.128284147017
 20
-8369.296865220498
 30
0.0
 11
-2501.128284147017
 21
-8370.472793461695
 31
0.0
  0
LINE
  5
251E
330
1F
100
AcDbEntity
  8
SPOJOVACÍ
  6
DASHED
100
AcDbLine
 10
-2507.933171214776
 20
-8373.542057327794
 30
0.0
 11
-2507.513847967763
 21
-8374.993280397504
 31
0.0
  0
LINE
  5
251F
330
1F
100
AcDbEntity
  8
SPOJOVACÍ
  6
DASHED
100
AcDbLine
 10
-2504.803743575999
 20
-8375.764470546164
 30
0.0
 11
-2504.581319942933
 21
-8374.271315151803
 31
0.0
  0
LINE
  5
2520
330
1F
100
AcDbEntity
  8
SPOJOVACÍ
  6
DASHED
100
AcDbLine
 10
-2507.513847967763
 20
-8374.993280397504
 30
0.0
 11
-2507.44912633548
 21
-8375.764470546164
 31
0.0
  0
LINE
  5
2521
330
1F
100
AcDbEntity
  8
SPOJOVACÍ
  6
DASHED
100
AcDbLine
 10
-2508.713477084508
 20
-8372.249447835065
 30
0.0
 11
-2507.933171214776
 21
-8373.542057327794
 31
0.0
  0
LINE
  5
2522
330
1F
100
AcDbEntity
  8
SPOJOVACÍ
  6
DASHED
100
AcDbLine
 10
-2509.80189438686
 20
-8371.20205128544
 30
0.0
 11
-2508.713477084508
 21
-8372.249447835065
 31
0.0
  0
LINE
  5
2523
330
1F
100
AcDbEntity
  8
SPOJOVACÍ
  6
DASHED
100
AcDbLine
 10
-2504.581319942933
 20
-8374.271315151803
 30
0.0
 11
-2503.980593810768
 21
-8372.885725286295
 31
0.0
  0
LWPOLYLINE
  5
2524
330
1F
100
AcDbEntity
  8
izolace
100
AcDbPolyline
 90
        4
 70
     1
 43
0.0
 10
-2547.211969874419
 20
-8406.296865220493
 10
-2467.211969874419
 20
-8406.296865220493
 10
-2467.211969874419
 20
-8381.296865220493
 10
-2547.211969874419
 20
-8381.296865220493
  0
LINE
  5
2525
330
1F
100
AcDbEntity
  8
izolace
  6
IZOLACE
 48
1.199999999999999
370
    20
100
AcDbLine
 10
-2467.211969874419
 20
-8418.796865220492
 30
0.0
 11
-2547.211969874419
 21
-8418.796865220492
 31
0.0
  0
LINE
  5
2527
330
1F
100
AcDbEntity
  8
STAVBA OBRYS
100
AcDbLine
 10
-2547.211969874419
 20
-8406.296865220493
 30
0.0
 11
-2547.211969874419
 21
-8431.296865220494
 31
0.0
  0
HATCH
  5
2532
330
1F
100
AcDbEntity
  8
STAVBA OBRYS
370
    20
100
AcDbHatch
 10
0.0
 20
0.0
 30
0.0
210
0.0
220
0.0
230
1.0
  2
ANSI35
 70
     0
 71
     0
 91
        1
 92
        7
 72
     0
 73
     1
 93
        4
 10
-2147.196350506789
 20
-8369.296865220492
 10
-2452.211969874419
 20
-8369.296865220492
 10
-2452.211969874419
 20
-8434.296865220494
 10
-2147.196350506789
 20
-8434.296865220494
 97
        0
 75
     0
 76
     1
 52
90.0
 41
3.0
 77
     0
 78
     2
 53
135.0
 43
-4304.900116360538
 44
-8306.472095368917
 45
-13.47038418160373
 46
-13.47038418160372
 79
     0
 53
135.0
 43
-4304.900116360538
 44
-8293.001705368917
 45
-13.47038418160373
 46
-13.47038418160372
 79
     4
 49
23.8125
 49
-4.762499999999999
 49
0.0
 49
-4.762499999999999
 47
0.4905831317705939
 98
        1
 10
-2267.661241567483
 20
-8391.521335514696
  0
LINE
  5
2DF8
330
1F
100
AcDbEntity
  8
POPIS
100
AcDbLine
 10
-2459.711969874419
 20
-8394.296865220493
 30
0.0
 11
-2459.711969874419
 21
-8480.026392845294
 31
0.0
  0
LINE
  5
2DF9
330
1F
100
AcDbEntity
  8
POPIS
100
AcDbLine
 10
-2515.48657106962
 20
-8385.571601908862
 30
0.0
 11
-2515.48657106962
 21
-8480.026392845294
 31
0.0
  0
TEXT
  5
2E7B
330
1F
100
AcDbEntity
  8
POPIS
100
AcDbText
 10
-2586.283663970828
 20
-8511.544297847805
 30
0.0
 40
25.0
  1
09
 41
0.85
  7
SIMPLEX7
100
AcDbText
  0
LINE
  5
2E7C
330
1F
100
AcDbEntity
  8
POPIS
100
AcDbLine
 10
-2541.01121718909
 20
-8420.856477123528
 30
0.0
 11
-2567.610730320803
 21
-8478.231040074071
 31
0.0
  0
LINE
  5
4EA9
330
1F
100
AcDbEntity
  8
CETRIS
100
AcDbLine
 10
-2805.142013017865
 20
-8381.796865220492
 30
0.0
 11
-2547.211969874419
 21
-8381.796865220492
 31
0.0
  0
LINE
  5
4EAA
330
1F
100
AcDbEntity
  8
CETRIS
100
AcDbLine
 10
-2805.142013017865
 20
-8382.296865220494
 30
0.0
 11
-2547.211969874419
 21
-8382.296865220494
 31
0.0
  0
LINE
  5
4EAB
330
1F
100
AcDbEntity
  8
CETRIS
100
AcDbLine
 10
-2805.142013017865
 20
-8382.796865220493
 30
0.0
 11
-2547.211969874419
 21
-8382.796865220493
 31
0.0
  0
LINE
  5
4EAC
330
1F
100
AcDbEntity
  8
POPIS
370
    20
100
AcDbLine
 10
-2758.160302140166
 20
-8285.003406467305
 30
0.0
 11
-2758.160302140166
 21
-8382.820473581638
 31
0.0
  0
TEXT
  5
4EAD
330
1F
100
AcDbEntity
  8
POPIS
100
AcDbText
 10
-2780.631123419966
 20
-8276.154045394582
 30
0.0
 40
25.0
  1
07
 41
0.85
  7
SIMPLEX7
100
AcDbText
  0
INSERT
  5
4EAE
330
1F
100
AcDbEntity
  8
POPIS
100
AcDbBlockReference
  2
E_PUNKT
 10
-2758.18937047104
 20
-8383.688322509348
 30
0.0
 50
270.0
  0
LINE
  5
5BAC
330
1F
100
AcDbEntity
  8
POPIS
100
AcDbLine
 10
-2805.142013017862
 20
-8450.100862181896
 30
0.0
 11
-2789.338016056459
 21
-8434.296865220494
 31
0.0
  0
LINE
  5
5BB0
330
1F
100
AcDbEntity
  8
POPIS
100
AcDbLine
 10
-2805.142013017862
 20
-8477.041630545103
 30
0.0
 11
-2762.397247693252
 21
-8434.296865220494
 31
0.0
  0
LINE
  5
5BB4
330
1F
100
AcDbEntity
  8
POPIS
100
AcDbLine
 10
-2805.142013017862
 20
-8503.982398908311
 30
0.0
 11
-2735.456479330044
 21
-8434.296865220494
 31
0.0
  0
LINE
  5
5BB8
330
1F
100
AcDbEntity
  8
POPIS
100
AcDbLine
 10
-2754.278662011612
 20
-8480.059816265267
 30
0.0
 11
-2708.515710966837
 21
-8434.296865220494
 31
0.0
  0
LINE
  5
5BBA
330
1F
100
AcDbEntity
  8
POPIS
100
AcDbLine
 10
-2805.142013017862
 20
-8530.923167271518
 30
0.0
 11
-2763.261836784878
 21
-8489.042991038534
 31
0.0
  0
LINE
  5
5BBD
330
1F
100
AcDbEntity
  8
POPIS
100
AcDbLine
 10
-2727.337893648405
 20
-8480.059816265267
 30
0.0
 11
-2681.574942603629
 21
-8434.296865220494
 31
0.0
  0
LINE
  5
5BBF
330
1F
100
AcDbEntity
  8
POPIS
100
AcDbLine
 10
-2801.397870704526
 20
-8554.119793321389
 30
0.0
 11
-2763.261836784878
 21
-8515.98375940174
 31
0.0
  0
LINE
  5
5BC1
330
1F
100
AcDbEntity
  8
POPIS
100
AcDbLine
 10
-2700.397125285197
 20
-8480.059816265267
 30
0.0
 11
-2654.634174240422
 21
-8434.296865220494
 31
0.0
  0
LINE
  5
5BC3
330
1F
100
AcDbEntity
  8
POPIS
100
AcDbLine
 10
-2711.65030881762
 20
-8491.31299979769
 30
0.0
 11
-2704.424176586257
 21
-8484.086867566331
 31
0.0
  0
LINE
  5
5BC4
330
1F
100
AcDbEntity
  8
POPIS
100
AcDbLine
 10
-2774.457102341319
 20
-8554.119793321389
 30
0.0
 11
-2738.690099364324
 21
-8518.352790344396
 31
0.0
  0
LINE
  5
5BC6
330
1F
100
AcDbEntity
  8
POPIS
100
AcDbLine
 10
-2673.45635692199
 20
-8480.059816265267
 30
0.0
 11
-2627.693405877214
 21
-8434.296865220494
 31
0.0
  0
LINE
  5
5BC7
330
1F
100
AcDbEntity
  8
POPIS
100
AcDbLine
 10
-2747.516333978111
 20
-8554.119793321389
 30
0.0
 11
-2711.749331001117
 21
-8518.352790344396
 31
0.0
  0
LINE
  5
5BC8
330
1F
100
AcDbEntity
  8
POPIS
100
AcDbLine
 10
-2711.65030881762
 20
-8518.253768160899
 30
0.0
 11
-2704.424176586257
 21
-8511.027635929536
 31
0.0
  0
LINE
  5
5BC9
330
1F
100
AcDbEntity
  8
POPIS
100
AcDbLine
 10
-2720.575565614904
 20
-8554.119793321389
 30
0.0
 11
-2684.808562637909
 21
-8518.352790344396
 31
0.0
  0
LINE
  5
5BCA
330
1F
100
AcDbEntity
  8
POPIS
100
AcDbLine
 10
-2652.812648619
 20
-8486.356876325485
 30
0.0
 11
-2600.752637514007
 21
-8434.296865220494
 31
0.0
  0
LINE
  5
5BCB
330
1F
100
AcDbEntity
  8
POPIS
100
AcDbLine
 10
-2693.634797251696
 20
-8554.119793321389
 30
0.0
 11
-2657.867794274701
 21
-8518.352790344396
 31
0.0
  0
LINE
  5
5BCC
330
1F
100
AcDbEntity
  8
POPIS
100
AcDbLine
 10
-2619.574820195575
 20
-8480.059816265267
 30
0.0
 11
-2573.8118691508
 21
-8434.296865220494
 31
0.0
  0
LINE
  5
5BCD
330
1F
100
AcDbEntity
  8
POPIS
100
AcDbLine
 10
-2652.812648619
 20
-8513.297644688693
 30
0.0
 11
-2645.041244317821
 21
-8505.526240387514
 31
0.0
  0
LINE
  5
5BCE
330
1F
100
AcDbEntity
  8
POPIS
100
AcDbLine
 10
-2666.694028888489
 20
-8554.119793321389
 30
0.0
 11
-2630.927025911494
 21
-8518.352790344396
 31
0.0
  0
LINE
  5
5BCF
330
1F
100
AcDbEntity
  8
POPIS
100
AcDbLine
 10
-2593.429716350562
 20
-8480.855480783462
 30
0.0
 11
-2546.871100787592
 21
-8434.296865220494
 31
0.0
  0
LINE
  5
5BD1
330
1F
100
AcDbEntity
  8
POPIS
100
AcDbLine
 10
-2593.429716350562
 20
-8507.79624914667
 30
0.0
 11
-2519.930332424384
 21
-8434.296865220494
 31
0.0
  0
LINE
  5
5BD2
330
1F
100
AcDbEntity
  8
POPIS
100
AcDbLine
 10
-2639.753260525282
 20
-8554.119793321389
 30
0.0
 11
-2603.986257548287
 21
-8518.352790344396
 31
0.0
  0
LINE
  5
5BD4
330
1F
100
AcDbEntity
  8
POPIS
100
AcDbLine
 10
-2538.752515105953
 20
-8480.059816265267
 30
0.0
 11
-2492.989564061177
 21
-8434.296865220494
 31
0.0
  0
LINE
  5
5BD5
330
1F
100
AcDbEntity
  8
POPIS
100
AcDbLine
 10
-2612.812492162075
 20
-8554.119793321389
 30
0.0
 11
-2548.718998383728
 21
-8490.026299543044
 31
0.0
  0
LINE
  5
5BD7
330
1F
100
AcDbEntity
  8
POPIS
100
AcDbLine
 10
-2511.811746742745
 20
-8480.059816265267
 30
0.0
 11
-2466.048795697969
 21
-8434.296865220494
 31
0.0
  0
LINE
  5
5BD8
330
1F
100
AcDbEntity
  8
POPIS
100
AcDbLine
 10
-2585.871723798867
 20
-8554.119793321389
 30
0.0
 11
-2548.718998383728
 21
-8516.96706790625
 31
0.0
  0
LINE
  5
5BDA
330
1F
100
AcDbEntity
  8
POPIS
100
AcDbLine
 10
-2484.866715078037
 20
-8480.055552963767
 30
0.0
 11
-2439.108027334762
 21
-8434.296865220494
 31
0.0
  0
LINE
  5
5BDB
330
1F
100
AcDbEntity
  8
POPIS
100
AcDbLine
 10
-2558.930955435659
 20
-8554.119793321389
 30
0.0
 11
-2523.163952458664
 21
-8518.352790344396
 31
0.0
  0
LINE
  5
5BDC
330
1F
100
AcDbEntity
  8
POPIS
100
AcDbLine
 10
-2497.107470416469
 20
-8492.296308302201
 30
0.0
 11
-2490.901834775149
 21
-8486.090672660882
 31
0.0
  0
LINE
  5
5BDE
330
1F
100
AcDbEntity
  8
POPIS
100
AcDbLine
 10
-2457.92594671483
 20
-8480.055552963767
 30
0.0
 11
-2412.167258971555
 21
-8434.296865220494
 31
0.0
  0
LINE
  5
5BDF
330
1F
100
AcDbEntity
  8
POPIS
100
AcDbLine
 10
-2531.990187072452
 20
-8554.119793321389
 30
0.0
 11
-2490.901834775149
 21
-8513.031441024088
 31
0.0
  0
LINE
  5
5BE1
330
1F
100
AcDbEntity
  8
POPIS
100
AcDbLine
 10
-2439.28178020489
 20
-8488.352154817036
 30
0.0
 11
-2385.226490608347
 21
-8434.296865220494
 31
0.0
  0
LINE
  5
5BE2
330
1F
100
AcDbEntity
  8
POPIS
100
AcDbLine
 10
-2505.049418709244
 20
-8554.119793321389
 30
0.0
 11
-2469.303732239753
 21
-8518.374106851899
 31
0.0
  0
LINE
  5
5BE4
330
1F
100
AcDbEntity
  8
POPIS
100
AcDbLine
 10
-2439.28178020489
 20
-8515.292923180243
 30
0.0
 11
-2358.28572224514
 21
-8434.296865220494
 31
0.0
  0
LINE
  5
5BE5
330
1F
100
AcDbEntity
  8
POPIS
100
AcDbLine
 10
-2478.108650346037
 20
-8554.119793321389
 30
0.0
 11
-2442.362963876546
 21
-8518.374106851899
 31
0.0
  0
LINE
  5
5BE7
330
1F
100
AcDbEntity
  8
POPIS
100
AcDbLine
 10
-2451.167881982829
 20
-8554.119793321389
 30
0.0
 11
-2331.344953881932
 21
-8434.296865220494
 31
0.0
  0
LINE
  5
5BE9
330
1F
100
AcDbEntity
  8
POPIS
100
AcDbLine
 10
-2424.227113619622
 20
-8554.119793321389
 30
0.0
 11
-2304.404185518725
 21
-8434.296865220494
 31
0.0
  0
LINE
  5
5BEB
330
1F
100
AcDbEntity
  8
POPIS
100
AcDbLine
 10
-2397.286345256415
 20
-8554.119793321389
 30
0.0
 11
-2277.463417155517
 21
-8434.296865220494
 31
0.0
  0
LINE
  5
5BED
330
1F
100
AcDbEntity
  8
POPIS
100
AcDbLine
 10
-2370.345576893207
 20
-8554.119793321389
 30
0.0
 11
-2250.52264879231
 21
-8434.296865220494
 31
0.0
  0
LINE
  5
5BEF
330
1F
100
AcDbEntity
  8
POPIS
100
AcDbLine
 10
-2343.40480853
 20
-8554.119793321389
 30
0.0
 11
-2223.581880429102
 21
-8434.296865220494
 31
0.0
  0
LINE
  5
5BF2
330
1F
100
AcDbEntity
  8
POPIS
100
AcDbLine
 10
-2316.464040166792
 20
-8554.119793321389
 30
0.0
 11
-2196.641112065895
 21
-8434.296865220494
 31
0.0
  0
LINE
  5
5BF5
330
1F
100
AcDbEntity
  8
POPIS
100
AcDbLine
 10
-2289.523271803584
 20
-8554.119793321389
 30
0.0
 11
-2169.700343702687
 21
-8434.296865220494
 31
0.0
  0
LINE
  5
5BF9
330
1F
100
AcDbEntity
  8
POPIS
100
AcDbLine
 10
-2262.582503440377
 20
-8554.119793321389
 30
0.0
 11
-2147.196350506789
 21
-8438.733640387802
 31
0.0
  0
LINE
  5
5BFC
330
1F
100
AcDbEntity
  8
POPIS
100
AcDbLine
 10
-2235.64173507717
 20
-8554.119793321389
 30
0.0
 11
-2147.196350506789
 21
-8465.674408751009
 31
0.0
  0
LINE
  5
5BFF
330
1F
100
AcDbEntity
  8
POPIS
100
AcDbLine
 10
-2208.700966713962
 20
-8554.119793321389
 30
0.0
 11
-2147.196350506789
 21
-8492.615177114217
 31
0.0
  0
LINE
  5
5C03
330
1F
100
AcDbEntity
  8
POPIS
100
AcDbLine
 10
-2181.760198350755
 20
-8554.119793321389
 30
0.0
 11
-2147.196350506789
 21
-8519.555945477423
 31
0.0
  0
LINE
  5
5C06
330
1F
100
AcDbEntity
  8
POPIS
100
AcDbLine
 10
-2154.819429987547
 20
-8554.119793321389
 30
0.0
 11
-2147.196350506789
 21
-8546.496713840632
 31
0.0
  0
LINE
  5
5DD0
330
1F
100
AcDbEntity
  8
POPIS
100
AcDbLine
 10
-2802.952274293327
 20
-8434.440745094153
 30
0.0
 11
-2802.952274293327
 21
-8434.440745094153
 31
0.0
  0
LINE
  5
5DD9
330
1F
100
AcDbEntity
  8
POPIS
100
AcDbLine
 10
-2805.142013017862
 20
-8463.571252181894
 30
0.0
 11
-2792.849486157124
 21
-8451.278725321158
 31
0.0
  0
LINE
  5
5DDA
330
1F
100
AcDbEntity
  8
POPIS
100
AcDbLine
 10
-2789.481890111723
 20
-8447.911129275757
 30
0.0
 11
-2789.481890111723
 21
-8447.911129275757
 31
0.0
  0
LINE
  5
5DDB
330
1F
100
AcDbEntity
  8
POPIS
100
AcDbLine
 10
-2786.114294066322
 20
-8444.543533230355
 30
0.0
 11
-2775.867626056458
 21
-8434.296865220494
 31
0.0
  0
LINE
  5
5DE7
330
1F
100
AcDbEntity
  8
POPIS
100
AcDbLine
 10
-2805.142013017862
 20
-8490.512020545102
 30
0.0
 11
-2802.952274293327
 21
-8488.322281820568
 31
0.0
  0
LINE
  5
5DE8
330
1F
100
AcDbEntity
  8
POPIS
100
AcDbLine
 10
-2799.584678247926
 20
-8484.954685775166
 30
0.0
 11
-2799.584678247926
 21
-8484.954685775166
 31
0.0
  0
LINE
  5
5DE9
330
1F
100
AcDbEntity
  8
POPIS
100
AcDbLine
 10
-2796.217082202525
 20
-8481.587089729767
 30
0.0
 11
-2779.37910197552
 21
-8464.749109502761
 31
0.0
  0
LINE
  5
5DEA
330
1F
100
AcDbEntity
  8
POPIS
100
AcDbLine
 10
-2776.011505930119
 20
-8461.381513457359
 30
0.0
 11
-2776.011505930119
 21
-8461.381513457359
 31
0.0
  0
LINE
  5
5DEB
330
1F
100
AcDbEntity
  8
POPIS
100
AcDbLine
 10
-2772.643909884718
 20
-8458.013917411959
 30
0.0
 11
-2755.805929657713
 21
-8441.175937184956
 31
0.0
  0
LINE
  5
5DEC
330
1F
100
AcDbEntity
  8
POPIS
100
AcDbLine
 10
-2752.438333612312
 20
-8437.808341139554
 30
0.0
 11
-2752.438333612312
 21
-8437.808341139554
 31
0.0
  0
LINE
  5
5DED
330
1F
100
AcDbEntity
  8
POPIS
100
AcDbLine
 10
-2749.070737566911
 20
-8434.440745094153
 30
0.0
 11
-2748.926857693251
 21
-8434.296865220494
 31
0.0
  0
LINE
  5
5DF5
330
1F
100
AcDbEntity
  8
POPIS
100
AcDbLine
 10
-2733.599003312082
 20
-8445.90977920253
 30
0.0
 11
-2721.986089330044
 21
-8434.296865220494
 31
0.0
  0
LINE
  5
5DF7
330
1F
100
AcDbEntity
  8
POPIS
100
AcDbLine
 10
-2805.142013017862
 20
-8517.452788908311
 30
0.0
 11
-2789.481890111723
 21
-8501.792666002172
 31
0.0
  0
LINE
  5
5DF8
330
1F
100
AcDbEntity
  8
POPIS
100
AcDbLine
 10
-2786.114294066322
 20
-8498.425069956772
 30
0.0
 11
-2786.114294066322
 21
-8498.425069956772
 31
0.0
  0
LINE
  5
5DF9
330
1F
100
AcDbEntity
  8
POPIS
100
AcDbLine
 10
-2782.746698020921
 20
-8495.057473911369
 30
0.0
 11
-2765.908717793916
 21
-8478.219493684365
 31
0.0
  0
LINE
  5
5DFA
330
1F
100
AcDbEntity
  8
POPIS
100
AcDbLine
 10
-2762.541121748515
 20
-8474.851897638965
 30
0.0
 11
-2762.541121748515
 21
-8474.851897638965
 31
0.0
  0
LINE
  5
5DFB
330
1F
100
AcDbEntity
  8
POPIS
100
AcDbLine
 10
-2759.173525703114
 20
-8471.484301593562
 30
0.0
 11
-2742.335545476109
 21
-8454.646321366558
 31
0.0
  0
LINE
  5
5DFC
330
1F
100
AcDbEntity
  8
POPIS
100
AcDbLine
 10
-2738.967949430708
 20
-8451.278725321158
 30
0.0
 11
-2738.967949430708
 21
-8451.278725321158
 31
0.0
  0
LINE
  5
5DFD
330
1F
100
AcDbEntity
  8
POPIS
100
AcDbLine
 10
-2735.600353385307
 20
-8447.911129275757
 30
0.0
 11
-2735.152986687456
 21
-8447.463762577905
 31
0.0
  0
LINE
  5
5E07
330
1F
100
AcDbEntity
  8
POPIS
100
AcDbLine
 10
-2740.808272011612
 20
-8480.059816265267
 30
0.0
 11
-2728.865161294506
 21
-8468.116705548162
 31
0.0
  0
LINE
  5
5E08
330
1F
100
AcDbEntity
  8
POPIS
100
AcDbLine
 10
-2725.497565249105
 20
-8464.749109502761
 30
0.0
 11
-2725.497565249105
 21
-8464.749109502761
 31
0.0
  0
LINE
  5
5E09
330
1F
100
AcDbEntity
  8
POPIS
100
AcDbLine
 10
-2722.129969203704
 20
-8461.381513457359
 30
0.0
 11
-2705.291988976699
 21
-8444.543533230355
 31
0.0
  0
LINE
  5
5E0A
330
1F
100
AcDbEntity
  8
POPIS
100
AcDbLine
 10
-2701.924392931298
 20
-8441.175937184956
 30
0.0
 11
-2701.924392931298
 21
-8441.175937184956
 31
0.0
  0
LINE
  5
5E0B
330
1F
100
AcDbEntity
  8
POPIS
100
AcDbLine
 10
-2698.556796885897
 20
-8437.808341139554
 30
0.0
 11
-2695.045320966836
 21
-8434.296865220494
 31
0.0
  0
LINE
  5
5E0D
330
1F
100
AcDbEntity
  8
POPIS
100
AcDbLine
 10
-2805.142013017862
 20
-8544.393557271517
 30
0.0
 11
-2799.584678247926
 21
-8538.836222501581
 31
0.0
  0
LINE
  5
5E0E
330
1F
100
AcDbEntity
  8
POPIS
100
AcDbLine
 10
-2796.217082202525
 20
-8535.46862645618
 30
0.0
 11
-2796.217082202525
 21
-8535.46862645618
 31
0.0
  0
LINE
  5
5E0F
330
1F
100
AcDbEntity
  8
POPIS
100
AcDbLine
 10
-2792.849486157123
 20
-8532.10103041078
 30
0.0
 11
-2776.011505930119
 21
-8515.263050183776
 31
0.0
  0
LINE
  5
5E10
330
1F
100
AcDbEntity
  8
POPIS
100
AcDbLine
 10
-2772.643909884718
 20
-8511.895454138374
 30
0.0
 11
-2772.643909884718
 21
-8511.895454138374
 31
0.0
  0
LINE
  5
5E11
330
1F
100
AcDbEntity
  8
POPIS
100
AcDbLine
 10
-2769.276313839317
 20
-8508.527858092973
 30
0.0
 11
-2763.261836784877
 21
-8502.513381038534
 31
0.0
  0
LINE
  5
5E16
330
1F
100
AcDbEntity
  8
POPIS
100
AcDbLine
 10
-2712.027181067501
 20
-8478.219493684367
 30
0.0
 11
-2712.027181067501
 21
-8478.219493684367
 31
0.0
  0
LINE
  5
5E17
330
1F
100
AcDbEntity
  8
POPIS
100
AcDbLine
 10
-2708.6595850221
 20
-8474.851897638965
 30
0.0
 11
-2691.821604795096
 21
-8458.013917411959
 31
0.0
  0
LINE
  5
5E18
330
1F
100
AcDbEntity
  8
POPIS
100
AcDbLine
 10
-2688.454008749694
 20
-8454.646321366558
 30
0.0
 11
-2688.454008749694
 21
-8454.646321366558
 31
0.0
  0
LINE
  5
5E19
330
1F
100
AcDbEntity
  8
POPIS
100
AcDbLine
 10
-2685.086412704293
 20
-8451.278725321158
 30
0.0
 11
-2668.248432477289
 21
-8434.440745094153
 31
0.0
  0
LINE
  5
5E1D
330
1F
100
AcDbEntity
  8
POPIS
100
AcDbLine
 10
-2787.927480704526
 20
-8554.119793321389
 30
0.0
 11
-2786.114294066322
 21
-8552.306606683186
 31
0.0
  0
LINE
  5
5E1E
330
1F
100
AcDbEntity
  8
POPIS
100
AcDbLine
 10
-2782.746698020921
 20
-8548.939010637786
 30
0.0
 11
-2782.746698020921
 21
-8548.939010637786
 31
0.0
  0
LINE
  5
5E1F
330
1F
100
AcDbEntity
  8
POPIS
100
AcDbLine
 10
-2779.37910197552
 20
-8545.571414592384
 30
0.0
 11
-2762.541121748515
 21
-8528.733434365378
 31
0.0
  0
LINE
  5
5E20
330
1F
100
AcDbEntity
  8
POPIS
100
AcDbLine
 10
-2759.173525703114
 20
-8525.365838319977
 30
0.0
 11
-2759.173525703114
 21
-8525.365838319977
 31
0.0
  0
LINE
  5
5E21
330
1F
100
AcDbEntity
  8
POPIS
100
AcDbLine
 10
-2755.805929657713
 20
-8521.998242274579
 30
0.0
 11
-2752.160477727531
 21
-8518.352790344396
 31
0.0
  0
LINE
  5
5E25
330
1F
100
AcDbEntity
  8
POPIS
100
AcDbLine
 10
-2686.926735285198
 20
-8480.059816265267
 30
0.0
 11
-2678.351220613492
 21
-8471.484301593564
 31
0.0
  0
LINE
  5
5E26
330
1F
100
AcDbEntity
  8
POPIS
100
AcDbLine
 10
-2674.983624568091
 20
-8468.116705548162
 30
0.0
 11
-2674.983624568091
 21
-8468.116705548162
 31
0.0
  0
LINE
  5
5E27
330
1F
100
AcDbEntity
  8
POPIS
100
AcDbLine
 10
-2671.61602852269
 20
-8464.749109502761
 30
0.0
 11
-2654.778048295685
 21
-8447.911129275757
 31
0.0
  0
LINE
  5
5E28
330
1F
100
AcDbEntity
  8
POPIS
100
AcDbLine
 10
-2651.410452250284
 20
-8444.543533230355
 30
0.0
 11
-2651.410452250284
 21
-8444.543533230355
 31
0.0
  0
LINE
  5
5E29
330
1F
100
AcDbEntity
  8
POPIS
100
AcDbLine
 10
-2648.042856204883
 20
-8441.175937184956
 30
0.0
 11
-2641.163784240421
 21
-8434.296865220494
 31
0.0
  0
LINE
  5
5E2A
330
1F
100
AcDbEntity
  8
POPIS
100
AcDbLine
 10
-2760.986712341319
 20
-8554.119793321389
 30
0.0
 11
-2749.070737566912
 21
-8542.203818546983
 31
0.0
  0
LINE
  5
5E2B
330
1F
100
AcDbEntity
  8
POPIS
100
AcDbLine
 10
-2745.70314152151
 20
-8538.836222501583
 30
0.0
 11
-2745.70314152151
 21
-8538.836222501583
 31
0.0
  0
LINE
  5
5E2C
330
1F
100
AcDbEntity
  8
POPIS
100
AcDbLine
 10
-2742.335545476109
 20
-8535.46862645618
 30
0.0
 11
-2725.497565249105
 21
-8518.630646229176
 31
0.0
  0
LINE
  5
5E2D
330
1F
100
AcDbEntity
  8
POPIS
100
AcDbLine
 10
-2711.65030881762
 20
-8504.783389797692
 30
0.0
 11
-2704.424176586257
 21
-8497.557257566327
 31
0.0
  0
LINE
  5
5E30
330
1F
100
AcDbEntity
  8
POPIS
100
AcDbLine
 10
-2658.145644341087
 20
-8478.219493684365
 30
0.0
 11
-2641.307664114082
 21
-8461.381513457359
 31
0.0
  0
LINE
  5
5E31
330
1F
100
AcDbEntity
  8
POPIS
100
AcDbLine
 10
-2637.940068068681
 20
-8458.013917411959
 30
0.0
 11
-2637.940068068681
 21
-8458.013917411959
 31
0.0
  0
LINE
  5
5E32
330
1F
100
AcDbEntity
  8
POPIS
100
AcDbLine
 10
-2634.57247202328
 20
-8454.646321366558
 30
0.0
 11
-2617.734491796275
 21
-8437.808341139554
 31
0.0
  0
LINE
  5
5E33
330
1F
100
AcDbEntity
  8
POPIS
100
AcDbLine
 10
-2614.366895750874
 20
-8434.440745094153
 30
0.0
 11
-2614.366895750874
 21
-8434.440745094153
 31
0.0
  0
LINE
  5
5E34
330
1F
100
AcDbEntity
  8
POPIS
100
AcDbLine
 10
-2732.232757339907
 20
-8552.306606683186
 30
0.0
 11
-2732.232757339907
 21
-8552.306606683186
 31
0.0
  0
LINE
  5
5E35
330
1F
100
AcDbEntity
  8
POPIS
100
AcDbLine
 10
-2728.865161294506
 20
-8548.939010637786
 30
0.0
 11
-2712.027181067501
 21
-8532.10103041078
 31
0.0
  0
LINE
  5
5E36
330
1F
100
AcDbEntity
  8
POPIS
100
AcDbLine
 10
-2708.6595850221
 20
-8528.733434365378
 30
0.0
 11
-2708.6595850221
 21
-8528.733434365378
 31
0.0
  0
LINE
  5
5E37
330
1F
100
AcDbEntity
  8
POPIS
100
AcDbLine
 10
-2705.291988976699
 20
-8525.365838319977
 30
0.0
 11
-2698.278941001117
 21
-8518.352790344396
 31
0.0
  0
LINE
  5
5E38
330
1F
100
AcDbEntity
  8
POPIS
100
AcDbLine
 10
-2707.105175614904
 20
-8554.119793321389
 30
0.0
 11
-2698.556796885898
 21
-8545.571414592384
 31
0.0
  0
LINE
  5
5E39
330
1F
100
AcDbEntity
  8
POPIS
100
AcDbLine
 10
-2695.189200840497
 20
-8542.203818546983
 30
0.0
 11
-2695.189200840497
 21
-8542.203818546983
 31
0.0
  0
LINE
  5
5E3A
330
1F
100
AcDbEntity
  8
POPIS
100
AcDbLine
 10
-2691.821604795096
 20
-8538.836222501581
 30
0.0
 11
-2674.983624568091
 21
-8521.998242274579
 31
0.0
  0
LINE
  5
5E3B
330
1F
100
AcDbEntity
  8
POPIS
100
AcDbLine
 10
-2671.61602852269
 20
-8518.630646229176
 30
0.0
 11
-2671.61602852269
 21
-8518.630646229176
 31
0.0
  0
LINE
  5
5E3C
330
1F
100
AcDbEntity
  8
POPIS
100
AcDbLine
 10
-2633.045198558782
 20
-8480.059816265267
 30
0.0
 11
-2627.837279932478
 21
-8474.851897638965
 31
0.0
  0
LINE
  5
5E3D
330
1F
100
AcDbEntity
  8
POPIS
100
AcDbLine
 10
-2624.469683887077
 20
-8471.484301593564
 30
0.0
 11
-2624.469683887077
 21
-8471.484301593564
 31
0.0
  0
LINE
  5
5E3E
330
1F
100
AcDbEntity
  8
POPIS
100
AcDbLine
 10
-2621.102087841676
 20
-8468.116705548162
 30
0.0
 11
-2604.264107614671
 21
-8451.278725321158
 31
0.0
  0
LINE
  5
5E3F
330
1F
100
AcDbEntity
  8
POPIS
100
AcDbLine
 10
-2600.89651156927
 20
-8447.911129275757
 30
0.0
 11
-2600.89651156927
 21
-8447.911129275757
 31
0.0
  0
LINE
  5
5E40
330
1F
100
AcDbEntity
  8
POPIS
100
AcDbLine
 10
-2597.528915523869
 20
-8444.543533230357
 30
0.0
 11
-2587.282247514006
 21
-8434.296865220494
 31
0.0
  0
LINE
  5
5E41
330
1F
100
AcDbEntity
  8
POPIS
100
AcDbLine
 10
-2652.812648619
 20
-8499.827266325487
 30
0.0
 11
-2651.410452250285
 21
-8498.425069956772
 31
0.0
  0
LINE
  5
5E42
330
1F
100
AcDbEntity
  8
POPIS
100
AcDbLine
 10
-2648.042856204884
 20
-8495.057473911369
 30
0.0
 11
-2648.042856204884
 21
-8495.057473911369
 31
0.0
  0
LINE
  5
5E43
330
1F
100
AcDbEntity
  8
POPIS
100
AcDbLine
 10
-2678.351220613492
 20
-8552.306606683186
 30
0.0
 11
-2661.513240386487
 21
-8535.46862645618
 31
0.0
  0
LINE
  5
5E44
330
1F
100
AcDbEntity
  8
POPIS
100
AcDbLine
 10
-2658.145644341086
 20
-8532.10103041078
 30
0.0
 11
-2658.145644341086
 21
-8532.10103041078
 31
0.0
  0
LINE
  5
5E45
330
1F
100
AcDbEntity
  8
POPIS
100
AcDbLine
 10
-2654.778048295685
 20
-8528.733434365378
 30
0.0
 11
-2644.397404274702
 21
-8518.352790344396
 31
0.0
  0
LINE
  5
5E46
330
1F
100
AcDbEntity
  8
POPIS
100
AcDbLine
 10
-2606.104430195575
 20
-8480.059816265267
 30
0.0
 11
-2590.793723433068
 21
-8464.749109502761
 31
0.0
  0
LINE
  5
5E47
330
1F
100
AcDbEntity
  8
POPIS
100
AcDbLine
 10
-2587.426127387667
 20
-8461.381513457359
 30
0.0
 11
-2587.426127387667
 21
-8461.381513457359
 31
0.0
  0
LINE
  5
5E48
330
1F
100
AcDbEntity
  8
POPIS
100
AcDbLine
 10
-2584.058531342265
 20
-8458.013917411959
 30
0.0
 11
-2567.220551115261
 21
-8441.175937184956
 31
0.0
  0
LINE
  5
5E49
330
1F
100
AcDbEntity
  8
POPIS
100
AcDbLine
 10
-2563.85295506986
 20
-8437.808341139554
 30
0.0
 11
-2563.85295506986
 21
-8437.808341139554
 31
0.0
  0
LINE
  5
5E4A
330
1F
100
AcDbEntity
  8
POPIS
100
AcDbLine
 10
-2560.485359024458
 20
-8434.440745094153
 30
0.0
 11
-2560.341479150799
 21
-8434.296865220494
 31
0.0
  0
LINE
  5
5E4C
330
1F
100
AcDbEntity
  8
POPIS
100
AcDbLine
 10
-2593.429716350562
 20
-8494.325870783463
 30
0.0
 11
-2577.323339251464
 21
-8478.219493684365
 31
0.0
  0
LINE
  5
5E4D
330
1F
100
AcDbEntity
  8
POPIS
100
AcDbLine
 10
-2573.955743206064
 20
-8474.851897638965
 30
0.0
 11
-2573.955743206064
 21
-8474.851897638965
 31
0.0
  0
LINE
  5
5E4E
330
1F
100
AcDbEntity
  8
POPIS
100
AcDbLine
 10
-2570.588147160663
 20
-8471.484301593562
 30
0.0
 11
-2553.750166933658
 21
-8454.646321366558
 31
0.0
  0
LINE
  5
5E4F
330
1F
100
AcDbEntity
  8
POPIS
100
AcDbLine
 10
-2550.382570888257
 20
-8451.278725321158
 30
0.0
 11
-2550.382570888257
 21
-8451.278725321158
 31
0.0
  0
LINE
  5
5E50
330
1F
100
AcDbEntity
  8
POPIS
100
AcDbLine
 10
-2547.014974842856
 20
-8447.911129275757
 30
0.0
 11
-2533.400710787592
 21
-8434.296865220494
 31
0.0
  0
LINE
  5
5E51
330
1F
100
AcDbEntity
  8
POPIS
100
AcDbLine
 10
-2653.223638888489
 20
-8554.119793321389
 30
0.0
 11
-2648.042856204884
 21
-8548.939010637786
 31
0.0
  0
LINE
  5
5E52
330
1F
100
AcDbEntity
  8
POPIS
100
AcDbLine
 10
-2644.675260159483
 20
-8545.571414592384
 30
0.0
 11
-2644.675260159483
 21
-8545.571414592384
 31
0.0
  0
LINE
  5
5E53
330
1F
100
AcDbEntity
  8
POPIS
100
AcDbLine
 10
-2641.307664114082
 20
-8542.203818546983
 30
0.0
 11
-2624.469683887078
 21
-8525.365838319977
 31
0.0
  0
LINE
  5
5E54
330
1F
100
AcDbEntity
  8
POPIS
100
AcDbLine
 10
-2621.102087841677
 20
-8521.998242274579
 30
0.0
 11
-2621.102087841677
 21
-8521.998242274579
 31
0.0
  0
LINE
  5
5E55
330
1F
100
AcDbEntity
  8
POPIS
100
AcDbLine
 10
-2617.734491796275
 20
-8518.630646229176
 30
0.0
 11
-2617.456635911494
 21
-8518.352790344396
 31
0.0
  0
LINE
  5
5E59
330
1F
100
AcDbEntity
  8
POPIS
100
AcDbLine
 10
-2626.282870525281
 20
-8554.119793321389
 30
0.0
 11
-2610.999299705474
 21
-8538.836222501583
 31
0.0
  0
LINE
  5
5E5A
330
1F
100
AcDbEntity
  8
POPIS
100
AcDbLine
 10
-2607.631703660072
 20
-8535.46862645618
 30
0.0
 11
-2607.631703660072
 21
-8535.46862645618
 31
0.0
  0
LINE
  5
5E5B
330
1F
100
AcDbEntity
  8
POPIS
100
AcDbLine
 10
-2604.264107614671
 20
-8532.10103041078
 30
0.0
 11
-2587.426127387667
 21
-8515.263050183776
 31
0.0
  0
LINE
  5
5E5C
330
1F
100
AcDbEntity
  8
POPIS
100
AcDbLine
 10
-2584.058531342265
 20
-8511.895454138375
 30
0.0
 11
-2584.058531342265
 21
-8511.895454138375
 31
0.0
  0
LINE
  5
5E5D
330
1F
100
AcDbEntity
  8
POPIS
100
AcDbLine
 10
-2580.690935296864
 20
-8508.527858092973
 30
0.0
 11
-2563.85295506986
 21
-8491.689877865969
 31
0.0
  0
LINE
  5
5E5E
330
1F
100
AcDbEntity
  8
POPIS
100
AcDbLine
 10
-2560.485359024458
 20
-8488.322281820568
 30
0.0
 11
-2560.485359024458
 21
-8488.322281820568
 31
0.0
  0
LINE
  5
5E5F
330
1F
100
AcDbEntity
  8
POPIS
100
AcDbLine
 10
-2557.117762979058
 20
-8484.954685775166
 30
0.0
 11
-2540.279782752053
 21
-8468.116705548162
 31
0.0
  0
LINE
  5
5E60
330
1F
100
AcDbEntity
  8
POPIS
100
AcDbLine
 10
-2536.912186706652
 20
-8464.749109502761
 30
0.0
 11
-2536.912186706652
 21
-8464.749109502761
 31
0.0
  0
LINE
  5
5E61
330
1F
100
AcDbEntity
  8
POPIS
100
AcDbLine
 10
-2533.544590661251
 20
-8461.381513457359
 30
0.0
 11
-2516.706610434246
 21
-8444.543533230355
 31
0.0
  0
LINE
  5
5E62
330
1F
100
AcDbEntity
  8
POPIS
100
AcDbLine
 10
-2513.339014388845
 20
-8441.175937184956
 30
0.0
 11
-2513.339014388845
 21
-8441.175937184956
 31
0.0
  0
LINE
  5
5E63
330
1F
100
AcDbEntity
  8
POPIS
100
AcDbLine
 10
-2509.971418343444
 20
-8437.808341139554
 30
0.0
 11
-2506.459942424383
 21
-8434.296865220494
 31
0.0
  0
LINE
  5
5E69
330
1F
100
AcDbEntity
  8
POPIS
100
AcDbLine
 10
-2523.44180252505
 20
-8478.219493684365
 30
0.0
 11
-2523.44180252505
 21
-8478.219493684365
 31
0.0
  0
LINE
  5
5E6A
330
1F
100
AcDbEntity
  8
POPIS
100
AcDbLine
 10
-2520.074206479648
 20
-8474.851897638965
 30
0.0
 11
-2503.236226252644
 21
-8458.013917411959
 31
0.0
  0
LINE
  5
5E6B
330
1F
100
AcDbEntity
  8
POPIS
100
AcDbLine
 10
-2499.868630207243
 20
-8454.646321366558
 30
0.0
 11
-2499.868630207243
 21
-8454.646321366558
 31
0.0
  0
LINE
  5
5E6C
330
1F
100
AcDbEntity
  8
POPIS
100
AcDbLine
 10
-2496.501034161841
 20
-8451.278725321158
 30
0.0
 11
-2479.663053934837
 21
-8434.440745094153
 31
0.0
  0
LINE
  5
5E6D
330
1F
100
AcDbEntity
  8
POPIS
100
AcDbLine
 10
-2599.342102162074
 20
-8554.119793321389
 30
0.0
 11
-2597.52891552387
 21
-8552.306606683186
 31
0.0
  0
LINE
  5
5E6E
330
1F
100
AcDbEntity
  8
POPIS
100
AcDbLine
 10
-2594.161319478469
 20
-8548.939010637786
 30
0.0
 11
-2594.161319478469
 21
-8548.939010637786
 31
0.0
  0
LINE
  5
5E6F
330
1F
100
AcDbEntity
  8
POPIS
100
AcDbLine
 10
-2590.793723433068
 20
-8545.571414592386
 30
0.0
 11
-2573.955743206063
 21
-8528.733434365378
 31
0.0
  0
LINE
  5
5E70
330
1F
100
AcDbEntity
  8
POPIS
100
AcDbLine
 10
-2570.588147160662
 20
-8525.365838319977
 30
0.0
 11
-2570.588147160662
 21
-8525.365838319977
 31
0.0
  0
LINE
  5
5E71
330
1F
100
AcDbEntity
  8
POPIS
100
AcDbLine
 10
-2567.220551115261
 20
-8521.998242274579
 30
0.0
 11
-2550.382570888256
 21
-8505.160262047573
 31
0.0
  0
LINE
  5
5E7B
330
1F
100
AcDbEntity
  8
POPIS
100
AcDbLine
 10
-2498.341356742745
 20
-8480.059816265267
 30
0.0
 11
-2489.76584207104
 21
-8471.484301593564
 31
0.0
  0
LINE
  5
5E7C
330
1F
100
AcDbEntity
  8
POPIS
100
AcDbLine
 10
-2486.398246025639
 20
-8468.116705548162
 30
0.0
 11
-2486.398246025639
 21
-8468.116705548162
 31
0.0
  0
LINE
  5
5E7D
330
1F
100
AcDbEntity
  8
POPIS
100
AcDbLine
 10
-2483.030649980238
 20
-8464.749109502761
 30
0.0
 11
-2466.192669753233
 21
-8447.911129275757
 31
0.0
  0
LINE
  5
5E7E
330
1F
100
AcDbEntity
  8
POPIS
100
AcDbLine
 10
-2462.825073707832
 20
-8444.543533230357
 30
0.0
 11
-2462.825073707832
 21
-8444.543533230357
 31
0.0
  0
LINE
  5
5E7F
330
1F
100
AcDbEntity
  8
POPIS
100
AcDbLine
 10
-2459.457477662431
 20
-8441.175937184956
 30
0.0
 11
-2452.578405697969
 21
-8434.296865220494
 31
0.0
  0
LINE
  5
5E80
330
1F
100
AcDbEntity
  8
POPIS
100
AcDbLine
 10
-2572.401333798867
 20
-8554.119793321389
 30
0.0
 11
-2560.48535902446
 21
-8542.203818546983
 31
0.0
  0
LINE
  5
5E81
330
1F
100
AcDbEntity
  8
POPIS
100
AcDbLine
 10
-2557.117762979059
 20
-8538.836222501581
 30
0.0
 11
-2557.117762979059
 21
-8538.836222501581
 31
0.0
  0
LINE
  5
5E82
330
1F
100
AcDbEntity
  8
POPIS
100
AcDbLine
 10
-2553.750166933658
 20
-8535.46862645618
 30
0.0
 11
-2536.912186706653
 21
-8518.630646229176
 31
0.0
  0
LINE
  5
5E8C
330
1F
100
AcDbEntity
  8
POPIS
100
AcDbLine
 10
-2469.560265798634
 20
-8478.219493684365
 30
0.0
 11
-2452.722285571629
 21
-8461.381513457359
 31
0.0
  0
LINE
  5
5E8D
330
1F
100
AcDbEntity
  8
POPIS
100
AcDbLine
 10
-2449.354689526229
 20
-8458.013917411959
 30
0.0
 11
-2449.354689526229
 21
-8458.013917411959
 31
0.0
  0
LINE
  5
5E8E
330
1F
100
AcDbEntity
  8
POPIS
100
AcDbLine
 10
-2445.987093480828
 20
-8454.646321366558
 30
0.0
 11
-2429.149113253822
 21
-8437.808341139556
 31
0.0
  0
LINE
  5
5E8F
330
1F
100
AcDbEntity
  8
POPIS
100
AcDbLine
 10
-2425.781517208422
 20
-8434.440745094153
 30
0.0
 11
-2425.781517208422
 21
-8434.440745094153
 31
0.0
  0
LINE
  5
5E90
330
1F
100
AcDbEntity
  8
POPIS
100
AcDbLine
 10
-2543.647378797455
 20
-8552.306606683186
 30
0.0
 11
-2543.647378797455
 21
-8552.306606683186
 31
0.0
  0
LINE
  5
5E91
330
1F
100
AcDbEntity
  8
POPIS
100
AcDbLine
 10
-2540.279782752054
 20
-8548.939010637786
 30
0.0
 11
-2523.44180252505
 21
-8532.10103041078
 31
0.0
  0
LINE
  5
5E92
330
1F
100
AcDbEntity
  8
POPIS
100
AcDbLine
 10
-2520.074206479648
 20
-8528.733434365378
 30
0.0
 11
-2520.074206479648
 21
-8528.733434365378
 31
0.0
  0
LINE
  5
5E93
330
1F
100
AcDbEntity
  8
POPIS
100
AcDbLine
 10
-2516.706610434247
 20
-8525.365838319977
 30
0.0
 11
-2509.693562458664
 21
-8518.352790344396
 31
0.0
  0
LINE
  5
5E94
330
1F
100
AcDbEntity
  8
POPIS
100
AcDbLine
 10
-2496.501034161842
 20
-8505.160262047573
 30
0.0
 11
-2496.501034161842
 21
-8505.160262047573
 31
0.0
  0
LINE
  5
5E95
330
1F
100
AcDbEntity
  8
POPIS
100
AcDbLine
 10
-2493.133438116441
 20
-8501.792666002172
 30
0.0
 11
-2490.901834775149
 21
-8499.561062660879
 31
0.0
  0
LINE
  5
5EA1
330
1F
100
AcDbEntity
  8
POPIS
100
AcDbLine
 10
-2444.45555671483
 20
-8480.055552963767
 30
0.0
 11
-2439.251901390026
 21
-8474.851897638965
 31
0.0
  0
LINE
  5
5EA2
330
1F
100
AcDbEntity
  8
POPIS
100
AcDbLine
 10
-2435.884305344625
 20
-8471.484301593562
 30
0.0
 11
-2435.884305344625
 21
-8471.484301593562
 31
0.0
  0
LINE
  5
5EA3
330
1F
100
AcDbEntity
  8
POPIS
100
AcDbLine
 10
-2432.516709299224
 20
-8468.116705548162
 30
0.0
 11
-2415.678729072219
 21
-8451.278725321158
 31
0.0
  0
LINE
  5
5EA4
330
1F
100
AcDbEntity
  8
POPIS
100
AcDbLine
 10
-2412.311133026818
 20
-8447.911129275757
 30
0.0
 11
-2412.311133026818
 21
-8447.911129275757
 31
0.0
  0
LINE
  5
5EA5
330
1F
100
AcDbEntity
  8
POPIS
100
AcDbLine
 10
-2408.943536981417
 20
-8444.543533230355
 30
0.0
 11
-2398.696868971554
 21
-8434.296865220494
 31
0.0
  0
LINE
  5
5EA6
330
1F
100
AcDbEntity
  8
POPIS
100
AcDbLine
 10
-2518.519797072452
 20
-8554.119793321389
 30
0.0
 11
-2509.971418343446
 21
-8545.571414592384
 31
0.0
  0
LINE
  5
5EA7
330
1F
100
AcDbEntity
  8
POPIS
100
AcDbLine
 10
-2506.603822298045
 20
-8542.203818546983
 30
0.0
 11
-2506.603822298045
 21
-8542.203818546983
 31
0.0
  0
LINE
  5
5EA8
330
1F
100
AcDbEntity
  8
POPIS
100
AcDbLine
 10
-2503.236226252644
 20
-8538.836222501581
 30
0.0
 11
-2486.398246025639
 21
-8521.998242274579
 31
0.0
  0
LINE
  5
5EA9
330
1F
100
AcDbEntity
  8
POPIS
100
AcDbLine
 10
-2483.030649980238
 20
-8518.630646229176
 30
0.0
 11
-2483.030649980238
 21
-8518.630646229176
 31
0.0
  0
LINE
  5
5EB4
330
1F
100
AcDbEntity
  8
POPIS
100
AcDbLine
 10
-2439.28178020489
 20
-8501.822544817036
 30
0.0
 11
-2425.781517208422
 21
-8488.322281820568
 31
0.0
  0
LINE
  5
5EB5
330
1F
100
AcDbEntity
  8
POPIS
100
AcDbLine
 10
-2422.413921163021
 20
-8484.954685775166
 30
0.0
 11
-2422.413921163021
 21
-8484.954685775166
 31
0.0
  0
LINE
  5
5EB6
330
1F
100
AcDbEntity
  8
POPIS
100
AcDbLine
 10
-2419.04632511762
 20
-8481.587089729767
 30
0.0
 11
-2402.208344890615
 21
-8464.749109502761
 31
0.0
  0
LINE
  5
5EB7
330
1F
100
AcDbEntity
  8
POPIS
100
AcDbLine
 10
-2398.840748845214
 20
-8461.381513457359
 30
0.0
 11
-2398.840748845214
 21
-8461.381513457359
 31
0.0
  0
LINE
  5
5EB8
330
1F
100
AcDbEntity
  8
POPIS
100
AcDbLine
 10
-2395.473152799813
 20
-8458.013917411959
 30
0.0
 11
-2378.635172572808
 21
-8441.175937184956
 31
0.0
  0
LINE
  5
5EB9
330
1F
100
AcDbEntity
  8
POPIS
100
AcDbLine
 10
-2375.267576527407
 20
-8437.808341139554
 30
0.0
 11
-2375.267576527407
 21
-8437.808341139554
 31
0.0
  0
LINE
  5
5EBA
330
1F
100
AcDbEntity
  8
POPIS
100
AcDbLine
 10
-2371.899980482006
 20
-8434.440745094153
 30
0.0
 11
-2371.756100608346
 21
-8434.296865220494
 31
0.0
  0
LINE
  5
5EBB
330
1F
100
AcDbEntity
  8
POPIS
100
AcDbLine
 10
-2489.76584207104
 20
-8552.306606683186
 30
0.0
 11
-2472.927861844036
 21
-8535.46862645618
 31
0.0
  0
LINE
  5
5EBC
330
1F
100
AcDbEntity
  8
POPIS
100
AcDbLine
 10
-2469.560265798634
 20
-8532.10103041078
 30
0.0
 11
-2469.560265798634
 21
-8532.10103041078
 31
0.0
  0
LINE
  5
5EBD
330
1F
100
AcDbEntity
  8
POPIS
100
AcDbLine
 10
-2466.192669753233
 20
-8528.733434365378
 30
0.0
 11
-2455.833342239753
 21
-8518.374106851899
 31
0.0
  0
LINE
  5
5EC9
330
1F
100
AcDbEntity
  8
POPIS
100
AcDbLine
 10
-2464.638260346037
 20
-8554.119793321389
 30
0.0
 11
-2459.457477662431
 21
-8548.939010637786
 31
0.0
  0
LINE
  5
5ECA
330
1F
100
AcDbEntity
  8
POPIS
100
AcDbLine
 10
-2456.08988161703
 20
-8545.571414592384
 30
0.0
 11
-2456.08988161703
 21
-8545.571414592384
 31
0.0
  0
LINE
  5
5ECB
330
1F
100
AcDbEntity
  8
POPIS
100
AcDbLine
 10
-2452.722285571629
 20
-8542.203818546983
 30
0.0
 11
-2435.884305344625
 21
-8525.365838319977
 31
0.0
  0
LINE
  5
5ECC
330
1F
100
AcDbEntity
  8
POPIS
100
AcDbLine
 10
-2432.516709299223
 20
-8521.998242274579
 30
0.0
 11
-2432.516709299223
 21
-8521.998242274579
 31
0.0
  0
LINE
  5
5ECD
330
1F
100
AcDbEntity
  8
POPIS
100
AcDbLine
 10
-2429.149113253822
 20
-8518.630646229176
 30
0.0
 11
-2412.311133026818
 21
-8501.792666002172
 31
0.0
  0
LINE
  5
5ECE
330
1F
100
AcDbEntity
  8
POPIS
100
AcDbLine
 10
-2408.943536981416
 20
-8498.425069956772
 30
0.0
 11
-2408.943536981416
 21
-8498.425069956772
 31
0.0
  0
LINE
  5
5ECF
330
1F
100
AcDbEntity
  8
POPIS
100
AcDbLine
 10
-2405.575940936016
 20
-8495.057473911369
 30
0.0
 11
-2388.737960709011
 21
-8478.219493684365
 31
0.0
  0
LINE
  5
5ED0
330
1F
100
AcDbEntity
  8
POPIS
100
AcDbLine
 10
-2385.370364663609
 20
-8474.851897638965
 30
0.0
 11
-2385.370364663609
 21
-8474.851897638965
 31
0.0
  0
LINE
  5
5ED1
330
1F
100
AcDbEntity
  8
POPIS
100
AcDbLine
 10
-2382.002768618209
 20
-8471.484301593562
 30
0.0
 11
-2365.164788391204
 21
-8454.646321366558
 31
0.0
  0
LINE
  5
5ED2
330
1F
100
AcDbEntity
  8
POPIS
100
AcDbLine
 10
-2361.797192345803
 20
-8451.278725321158
 30
0.0
 11
-2361.797192345803
 21
-8451.278725321158
 31
0.0
  0
LINE
  5
5ED3
330
1F
100
AcDbEntity
  8
POPIS
100
AcDbLine
 10
-2358.429596300402
 20
-8447.911129275757
 30
0.0
 11
-2344.815332245138
 21
-8434.296865220494
 31
0.0
  0
LINE
  5
5EDE
330
1F
100
AcDbEntity
  8
POPIS
100
AcDbLine
 10
-2437.69749198283
 20
-8554.119793321389
 30
0.0
 11
-2422.413921163022
 21
-8538.836222501581
 31
0.0
  0
LINE
  5
5EDF
330
1F
100
AcDbEntity
  8
POPIS
100
AcDbLine
 10
-2419.046325117621
 20
-8535.46862645618
 30
0.0
 11
-2419.046325117621
 21
-8535.46862645618
 31
0.0
  0
LINE
  5
5EE0
330
1F
100
AcDbEntity
  8
POPIS
100
AcDbLine
 10
-2415.678729072219
 20
-8532.10103041078
 30
0.0
 11
-2398.840748845215
 21
-8515.263050183776
 31
0.0
  0
LINE
  5
5EE1
330
1F
100
AcDbEntity
  8
POPIS
100
AcDbLine
 10
-2395.473152799814
 20
-8511.895454138374
 30
0.0
 11
-2395.473152799814
 21
-8511.895454138374
 31
0.0
  0
LINE
  5
5EE2
330
1F
100
AcDbEntity
  8
POPIS
100
AcDbLine
 10
-2392.105556754412
 20
-8508.527858092973
 30
0.0
 11
-2375.267576527408
 21
-8491.689877865969
 31
0.0
  0
LINE
  5
5EE3
330
1F
100
AcDbEntity
  8
POPIS
100
AcDbLine
 10
-2371.899980482007
 20
-8488.322281820568
 30
0.0
 11
-2371.899980482007
 21
-8488.322281820568
 31
0.0
  0
LINE
  5
5EE4
330
1F
100
AcDbEntity
  8
POPIS
100
AcDbLine
 10
-2368.532384436605
 20
-8484.954685775166
 30
0.0
 11
-2351.694404209601
 21
-8468.116705548162
 31
0.0
  0
LINE
  5
5EE5
330
1F
100
AcDbEntity
  8
POPIS
100
AcDbLine
 10
-2348.3268081642
 20
-8464.749109502761
 30
0.0
 11
-2348.3268081642
 21
-8464.749109502761
 31
0.0
  0
LINE
  5
5EE6
330
1F
100
AcDbEntity
  8
POPIS
100
AcDbLine
 10
-2344.959212118799
 20
-8461.381513457359
 30
0.0
 11
-2328.121231891794
 21
-8444.543533230355
 31
0.0
  0
LINE
  5
5EE7
330
1F
100
AcDbEntity
  8
POPIS
100
AcDbLine
 10
-2324.753635846393
 20
-8441.175937184956
 30
0.0
 11
-2324.753635846393
 21
-8441.175937184956
 31
0.0
  0
LINE
  5
5EE8
330
1F
100
AcDbEntity
  8
POPIS
100
AcDbLine
 10
-2321.386039800992
 20
-8437.808341139554
 30
0.0
 11
-2317.874563881931
 21
-8434.296865220494
 31
0.0
  0
LINE
  5
5EF4
330
1F
100
AcDbEntity
  8
POPIS
100
AcDbLine
 10
-2410.756723619622
 20
-8554.119793321389
 30
0.0
 11
-2408.943536981418
 21
-8552.306606683186
 31
0.0
  0
LINE
  5
5EF5
330
1F
100
AcDbEntity
  8
POPIS
100
AcDbLine
 10
-2405.575940936017
 20
-8548.939010637786
 30
0.0
 11
-2405.575940936017
 21
-8548.939010637786
 31
0.0
  0
LINE
  5
5EF6
330
1F
100
AcDbEntity
  8
POPIS
100
AcDbLine
 10
-2402.208344890615
 20
-8545.571414592384
 30
0.0
 11
-2385.370364663611
 21
-8528.733434365378
 31
0.0
  0
LINE
  5
5EF7
330
1F
100
AcDbEntity
  8
POPIS
100
AcDbLine
 10
-2382.00276861821
 20
-8525.365838319977
 30
0.0
 11
-2382.00276861821
 21
-8525.365838319977
 31
0.0
  0
LINE
  5
5EF8
330
1F
100
AcDbEntity
  8
POPIS
100
AcDbLine
 10
-2378.635172572809
 20
-8521.998242274579
 30
0.0
 11
-2361.797192345804
 21
-8505.160262047573
 31
0.0
  0
LINE
  5
5EF9
330
1F
100
AcDbEntity
  8
POPIS
100
AcDbLine
 10
-2358.429596300403
 20
-8501.792666002172
 30
0.0
 11
-2358.429596300403
 21
-8501.792666002172
 31
0.0
  0
LINE
  5
5EFA
330
1F
100
AcDbEntity
  8
POPIS
100
AcDbLine
 10
-2355.062000255002
 20
-8498.425069956772
 30
0.0
 11
-2338.224020027997
 21
-8481.587089729767
 31
0.0
  0
LINE
  5
5EFB
330
1F
100
AcDbEntity
  8
POPIS
100
AcDbLine
 10
-2334.856423982596
 20
-8478.219493684365
 30
0.0
 11
-2334.856423982596
 21
-8478.219493684365
 31
0.0
  0
LINE
  5
5EFC
330
1F
100
AcDbEntity
  8
POPIS
100
AcDbLine
 10
-2331.488827937195
 20
-8474.851897638965
 30
0.0
 11
-2314.65084771019
 21
-8458.013917411959
 31
0.0
  0
LINE
  5
5EFD
330
1F
100
AcDbEntity
  8
POPIS
100
AcDbLine
 10
-2311.283251664789
 20
-8454.646321366558
 30
0.0
 11
-2311.283251664789
 21
-8454.646321366558
 31
0.0
  0
LINE
  5
5EFE
330
1F
100
AcDbEntity
  8
POPIS
100
AcDbLine
 10
-2307.915655619388
 20
-8451.278725321158
 30
0.0
 11
-2291.077675392383
 21
-8434.440745094153
 31
0.0
  0
LINE
  5
5F0A
330
1F
100
AcDbEntity
  8
POPIS
100
AcDbLine
 10
-2383.815955256415
 20
-8554.119793321389
 30
0.0
 11
-2371.899980482008
 21
-8542.203818546983
 31
0.0
  0
LINE
  5
5F0B
330
1F
100
AcDbEntity
  8
POPIS
100
AcDbLine
 10
-2368.532384436606
 20
-8538.836222501581
 30
0.0
 11
-2368.532384436606
 21
-8538.836222501581
 31
0.0
  0
LINE
  5
5F0C
330
1F
100
AcDbEntity
  8
POPIS
100
AcDbLine
 10
-2365.164788391205
 20
-8535.46862645618
 30
0.0
 11
-2348.326808164201
 21
-8518.630646229176
 31
0.0
  0
LINE
  5
5F0D
330
1F
100
AcDbEntity
  8
POPIS
100
AcDbLine
 10
-2344.959212118799
 20
-8515.263050183776
 30
0.0
 11
-2344.959212118799
 21
-8515.263050183776
 31
0.0
  0
LINE
  5
5F0E
330
1F
100
AcDbEntity
  8
POPIS
100
AcDbLine
 10
-2341.591616073398
 20
-8511.895454138374
 30
0.0
 11
-2324.753635846394
 21
-8495.057473911369
 31
0.0
  0
LINE
  5
5F0F
330
1F
100
AcDbEntity
  8
POPIS
100
AcDbLine
 10
-2321.386039800992
 20
-8491.689877865969
 30
0.0
 11
-2321.386039800992
 21
-8491.689877865969
 31
0.0
  0
LINE
  5
5F10
330
1F
100
AcDbEntity
  8
POPIS
100
AcDbLine
 10
-2318.018443755592
 20
-8488.322281820568
 30
0.0
 11
-2301.180463528587
 21
-8471.484301593562
 31
0.0
  0
LINE
  5
5F11
330
1F
100
AcDbEntity
  8
POPIS
100
AcDbLine
 10
-2297.812867483186
 20
-8468.116705548162
 30
0.0
 11
-2297.812867483186
 21
-8468.116705548162
 31
0.0
  0
LINE
  5
5F12
330
1F
100
AcDbEntity
  8
POPIS
100
AcDbLine
 10
-2294.445271437785
 20
-8464.749109502761
 30
0.0
 11
-2277.60729121078
 21
-8447.911129275757
 31
0.0
  0
LINE
  5
5F13
330
1F
100
AcDbEntity
  8
POPIS
100
AcDbLine
 10
-2274.239695165379
 20
-8444.543533230355
 30
0.0
 11
-2274.239695165379
 21
-8444.543533230355
 31
0.0
  0
LINE
  5
5F14
330
1F
100
AcDbEntity
  8
POPIS
100
AcDbLine
 10
-2270.872099119978
 20
-8441.175937184956
 30
0.0
 11
-2263.993027155515
 21
-8434.296865220494
 31
0.0
  0
LINE
  5
5F1C
330
1F
100
AcDbEntity
  8
POPIS
100
AcDbLine
 10
-2355.062000255002
 20
-8552.306606683186
 30
0.0
 11
-2355.062000255002
 21
-8552.306606683186
 31
0.0
  0
LINE
  5
5F1D
330
1F
100
AcDbEntity
  8
POPIS
100
AcDbLine
 10
-2351.694404209602
 20
-8548.939010637786
 30
0.0
 11
-2334.856423982597
 21
-8532.10103041078
 31
0.0
  0
LINE
  5
5F1E
330
1F
100
AcDbEntity
  8
POPIS
100
AcDbLine
 10
-2331.488827937196
 20
-8528.733434365378
 30
0.0
 11
-2331.488827937196
 21
-8528.733434365378
 31
0.0
  0
LINE
  5
5F1F
330
1F
100
AcDbEntity
  8
POPIS
100
AcDbLine
 10
-2328.121231891795
 20
-8525.365838319977
 30
0.0
 11
-2311.28325166479
 21
-8508.527858092973
 31
0.0
  0
LINE
  5
5F20
330
1F
100
AcDbEntity
  8
POPIS
100
AcDbLine
 10
-2307.915655619389
 20
-8505.160262047573
 30
0.0
 11
-2307.915655619389
 21
-8505.160262047573
 31
0.0
  0
LINE
  5
5F21
330
1F
100
AcDbEntity
  8
POPIS
100
AcDbLine
 10
-2304.548059573988
 20
-8501.792666002172
 30
0.0
 11
-2287.710079346983
 21
-8484.954685775166
 31
0.0
  0
LINE
  5
5F22
330
1F
100
AcDbEntity
  8
POPIS
100
AcDbLine
 10
-2284.342483301582
 20
-8481.587089729767
 30
0.0
 11
-2284.342483301582
 21
-8481.587089729767
 31
0.0
  0
LINE
  5
5F23
330
1F
100
AcDbEntity
  8
POPIS
100
AcDbLine
 10
-2280.974887256181
 20
-8478.219493684365
 30
0.0
 11
-2264.136907029176
 21
-8461.381513457359
 31
0.0
  0
LINE
  5
5F24
330
1F
100
AcDbEntity
  8
POPIS
100
AcDbLine
 10
-2260.769310983775
 20
-8458.013917411959
 30
0.0
 11
-2260.769310983775
 21
-8458.013917411959
 31
0.0
  0
LINE
  5
5F25
330
1F
100
AcDbEntity
  8
POPIS
100
AcDbLine
 10
-2257.401714938374
 20
-8454.646321366558
 30
0.0
 11
-2240.563734711369
 21
-8437.808341139554
 31
0.0
  0
LINE
  5
5F26
330
1F
100
AcDbEntity
  8
POPIS
100
AcDbLine
 10
-2237.196138665968
 20
-8434.440745094153
 30
0.0
 11
-2237.196138665968
 21
-8434.440745094153
 31
0.0
  0
LINE
  5
5F30
330
1F
100
AcDbEntity
  8
POPIS
100
AcDbLine
 10
-2329.93441853
 20
-8554.119793321389
 30
0.0
 11
-2321.386039800994
 21
-8545.571414592384
 31
0.0
  0
LINE
  5
5F31
330
1F
100
AcDbEntity
  8
POPIS
100
AcDbLine
 10
-2318.018443755592
 20
-8542.203818546983
 30
0.0
 11
-2318.018443755592
 21
-8542.203818546983
 31
0.0
  0
LINE
  5
5F32
330
1F
100
AcDbEntity
  8
POPIS
100
AcDbLine
 10
-2314.650847710191
 20
-8538.836222501581
 30
0.0
 11
-2297.812867483187
 21
-8521.998242274579
 31
0.0
  0
LINE
  5
5F33
330
1F
100
AcDbEntity
  8
POPIS
100
AcDbLine
 10
-2294.445271437785
 20
-8518.630646229176
 30
0.0
 11
-2294.445271437785
 21
-8518.630646229176
 31
0.0
  0
LINE
  5
5F34
330
1F
100
AcDbEntity
  8
POPIS
100
AcDbLine
 10
-2291.077675392384
 20
-8515.263050183776
 30
0.0
 11
-2274.23969516538
 21
-8498.425069956772
 31
0.0
  0
LINE
  5
5F35
330
1F
100
AcDbEntity
  8
POPIS
100
AcDbLine
 10
-2270.872099119979
 20
-8495.057473911369
 30
0.0
 11
-2270.872099119979
 21
-8495.057473911369
 31
0.0
  0
LINE
  5
5F36
330
1F
100
AcDbEntity
  8
POPIS
100
AcDbLine
 10
-2267.504503074577
 20
-8491.689877865969
 30
0.0
 11
-2250.666522847573
 21
-8474.851897638965
 31
0.0
  0
LINE
  5
5F37
330
1F
100
AcDbEntity
  8
POPIS
100
AcDbLine
 10
-2247.298926802172
 20
-8471.484301593562
 30
0.0
 11
-2247.298926802172
 21
-8471.484301593562
 31
0.0
  0
LINE
  5
5F38
330
1F
100
AcDbEntity
  8
POPIS
100
AcDbLine
 10
-2243.93133075677
 20
-8468.116705548162
 30
0.0
 11
-2227.093350529766
 21
-8451.278725321158
 31
0.0
  0
LINE
  5
5F39
330
1F
100
AcDbEntity
  8
POPIS
100
AcDbLine
 10
-2223.725754484365
 20
-8447.911129275757
 30
0.0
 11
-2223.725754484365
 21
-8447.911129275757
 31
0.0
  0
LINE
  5
5F3A
330
1F
100
AcDbEntity
  8
POPIS
100
AcDbLine
 10
-2220.358158438963
 20
-8444.543533230355
 30
0.0
 11
-2210.111490429101
 21
-8434.296865220494
 31
0.0
  0
LINE
  5
5F44
330
1F
100
AcDbEntity
  8
POPIS
100
AcDbLine
 10
-2301.180463528587
 20
-8552.306606683186
 30
0.0
 11
-2284.342483301583
 21
-8535.46862645618
 31
0.0
  0
LINE
  5
5F45
330
1F
100
AcDbEntity
  8
POPIS
100
AcDbLine
 10
-2280.974887256182
 20
-8532.10103041078
 30
0.0
 11
-2280.974887256182
 21
-8532.10103041078
 31
0.0
  0
LINE
  5
5F46
330
1F
100
AcDbEntity
  8
POPIS
100
AcDbLine
 10
-2277.60729121078
 20
-8528.733434365378
 30
0.0
 11
-2260.769310983776
 21
-8511.895454138374
 31
0.0
  0
LINE
  5
5F47
330
1F
100
AcDbEntity
  8
POPIS
100
AcDbLine
 10
-2257.401714938375
 20
-8508.527858092973
 30
0.0
 11
-2257.401714938375
 21
-8508.527858092973
 31
0.0
  0
LINE
  5
5F48
330
1F
100
AcDbEntity
  8
POPIS
100
AcDbLine
 10
-2254.034118892974
 20
-8505.160262047573
 30
0.0
 11
-2237.196138665969
 21
-8488.322281820568
 31
0.0
  0
LINE
  5
5F49
330
1F
100
AcDbEntity
  8
POPIS
100
AcDbLine
 10
-2233.828542620568
 20
-8484.954685775166
 30
0.0
 11
-2233.828542620568
 21
-8484.954685775166
 31
0.0
  0
LINE
  5
5F4A
330
1F
100
AcDbEntity
  8
POPIS
100
AcDbLine
 10
-2230.460946575167
 20
-8481.587089729767
 30
0.0
 11
-2213.622966348162
 21
-8464.749109502761
 31
0.0
  0
LINE
  5
5F4B
330
1F
100
AcDbEntity
  8
POPIS
100
AcDbLine
 10
-2210.255370302761
 20
-8461.381513457359
 30
0.0
 11
-2210.255370302761
 21
-8461.381513457359
 31
0.0
  0
LINE
  5
5F4C
330
1F
100
AcDbEntity
  8
POPIS
100
AcDbLine
 10
-2206.88777425736
 20
-8458.013917411959
 30
0.0
 11
-2190.049794030355
 21
-8441.175937184956
 31
0.0
  0
LINE
  5
5F4D
330
1F
100
AcDbEntity
  8
POPIS
100
AcDbLine
 10
-2186.682197984954
 20
-8437.808341139554
 30
0.0
 11
-2186.682197984954
 21
-8437.808341139554
 31
0.0
  0
LINE
  5
5F4E
330
1F
100
AcDbEntity
  8
POPIS
100
AcDbLine
 10
-2183.314601939553
 20
-8434.440745094153
 30
0.0
 11
-2183.170722065893
 21
-8434.296865220494
 31
0.0
  0
LINE
  5
5F57
330
1F
100
AcDbEntity
  8
POPIS
100
AcDbLine
 10
-2276.052881803585
 20
-8554.119793321389
 30
0.0
 11
-2270.87209911998
 21
-8548.939010637786
 31
0.0
  0
LINE
  5
5F58
330
1F
100
AcDbEntity
  8
POPIS
100
AcDbLine
 10
-2267.504503074579
 20
-8545.571414592384
 30
0.0
 11
-2267.504503074579
 21
-8545.571414592384
 31
0.0
  0
LINE
  5
5F59
330
1F
100
AcDbEntity
  8
POPIS
100
AcDbLine
 10
-2264.136907029177
 20
-8542.203818546983
 30
0.0
 11
-2247.298926802173
 21
-8525.365838319977
 31
0.0
  0
LINE
  5
5F5A
330
1F
100
AcDbEntity
  8
POPIS
100
AcDbLine
 10
-2243.931330756772
 20
-8521.998242274579
 30
0.0
 11
-2243.931330756772
 21
-8521.998242274579
 31
0.0
  0
LINE
  5
5F5B
330
1F
100
AcDbEntity
  8
POPIS
100
AcDbLine
 10
-2240.56373471137
 20
-8518.630646229176
 30
0.0
 11
-2223.725754484366
 21
-8501.792666002172
 31
0.0
  0
LINE
  5
5F5C
330
1F
100
AcDbEntity
  8
POPIS
100
AcDbLine
 10
-2220.358158438965
 20
-8498.425069956772
 30
0.0
 11
-2220.358158438965
 21
-8498.425069956772
 31
0.0
  0
LINE
  5
5F5D
330
1F
100
AcDbEntity
  8
POPIS
100
AcDbLine
 10
-2216.990562393563
 20
-8495.057473911369
 30
0.0
 11
-2200.152582166559
 21
-8478.219493684365
 31
0.0
  0
LINE
  5
5F5E
330
1F
100
AcDbEntity
  8
POPIS
100
AcDbLine
 10
-2196.784986121158
 20
-8474.851897638965
 30
0.0
 11
-2196.784986121158
 21
-8474.851897638965
 31
0.0
  0
LINE
  5
5F5F
330
1F
100
AcDbEntity
  8
POPIS
100
AcDbLine
 10
-2193.417390075756
 20
-8471.484301593562
 30
0.0
 11
-2176.579409848752
 21
-8454.646321366558
 31
0.0
  0
LINE
  5
5F60
330
1F
100
AcDbEntity
  8
POPIS
100
AcDbLine
 10
-2173.211813803351
 20
-8451.278725321158
 30
0.0
 11
-2173.211813803351
 21
-8451.278725321158
 31
0.0
  0
LINE
  5
5F61
330
1F
100
AcDbEntity
  8
POPIS
100
AcDbLine
 10
-2169.84421775795
 20
-8447.911129275757
 30
0.0
 11
-2156.229953702686
 21
-8434.296865220494
 31
0.0
  0
LINE
  5
5F6B
330
1F
100
AcDbEntity
  8
POPIS
100
AcDbLine
 10
-2249.112113440378
 20
-8554.119793321389
 30
0.0
 11
-2233.828542620569
 21
-8538.836222501581
 31
0.0
  0
LINE
  5
5F6C
330
1F
100
AcDbEntity
  8
POPIS
100
AcDbLine
 10
-2230.460946575168
 20
-8535.46862645618
 30
0.0
 11
-2230.460946575168
 21
-8535.46862645618
 31
0.0
  0
LINE
  5
5F6D
330
1F
100
AcDbEntity
  8
POPIS
100
AcDbLine
 10
-2227.093350529767
 20
-8532.10103041078
 30
0.0
 11
-2210.255370302763
 21
-8515.263050183776
 31
0.0
  0
LINE
  5
5F6E
330
1F
100
AcDbEntity
  8
POPIS
100
AcDbLine
 10
-2206.887774257361
 20
-8511.895454138374
 30
0.0
 11
-2206.887774257361
 21
-8511.895454138374
 31
0.0
  0
LINE
  5
5F6F
330
1F
100
AcDbEntity
  8
POPIS
100
AcDbLine
 10
-2203.52017821196
 20
-8508.527858092973
 30
0.0
 11
-2186.682197984956
 21
-8491.689877865969
 31
0.0
  0
LINE
  5
5F70
330
1F
100
AcDbEntity
  8
POPIS
100
AcDbLine
 10
-2183.314601939554
 20
-8488.322281820568
 30
0.0
 11
-2183.314601939554
 21
-8488.322281820568
 31
0.0
  0
LINE
  5
5F71
330
1F
100
AcDbEntity
  8
POPIS
100
AcDbLine
 10
-2179.947005894153
 20
-8484.954685775166
 30
0.0
 11
-2163.109025667149
 21
-8468.116705548162
 31
0.0
  0
LINE
  5
5F72
330
1F
100
AcDbEntity
  8
POPIS
100
AcDbLine
 10
-2159.741429621747
 20
-8464.749109502761
 30
0.0
 11
-2159.741429621747
 21
-8464.749109502761
 31
0.0
  0
LINE
  5
5F73
330
1F
100
AcDbEntity
  8
POPIS
100
AcDbLine
 10
-2156.373833576347
 20
-8461.381513457359
 30
0.0
 11
-2147.196350506788
 21
-8452.204030387802
 31
0.0
  0
LINE
  5
5F7C
330
1F
100
AcDbEntity
  8
POPIS
100
AcDbLine
 10
-2222.17134507717
 20
-8554.119793321389
 30
0.0
 11
-2220.358158438966
 21
-8552.306606683186
 31
0.0
  0
LINE
  5
5F7D
330
1F
100
AcDbEntity
  8
POPIS
100
AcDbLine
 10
-2216.990562393565
 20
-8548.939010637786
 30
0.0
 11
-2216.990562393565
 21
-8548.939010637786
 31
0.0
  0
LINE
  5
5F7E
330
1F
100
AcDbEntity
  8
POPIS
100
AcDbLine
 10
-2213.622966348163
 20
-8545.571414592384
 30
0.0
 11
-2196.784986121159
 21
-8528.733434365378
 31
0.0
  0
LINE
  5
5F7F
330
1F
100
AcDbEntity
  8
POPIS
100
AcDbLine
 10
-2193.417390075758
 20
-8525.365838319977
 30
0.0
 11
-2193.417390075758
 21
-8525.365838319977
 31
0.0
  0
LINE
  5
5F80
330
1F
100
AcDbEntity
  8
POPIS
100
AcDbLine
 10
-2190.049794030356
 20
-8521.998242274579
 30
0.0
 11
-2173.211813803352
 21
-8505.160262047573
 31
0.0
  0
LINE
  5
5F81
330
1F
100
AcDbEntity
  8
POPIS
100
AcDbLine
 10
-2169.844217757951
 20
-8501.792666002172
 30
0.0
 11
-2169.844217757951
 21
-8501.792666002172
 31
0.0
  0
LINE
  5
5F82
330
1F
100
AcDbEntity
  8
POPIS
100
AcDbLine
 10
-2166.47662171255
 20
-8498.425069956772
 30
0.0
 11
-2149.638641485545
 21
-8481.587089729767
 31
0.0
  0
LINE
  5
5F8E
330
1F
100
AcDbEntity
  8
POPIS
100
AcDbLine
 10
-2195.230576713962
 20
-8554.119793321389
 30
0.0
 11
-2183.314601939555
 21
-8542.203818546983
 31
0.0
  0
LINE
  5
5F8F
330
1F
100
AcDbEntity
  8
POPIS
100
AcDbLine
 10
-2179.947005894154
 20
-8538.836222501581
 30
0.0
 11
-2179.947005894154
 21
-8538.836222501581
 31
0.0
  0
LINE
  5
5F90
330
1F
100
AcDbEntity
  8
POPIS
100
AcDbLine
 10
-2176.579409848753
 20
-8535.46862645618
 30
0.0
 11
-2159.741429621748
 21
-8518.630646229176
 31
0.0
  0
LINE
  5
5F91
330
1F
100
AcDbEntity
  8
POPIS
100
AcDbLine
 10
-2156.373833576347
 20
-8515.263050183776
 30
0.0
 11
-2156.373833576347
 21
-8515.263050183776
 31
0.0
  0
LINE
  5
5F92
330
1F
100
AcDbEntity
  8
POPIS
100
AcDbLine
 10
-2153.006237530946
 20
-8511.895454138374
 30
0.0
 11
-2147.196350506788
 21
-8506.085567114217
 31
0.0
  0
LINE
  5
5F9D
330
1F
100
AcDbEntity
  8
POPIS
100
AcDbLine
 10
-2166.47662171255
 20
-8552.306606683186
 30
0.0
 11
-2166.47662171255
 21
-8552.306606683186
 31
0.0
  0
LINE
  5
5F9E
330
1F
100
AcDbEntity
  8
POPIS
100
AcDbLine
 10
-2163.109025667149
 20
-8548.939010637786
 30
0.0
 11
-2147.196350506789
 21
-8533.026335477426
 31
0.0
  0
TEXT
  5
60CB
330
1F
100
AcDbEntity
  8
POPIS
100
AcDbText
 10
-2831.069623882815
 20
-8137.226836031288
 30
0.0
 40
50.0
  1
Přechod na jinou podlahu
 41
0.85
  7
SIMPLEX7
100
AcDbText
  0
TEXT
  5
60E4
330
1F
100
AcDbEntity
  8
POPIS
100
AcDbText
 10
-2047.886034944747
 20
-8261.519557804858
 30
0.0
 40
25.0
  1
02
 41
0.85
  7
SIMPLEX7
100
AcDbText
  0
TEXT
  5
60E5
330
1F
100
AcDbEntity
  8
POPIS
100
AcDbText
 10
-2047.886034944747
 20
-8224.924546189232
 30
0.0
 40
25.0
  1
01
 41
0.85
  7
SIMPLEX7
100
AcDbText
  0
TEXT
  5
60E6
330
1F
100
AcDbEntity
  8
POPIS
100
AcDbText
 10
-1993.542331785005
 20
-8331.812679435778
 30
0.0
 40
25.0
  1
Deska CETRIS    tl. 12 mm horní, předvrtaná
 41
0.7
  7
SIMPLEX7
100
AcDbText
  0
TEXT
  5
60E7
330
1F
100
AcDbEntity
  8
POPIS
100
AcDbText
 10
-1993.542331785005
 20
-8225.894433956876
 30
0.0
 40
25.0
  1
Dilatační profil Schlűter DILEX-BWB
 41
0.7
  7
SIMPLEX7
100
AcDbText
  0
TEXT
  5
60E8
330
1F
100
AcDbEntity
  8
POPIS
100
AcDbText
 10
-1823.179716339966
 20
-8310.189543117521
 30
0.0
 40
8.399999999999998
  1
R
 41
0.85
  7
SIMPLEX7
100
AcDbText
  0
CIRCLE
  5
60E9
330
1F
100
AcDbEntity
  8
POPIS
100
AcDbCircle
 10
-1819.848396001338
 20
-8306.30780109603
 30
0.0
 40
7.795592338044182
  0
TEXT
  5
60EA
330
1F
100
AcDbEntity
  8
POPIS
100
AcDbText
 10
-1823.565132048372
 20
-8351.258295655219
 30
0.0
 40
8.399999999999998
  1
R
 41
0.85
  7
SIMPLEX7
100
AcDbText
  0
CIRCLE
  5
60EB
330
1F
100
AcDbEntity
  8
POPIS
100
AcDbCircle
 10
-1820.233811709744
 20
-8347.376553633727
 30
0.0
 40
7.795592338044182
  0
TEXT
  5
60EC
330
1F
100
AcDbEntity
  8
POPIS
100
AcDbText
 10
-1993.542331785005
 20
-8259.860649305366
 30
0.0
 40
25.0
  1
Nášlapná vrstva
 41
0.7
  7
SIMPLEX7
100
AcDbText
  0
TEXT
  5
60ED
330
1F
100
AcDbEntity
  8
POPIS
100
AcDbText
 10
-1993.542331785005
 20
-8296.455660920994
 30
0.0
 40
25.0
  1
Dilatační spára tl. 15 mm
 41
0.7
  7
SIMPLEX7
100
AcDbText
  0
TEXT
  5
60EE
330
1F
100
AcDbEntity
  8
POPIS
100
AcDbText
 10
-2047.886034944747
 20
-8547.053919726353
 30
0.0
 40
25.0
  1
10
 41
0.85
  7
SIMPLEX7
100
AcDbText
  0
TEXT
  5
60EF
330
1F
100
AcDbEntity
  8
POPIS
100
AcDbText
 10
-2047.886034944747
 20
-8511.768293533654
 30
0.0
 40
25.0
  1
09
 41
0.85
  7
SIMPLEX7
100
AcDbText
  0
TEXT
  5
60F0
330
1F
100
AcDbEntity
  8
POPIS
100
AcDbText
 10
-2047.886034944747
 20
-8476.242652632352
 30
0.0
 40
25.0
  1
08
 41
0.85
  7
SIMPLEX7
100
AcDbText
  0
TEXT
  5
60F1
330
1F
100
AcDbEntity
  8
POPIS
100
AcDbText
 10
-1993.542331785005
 20
-8616.817879847486
 30
0.0
 40
25.0
  1
Stropní konstrukce
 41
0.7
  7
SIMPLEX7
100
AcDbText
  0
TEXT
  5
60F2
330
1F
100
AcDbEntity
  8
POPIS
100
AcDbText
 10
-1993.542331785005
 20
-8511.897481341213
 30
0.0
 40
25.0
  1
Izolace EPS
 41
0.7
  7
SIMPLEX7
100
AcDbText
  0
TEXT
  5
60F3
330
1F
100
AcDbEntity
  8
POPIS
100
AcDbText
 10
-2047.886034944747
 20
-8405.521841090175
 30
0.0
 40
25.0
  1
06
 41
0.85
  7
SIMPLEX7
100
AcDbText
  0
TEXT
  5
60F4
330
1F
100
AcDbEntity
  8
POPIS
100
AcDbText
 10
-1993.542331785005
 20
-8476.493320123049
 30
0.0
 40
25.0
  1
Podkladní dřevěná lišta
 41
0.7
  7
SIMPLEX7
100
AcDbText
  0
TEXT
  5
60F5
330
1F
100
AcDbEntity
  8
POPIS
100
AcDbText
 10
-2047.886034944747
 20
-8370.117679872011
 30
0.0
 40
25.0
  1
05
 41
0.85
  7
SIMPLEX7
100
AcDbText
  0
TEXT
  5
60F6
330
1F
100
AcDbEntity
  8
POPIS
100
AcDbText
 10
-1993.542331785005
 20
-8406.547174657893
 30
0.0
 40
25.0
  1
Vrut 4,2x35 mm
 41
0.7
  7
SIMPLEX7
100
AcDbText
  0
TEXT
  5
60F7
330
1F
100
AcDbEntity
  8
POPIS
100
AcDbText
 10
-2047.886034944747
 20
-8332.233594834425
 30
0.0
 40
25.0
  1
04
 41
0.85
  7
SIMPLEX7
100
AcDbText
  0
TEXT
  5
60F8
330
1F
100
AcDbEntity
  8
POPIS
100
AcDbText
 10
-1993.542331785005
 20
-8369.952163042263
 30
0.0
 40
25.0
  1
Deska CETRIS    tl. 12 mm, spodní
 41
0.7
  7
SIMPLEX7
100
AcDbText
  0
TEXT
  5
60F9
330
1F
100
AcDbEntity
  8
POPIS
100
AcDbText
 10
-2047.886034944747
 20
-8295.638583218797
 30
0.0
 40
25.0
  1
03
 41
0.85
  7
SIMPLEX7
100
AcDbText
  0
TEXT
  5
60FA
330
1F
100
AcDbEntity
  8
POPIS
100
AcDbText
 10
-2047.886034944747
 20
-8439.40711262946
 30
0.0
 40
25.0
  1
07
 41
0.85
  7
SIMPLEX7
100
AcDbText
  0
TEXT
  5
60FB
330
1F
100
AcDbEntity
  8
POPIS
100
AcDbText
 10
-1993.542331785005
 20
-8579.982339844594
 30
0.0
 40
25.0
  1
Parozábrana
 41
0.7
  7
SIMPLEX7
100
AcDbText
  0
TEXT
  5
60FC
330
1F
100
AcDbEntity
  8
POPIS
100
AcDbText
 10
-1994.071262886666
 20
-8439.930812694639
 30
0.0
 40
25.0
  1
Separační fólie-pěnová fólie tl. 2 mm
 41
0.7
  7
SIMPLEX7
100
AcDbText
  0
TEXT
  5
60FD
330
1F
100
AcDbEntity
  8
POPIS
100
AcDbText
 10
-2047.886034944747
 20
-8579.624962721151
 30
0.0
 40
25.0
  1
11
 41
0.85
  7
SIMPLEX7
100
AcDbText
  0
TEXT
  5
60FE
330
1F
100
AcDbEntity
  8
POPIS
100
AcDbText
 10
-2047.886034944747
 20
-8615.4531118333
 30
0.0
 40
25.0
  1
12
 41
0.85
  7
SIMPLEX7
100
AcDbText
  0
TEXT
  5
60FF
330
1F
100
AcDbEntity
  8
POPIS
100
AcDbText
 10
-1993.542331785005
 20
-8547.318480826971
 30
0.0
 40
25.0
  1
Izolace EPS
 41
0.7
  7
SIMPLEX7
100
AcDbText
  0
ENDSEC
  0
SECTION
  2
OBJECTS
  0
DICTIONARY
  5
C
330
0
100
AcDbDictionary
281
     1
  3
ACAD_GROUP
350
D
  3
ACAD_LAYOUT
350
1A
  3
ACAD_MLINESTYLE
350
17
  3
ACAD_PLOTSETTINGS
350
19
  3
ACAD_PLOTSTYLENAME
350
E
  3
AcDbVariableDictionary
350
8A0
  0
DICTIONARY
  5
D
102
{ACAD_REACTORS
330
C
102
}
330
C
100
AcDbDictionary
281
     1
  0
DICTIONARY
  5
1A
102
{ACAD_REACTORS
330
C
102
}
330
C
100
AcDbDictionary
281
     1
  3
Model
350
22
  3
Rozvržení1
350
1E
  3
Rozvržení2
350
26
  0
DICTIONARY
  5
17
102
{ACAD_REACTORS
330
C
102
}
330
C
100
AcDbDictionary
281
     1
  3
Standard
350
18
  0
DICTIONARY
  5
19
102
{ACAD_REACTORS
330
C
102
}
330
C
100
AcDbDictionary
281
     1
  0
ACDBDICTIONARYWDFLT
  5
E
102
{ACAD_REACTORS
330
C
102
}
330
C
100
AcDbDictionary
281
     1
  3
Normal
350
F
100
AcDbDictionaryWithDefault
340
F
  0
DICTIONARY
  5
8A0
102
{ACAD_REACTORS
330
C
102
}
330
C
100
AcDbDictionary
281
     1
  3
DIMASSOC
350
8A1
  0
LAYOUT
  5
22
102
{ACAD_REACTORS
330
1A
102
}
330
1A
100
AcDbPlotSettings
  1

  2
HP DeskJet 690C
  4

  6

 40
0.0
 41
0.0
 42
0.0
 43
0.0
 44
0.0
 45
0.0
 46
0.0
 47
0.0
 48
0.0
 49
0.0
140
0.0
141
0.0
142
1.0
143
1.0
 70
  1712
 72
     0
 73
     0
 74
     0
  7
monochrome.ctb
 75
     0
147
1.0
148
0.0
149
0.0
100
AcDbLayout
  1
Model
 70
     1
 71
     0
 10
0.0
 20
0.0
 11
12.0
 21
9.0
 12
0.0
 22
0.0
 32
0.0
 14
0.0
 24
0.0
 34
0.0
 15
0.0
 25
0.0
 35
0.0
146
0.0
 13
0.0
 23
0.0
 33
0.0
 16
1.0
 26
0.0
 36
0.0
 17
0.0
 27
1.0
 37
0.0
 76
     0
330
1F
  0
LAYOUT
  5
1E
102
{ACAD_REACTORS
330
1A
102
}
330
1A
100
AcDbPlotSettings
  1

  2
HP DeskJet 690C
  4

  6

 40
0.0
 41
0.0
 42
0.0
 43
0.0
 44
0.0
 45
0.0
 46
0.0
 47
0.0
 48
0.0
 49
0.0
140
0.0
141
0.0
142
1.0
143
1.0
 70
   688
 72
     0
 73
     0
 74
     5
  7
monochrome.ctb
 75
    16
147
1.0
148
0.0
149
0.0
100
AcDbLayout
  1
Rozvržení1
 70
     1
 71
     1
 10
0.0
 20
0.0
 11
420.0
 21
297.0
 12
0.0
 22
0.0
 32
0.0
 14
1.000000000000000E+20
 24
1.000000000000000E+20
 34
1.000000000000000E+20
 15
-1.000000000000000E+20
 25
-1.000000000000000E+20
 35
-1.000000000000000E+20
146
0.0
 13
0.0
 23
0.0
 33
0.0
 16
1.0
 26
0.0
 36
0.0
 17
0.0
 27
1.0
 37
0.0
 76
     0
330
1B
  0
LAYOUT
  5
26
102
{ACAD_REACTORS
330
1A
102
}
330
1A
100
AcDbPlotSettings
  1

  2
HP DeskJet 690C
  4

  6

 40
0.0
 41
0.0
 42
0.0
 43
0.0
 44
0.0
 45
0.0
 46
0.0
 47
0.0
 48
0.0
 49
0.0
140
0.0
141
0.0
142
1.0
143
1.0
 70
   688
 72
     0
 73
     0
 74
     5
  7
monochrome.ctb
 75
    16
147
1.0
148
0.0
149
0.0
100
AcDbLayout
  1
Rozvržení2
 70
     1
 71
     2
 10
0.0
 20
0.0
 11
12.0
 21
9.0
 12
0.0
 22
0.0
 32
0.0
 14
0.0
 24
0.0
 34
0.0
 15
0.0
 25
0.0
 35
0.0
146
0.0
 13
0.0
 23
0.0
 33
0.0
 16
1.0
 26
0.0
 36
0.0
 17
0.0
 27
1.0
 37
0.0
 76
     0
330
23
  0
MLINESTYLE
  5
18
102
{ACAD_REACTORS
330
17
102
}
330
17
100
AcDbMlineStyle
  2
STANDARD
 70
     0
  3

 62
   256
 51
90.0
 52
90.0
 71
     2
 49
0.5
 62
   256
  6
BYLAYER
 49
-0.5
 62
   256
  6
BYLAYER
  0
ACDBPLACEHOLDER
  5
F
102
{ACAD_REACTORS
330
E
102
}
330
E
  0
DICTIONARYVAR
  5
8A1
102
{ACAD_REACTORS
330
8A0
102
}
330
8A0
100
DictionaryVariables
280
     0
  1
1
  0
ENDSEC
  0
EOF
