  0
SECTION
  2
HEADER
  9
$ACADVER
  1
AC1015
  9
$ACADMAINTVER
 70
    14
  9
$DWGCODEPAGE
  3
ANSI_1250
  9
$INSBASE
 10
0.0
 20
0.0
 30
0.0
  9
$EXTMIN
 10
-4921.864718149819
 20
-8736.820463824432
 30
-0.0015258207003583
  9
$EXTMAX
 10
-3779.706742031609
 20
-8137.974451923613
 30
0.0000000349246037
  9
$LIMMIN
 10
0.0
 20
0.0
  9
$LIMMAX
 10
420.0
 20
297.0
  9
$ORTHOMODE
 70
     1
  9
$REGENMODE
 70
     1
  9
$FILLMODE
 70
     1
  9
$QTEXTMODE
 70
     0
  9
$MIRRTEXT
 70
     1
  9
$LTSCALE
 40
1.0
  9
$ATTMODE
 70
     1
  9
$TEXTSIZE
 40
102.0
  9
$TRACEWID
 40
1.0
  9
$TEXTSTYLE
  7
SIMPLEX7
  9
$CLAYER
  8
STAVBA OBRYS
  9
$CELTYPE
  6
ByLayer
  9
$CECOLOR
 62
   256
  9
$CELTSCALE
 40
1.0
  9
$DISPSILH
 70
     0
  9
$DIMSCALE
 40
1.0
  9
$DIMASZ
 40
2.5
  9
$DIMEXO
 40
0.625
  9
$DIMDLI
 40
3.75
  9
$DIMRND
 40
0.0
  9
$DIMDLE
 40
0.0
  9
$DIMEXE
 40
1.25
  9
$DIMTP
 40
0.0
  9
$DIMTM
 40
0.0
  9
$DIMTXT
 40
2.5
  9
$DIMCEN
 40
2.5
  9
$DIMTSZ
 40
0.0
  9
$DIMTOL
 70
     0
  9
$DIMLIM
 70
     0
  9
$DIMTIH
 70
     0
  9
$DIMTOH
 70
     0
  9
$DIMSE1
 70
     0
  9
$DIMSE2
 70
     0
  9
$DIMTAD
 70
     1
  9
$DIMZIN
 70
     8
  9
$DIMBLK
  1

  9
$DIMASO
 70
     1
  9
$DIMSHO
 70
     1
  9
$DIMPOST
  1

  9
$DIMAPOST
  1

  9
$DIMALT
 70
     0
  9
$DIMALTD
 70
     3
  9
$DIMALTF
 40
0.03937007874016
  9
$DIMLFAC
 40
1.0
  9
$DIMTOFL
 70
     1
  9
$DIMTVP
 40
0.0
  9
$DIMTIX
 70
     0
  9
$DIMSOXD
 70
     0
  9
$DIMSAH
 70
     0
  9
$DIMBLK1
  1

  9
$DIMBLK2
  1

  9
$DIMSTYLE
  2
ISO-25
  9
$DIMCLRD
 70
     0
  9
$DIMCLRE
 70
     0
  9
$DIMCLRT
 70
     0
  9
$DIMTFAC
 40
1.0
  9
$DIMGAP
 40
0.625
  9
$DIMJUST
 70
     0
  9
$DIMSD1
 70
     0
  9
$DIMSD2
 70
     0
  9
$DIMTOLJ
 70
     0
  9
$DIMTZIN
 70
     8
  9
$DIMALTZ
 70
     0
  9
$DIMALTTZ
 70
     0
  9
$DIMUPT
 70
     0
  9
$DIMDEC
 70
     2
  9
$DIMTDEC
 70
     2
  9
$DIMALTU
 70
     2
  9
$DIMALTTD
 70
     3
  9
$DIMTXSTY
  7
Standard
  9
$DIMAUNIT
 70
     0
  9
$DIMADEC
 70
     0
  9
$DIMALTRND
 40
0.0
  9
$DIMAZIN
 70
     0
  9
$DIMDSEP
 70
    44
  9
$DIMATFIT
 70
     3
  9
$DIMFRAC
 70
     0
  9
$DIMLDRBLK
  1

  9
$DIMLUNIT
 70
     2
  9
$DIMLWD
 70
    -2
  9
$DIMLWE
 70
    -2
  9
$DIMTMOVE
 70
     0
  9
$LUNITS
 70
     2
  9
$LUPREC
 70
     4
  9
$SKETCHINC
 40
1.0
  9
$FILLETRAD
 40
0.0
  9
$AUNITS
 70
     0
  9
$AUPREC
 70
     0
  9
$MENU
  1
.
  9
$ELEVATION
 40
0.0
  9
$PELEVATION
 40
0.0
  9
$THICKNESS
 40
0.0
  9
$LIMCHECK
 70
     0
  9
$CHAMFERA
 40
10.0
  9
$CHAMFERB
 40
10.0
  9
$CHAMFERC
 40
20.0
  9
$CHAMFERD
 40
0.0
  9
$SKPOLY
 70
     0
  9
$TDCREATE
 40
2452681.284131944
  9
$TDUCREATE
 40
2452681.242465277
  9
$TDUPDATE
 40
2455601.580363032
  9
$TDUUPDATE
 40
2455601.538696365
  9
$TDINDWG
 40
0.6497097685
  9
$TDUSRTIMER
 40
0.6497097685
  9
$USRTIMER
 70
     1
  9
$ANGBASE
 50
0.0
  9
$ANGDIR
 70
     0
  9
$PDMODE
 70
     0
  9
$PDSIZE
 40
0.0
  9
$PLINEWID
 40
0.0
  9
$SPLFRAME
 70
     0
  9
$SPLINETYPE
 70
     6
  9
$SPLINESEGS
 70
     8
  9
$HANDSEED
  5
6118
  9
$SURFTAB1
 70
     6
  9
$SURFTAB2
 70
     6
  9
$SURFTYPE
 70
     6
  9
$SURFU
 70
     6
  9
$SURFV
 70
     6
  9
$UCSBASE
  2

  9
$UCSNAME
  2

  9
$UCSORG
 10
0.0
 20
0.0
 30
0.0
  9
$UCSXDIR
 10
1.0
 20
0.0
 30
0.0
  9
$UCSYDIR
 10
0.0
 20
1.0
 30
0.0
  9
$UCSORTHOREF
  2

  9
$UCSORTHOVIEW
 70
     0
  9
$UCSORGTOP
 10
0.0
 20
0.0
 30
0.0
  9
$UCSORGBOTTOM
 10
0.0
 20
0.0
 30
0.0
  9
$UCSORGLEFT
 10
0.0
 20
0.0
 30
0.0
  9
$UCSORGRIGHT
 10
0.0
 20
0.0
 30
0.0
  9
$UCSORGFRONT
 10
0.0
 20
0.0
 30
0.0
  9
$UCSORGBACK
 10
0.0
 20
0.0
 30
0.0
  9
$PUCSBASE
  2

  9
$PUCSNAME
  2

  9
$PUCSORG
 10
0.0
 20
0.0
 30
0.0
  9
$PUCSXDIR
 10
1.0
 20
0.0
 30
0.0
  9
$PUCSYDIR
 10
0.0
 20
1.0
 30
0.0
  9
$PUCSORTHOREF
  2

  9
$PUCSORTHOVIEW
 70
     0
  9
$PUCSORGTOP
 10
0.0
 20
0.0
 30
0.0
  9
$PUCSORGBOTTOM
 10
0.0
 20
0.0
 30
0.0
  9
$PUCSORGLEFT
 10
0.0
 20
0.0
 30
0.0
  9
$PUCSORGRIGHT
 10
0.0
 20
0.0
 30
0.0
  9
$PUCSORGFRONT
 10
0.0
 20
0.0
 30
0.0
  9
$PUCSORGBACK
 10
0.0
 20
0.0
 30
0.0
  9
$USERI1
 70
     0
  9
$USERI2
 70
     0
  9
$USERI3
 70
     0
  9
$USERI4
 70
     0
  9
$USERI5
 70
     0
  9
$USERR1
 40
0.0
  9
$USERR2
 40
0.0
  9
$USERR3
 40
0.0
  9
$USERR4
 40
0.0
  9
$USERR5
 40
0.0
  9
$WORLDVIEW
 70
     1
  9
$SHADEDGE
 70
     3
  9
$SHADEDIF
 70
    70
  9
$TILEMODE
 70
     1
  9
$MAXACTVP
 70
    64
  9
$PINSBASE
 10
0.0
 20
0.0
 30
0.0
  9
$PLIMCHECK
 70
     0
  9
$PEXTMIN
 10
1.000000000000000E+20
 20
1.000000000000000E+20
 30
1.000000000000000E+20
  9
$PEXTMAX
 10
-1.000000000000000E+20
 20
-1.000000000000000E+20
 30
-1.000000000000000E+20
  9
$PLIMMIN
 10
0.0
 20
0.0
  9
$PLIMMAX
 10
420.0
 20
297.0
  9
$UNITMODE
 70
     0
  9
$VISRETAIN
 70
     1
  9
$PLINEGEN
 70
     0
  9
$PSLTSCALE
 70
     1
  9
$TREEDEPTH
 70
  3020
  9
$CMLSTYLE
  2
Standard
  9
$CMLJUST
 70
     0
  9
$CMLSCALE
 40
20.0
  9
$PROXYGRAPHICS
 70
     1
  9
$MEASUREMENT
 70
     1
  9
$CELWEIGHT
370
    -1
  9
$ENDCAPS
280
     0
  9
$JOINSTYLE
280
     0
  9
$LWDISPLAY
290
     1
  9
$INSUNITS
 70
     4
  9
$HYPERLINKBASE
  1

  9
$STYLESHEET
  1

  9
$XEDIT
290
     1
  9
$CEPSNTYPE
380
     0
  9
$PSTYLEMODE
290
     1
  9
$FINGERPRINTGUID
  2
{CED30962-9BF9-4233-B154-46CCBBBAD92E}
  9
$VERSIONGUID
  2
{C2314C38-BAB0-47C2-872D-18E23F46F1AE}
  9
$EXTNAMES
290
     1
  9
$PSVPSCALE
 40
0.0
  9
$OLESTARTUP
290
     0
  0
ENDSEC
  0
SECTION
  2
CLASSES
  0
CLASS
  1
ACDBDICTIONARYWDFLT
  2
AcDbDictionaryWithDefault
  3
AutoCAD 2000
 90
        0
280
     0
281
     0
  0
CLASS
  1
ACDBPLACEHOLDER
  2
AcDbPlaceHolder
  3
AutoCAD 2000
 90
        0
280
     0
281
     0
  0
CLASS
  1
LAYOUT
  2
AcDbLayout
  3
AutoCAD 2000
 90
        0
280
     0
281
     0
  0
CLASS
  1
DICTIONARYVAR
  2
AcDbDictionaryVar
  3
AutoCAD 2000
 90
        0
280
     0
281
     0
  0
ENDSEC
  0
SECTION
  2
TABLES
  0
TABLE
  2
VPORT
  5
8
330
0
100
AcDbSymbolTable
 70
     2
  0
VPORT
  5
6117
330
8
100
AcDbSymbolTableRecord
100
AcDbViewportTableRecord
  2
*Active
 70
     0
 10
0.0
 20
0.0
 11
1.0
 21
1.0
 12
-4350.785730090715
 22
-8437.397457874022
 13
0.0
 23
0.0
 14
10.0
 24
10.0
 15
10.0
 25
10.0
 16
0.0
 26
0.0
 36
1.0
 17
0.0
 27
0.0
 37
0.0
 40
603.2439018291007
 41
2.031862745098039
 42
50.0
 43
0.0
 44
0.0
 50
0.0
 51
0.0
 71
     0
 72
   100
 73
     1
 74
     3
 75
     0
 76
     0
 77
     0
 78
     0
281
     0
 65
     1
110
0.0
120
0.0
130
0.0
111
1.0
121
0.0
131
0.0
112
0.0
122
1.0
132
0.0
 79
     0
146
0.0
  0
ENDTAB
  0
TABLE
  2
LTYPE
  5
5
330
0
100
AcDbSymbolTable
 70
     5
  0
LTYPE
  5
14
330
5
100
AcDbSymbolTableRecord
100
AcDbLinetypeTableRecord
  2
ByBlock
 70
     0
  3

 72
    65
 73
     0
 40
0.0
  0
LTYPE
  5
15
330
5
100
AcDbSymbolTableRecord
100
AcDbLinetypeTableRecord
  2
ByLayer
 70
     0
  3

 72
    65
 73
     0
 40
0.0
  0
LTYPE
  5
16
330
5
100
AcDbSymbolTableRecord
100
AcDbLinetypeTableRecord
  2
Continuous
 70
     0
  3
Solid line
 72
    65
 73
     0
 40
0.0
  0
LTYPE
  5
2F
330
5
100
AcDbSymbolTableRecord
100
AcDbLinetypeTableRecord
  2
DASHED
 70
     0
  3
Dashed __ __ __ __ __ __ __ __ __ __ __ __ __ _
 72
    65
 73
     2
 40
19.04999999999999
 49
12.7
 74
     0
 49
-6.349999999999999
 74
     0
  0
LTYPE
  5
30
330
5
100
AcDbSymbolTableRecord
100
AcDbLinetypeTableRecord
  2
IZOLACE
 70
     0
  3
Izolace SSSSSSSSSSSSSSSSSSSSSSSSSSSSSSSSSSSSSSS
 72
    65
 73
     4
 40
10.16253999999999
 49
0.00254
 74
     0
 49
-2.54
 74
     4
 75
   134
340
38
 46
2.54
 50
0.0
 44
-2.54
 45
0.0
 49
-5.08
 74
     4
 75
   134
340
38
 46
2.54
 50
180.0
 44
2.54
 45
0.0
 49
-2.54
 74
     0
  0
LTYPE
  5
11D2
330
5
100
AcDbSymbolTableRecord
100
AcDbLinetypeTableRecord
  2
DASHDOT2
 70
     0
  3
Dash dot (.5x) _._._._._._._._._._._._._._._.
 72
    65
 73
     4
 40
12.7
 49
6.349999999999999
 74
     0
 49
-3.174999999999999
 74
     0
 49
0.0
 74
     0
 49
-3.174999999999999
 74
     0
  0
LTYPE
  5
11D3
330
5
100
AcDbSymbolTableRecord
100
AcDbLinetypeTableRecord
  2
CIKCAK
 70
     0
  3
Cik-cak /\/\/\/\/\/\/\/\/\/\/\/\/\/\/\/\/\/\/\/
 72
    65
 73
     4
 40
20.32254
 49
0.00254
 74
     0
 49
-5.08
 74
     4
 75
   131
340
38
 46
5.08
 50
0.0
 44
-5.08
 45
0.0
 49
-10.16
 74
     4
 75
   131
340
38
 46
5.08
 50
180.0
 44
5.08
 45
0.0
 49
-5.08
 74
     0
  0
ENDTAB
  0
TABLE
  2
LAYER
  5
2
330
0
100
AcDbSymbolTable
 70
     8
  0
LAYER
  5
10
330
2
100
AcDbSymbolTableRecord
100
AcDbLayerTableRecord
  2
0
 70
     0
 62
     7
  6
Continuous
370
    -3
390
F
  0
LAYER
  5
31
330
2
100
AcDbSymbolTableRecord
100
AcDbLayerTableRecord
  2
POPIS
 70
     0
 62
    30
  6
Continuous
370
    -3
390
F
  0
LAYER
  5
32
330
2
100
AcDbSymbolTableRecord
100
AcDbLayerTableRecord
  2
SPOJOVACÍ
 70
     0
 62
     5
  6
Continuous
370
    -3
390
F
  0
LAYER
  5
33
330
2
100
AcDbSymbolTableRecord
100
AcDbLayerTableRecord
  2
CETRIS
 70
     0
 62
     1
  6
Continuous
370
    -3
390
F
  0
LAYER
  5
34
330
2
100
AcDbSymbolTableRecord
100
AcDbLayerTableRecord
  2
izolace
 70
     0
 62
     3
  6
Continuous
370
    -3
390
F
  0
LAYER
  5
35
330
2
100
AcDbSymbolTableRecord
100
AcDbLayerTableRecord
  2
nášlap_vrstvy
 70
     0
 62
     6
  6
Continuous
370
    -3
390
F
  0
LAYER
  5
36
330
2
100
AcDbSymbolTableRecord
100
AcDbLayerTableRecord
  2
STAVBA OBRYS
 70
     0
 62
    40
  6
Continuous
370
    -3
390
F
  0
LAYER
  5
8B0
330
2
100
AcDbSymbolTableRecord
100
AcDbLayerTableRecord
  2
Defpoints
 70
     0
 62
     7
  6
Continuous
290
     0
370
    -3
390
F
  0
ENDTAB
  0
TABLE
  2
STYLE
  5
3
330
0
100
AcDbSymbolTable
 70
     3
  0
STYLE
  5
11
330
3
100
AcDbSymbolTableRecord
100
AcDbTextStyleTableRecord
  2
Standard
 70
     0
 40
0.0
 41
1.0
 50
0.0
 71
     0
 42
2.5
  3
verdana.TTF
  4

1001
ACAD
1000
Verdana
1071
       34
  0
STYLE
  5
37
330
3
100
AcDbSymbolTableRecord
100
AcDbTextStyleTableRecord
  2
SIMPLEX7
 70
     0
 40
0.0
 41
0.85
 50
0.0
 71
     0
 42
102.0
  3
ARIAL.TTF
  4

1001
ACAD
1000
Arial CE
1071
    60962
  0
STYLE
  5
38
330
3
100
AcDbSymbolTableRecord
100
AcDbTextStyleTableRecord
  2

 70
     1
 40
0.0
 41
1.0
 50
0.0
 71
     0
 42
2.5
  3
ltypeshp.shx
  4

  0
ENDTAB
  0
TABLE
  2
VIEW
  5
6
330
0
100
AcDbSymbolTable
 70
     0
  0
ENDTAB
  0
TABLE
  2
UCS
  5
7
330
0
100
AcDbSymbolTable
 70
     0
  0
ENDTAB
  0
TABLE
  2
APPID
  5
9
330
0
100
AcDbSymbolTable
 70
     1
  0
APPID
  5
12
330
9
100
AcDbSymbolTableRecord
100
AcDbRegAppTableRecord
  2
ACAD
 70
     0
  0
ENDTAB
  0
TABLE
  2
DIMSTYLE
  5
A
330
0
100
AcDbSymbolTable
 70
     2
100
AcDbDimStyleTable
 71
     1
340
27
  0
DIMSTYLE
105
27
330
A
100
AcDbSymbolTableRecord
100
AcDbDimStyleTableRecord
  2
ISO-25
 70
     0
 41
2.5
 42
0.625
 43
3.75
 44
1.25
 73
     0
 74
     0
 77
     1
 78
     8
140
2.5
141
2.5
143
0.03937007874016
147
0.625
171
     3
172
     1
271
     2
272
     2
274
     3
278
    44
283
     0
284
     8
340
11
  0
DIMSTYLE
105
5925
330
A
100
AcDbSymbolTableRecord
100
AcDbDimStyleTableRecord
  2
STANDARD
 70
     0
340
11
  0
ENDTAB
  0
TABLE
  2
BLOCK_RECORD
  5
1
330
0
100
AcDbSymbolTable
 70
     3
  0
BLOCK_RECORD
  5
1F
330
1
100
AcDbSymbolTableRecord
100
AcDbBlockTableRecord
  2
*Model_Space
340
22
  0
BLOCK_RECORD
  5
1B
330
1
100
AcDbSymbolTableRecord
100
AcDbBlockTableRecord
  2
*Paper_Space
340
1E
  0
BLOCK_RECORD
  5
23
330
1
100
AcDbSymbolTableRecord
100
AcDbBlockTableRecord
  2
*Paper_Space0
340
26
  0
BLOCK_RECORD
  5
2B
330
1
100
AcDbSymbolTableRecord
100
AcDbBlockTableRecord
  2
E_PUNKT
340
0
102
{BLKREFS
331
6B5
331
6B1
331
842
331
83F
331
75F
331
79A
331
73F
331
766
331
649
331
60D
331
60C
331
197D
331
1A72
331
1A77
331
1AC8
331
1AC9
331
1ACB
331
1AE2
331
181B
331
183F
331
1FA2
331
1FB8
331
1FBA
331
1FC4
331
1FCC
331
2008
331
224F
331
2272
331
227D
331
22F0
331
2313
331
2314
331
2355
331
23A6
331
23B1
331
24C9
331
2A02
331
2A12
331
2AC1
331
2BCD
331
2BE5
331
2C54
331
2CD0
331
2CC6
331
2CCF
331
2BE0
331
2BEB
331
2DA0
331
2DA5
331
2DE7
331
2DED
331
2DEE
331
2DEF
331
2DF2
331
2DF3
331
2DF6
331
2E8E
331
314E
331
3236
331
3206
331
32FE
331
32BF
331
3304
331
2ECD
331
3239
331
2FB9
331
3150
331
4E7F
331
4E9C
331
4EA7
331
4EAE
331
4EB8
331
5B4F
331
5B54
102
}
  0
ENDTAB
  0
ENDSEC
  0
SECTION
  2
BLOCKS
  0
BLOCK
  5
20
330
1F
100
AcDbEntity
  8
0
100
AcDbBlockBegin
  2
*Model_Space
 70
     0
 10
0.0
 20
0.0
 30
0.0
  3
*Model_Space
  1

  0
ENDBLK
  5
21
330
1F
100
AcDbEntity
  8
0
100
AcDbBlockEnd
  0
BLOCK
  5
1C
330
1B
100
AcDbEntity
 67
     1
  8
0
100
AcDbBlockBegin
  2
*Paper_Space
 70
     0
 10
0.0
 20
0.0
 30
0.0
  3
*Paper_Space
  1

  0
ENDBLK
  5
1D
330
1B
100
AcDbEntity
 67
     1
  8
0
100
AcDbBlockEnd
  0
BLOCK
  5
24
330
23
100
AcDbEntity
  8
0
100
AcDbBlockBegin
  2
*Paper_Space0
 70
     0
 10
0.0
 20
0.0
 30
0.0
  3
*Paper_Space0
  1

  0
ENDBLK
  5
25
330
23
100
AcDbEntity
  8
0
100
AcDbBlockEnd
  0
BLOCK
  5
2D
330
2B
100
AcDbEntity
  8
0
100
AcDbBlockBegin
  2
E_PUNKT
 70
     0
 10
0.0
 20
0.0
 30
0.0
  3
E_PUNKT
  1

  0
LWPOLYLINE
  5
2C
330
2B
100
AcDbEntity
  8
POPIS
100
AcDbPolyline
 90
        2
 70
     1
 43
2.5
 10
1.27761037562675
 20
0.0290683308725193
 42
-1.0
 10
-1.222389624373249
 20
0.0290683308725193
 42
-1.0
  0
ENDBLK
  5
2E
330
2B
100
AcDbEntity
  8
0
100
AcDbBlockEnd
  0
ENDSEC
  0
SECTION
  2
ENTITIES
  0
HATCH
  5
166B
330
1F
100
AcDbEntity
  8
STAVBA OBRYS
370
    20
100
AcDbHatch
 10
0.0
 20
0.0
 30
0.0
210
0.0
220
0.0
230
1.0
  2
ANSI31
 70
     0
 71
     0
 91
        6
 92
        7
 72
     0
 73
     1
 93
       12
 10
-4784.54228945888
 20
-8308.204965117722
 10
-4796.542289458877
 20
-8310.415126396021
 10
-4796.542289458877
 20
-8352.490974574314
 10
-4795.342362682149
 20
-8352.490974574314
 10
-4795.005639044266
 20
-8353.206279760481
 10
-4794.087555533824
 20
-8354.443413569381
 10
-4792.880187350926
 20
-8355.401494639364
 10
-4791.466320141222
 20
-8356.014480488513
 10
-4789.942692187793
 20
-8356.241443379396
 10
-4784.986814383745
 20
-8356.241443379396
 10
-4784.760682829491
 20
-8355.568926280968
 10
-4784.54228945888
 20
-8355.191616885402
 97
        0
 92
        7
 72
     0
 73
     1
 93
       23
 10
-4784.54228945888
 20
-8358.940813542131
 10
-4785.298225603579
 20
-8358.940813542131
 10
-4785.524357157879
 20
-8359.613330640561
 10
-4785.742018293928
 20
-8359.990982015871
 10
-4786.120599842758
 20
-8359.613330640561
 10
-4785.894468288503
 20
-8358.940813542131
 10
-4789.942692187793
 20
-8358.940813542131
 10
-4790.729620910915
 20
-8359.006856024054
 10
-4792.210460777965
 20
-8359.434736888351
 10
-4793.529450056263
 20
-8360.230967367671
 10
-4794.598222045675
 20
-8361.34159726803
 10
-4795.342362682149
 20
-8362.691282351581
 10
-4796.542289458877
 20
-8362.691282351581
 10
-4796.542289458877
 20
-8575.40891370521
 10
-4795.342362682149
 20
-8575.40891370521
 10
-4795.005639044266
 20
-8576.124218891377
 10
-4794.087555533824
 20
-8577.361352700277
 10
-4792.880187350926
 20
-8578.319433770262
 10
-4791.466320141222
 20
-8578.932419619411
 10
-4789.942692187793
 20
-8579.159382510294
 10
-4784.986814383745
 20
-8579.159382510294
 10
-4784.760682829491
 20
-8578.486865411866
 10
-4784.54228945888
 20
-8578.1095560163
 97
        0
 92
        7
 72
     0
 73
     1
 93
       15
 10
-4784.54228945888
 20
-8581.85875267303
 10
-4785.298225603579
 20
-8581.85875267303
 10
-4785.524357157879
 20
-8582.531269771457
 10
-4785.742018293928
 20
-8582.908921146769
 10
-4786.120599842758
 20
-8582.531269771457
 10
-4785.894468288503
 20
-8581.85875267303
 10
-4789.942692187793
 20
-8581.85875267303
 10
-4790.729620910915
 20
-8581.924795154952
 10
-4792.210460777965
 20
-8582.352676019251
 10
-4793.529450056263
 20
-8583.148906498569
 10
-4794.598222045675
 20
-8584.259536398928
 10
-4795.342362682149
 20
-8585.609221482478
 10
-4796.542289458877
 20
-8585.609221482478
 10
-4796.542289458877
 20
-8638.521076533594
 10
-4784.54228945888
 20
-8638.521076533594
 97
        0
 92
        7
 72
     0
 73
     1
 93
       15
 10
-4721.31003517413
 20
-8585.609221482478
 10
-4722.509961950861
 20
-8585.609221482478
 10
-4723.254102587335
 20
-8584.259536398928
 10
-4724.322874576748
 20
-8583.148906498569
 10
-4725.641863855045
 20
-8582.352676019251
 10
-4727.122703722096
 20
-8581.924795154952
 10
-4727.909632445217
 20
-8581.85875267303
 10
-4731.957856344507
 20
-8581.85875267303
 10
-4731.731724790253
 20
-8582.531269771457
 10
-4732.110306339083
 20
-8582.908921146769
 10
-4732.327967475131
 20
-8582.531269771457
 10
-4732.554099029431
 20
-8581.85875267303
 10
-4733.31003517413
 20
-8581.85875267303
 10
-4733.31003517413
 20
-8638.521076533594
 10
-4721.31003517413
 20
-8638.52107653359
 97
        0
 92
        7
 72
     0
 73
     1
 93
       23
 10
-4721.310035174133
 20
-8362.691282351581
 10
-4722.509961950861
 20
-8362.691282351581
 10
-4723.254102587335
 20
-8361.34159726803
 10
-4724.322874576748
 20
-8360.230967367671
 10
-4725.641863855045
 20
-8359.434736888353
 10
-4727.122703722096
 20
-8359.006856024054
 10
-4727.909632445217
 20
-8358.940813542131
 10
-4731.957856344507
 20
-8358.940813542131
 10
-4731.731724790253
 20
-8359.613330640561
 10
-4732.110306339083
 20
-8359.990982015871
 10
-4732.327967475131
 20
-8359.613330640561
 10
-4732.554099029431
 20
-8358.940813542131
 10
-4733.31003517413
 20
-8358.940813542131
 10
-4733.31003517413
 20
-8578.1095560163
 10
-4733.091641803519
 20
-8578.486865411866
 10
-4732.865510249266
 20
-8579.159382510294
 10
-4727.909632445218
 20
-8579.159382510294
 10
-4726.386004491788
 20
-8578.932419619411
 10
-4724.972137282086
 20
-8578.319433770262
 10
-4723.764769099187
 20
-8577.361352700277
 10
-4722.846685588745
 20
-8576.124218891377
 10
-4722.509961950861
 20
-8575.40891370521
 10
-4721.31003517413
 20
-8575.40891370521
 97
        0
 92
        7
 72
     0
 73
     1
 93
       12
 10
-4721.310035174133
 20
-8296.558841787744
 10
-4733.31003517413
 20
-8298.769003066041
 10
-4733.31003517413
 20
-8355.191616885402
 10
-4733.091641803519
 20
-8355.568926280966
 10
-4732.865510249266
 20
-8356.241443379396
 10
-4727.909632445218
 20
-8356.241443379396
 10
-4726.386004491788
 20
-8356.014480488513
 10
-4724.972137282086
 20
-8355.401494639364
 10
-4723.764769099187
 20
-8354.443413569381
 10
-4722.846685588745
 20
-8353.206279760479
 10
-4722.509961950861
 20
-8352.490974574314
 10
-4721.310035174133
 20
-8352.490974574314
 97
        0
 75
     0
 76
     1
 52
90.0
 41
1.0
 77
     0
 78
     1
 53
135.0
 43
-5060.436830593764
 44
-8851.201453900856
 45
-2.245064030267288
 46
-2.245064030267287
 79
     0
 47
0.5470887699545174
 98
        6
 10
-4789.113328839402
 20
-8344.326277541638
 10
-4788.565907118267
 20
-8397.940978022671
 10
-4787.471063676
 20
-8607.475976896941
 10
-4728.349515748613
 20
-8608.023066124703
 10
-4726.159828864076
 20
-8556.049632109187
 10
-4727.254672306344
 20
-8337.214123669571
  0
LWPOLYLINE
  5
166D
330
1F
100
AcDbEntity
  8
izolace
100
AcDbPolyline
 90
        4
 70
     0
 43
0.0
 10
-4490.578791106297
 20
-8645.920671062958
 10
-4909.155143042615
 20
-8645.920671062958
 10
-4909.155143042615
 20
-8642.920671062958
 10
-4490.578791106297
 20
-8642.920671062958
  0
LINE
  5
166E
330
1F
100
AcDbEntity
  8
izolace
100
AcDbLine
 10
-4909.155143042611
 20
-8645.920671062958
 30
0.0
 11
-4390.424106528334
 21
-8645.920671062958
 31
0.0
  0
LINE
  5
166F
330
1F
100
AcDbEntity
  8
STAVBA OBRYS
  6
Continuous
100
AcDbLine
 10
-4726.386004491788
 20
-8578.932419619411
 30
0.0
 11
-4724.972137282086
 21
-8578.319433770262
 31
0.0
  0
LINE
  5
1670
330
1F
100
AcDbEntity
  8
STAVBA OBRYS
  6
Continuous
100
AcDbLine
 10
-4724.322874576748
 20
-8583.148906498569
 30
0.0
 11
-4725.641863855045
 21
-8582.352676019251
 31
0.0
  0
LINE
  5
1671
330
1F
100
AcDbEntity
  8
STAVBA OBRYS
100
AcDbLine
 10
-4733.31003517413
 20
-8638.521076533594
 30
0.0
 11
-4721.31003517413
 21
-8638.52107653359
 31
0.0
  0
LINE
  5
1672
330
1F
100
AcDbEntity
  8
izolace
100
AcDbLine
 10
-4909.155143042615
 20
-8642.920671062958
 30
0.0
 11
-4390.424106528334
 21
-8642.920671062958
 31
0.0
  0
LINE
  5
1673
330
1F
100
AcDbEntity
  8
SPOJOVACÍ
  6
Continuous
100
AcDbLine
 10
-4724.322874576748
 20
-8360.230967367671
 30
0.0
 11
-4725.641863855045
 21
-8359.434736888353
 31
0.0
  0
LINE
  5
1674
330
1F
100
AcDbEntity
  8
SPOJOVACÍ
  6
Continuous
100
AcDbLine
 10
-4726.386004491788
 20
-8356.014480488513
 30
0.0
 11
-4724.972137282086
 21
-8355.401494639364
 31
0.0
  0
TEXT
  5
1675
330
1F
100
AcDbEntity
  8
POPIS
100
AcDbText
 10
-4745.598843360393
 20
-8709.991799827228
 30
0.0
 40
25.0
  1
03
 41
0.8
  7
SIMPLEX7
100
AcDbText
  0
HATCH
  5
1676
330
1F
100
AcDbEntity
  8
CETRIS
370
    20
100
AcDbHatch
 10
0.0
 20
0.0
 30
0.0
210
0.0
220
0.0
230
1.0
  2
ANSI31
 70
     0
 71
     0
 91
        6
 92
        7
 72
     0
 73
     1
 93
       15
 10
-4846.760274459377
 20
-8571.873253677525
 10
-4847.848691761729
 20
-8570.825857127898
 10
-4849.17138314361
 20
-8570.096599304154
 10
-4849.17138314361
 20
-8568.920671062958
 10
-4909.155143042615
 20
-8568.920671062958
 10
-4909.155143042615
 20
-8580.920671062957
 10
-4845.49592371035
 20
-8580.920671062957
 10
-4845.49592371035
 20
-8579.939853641151
 10
-4846.154990466808
 20
-8579.718244717938
 10
-4846.525088814615
 20
-8579.504936804614
 10
-4846.154990466811
 20
-8579.133926886758
 10
-4845.49592371035
 20
-8579.355535809929
 10
-4845.49592371035
 20
-8575.388276388627
 10
-4845.560645342633
 20
-8574.617086239964
 10
-4845.979968589647
 20
-8573.165863170254
 97
        0
 92
        7
 72
     0
 73
     1
 93
       13
 10
-4811.542289458877
 20
-8568.920671062958
 10
-4839.175081521887
 20
-8568.92067106296
 10
-4839.175081521887
 20
-8570.096599304154
 10
-4839.876080604332
 20
-8570.426588469279
 10
-4841.088471737053
 20
-8571.326310309514
 10
-4842.027391185638
 20
-8572.509531128753
 10
-4842.628117317803
 20
-8573.895120994263
 10
-4842.850540950869
 20
-8575.388276388625
 10
-4842.850540950869
 20
-8580.24503663659
 10
-4842.191474194408
 20
-8580.466645559758
 10
-4841.821375850883
 20
-8580.680865045543
 10
-4842.06118186691
 20
-8580.920671062957
 10
-4811.542289458877
 20
-8580.920671062957
 97
        0
 92
        7
 72
     0
 73
     1
 93
       16
 10
-4648.948105655512
 20
-8579.133926886758
 10
-4648.289038899052
 20
-8579.355535809929
 10
-4648.289038899052
 20
-8575.388276388624
 10
-4648.353760531335
 20
-8574.617086239964
 10
-4648.773083778349
 20
-8573.165863170256
 10
-4649.553389648081
 20
-8571.873253677521
 10
-4650.641806950432
 20
-8570.8258571279
 10
-4651.964498332312
 20
-8570.096599304154
 10
-4651.964498332312
 20
-8568.920671062958
 10
-4706.31003517413
 20
-8568.920671062958
 10
-4706.31003517413
 20
-8580.920671062957
 10
-4705.492917726515
 20
-8580.920671062957
 10
-4648.289038899052
 20
-8580.920671062957
 10
-4648.289038899052
 20
-8579.939853641151
 10
-4648.948105655512
 20
-8579.718244717941
 10
-4649.318204003317
 20
-8579.50493680461
 97
        0
 92
        7
 72
     1
 73
     1
 93
       18
 10
-4597.940190054433
 20
-8568.920671062958
 42
0.0
 10
-4641.96819671059
 20
-8568.920671062958
 42
0.0
 10
-4641.96819671059
 20
-8570.096599304154
 42
0.0
 10
-4642.669195793034
 20
-8570.426588469279
 42
0.0
 10
-4643.881586925754
 20
-8571.326310309514
 42
0.0
 10
-4644.82050637434
 20
-8572.509531128753
 42
0.0
 10
-4645.421232506506
 20
-8573.895120994263
 42
0.0
 10
-4645.643656139571
 20
-8575.388276388624
 42
0.0
 10
-4645.643656139571
 20
-8580.24503663659
 42
0.0
 10
-4644.984589383109
 20
-8580.466645559759
 42
0.0
 10
-4644.614491039585
 20
-8580.680865045543
 42
0.0
 10
-4644.854297055611
 20
-8580.920671062957
 42
0.0
 10
-4636.539022087534
 20
-8580.920671062957
 42
0.0
 10
-4636.539022087534
 20
-8576.549307793868
 42
-1.0
 10
-4636.539022087535
 20
-8574.049307793869
 42
-1.0
 10
-4636.539022087534
 20
-8576.549307793868
 42
0.0
 10
-4636.539022087534
 20
-8580.920671062957
 42
0.0
 10
-4597.940190054433
 20
-8580.920671062957
 42
0.0
 97
        0
 92
        7
 72
     0
 73
     1
 93
       15
 10
-4548.289038899052
 20
-8575.388276388627
 10
-4548.353760531336
 20
-8574.61708623996
 10
-4548.773083778349
 20
-8573.165863170254
 10
-4549.55338964808
 20
-8571.873253677525
 10
-4550.641806950433
 20
-8570.8258571279
 10
-4551.964498332313
 20
-8570.096599304154
 10
-4551.964498332312
 20
-8568.920671062958
 10
-4597.940190054433
 20
-8568.92067106296
 10
-4597.940190054433
 20
-8580.920671062957
 10
-4548.289038899052
 20
-8580.920671062957
 10
-4548.289038899052
 20
-8579.939853641151
 10
-4548.948105655512
 20
-8579.718244717941
 10
-4549.318204003316
 20
-8579.50493680461
 10
-4548.948105655511
 20
-8579.133926886758
 10
-4548.289038899052
 20
-8579.355535809925
 97
        0
 92
        7
 72
     0
 73
     1
 93
       13
 10
-4390.424106528334
 20
-8568.920671062958
 10
-4541.96819671059
 20
-8568.920671062958
 10
-4541.96819671059
 20
-8570.096599304154
 10
-4542.669195793034
 20
-8570.426588469279
 10
-4543.881586925755
 20
-8571.326310309514
 10
-4544.820506374341
 20
-8572.509531128753
 10
-4545.421232506505
 20
-8573.895120994263
 10
-4545.643656139571
 20
-8575.388276388624
 10
-4545.643656139571
 20
-8580.24503663659
 10
-4544.984589383112
 20
-8580.466645559758
 10
-4544.614491039585
 20
-8580.680865045543
 10
-4544.854297055612
 20
-8580.920671062957
 10
-4390.424106528334
 20
-8580.920671062957
 97
        0
 75
     0
 76
     1
 52
90.0
 41
1.0
 77
     0
 78
     1
 53
135.0
 43
-6651.636702215345
 44
-10608.3380709634
 45
-2.245064030267288
 46
-2.245064030267287
 79
     0
 47
0.7898775701156462
 98
        6
 10
-4868.751410929047
 20
-8573.099882009143
 10
-4823.703800594604
 20
-8575.469522697009
 10
-4660.109869741789
 20
-8579.418894529734
 10
-4611.110694046403
 20
-8576.259388269436
 10
-4568.434044272183
 20
-8577.049275827155
 10
-4527.337963725908
 20
-8575.469522697009
  0
HATCH
  5
1677
330
1F
100
AcDbEntity
  8
CETRIS
370
    20
100
AcDbHatch
 10
0.0
 20
0.0
 30
0.0
210
0.0
220
0.0
230
1.0
  2
ANSI31
 70
     0
 71
     0
 91
        5
 92
        7
 72
     0
 73
     1
 93
       23
 10
-4390.424106528334
 20
-8580.920671062957
 10
-4544.854297055612
 20
-8580.920671062957
 10
-4544.984589383111
 20
-8581.050963391211
 10
-4545.37207983669
 20
-8580.920671062957
 10
-4545.643656139571
 20
-8580.920671062957
 10
-4545.64365613957
 20
-8583.302601642675
 10
-4544.984589383111
 20
-8583.524058986611
 10
-4544.614491039585
 20
-8583.738278472399
 10
-4544.984589383111
 20
-8584.108376817793
 10
-4545.643656139571
 20
-8583.886919473901
 10
-4545.643656139571
 20
-8586.360775062219
 10
-4544.984589383113
 20
-8586.582383985389
 10
-4544.614491039585
 20
-8586.795691898981
 10
-4544.984589383111
 20
-8587.166701816833
 10
-4545.643656139571
 20
-8586.945092893666
 10
-4545.643656139571
 20
-8589.41818848903
 10
-4544.984589383111
 20
-8589.639797412244
 10
-4544.614491039585
 20
-8589.853105325572
 10
-4544.984589383111
 20
-8590.224115243424
 10
-4545.64365613957
 20
-8590.002506320253
 10
-4545.64365613957
 20
-8592.654139049615
 10
-4544.577528086201
 20
-8592.920671062957
 10
-4390.424106528334
 20
-8592.920671062957
 97
        0
 92
        7
 72
     1
 73
     1
 93
       29
 10
-4548.289038899052
 20
-8586.055592067003
 42
0.0
 10
-4548.948105655512
 20
-8585.833983143833
 42
0.0
 10
-4549.318204003316
 20
-8585.619763658048
 42
0.0
 10
-4548.948105655512
 20
-8585.249665312382
 42
0.0
 10
-4548.289038899052
 20
-8585.471274235551
 42
0.0
 10
-4548.289038899052
 20
-8582.998027060874
 42
0.0
 10
-4548.948105655511
 20
-8582.776569716981
 42
0.0
 10
-4549.318204003316
 20
-8582.562350231194
 42
0.0
 10
-4548.948105655512
 20
-8582.192251885528
 42
0.0
 10
-4548.289038899052
 20
-8582.413709229467
 42
0.0
 10
-4548.289038899052
 20
-8580.920671062957
 42
0.0
 10
-4636.539022087534
 20
-8580.920671062957
 42
0.0
 10
-4636.539022087534
 20
-8592.920671062959
 42
0.0
 10
-4591.477904734973
 20
-8592.920671062959
 42
0.0
 10
-4591.477904734973
 20
-8587.623850235949
 42
-1.0
 10
-4591.477904734974
 20
-8585.12385023595
 42
-1.0
 10
-4591.477904734973
 20
-8587.623850235949
 42
0.0
 10
-4591.477904734973
 20
-8592.920671062959
 42
0.0
 10
-4548.289038899052
 20
-8592.920671062959
 42
0.0
 10
-4548.289038899052
 20
-8592.170418920218
 42
0.0
 10
-4548.948105655514
 20
-8591.948809997004
 42
0.0
 10
-4549.318204003316
 20
-8591.735502083677
 42
0.0
 10
-4548.948105655512
 20
-8591.364492165554
 42
0.0
 10
-4548.289038899052
 20
-8591.58610108877
 42
0.0
 10
-4548.289038899052
 20
-8589.113005493585
 42
0.0
 10
-4548.948105655514
 20
-8588.891396570415
 42
0.0
 10
-4549.318204003316
 20
-8588.677177084639
 42
0.0
 10
-4548.948105655512
 20
-8588.307078738971
 42
0.0
 10
-4548.289038899052
 20
-8588.528687662185
 42
0.0
 97
        0
 92
        7
 72
     0
 73
     1
 93
       24
 10
-4648.289038899052
 20
-8582.998027060874
 10
-4648.948105655512
 20
-8582.77656971698
 10
-4649.318204003317
 20
-8582.562350231194
 10
-4648.948105655512
 20
-8582.192251885528
 10
-4648.289038899052
 20
-8582.413709229467
 10
-4648.289038899052
 20
-8580.920671062957
 10
-4706.31003517413
 20
-8580.920671062957
 10
-4706.31003517413
 20
-8592.920671062959
 10
-4648.289038899052
 20
-8592.920671062959
 10
-4648.289038899052
 20
-8592.170418920218
 10
-4648.948105655514
 20
-8591.948809997004
 10
-4649.318204003317
 20
-8591.735502083677
 10
-4648.948105655512
 20
-8591.364492165554
 10
-4648.289038899052
 20
-8591.586101088768
 10
-4648.289038899052
 20
-8589.113005493585
 10
-4648.948105655511
 20
-8588.891396570415
 10
-4649.318204003317
 20
-8588.677177084639
 10
-4648.948105655512
 20
-8588.307078738971
 10
-4648.289038899052
 20
-8588.528687662186
 10
-4648.289038899052
 20
-8586.055592067003
 10
-4648.948105655511
 20
-8585.833983143833
 10
-4649.318204003317
 20
-8585.619763658048
 10
-4648.948105655512
 20
-8585.249665312382
 10
-4648.289038899052
 20
-8585.471274235551
 97
        0
 92
        7
 72
     0
 73
     1
 93
       23
 10
-4811.542289458877
 20
-8580.920671062957
 10
-4842.061181866909
 20
-8580.920671062957
 10
-4842.191474194409
 20
-8581.050963391211
 10
-4842.578964647987
 20
-8580.920671062957
 10
-4842.850540950869
 20
-8580.920671062957
 10
-4842.850540950869
 20
-8583.302601642675
 10
-4842.191474194409
 20
-8583.524058986611
 10
-4841.821375850883
 20
-8583.738278472399
 10
-4842.191474194409
 20
-8584.108376817793
 10
-4842.850540950869
 20
-8583.886919473901
 10
-4842.850540950869
 20
-8586.360775062219
 10
-4842.191474194409
 20
-8586.582383985389
 10
-4841.821375850883
 20
-8586.795691898981
 10
-4842.191474194409
 20
-8587.166701816833
 10
-4842.850540950869
 20
-8586.945092893666
 10
-4842.850540950869
 20
-8589.41818848903
 10
-4842.191474194408
 20
-8589.639797412244
 10
-4841.821375850883
 20
-8589.853105325572
 10
-4842.191474194409
 20
-8590.224115243424
 10
-4842.850540950869
 20
-8590.002506320253
 10
-4842.850540950869
 20
-8592.654139049615
 10
-4841.784412897498
 20
-8592.920671062957
 10
-4811.542289458877
 20
-8592.920671062959
 97
        0
 92
        7
 72
     0
 73
     1
 93
       24
 10
-4845.49592371035
 20
-8586.055592067001
 10
-4846.154990466809
 20
-8585.833983143833
 10
-4846.525088814615
 20
-8585.619763658048
 10
-4846.154990466811
 20
-8585.249665312382
 10
-4845.49592371035
 20
-8585.471274235551
 10
-4845.49592371035
 20
-8582.998027060874
 10
-4846.154990466811
 20
-8582.77656971698
 10
-4846.525088814615
 20
-8582.562350231194
 10
-4846.154990466811
 20
-8582.192251885528
 10
-4845.49592371035
 20
-8582.413709229467
 10
-4845.49592371035
 20
-8580.920671062957
 10
-4909.155143042615
 20
-8580.920671062957
 10
-4909.155143042615
 20
-8592.920671062959
 10
-4845.49592371035
 20
-8592.920671062959
 10
-4845.495923710349
 20
-8592.170418920218
 10
-4846.154990466811
 20
-8591.948809997008
 10
-4846.525088814615
 20
-8591.735502083677
 10
-4846.154990466811
 20
-8591.364492165554
 10
-4845.49592371035
 20
-8591.586101088768
 10
-4845.49592371035
 20
-8589.113005493585
 10
-4846.154990466811
 20
-8588.891396570415
 10
-4846.525088814615
 20
-8588.677177084639
 10
-4846.154990466811
 20
-8588.307078738971
 10
-4845.49592371035
 20
-8588.528687662186
 97
        0
 75
     0
 76
     1
 52
0.0
 41
1.0
 77
     0
 78
     1
 53
45.0
 43
-6651.636702215345
 44
-10608.3380709634
 45
-2.245064030267287
 46
2.245064030267288
 79
     0
 47
0.5687377918710887
 98
        5
 10
-4502.641356102626
 20
-8586.332147497817
 10
-4556.131913913408
 20
-8586.900885007024
 10
-4659.69868411643
 20
-8585.194672479413
 10
-4828.706043231306
 20
-8587.469622516223
 10
-4862.848963825241
 20
-8587.469622516223
  0
LINE
  5
1678
330
1F
100
AcDbEntity
  8
STAVBA OBRYS
100
AcDbLine
 10
-4784.54228945888
 20
-8638.521076533594
 30
0.0
 11
-4784.54228945888
 21
-8308.204965117722
 31
0.0
  0
LINE
  5
1679
330
1F
100
AcDbEntity
  8
STAVBA OBRYS
100
AcDbLine
 10
-4796.542289458877
 20
-8638.521076533594
 30
0.0
 11
-4796.542289458877
 21
-8310.415126396021
 31
0.0
  0
LINE
  5
167A
330
1F
100
AcDbEntity
  8
STAVBA OBRYS
100
AcDbLine
 10
-4733.31003517413
 20
-8638.521076533594
 30
0.0
 11
-4733.31003517413
 21
-8298.769003066043
 31
0.0
  0
LINE
  5
167B
330
1F
100
AcDbEntity
  8
STAVBA OBRYS
100
AcDbLine
 10
-4739.400596529503
 20
-8637.968815600347
 30
0.0
 11
-4739.400596529507
 21
-8299.890763305274
 31
0.0
  0
LINE
  5
167C
330
1F
100
AcDbEntity
  8
STAVBA OBRYS
100
AcDbLine
 10
-4778.754252970052
 20
-8637.968815600347
 30
0.0
 11
-4778.754252970059
 21
-8307.138923940641
 31
0.0
  0
LINE
  5
167D
330
1F
100
AcDbEntity
  8
izolace
  6
IZOLACE
 48
1.5
370
    20
100
AcDbLine
 10
-4758.785040585888
 20
-8636.279636497784
 30
0.0
 11
-4758.785040585888
 21
-8303.460992276505
 31
0.0
  0
LINE
  5
167E
330
1F
100
AcDbEntity
  8
SPOJOVACÍ
  6
DASHED
100
AcDbLine
 10
-4845.979968589647
 20
-8573.165863170254
 30
0.0
 11
-4845.560645342633
 21
-8574.617086239964
 31
0.0
  0
LINE
  5
167F
330
1F
100
AcDbEntity
  8
SPOJOVACÍ
  6
DASHED
100
AcDbLine
 10
-4842.628117317803
 20
-8573.895120994263
 30
0.0
 11
-4842.027391185638
 21
-8572.509531128753
 31
0.0
  0
LINE
  5
1680
330
1F
100
AcDbEntity
  8
STAVBA OBRYS
  6
DASHED
100
AcDbLine
 10
-4774.73597983599
 20
-8637.968815600347
 30
0.0
 11
-4774.735979835997
 21
-8307.138923940641
 31
0.0
  0
LINE
  5
1681
330
1F
100
AcDbEntity
  8
STAVBA OBRYS
  6
DASHED
100
AcDbLine
 10
-4769.225844777509
 20
-8637.968815600347
 30
0.0
 11
-4769.225844777516
 21
-8307.138923940641
 31
0.0
  0
LINE
  5
1682
330
1F
100
AcDbEntity
  8
STAVBA OBRYS
  6
DASHED
100
AcDbLine
 10
-4748.344236394267
 20
-8637.968815600347
 30
0.0
 11
-4748.344236394252
 21
-8301.538003848282
 31
0.0
  0
LINE
  5
1683
330
1F
100
AcDbEntity
  8
STAVBA OBRYS
  6
DASHED
100
AcDbLine
 10
-4743.410246109234
 20
-8637.968815600347
 30
0.0
 11
-4743.410246109219
 21
-8301.040454314261
 31
0.0
  0
LINE
  5
1684
330
1F
100
AcDbEntity
  8
CETRIS
100
AcDbLine
 10
-4811.542289458877
 20
-8592.920671062957
 30
0.0
 11
-4811.542289458877
 21
-8568.920671062958
 31
0.0
  0
LWPOLYLINE
  5
1685
330
1F
100
AcDbEntity
  8
izolace
100
AcDbPolyline
 90
        4
 70
     1
 43
0.0
 10
-4796.542289458877
 20
-8568.920671062958
 10
-4811.542289458877
 20
-8568.920671062958
 10
-4811.542289458877
 20
-8622.920671062958
 10
-4796.497837816041
 20
-8622.920671062958
  0
LINE
  5
1686
330
1F
100
AcDbEntity
  8
izolace
  6
IZOLACE
 48
0.7
370
    20
100
AcDbLine
 10
-4804.042289458877
 20
-8622.920671062958
 30
0.0
 11
-4804.042289458877
 21
-8568.920671062958
 31
0.0
  0
LINE
  5
1687
330
1F
100
AcDbEntity
  8
STAVBA OBRYS
100
AcDbLine
 10
-4818.015253008918
 20
-8598.160529441344
 30
0.0
 11
-4830.797620821356
 21
-8618.543155538079
 31
0.0
  0
LINE
  5
1688
330
1F
100
AcDbEntity
  8
STAVBA OBRYS
100
AcDbLine
 10
-4836.697176171611
 20
-8618.297582140284
 30
0.0
 11
-4821.210844962028
 21
-8619.034303398661
 31
0.0
  0
LINE
  5
1689
330
1F
100
AcDbEntity
  8
STAVBA OBRYS
100
AcDbLine
 10
-4847.267211255982
 20
-8596.441512461803
 30
0.0
 11
-4820.473402128081
 21
-8596.687086924587
 31
0.0
  0
LINE
  5
168A
330
1F
100
AcDbEntity
  8
STAVBA OBRYS
100
AcDbLine
 10
-4833.993212774466
 20
-8599.388398560302
 30
0.0
 11
-4811.542289458877
 21
-8600.111911848131
 31
0.0
  0
LINE
  5
168B
330
1F
100
AcDbEntity
  8
STAVBA OBRYS
100
AcDbLine
 10
-4837.926249674635
 20
-8603.072005917182
 30
0.0
 11
-4818.015253008918
 21
-8603.563153777763
 31
0.0
  0
LINE
  5
168C
330
1F
100
AcDbEntity
  8
STAVBA OBRYS
100
AcDbLine
 10
-4834.484843443544
 20
-8605.773317552895
 30
0.0
 11
-4817.523624452954
 21
-8607.001186671855
 31
0.0
  0
LINE
  5
168D
330
1F
100
AcDbEntity
  8
STAVBA OBRYS
100
AcDbLine
 10
-4850.954431765054
 20
-8611.42151528711
 30
0.0
 11
-4829.076918762368
 21
-8610.19364616815
 31
0.0
  0
LINE
  5
168E
330
1F
100
AcDbEntity
  8
STAVBA OBRYS
100
AcDbLine
 10
-4844.317433580854
 20
-8613.631680127232
 30
0.0
 11
-4826.12714108724
 21
-8613.631680127232
 31
0.0
  0
LINE
  5
168F
330
1F
100
AcDbEntity
  8
SPOJOVACÍ
  6
DASHED
100
AcDbLine
 10
-4836.012505048522
 20
-8582.096599304154
 30
0.0
 11
-4826.016203426799
 21
-8582.096599304154
 31
0.0
  0
LINE
  5
1690
330
1F
100
AcDbEntity
  8
SPOJOVACÍ
  6
DASHED
100
AcDbLine
 10
-4836.012505048522
 20
-8580.920671062957
 30
0.0
 11
-4826.016203426799
 21
-8580.920671062957
 31
0.0
  0
LINE
  5
1691
330
1F
100
AcDbEntity
  8
SPOJOVACÍ
  6
DASHED
100
AcDbLine
 10
-4832.996112371723
 20
-8603.364492165553
 30
0.0
 11
-4829.032596099321
 21
-8604.697210838827
 31
0.0
  0
LINE
  5
1692
330
1F
100
AcDbEntity
  8
SPOJOVACÍ
  6
DASHED
100
AcDbLine
 10
-4832.996112371723
 20
-8600.307078738971
 30
0.0
 11
-4829.032596099321
 21
-8601.639797412243
 31
0.0
  0
LINE
  5
1693
330
1F
100
AcDbEntity
  8
SPOJOVACÍ
  6
DASHED
100
AcDbLine
 10
-4832.996112371723
 20
-8600.891396570416
 30
0.0
 11
-4829.032596099321
 21
-8602.224115243423
 31
0.0
  0
LINE
  5
1694
330
1F
100
AcDbEntity
  8
SPOJOVACÍ
  6
DASHED
100
AcDbLine
 10
-4833.366210719526
 20
-8600.677177084637
 30
0.0
 11
-4828.662497755795
 21
-8601.85310532557
 31
0.0
  0
LINE
  5
1695
330
1F
100
AcDbEntity
  8
SPOJOVACÍ
  6
DASHED
100
AcDbLine
 10
-4832.996112371723
 20
-8597.24966531238
 30
0.0
 11
-4829.032596099321
 21
-8598.582383985389
 31
0.0
  0
LINE
  5
1696
330
1F
100
AcDbEntity
  8
SPOJOVACÍ
  6
DASHED
100
AcDbLine
 10
-4832.996112371723
 20
-8597.833983143834
 30
0.0
 11
-4829.032596099321
 21
-8599.166701816834
 31
0.0
  0
LINE
  5
1697
330
1F
100
AcDbEntity
  8
SPOJOVACÍ
  6
DASHED
100
AcDbLine
 10
-4833.366210719526
 20
-8597.619763658048
 30
0.0
 11
-4828.662497755795
 21
-8598.795691898981
 31
0.0
  0
LINE
  5
1698
330
1F
100
AcDbEntity
  8
SPOJOVACÍ
  6
DASHED
100
AcDbLine
 10
-4832.996112371723
 20
-8594.192251885528
 30
0.0
 11
-4829.032596099321
 21
-8595.524058986612
 31
0.0
  0
LINE
  5
1699
330
1F
100
AcDbEntity
  8
SPOJOVACÍ
  6
DASHED
100
AcDbLine
 10
-4832.996112371723
 20
-8594.77656971698
 30
0.0
 11
-4829.032596099321
 21
-8596.108376817793
 31
0.0
  0
LINE
  5
169A
330
1F
100
AcDbEntity
  8
SPOJOVACÍ
  6
DASHED
100
AcDbLine
 10
-4833.366210719526
 20
-8594.562350231193
 30
0.0
 11
-4828.662497755795
 21
-8595.738278472397
 31
0.0
  0
LINE
  5
169B
330
1F
100
AcDbEntity
  8
SPOJOVACÍ
  6
DASHED
100
AcDbLine
 10
-4832.996112371723
 20
-8591.133926886758
 30
0.0
 11
-4829.032596099321
 21
-8592.466645559758
 31
0.0
  0
LINE
  5
169C
330
1F
100
AcDbEntity
  8
SPOJOVACÍ
  6
DASHED
100
AcDbLine
 10
-4832.996112371723
 20
-8591.718244717938
 30
0.0
 11
-4829.032596099321
 21
-8593.05096339121
 31
0.0
  0
LINE
  5
169D
330
1F
100
AcDbEntity
  8
SPOJOVACÍ
  6
DASHED
100
AcDbLine
 10
-4833.366210719526
 20
-8591.504936804611
 30
0.0
 11
-4828.662497755795
 21
-8592.680865045544
 31
0.0
  0
LINE
  5
169E
330
1F
100
AcDbEntity
  8
SPOJOVACÍ
  6
DASHED
100
AcDbLine
 10
-4832.996112371723
 20
-8603.948809997005
 30
0.0
 11
-4829.032596099321
 21
-8605.281528670277
 31
0.0
  0
LINE
  5
169F
330
1F
100
AcDbEntity
  8
SPOJOVACÍ
  6
DASHED
100
AcDbLine
 10
-4833.366210719526
 20
-8603.735502083678
 30
0.0
 11
-4828.662497755795
 21
-8604.911430324611
 31
0.0
  0
LINE
  5
16A0
330
1F
100
AcDbEntity
  8
SPOJOVACÍ
  6
DASHED
100
AcDbLine
 10
-4832.746341567676
 20
-8606.38088483968
 30
0.0
 11
-4829.444626768832
 21
-8607.491179876678
 31
0.0
  0
LINE
  5
16A1
330
1F
100
AcDbEntity
  8
SPOJOVACÍ
  6
DASHED
100
AcDbLine
 10
-4830.264130251729
 20
-8609.970656477935
 30
0.0
 11
-4830.002509005499
 21
-8607.876774951138
 31
0.0
  0
LINE
  5
16A2
330
1F
100
AcDbEntity
  8
SPOJOVACÍ
  6
DASHED
100
AcDbLine
 10
-4832.010702736749
 20
-8612.658883131311
 30
0.0
 11
-4829.899501338121
 21
-8612.963348272769
 31
0.0
  0
LINE
  5
16A3
330
1F
100
AcDbEntity
  8
SPOJOVACÍ
  6
DASHED
100
AcDbLine
 10
-4829.899501338121
 20
-8612.963348272769
 30
0.0
 11
-4830.269599681647
 21
-8612.750040359179
 31
0.0
  0
LINE
  5
16A4
330
1F
100
AcDbEntity
  8
SPOJOVACÍ
  6
DASHED
100
AcDbLine
 10
-4829.899501338121
 20
-8612.963348272769
 30
0.0
 11
-4830.269599681647
 21
-8613.334358190623
 31
0.0
  0
LINE
  5
16A5
330
1F
100
AcDbEntity
  8
SPOJOVACÍ
  6
DASHED
100
AcDbLine
 10
-4832.564027113011
 20
-8609.705388944558
 30
0.0
 11
-4829.510259974908
 21
-8610.326169666993
 31
0.0
  0
LINE
  5
16A6
330
1F
100
AcDbEntity
  8
SPOJOVACÍ
  6
DASHED
100
AcDbLine
 10
-4832.193928765206
 20
-8609.334379026433
 30
0.0
 11
-4829.880358318434
 21
-8610.112861753666
 31
0.0
  0
LINE
  5
16A7
330
1F
100
AcDbEntity
  8
SPOJOVACÍ
  6
DASHED
100
AcDbLine
 10
-4832.193928765206
 20
-8609.918696857885
 30
0.0
 11
-4829.880358318434
 21
-8610.697179584846
 31
0.0
  0
LINE
  5
16A8
330
1F
100
AcDbEntity
  8
SPOJOVACÍ
  6
DASHED
100
AcDbLine
 10
-4833.117351484994
 20
-8606.750983185346
 30
0.0
 11
-4829.074528425306
 21
-8607.704487790005
 31
0.0
  0
LINE
  5
16A9
330
1F
100
AcDbEntity
  8
SPOJOVACÍ
  6
DASHED
100
AcDbLine
 10
-4832.746341567676
 20
-8606.965202671132
 30
0.0
 11
-4829.444626768832
 21
-8608.075497708128
 31
0.0
  0
LINE
  5
16AA
330
1F
100
AcDbEntity
  8
izolace
  6
IZOLACE
100
AcDbLine
 10
-4876.497837816041
 20
-8632.920671062958
 30
0.0
 11
-4796.542289458877
 21
-8632.920671062958
 31
0.0
  0
LWPOLYLINE
  5
16AB
330
1F
100
AcDbEntity
  8
0
100
AcDbPolyline
 90
        4
 70
     1
 43
0.0
 10
-4876.497837816041
 20
-8622.920671062958
 10
-4811.542289458877
 20
-8622.920671062958
 10
-4811.542289458877
 20
-8592.920671062959
 10
-4876.497837816041
 20
-8592.920671062959
  0
LINE
  5
16AC
330
1F
100
AcDbEntity
  8
CETRIS
100
AcDbLine
 10
-4909.155143042615
 20
-8592.920671062957
 30
0.0
 11
-4811.542289458877
 21
-8592.920671062959
 31
0.0
  0
LINE
  5
16AD
330
1F
100
AcDbEntity
  8
CETRIS
100
AcDbLine
 10
-4909.155143042615
 20
-8580.920671062957
 30
0.0
 11
-4811.542289458877
 21
-8580.920671062957
 31
0.0
  0
LINE
  5
16AE
330
1F
100
AcDbEntity
  8
izolace
  6
IZOLACE
 48
2.399999999999999
370
    20
100
AcDbLine
 10
-4909.155143042615
 20
-8617.920671062957
 30
0.0
 11
-4876.497837816041
 21
-8617.920671062957
 31
0.0
  0
HATCH
  5
16AF
330
1F
100
AcDbEntity
  8
izolace
100
AcDbHatch
 10
0.0
 20
0.0
 30
0.0
210
0.0
220
0.0
230
1.0
  2
SOLID
 70
     1
 71
     0
 91
        1
 92
        7
 72
     0
 73
     1
 93
        4
 10
-4885.51341033278
 20
-8642.920671062958
 10
-4909.155143042611
 20
-8642.920671062958
 10
-4909.155143042615
 20
-8645.920671062958
 10
-4885.513410332777
 20
-8645.920671062958
 97
        0
 75
     0
 76
     1
 47
0.1901250437635136
 98
        3
 10
-4857.269920068593
 20
-8644.688115992344
 10
-4893.606110895933
 20
-8644.878242668006
 10
-4897.601183085161
 20
-8644.307862641023
  0
LWPOLYLINE
  5
16B0
330
1F
100
AcDbEntity
  8
izolace
100
AcDbPolyline
 90
        4
 70
     1
 43
0.0
 10
-4885.51341033278
 20
-8642.920671062958
 10
-4909.155143042615
 20
-8642.920671062958
 10
-4909.155143042615
 20
-8645.920671062958
 10
-4885.51341033278
 20
-8645.920671062958
  0
LINE
  5
16B1
330
1F
100
AcDbEntity
  8
STAVBA OBRYS
100
AcDbLine
 10
-4853.904209440182
 20
-8598.651677301925
 30
0.0
 11
-4839.646953846737
 21
-8618.297582140284
 31
0.0
  0
LINE
  5
16B2
330
1F
100
AcDbEntity
  8
STAVBA OBRYS
100
AcDbLine
 10
-4871.35705909985
 20
-8603.808727175557
 30
0.0
 11
-4858.820505565394
 21
-8617.806434279703
 31
0.0
  0
LINE
  5
16B3
330
1F
100
AcDbEntity
  8
STAVBA OBRYS
100
AcDbLine
 10
-4862.261911796486
 20
-8617.560860881907
 30
0.0
 11
-4844.317433580854
 21
-8613.631680127232
 31
0.0
  0
LINE
  5
16B4
330
1F
100
AcDbEntity
  8
STAVBA OBRYS
100
AcDbLine
 10
-4858.328874896316
 20
-8622.472336292752
 30
0.0
 11
-4847.021396977999
 21
-8619.525451259244
 31
0.0
  0
HATCH
  5
16B5
330
1F
100
AcDbEntity
  8
izolace
100
AcDbHatch
 10
0.0
 20
0.0
 30
0.0
210
0.0
220
0.0
230
1.0
  2
SOLID
 70
     1
 71
     0
 91
        1
 92
        7
 72
     0
 73
     1
 93
        4
 10
-4838.229944913106
 20
-8642.920671062958
 10
-4861.871677622941
 20
-8642.920671062958
 10
-4861.871677622945
 20
-8645.920671062958
 10
-4838.229944913106
 20
-8645.920671062958
 97
        0
 75
     0
 76
     1
 47
0.1901250437635136
 98
        1
 10
-4852.513882864601
 20
-8643.737482614037
  0
LWPOLYLINE
  5
16B6
330
1F
100
AcDbEntity
  8
izolace
100
AcDbPolyline
 90
        4
 70
     1
 43
0.0
 10
-4838.229944913109
 20
-8642.920671062958
 10
-4861.871677622945
 20
-8642.920671062958
 10
-4861.871677622945
 20
-8645.920671062958
 10
-4838.229944913109
 20
-8645.920671062958
  0
LINE
  5
16B7
330
1F
100
AcDbEntity
  8
0
100
AcDbLine
 10
-4876.497837816041
 20
-8622.920671062958
 30
0.0
 11
-4876.497837816041
 21
-8642.920671062958
 31
0.0
  0
LINE
  5
16B8
330
1F
100
AcDbEntity
  8
STAVBA OBRYS
100
AcDbLine
 10
-4873.323577549935
 20
-8622.472336292752
 30
0.0
 11
-4862.261911796486
 21
-8617.560860881907
 31
0.0
  0
LINE
  5
16B9
330
1F
100
AcDbEntity
  8
STAVBA OBRYS
100
AcDbLine
 10
-4847.021396977999
 20
-8619.525451259244
 30
0.0
 11
-4836.697176171611
 21
-8618.297582140284
 31
0.0
  0
LINE
  5
16BA
330
1F
100
AcDbEntity
  8
STAVBA OBRYS
100
AcDbLine
 10
-4876.519169503044
 20
-8597.178234785172
 30
0.0
 11
-4847.267211255982
 21
-8596.441512461803
 31
0.0
  0
LINE
  5
16BB
330
1F
100
AcDbEntity
  8
STAVBA OBRYS
100
AcDbLine
 10
-4876.273355225061
 20
-8602.089710196016
 30
0.0
 11
-4851.691876712115
 21
-8600.125119818681
 31
0.0
  0
LINE
  5
16BC
330
1F
100
AcDbEntity
  8
STAVBA OBRYS
100
AcDbLine
 10
-4876.273355225061
 20
-8605.282169692314
 30
0.0
 11
-4851.937690990098
 21
-8603.808727175557
 31
0.0
  0
LINE
  5
16BD
330
1F
100
AcDbEntity
  8
STAVBA OBRYS
100
AcDbLine
 10
-4876.764983781026
 20
-8611.42151528711
 30
0.0
 11
-4849.72535826203
 21
-8607.492334532436
 31
0.0
  0
LINE
  5
16BE
330
1F
100
AcDbEntity
  8
STAVBA OBRYS
100
AcDbLine
 10
-4876.519169503044
 20
-8616.08741730016
 30
0.0
 11
-4850.954431765054
 21
-8611.42151528711
 31
0.0
  0
LINE
  5
16BF
330
1F
100
AcDbEntity
  8
SPOJOVACÍ
  6
DASHED
100
AcDbLine
 10
-4832.337045615262
 20
-8594.988966058119
 30
0.0
 11
-4832.337045615262
 21
-8597.459326936695
 31
0.0
  0
LINE
  5
16C0
330
1F
100
AcDbEntity
  8
SPOJOVACÍ
  6
DASHED
100
AcDbLine
 10
-4846.276229580082
 20
-8594.750983185347
 30
0.0
 11
-4842.233406520394
 21
-8595.704487790005
 31
0.0
  0
LINE
  5
16C1
330
1F
100
AcDbEntity
  8
SPOJOVACÍ
  6
DASHED
100
AcDbLine
 10
-4845.905219662764
 20
-8594.965202671131
 30
0.0
 11
-4842.60350486392
 21
-8596.075497708129
 31
0.0
  0
LINE
  5
16C2
330
1F
100
AcDbEntity
  8
SPOJOVACÍ
  6
DASHED
100
AcDbLine
 10
-4842.233406520394
 20
-8595.704487790005
 30
0.0
 11
-4842.60350486392
 21
-8595.491179876677
 31
0.0
  0
LINE
  5
16C3
330
1F
100
AcDbEntity
  8
SPOJOVACÍ
  6
DASHED
100
AcDbLine
 10
-4845.273500073006
 20
-8595.1675717174
 30
0.0
 11
-4844.989089520478
 21
-8597.442856127743
 31
0.0
  0
LINE
  5
16C4
330
1F
100
AcDbEntity
  8
STAVBA OBRYS
100
AcDbLine
 10
-4851.691876712115
 20
-8600.125119818681
 30
0.0
 11
-4833.993212774466
 21
-8599.388398560302
 31
0.0
  0
LINE
  5
16C5
330
1F
100
AcDbEntity
  8
STAVBA OBRYS
100
AcDbLine
 10
-4851.937690990098
 20
-8603.808727175557
 30
0.0
 11
-4837.926249674635
 21
-8603.072005917182
 31
0.0
  0
LINE
  5
16C6
330
1F
100
AcDbEntity
  8
STAVBA OBRYS
100
AcDbLine
 10
-4849.72535826203
 20
-8607.492334532436
 30
0.0
 11
-4834.484843443544
 21
-8605.773317552895
 31
0.0
  0
LINE
  5
16C7
330
1F
100
AcDbEntity
  8
SPOJOVACÍ
  6
DASHED
100
AcDbLine
 10
-4845.169580831836
 20
-8600.658883131311
 30
0.0
 11
-4843.058379433209
 21
-8600.963348272768
 31
0.0
  0
LINE
  5
16C8
330
1F
100
AcDbEntity
  8
SPOJOVACÍ
  6
DASHED
100
AcDbLine
 10
-4843.058379433209
 20
-8600.963348272768
 30
0.0
 11
-4843.428477776735
 21
-8600.750040359178
 31
0.0
  0
LINE
  5
16C9
330
1F
100
AcDbEntity
  8
SPOJOVACÍ
  6
DASHED
100
AcDbLine
 10
-4843.058379433209
 20
-8600.963348272768
 30
0.0
 11
-4843.428477776735
 21
-8601.334358190623
 31
0.0
  0
LINE
  5
16CA
330
1F
100
AcDbEntity
  8
SPOJOVACÍ
  6
DASHED
100
AcDbLine
 10
-4845.722905208099
 20
-8597.705388944559
 30
0.0
 11
-4842.669138069996
 21
-8598.326169666993
 31
0.0
  0
LINE
  5
16CB
330
1F
100
AcDbEntity
  8
SPOJOVACÍ
  6
DASHED
100
AcDbLine
 10
-4845.352806860294
 20
-8597.334379026433
 30
0.0
 11
-4843.039236413522
 21
-8598.112861753666
 31
0.0
  0
LINE
  5
16CC
330
1F
100
AcDbEntity
  8
SPOJOVACÍ
  6
DASHED
100
AcDbLine
 10
-4845.352806860294
 20
-8597.918696857886
 30
0.0
 11
-4843.039236413522
 21
-8598.697179584846
 31
0.0
  0
LINE
  5
16CD
330
1F
100
AcDbEntity
  8
SPOJOVACÍ
  6
DASHED
100
AcDbLine
 10
-4843.423008346817
 20
-8597.970656477935
 30
0.0
 11
-4843.161387100586
 21
-8595.87677495114
 31
0.0
  0
LINE
  5
16CE
330
1F
100
AcDbEntity
  8
SPOJOVACÍ
  6
DASHED
100
AcDbLine
 10
-4844.799482488309
 20
-8600.288784785645
 30
0.0
 11
-4843.428477776735
 21
-8600.750040359178
 31
0.0
  0
LINE
  5
16CF
330
1F
100
AcDbEntity
  8
SPOJOVACÍ
  6
DASHED
100
AcDbLine
 10
-4844.799482488309
 20
-8600.873102617091
 30
0.0
 11
-4843.428477776735
 21
-8601.334358190623
 31
0.0
  0
LINE
  5
16D0
330
1F
100
AcDbEntity
  8
SPOJOVACÍ
  6
DASHED
100
AcDbLine
 10
-4845.169580831836
 20
-8600.658883131311
 30
0.0
 11
-4844.799482488309
 21
-8600.288784785645
 31
0.0
  0
LINE
  5
16D1
330
1F
100
AcDbEntity
  8
SPOJOVACÍ
  6
DASHED
100
AcDbLine
 10
-4845.169580831836
 20
-8600.658883131311
 30
0.0
 11
-4844.799482488309
 21
-8600.873102617091
 31
0.0
  0
LINE
  5
16D2
330
1F
100
AcDbEntity
  8
SPOJOVACÍ
  6
DASHED
100
AcDbLine
 10
-4845.722905208099
 20
-8597.705388944559
 30
0.0
 11
-4845.352806860294
 21
-8597.334379026433
 31
0.0
  0
LINE
  5
16D3
330
1F
100
AcDbEntity
  8
SPOJOVACÍ
  6
DASHED
100
AcDbLine
 10
-4845.722905208099
 20
-8597.705388944559
 30
0.0
 11
-4845.352806860294
 21
-8597.918696857886
 31
0.0
  0
LINE
  5
16D4
330
1F
100
AcDbEntity
  8
SPOJOVACÍ
  6
DASHED
100
AcDbLine
 10
-4843.755732224764
 20
-8600.63335910738
 30
0.0
 11
-4843.493199409018
 21
-8598.531273430095
 31
0.0
  0
LINE
  5
16D5
330
1F
100
AcDbEntity
  8
SPOJOVACÍ
  6
DASHED
100
AcDbLine
 10
-4844.551534827569
 20
-8600.943293682499
 30
0.0
 11
-4844.173232332749
 21
-8603.970625223949
 31
0.0
  0
LINE
  5
16D6
330
1F
100
AcDbEntity
  8
SPOJOVACÍ
  6
DASHED
100
AcDbLine
 10
-4844.911605876496
 20
-8598.060902133616
 30
0.0
 11
-4844.627195328245
 21
-8600.335274971763
 31
0.0
  0
LINE
  5
16D7
330
1F
100
AcDbEntity
  8
SPOJOVACÍ
  6
DASHED
100
AcDbLine
 10
-4844.173232332749
 20
-8603.970625223949
 30
0.0
 11
-4843.825923291242
 21
-8601.191241342705
 31
0.0
  0
LINE
  5
16D8
330
1F
100
AcDbEntity
  8
SPOJOVACÍ
  6
DASHED
100
AcDbLine
 10
-4832.337045615262
 20
-8605.386359482293
 30
0.0
 11
-4832.190282478594
 21
-8606.559553006665
 31
0.0
  0
LINE
  5
16D9
330
1F
100
AcDbEntity
  8
SPOJOVACÍ
  6
DASHED
100
AcDbLine
 10
-4833.117351484994
 20
-8606.750983185346
 30
0.0
 11
-4832.746341567676
 21
-8606.38088483968
 31
0.0
  0
LINE
  5
16DA
330
1F
100
AcDbEntity
  8
SPOJOVACÍ
  6
DASHED
100
AcDbLine
 10
-4833.117351484994
 20
-8606.750983185346
 30
0.0
 11
-4832.746341567676
 21
-8606.965202671132
 31
0.0
  0
LINE
  5
16DB
330
1F
100
AcDbEntity
  8
SPOJOVACÍ
  6
DASHED
100
AcDbLine
 10
-4831.640604393221
 20
-8612.288784785645
 30
0.0
 11
-4830.269599681647
 21
-8612.750040359179
 31
0.0
  0
LINE
  5
16DC
330
1F
100
AcDbEntity
  8
SPOJOVACÍ
  6
DASHED
100
AcDbLine
 10
-4831.640604393221
 20
-8612.87310261709
 30
0.0
 11
-4830.269599681647
 21
-8613.334358190623
 31
0.0
  0
LINE
  5
16DD
330
1F
100
AcDbEntity
  8
SPOJOVACÍ
  6
DASHED
100
AcDbLine
 10
-4832.010702736749
 20
-8612.658883131311
 30
0.0
 11
-4831.640604393221
 21
-8612.288784785645
 31
0.0
  0
LINE
  5
16DE
330
1F
100
AcDbEntity
  8
SPOJOVACÍ
  6
DASHED
100
AcDbLine
 10
-4832.010702736749
 20
-8612.658883131311
 30
0.0
 11
-4831.640604393221
 21
-8612.87310261709
 31
0.0
  0
LINE
  5
16DF
330
1F
100
AcDbEntity
  8
SPOJOVACÍ
  6
DASHED
100
AcDbLine
 10
-4832.564027113011
 20
-8609.705388944558
 30
0.0
 11
-4832.193928765206
 21
-8609.334379026433
 31
0.0
  0
LINE
  5
16E0
330
1F
100
AcDbEntity
  8
SPOJOVACÍ
  6
DASHED
100
AcDbLine
 10
-4832.564027113011
 20
-8609.705388944558
 30
0.0
 11
-4832.193928765206
 21
-8609.918696857885
 31
0.0
  0
LINE
  5
16E1
330
1F
100
AcDbEntity
  8
SPOJOVACÍ
  6
DASHED
100
AcDbLine
 10
-4830.596854129675
 20
-8612.63335910738
 30
0.0
 11
-4830.33432131393
 21
-8610.531273430096
 31
0.0
  0
LINE
  5
16E2
330
1F
100
AcDbEntity
  8
SPOJOVACÍ
  6
DASHED
100
AcDbLine
 10
-4831.392656732481
 20
-8612.9432936825
 30
0.0
 11
-4831.014354237661
 21
-8615.970625223949
 31
0.0
  0
LINE
  5
16E3
330
1F
100
AcDbEntity
  8
SPOJOVACÍ
  6
DASHED
100
AcDbLine
 10
-4831.752727781408
 20
-8610.060902133616
 30
0.0
 11
-4831.468317233157
 21
-8612.335274971764
 31
0.0
  0
LINE
  5
16E4
330
1F
100
AcDbEntity
  8
SPOJOVACÍ
  6
DASHED
100
AcDbLine
 10
-4831.014354237661
 20
-8615.970625223949
 30
0.0
 11
-4830.667045196154
 21
-8613.191241342706
 31
0.0
  0
LINE
  5
16E5
330
1F
100
AcDbEntity
  8
SPOJOVACÍ
  6
DASHED
100
AcDbLine
 10
-4832.114621977918
 20
-8607.1675717174
 30
0.0
 11
-4831.83021142539
 21
-8609.442856127744
 31
0.0
  0
LINE
  5
16E6
330
1F
100
AcDbEntity
  8
SPOJOVACÍ
  6
DASHED
100
AcDbLine
 10
-4842.669138069996
 20
-8598.326169666993
 30
0.0
 11
-4843.039236413522
 21
-8598.112861753666
 31
0.0
  0
LINE
  5
16E7
330
1F
100
AcDbEntity
  8
SPOJOVACÍ
  6
DASHED
100
AcDbLine
 10
-4842.669138069996
 20
-8598.326169666993
 30
0.0
 11
-4843.039236413522
 21
-8598.697179584846
 31
0.0
  0
LINE
  5
16E8
330
1F
100
AcDbEntity
  8
SPOJOVACÍ
  6
DASHED
100
AcDbLine
 10
-4842.233406520394
 20
-8595.704487790005
 30
0.0
 11
-4842.60350486392
 21
-8596.075497708129
 31
0.0
  0
LINE
  5
16E9
330
1F
100
AcDbEntity
  8
SPOJOVACÍ
  6
DASHED
100
AcDbLine
 10
-4832.337045615262
 20
-8598.0418216235
 30
0.0
 11
-4832.337045615262
 21
-8600.51947508011
 31
0.0
  0
LINE
  5
16EA
330
1F
100
AcDbEntity
  8
SPOJOVACÍ
  6
DASHED
100
AcDbLine
 10
-4833.366210719526
 20
-8603.735502083678
 30
0.0
 11
-4832.996112371723
 21
-8603.364492165553
 31
0.0
  0
LINE
  5
16EB
330
1F
100
AcDbEntity
  8
SPOJOVACÍ
  6
DASHED
100
AcDbLine
 10
-4833.366210719526
 20
-8600.677177084637
 30
0.0
 11
-4832.996112371723
 21
-8600.307078738971
 31
0.0
  0
LINE
  5
16EC
330
1F
100
AcDbEntity
  8
SPOJOVACÍ
  6
DASHED
100
AcDbLine
 10
-4833.366210719526
 20
-8600.677177084637
 30
0.0
 11
-4832.996112371723
 21
-8600.891396570416
 31
0.0
  0
LINE
  5
16ED
330
1F
100
AcDbEntity
  8
SPOJOVACÍ
  6
DASHED
100
AcDbLine
 10
-4832.337045615262
 20
-8601.111997062051
 30
0.0
 11
-4832.337045615262
 21
-8603.579623223792
 31
0.0
  0
LINE
  5
16EE
330
1F
100
AcDbEntity
  8
SPOJOVACÍ
  6
DASHED
100
AcDbLine
 10
-4833.366210719526
 20
-8597.619763658048
 30
0.0
 11
-4832.996112371723
 21
-8597.24966531238
 31
0.0
  0
LINE
  5
16EF
330
1F
100
AcDbEntity
  8
SPOJOVACÍ
  6
DASHED
100
AcDbLine
 10
-4833.366210719526
 20
-8597.619763658048
 30
0.0
 11
-4832.996112371723
 21
-8597.833983143834
 31
0.0
  0
LINE
  5
16F0
330
1F
100
AcDbEntity
  8
SPOJOVACÍ
  6
DASHED
100
AcDbLine
 10
-4833.366210719526
 20
-8603.735502083678
 30
0.0
 11
-4832.996112371723
 21
-8603.948809997005
 31
0.0
  0
LINE
  5
16F1
330
1F
100
AcDbEntity
  8
SPOJOVACÍ
  6
DASHED
100
AcDbLine
 10
-4832.337045615262
 20
-8604.163941055244
 30
0.0
 11
-4832.337045615262
 21
-8605.386359482293
 31
0.0
  0
LINE
  5
16F2
330
1F
100
AcDbEntity
  8
SPOJOVACÍ
  6
DASHED
100
AcDbLine
 10
-4846.154990466811
 20
-8591.364492165554
 30
0.0
 11
-4842.191474194409
 21
-8592.697210838826
 31
0.0
  0
LINE
  5
16F3
330
1F
100
AcDbEntity
  8
SPOJOVACÍ
  6
DASHED
100
AcDbLine
 10
-4846.154990466811
 20
-8591.948809997004
 30
0.0
 11
-4842.191474194409
 21
-8593.281528670278
 31
0.0
  0
LINE
  5
16F4
330
1F
100
AcDbEntity
  8
SPOJOVACÍ
  6
DASHED
100
AcDbLine
 10
-4846.525088814615
 20
-8591.735502083677
 30
0.0
 11
-4841.821375850883
 21
-8592.911430324612
 31
0.0
  0
LINE
  5
16F5
330
1F
100
AcDbEntity
  8
SPOJOVACÍ
  6
DASHED
100
AcDbLine
 10
-4846.154990466811
 20
-8588.307078738971
 30
0.0
 11
-4842.191474194409
 21
-8589.639797412244
 31
0.0
  0
LINE
  5
16F6
330
1F
100
AcDbEntity
  8
SPOJOVACÍ
  6
DASHED
100
AcDbLine
 10
-4846.154990466811
 20
-8588.891396570415
 30
0.0
 11
-4842.191474194409
 21
-8590.224115243424
 31
0.0
  0
LINE
  5
16F7
330
1F
100
AcDbEntity
  8
SPOJOVACÍ
  6
DASHED
100
AcDbLine
 10
-4846.525088814615
 20
-8588.677177084639
 30
0.0
 11
-4841.821375850883
 21
-8589.853105325572
 31
0.0
  0
LINE
  5
16F8
330
1F
100
AcDbEntity
  8
SPOJOVACÍ
  6
DASHED
100
AcDbLine
 10
-4846.154990466811
 20
-8585.249665312382
 30
0.0
 11
-4842.191474194409
 21
-8586.582383985389
 31
0.0
  0
LINE
  5
16F9
330
1F
100
AcDbEntity
  8
SPOJOVACÍ
  6
DASHED
100
AcDbLine
 10
-4846.154990466811
 20
-8585.833983143833
 30
0.0
 11
-4842.191474194409
 21
-8587.166701816833
 31
0.0
  0
LINE
  5
16FA
330
1F
100
AcDbEntity
  8
SPOJOVACÍ
  6
DASHED
100
AcDbLine
 10
-4846.525088814615
 20
-8585.619763658048
 30
0.0
 11
-4841.821375850883
 21
-8586.795691898981
 31
0.0
  0
LINE
  5
16FB
330
1F
100
AcDbEntity
  8
SPOJOVACÍ
  6
DASHED
100
AcDbLine
 10
-4845.905219662764
 20
-8594.380884839679
 30
0.0
 11
-4842.60350486392
 21
-8595.491179876677
 31
0.0
  0
LINE
  5
16FC
330
1F
100
AcDbEntity
  8
SPOJOVACÍ
  6
DASHED
100
AcDbLine
 10
-4846.154990466811
 20
-8582.192251885528
 30
0.0
 11
-4842.191474194409
 21
-8583.524058986611
 31
0.0
  0
LINE
  5
16FD
330
1F
100
AcDbEntity
  8
SPOJOVACÍ
  6
DASHED
100
AcDbLine
 10
-4846.154990466811
 20
-8582.77656971698
 30
0.0
 11
-4842.191474194409
 21
-8584.108376817793
 31
0.0
  0
LINE
  5
16FE
330
1F
100
AcDbEntity
  8
SPOJOVACÍ
  6
DASHED
100
AcDbLine
 10
-4846.525088814615
 20
-8582.562350231194
 30
0.0
 11
-4841.821375850883
 21
-8583.738278472399
 31
0.0
  0
LINE
  5
16FF
330
1F
100
AcDbEntity
  8
SPOJOVACÍ
  6
DASHED
100
AcDbLine
 10
-4846.154990466811
 20
-8579.133926886758
 30
0.0
 11
-4842.191474194409
 21
-8580.466645559758
 31
0.0
  0
LINE
  5
1700
330
1F
100
AcDbEntity
  8
SPOJOVACÍ
  6
DASHED
100
AcDbLine
 10
-4846.154990466811
 20
-8579.718244717938
 30
0.0
 11
-4842.191474194409
 21
-8581.050963391211
 31
0.0
  0
LINE
  5
1701
330
1F
100
AcDbEntity
  8
SPOJOVACÍ
  6
DASHED
100
AcDbLine
 10
-4846.525088814615
 20
-8579.50493680461
 30
0.0
 11
-4841.821375850883
 21
-8580.680865045543
 31
0.0
  0
LINE
  5
1702
330
1F
100
AcDbEntity
  8
SPOJOVACÍ
  6
DASHED
100
AcDbLine
 10
-4845.49592371035
 20
-8582.98896605812
 30
0.0
 11
-4845.49592371035
 21
-8585.459326936694
 31
0.0
  0
LINE
  5
1703
330
1F
100
AcDbEntity
  8
SPOJOVACÍ
  6
DASHED
100
AcDbLine
 10
-4846.525088814615
 20
-8591.735502083677
 30
0.0
 11
-4846.154990466811
 21
-8591.364492165554
 31
0.0
  0
LINE
  5
1704
330
1F
100
AcDbEntity
  8
SPOJOVACÍ
  6
DASHED
100
AcDbLine
 10
-4846.525088814615
 20
-8591.735502083677
 30
0.0
 11
-4846.154990466811
 21
-8591.948809997004
 31
0.0
  0
LINE
  5
1705
330
1F
100
AcDbEntity
  8
SPOJOVACÍ
  6
DASHED
100
AcDbLine
 10
-4846.525088814615
 20
-8588.677177084639
 30
0.0
 11
-4846.154990466811
 21
-8588.307078738971
 31
0.0
  0
LINE
  5
1706
330
1F
100
AcDbEntity
  8
SPOJOVACÍ
  6
DASHED
100
AcDbLine
 10
-4846.525088814615
 20
-8588.677177084639
 30
0.0
 11
-4846.154990466811
 21
-8588.891396570415
 31
0.0
  0
LINE
  5
1707
330
1F
100
AcDbEntity
  8
SPOJOVACÍ
  6
DASHED
100
AcDbLine
 10
-4846.525088814615
 20
-8585.619763658048
 30
0.0
 11
-4846.154990466811
 21
-8585.249665312382
 31
0.0
  0
LINE
  5
1708
330
1F
100
AcDbEntity
  8
SPOJOVACÍ
  6
DASHED
100
AcDbLine
 10
-4846.525088814615
 20
-8585.619763658048
 30
0.0
 11
-4846.154990466811
 21
-8585.833983143833
 31
0.0
  0
LINE
  5
1709
330
1F
100
AcDbEntity
  8
SPOJOVACÍ
  6
DASHED
100
AcDbLine
 10
-4846.276229580082
 20
-8594.750983185347
 30
0.0
 11
-4845.905219662764
 21
-8594.380884839679
 31
0.0
  0
LINE
  5
170A
330
1F
100
AcDbEntity
  8
SPOJOVACÍ
  6
DASHED
100
AcDbLine
 10
-4846.276229580082
 20
-8594.750983185347
 30
0.0
 11
-4845.905219662764
 21
-8594.965202671131
 31
0.0
  0
LINE
  5
170B
330
1F
100
AcDbEntity
  8
SPOJOVACÍ
  6
DASHED
100
AcDbLine
 10
-4845.49592371035
 20
-8593.386359482293
 30
0.0
 11
-4845.349160573682
 21
-8594.559553006664
 31
0.0
  0
LINE
  5
170C
330
1F
100
AcDbEntity
  8
SPOJOVACÍ
  6
DASHED
100
AcDbLine
 10
-4845.49592371035
 20
-8592.163941055243
 30
0.0
 11
-4845.49592371035
 21
-8593.386359482293
 31
0.0
  0
LINE
  5
170D
330
1F
100
AcDbEntity
  8
SPOJOVACÍ
  6
DASHED
100
AcDbLine
 10
-4845.49592371035
 20
-8589.111997062051
 30
0.0
 11
-4845.49592371035
 21
-8591.579623223791
 31
0.0
  0
LINE
  5
170E
330
1F
100
AcDbEntity
  8
SPOJOVACÍ
  6
DASHED
100
AcDbLine
 10
-4845.49592371035
 20
-8586.041821623499
 30
0.0
 11
-4845.49592371035
 21
-8588.519475080111
 31
0.0
  0
LINE
  5
170F
330
1F
100
AcDbEntity
  8
SPOJOVACÍ
  6
DASHED
100
AcDbLine
 10
-4846.525088814615
 20
-8582.562350231194
 30
0.0
 11
-4846.154990466811
 21
-8582.192251885528
 31
0.0
  0
LINE
  5
1710
330
1F
100
AcDbEntity
  8
SPOJOVACÍ
  6
DASHED
100
AcDbLine
 10
-4846.525088814615
 20
-8582.562350231194
 30
0.0
 11
-4846.154990466811
 21
-8582.77656971698
 31
0.0
  0
LINE
  5
1711
330
1F
100
AcDbEntity
  8
SPOJOVACÍ
  6
DASHED
100
AcDbLine
 10
-4846.525088814615
 20
-8579.50493680461
 30
0.0
 11
-4846.154990466811
 21
-8579.133926886758
 31
0.0
  0
LINE
  5
1712
330
1F
100
AcDbEntity
  8
SPOJOVACÍ
  6
DASHED
100
AcDbLine
 10
-4846.525088814615
 20
-8579.50493680461
 30
0.0
 11
-4846.154990466811
 21
-8579.718244717938
 31
0.0
  0
LINE
  5
1713
330
1F
100
AcDbEntity
  8
SPOJOVACÍ
  6
DASHED
100
AcDbLine
 10
-4845.49592371035
 20
-8579.928817914703
 30
0.0
 11
-4845.49592371035
 21
-8582.39735564863
 31
0.0
  0
LINE
  5
1714
330
1F
100
AcDbEntity
  8
SPOJOVACÍ
  6
DASHED
100
AcDbLine
 10
-4845.49592371035
 20
-8575.388276388624
 30
0.0
 11
-4845.49592371035
 21
-8579.34541165571
 31
0.0
  0
LINE
  5
1715
330
1F
100
AcDbEntity
  8
SPOJOVACÍ
  6
DASHED
100
AcDbLine
 10
-4845.560645342633
 20
-8574.617086239964
 30
0.0
 11
-4845.49592371035
 21
-8575.388276388624
 31
0.0
  0
LINE
  5
1716
330
1F
100
AcDbEntity
  8
SPOJOVACÍ
  6
DASHED
100
AcDbLine
 10
-4833.601396364291
 20
-8583.873253677522
 30
0.0
 11
-4832.821090494559
 21
-8585.165863170253
 31
0.0
  0
LINE
  5
1717
330
1F
100
AcDbEntity
  8
SPOJOVACÍ
  6
DASHED
100
AcDbLine
 10
-4842.850540950869
 20
-8583.876837458841
 30
0.0
 11
-4842.850540950869
 21
-8586.354490915454
 31
0.0
  0
LINE
  5
1718
330
1F
100
AcDbEntity
  8
SPOJOVACÍ
  6
DASHED
100
AcDbLine
 10
-4841.821375850883
 20
-8592.911430324612
 30
0.0
 11
-4842.191474194409
 21
-8592.697210838826
 31
0.0
  0
LINE
  5
1719
330
1F
100
AcDbEntity
  8
SPOJOVACÍ
  6
DASHED
100
AcDbLine
 10
-4841.821375850883
 20
-8592.911430324612
 30
0.0
 11
-4842.191474194409
 21
-8593.281528670278
 31
0.0
  0
LINE
  5
171A
330
1F
100
AcDbEntity
  8
SPOJOVACÍ
  6
DASHED
100
AcDbLine
 10
-4841.821375850883
 20
-8589.853105325572
 30
0.0
 11
-4842.191474194409
 21
-8589.639797412244
 31
0.0
  0
LINE
  5
171B
330
1F
100
AcDbEntity
  8
SPOJOVACÍ
  6
DASHED
100
AcDbLine
 10
-4841.821375850883
 20
-8589.853105325572
 30
0.0
 11
-4842.191474194409
 21
-8590.224115243424
 31
0.0
  0
LINE
  5
171C
330
1F
100
AcDbEntity
  8
SPOJOVACÍ
  6
DASHED
100
AcDbLine
 10
-4841.821375850883
 20
-8586.795691898981
 30
0.0
 11
-4842.191474194409
 21
-8586.582383985389
 31
0.0
  0
LINE
  5
171D
330
1F
100
AcDbEntity
  8
SPOJOVACÍ
  6
DASHED
100
AcDbLine
 10
-4841.821375850883
 20
-8586.795691898981
 30
0.0
 11
-4842.191474194409
 21
-8587.166701816833
 31
0.0
  0
LINE
  5
171E
330
1F
100
AcDbEntity
  8
SPOJOVACÍ
  6
DASHED
100
AcDbLine
 10
-4843.091196034107
 20
-8595.317981143354
 30
0.0
 11
-4842.850540950869
 21
-8593.386359482293
 31
0.0
  0
LINE
  5
171F
330
1F
100
AcDbEntity
  8
SPOJOVACÍ
  6
DASHED
100
AcDbLine
 10
-4842.850540950869
 20
-8593.056370317169
 30
0.0
 11
-4842.850540950869
 21
-8593.386359482293
 31
0.0
  0
LINE
  5
1720
330
1F
100
AcDbEntity
  8
SPOJOVACÍ
  6
DASHED
100
AcDbLine
 10
-4842.850540950869
 20
-8589.996222173487
 30
0.0
 11
-4842.850540950869
 21
-8592.464759907416
 31
0.0
  0
LINE
  5
1721
330
1F
100
AcDbEntity
  8
SPOJOVACÍ
  6
DASHED
100
AcDbLine
 10
-4842.850540950869
 20
-8586.936985602259
 30
0.0
 11
-4842.850540950869
 21
-8589.407346480832
 31
0.0
  0
LINE
  5
1722
330
1F
100
AcDbEntity
  8
SPOJOVACÍ
  6
DASHED
100
AcDbLine
 10
-4832.337045615262
 20
-8587.388276388622
 30
0.0
 11
-4832.337045615262
 21
-8591.345411655709
 31
0.0
  0
LINE
  5
1723
330
1F
100
AcDbEntity
  8
SPOJOVACÍ
  6
DASHED
100
AcDbLine
 10
-4833.366210719526
 20
-8594.562350231193
 30
0.0
 11
-4832.996112371723
 21
-8594.192251885528
 31
0.0
  0
LINE
  5
1724
330
1F
100
AcDbEntity
  8
SPOJOVACÍ
  6
DASHED
100
AcDbLine
 10
-4833.366210719526
 20
-8594.562350231193
 30
0.0
 11
-4832.996112371723
 21
-8594.77656971698
 31
0.0
  0
LINE
  5
1725
330
1F
100
AcDbEntity
  8
SPOJOVACÍ
  6
DASHED
100
AcDbLine
 10
-4833.366210719526
 20
-8591.504936804611
 30
0.0
 11
-4832.996112371723
 21
-8591.133926886758
 31
0.0
  0
LINE
  5
1726
330
1F
100
AcDbEntity
  8
SPOJOVACÍ
  6
DASHED
100
AcDbLine
 10
-4833.366210719526
 20
-8591.504936804611
 30
0.0
 11
-4832.996112371723
 21
-8591.718244717938
 31
0.0
  0
LINE
  5
1727
330
1F
100
AcDbEntity
  8
SPOJOVACÍ
  6
DASHED
100
AcDbLine
 10
-4832.337045615262
 20
-8591.928817914704
 30
0.0
 11
-4832.337045615262
 21
-8594.397355648631
 31
0.0
  0
LINE
  5
1728
330
1F
100
AcDbEntity
  8
SPOJOVACÍ
  6
DASHED
100
AcDbLine
 10
-4832.401767247546
 20
-8586.617086239963
 30
0.0
 11
-4832.337045615262
 21
-8587.388276388622
 31
0.0
  0
LINE
  5
1729
330
1F
100
AcDbEntity
  8
SPOJOVACÍ
  6
DASHED
100
AcDbLine
 10
-4832.821090494559
 20
-8585.165863170253
 30
0.0
 11
-4832.401767247546
 21
-8586.617086239963
 31
0.0
  0
LINE
  5
172A
330
1F
100
AcDbEntity
  8
SPOJOVACÍ
  6
DASHED
100
AcDbLine
 10
-4841.821375850883
 20
-8583.738278472399
 30
0.0
 11
-4842.191474194409
 21
-8583.524058986611
 31
0.0
  0
LINE
  5
172B
330
1F
100
AcDbEntity
  8
SPOJOVACÍ
  6
DASHED
100
AcDbLine
 10
-4841.821375850883
 20
-8583.738278472399
 30
0.0
 11
-4842.191474194409
 21
-8584.108376817793
 31
0.0
  0
LINE
  5
172C
330
1F
100
AcDbEntity
  8
SPOJOVACÍ
  6
DASHED
100
AcDbLine
 10
-4841.821375850883
 20
-8580.680865045543
 30
0.0
 11
-4842.191474194409
 21
-8580.466645559758
 31
0.0
  0
LINE
  5
172D
330
1F
100
AcDbEntity
  8
SPOJOVACÍ
  6
DASHED
100
AcDbLine
 10
-4841.821375850883
 20
-8580.680865045543
 30
0.0
 11
-4842.191474194409
 21
-8581.050963391211
 31
0.0
  0
LINE
  5
172E
330
1F
100
AcDbEntity
  8
SPOJOVACÍ
  6
DASHED
100
AcDbLine
 10
-4842.850540950869
 20
-8580.823981893463
 30
0.0
 11
-4842.850540950869
 21
-8583.29251962739
 31
0.0
  0
LINE
  5
172F
330
1F
100
AcDbEntity
  8
SPOJOVACÍ
  6
DASHED
100
AcDbLine
 10
-4842.850540950869
 20
-8575.388276388624
 30
0.0
 11
-4842.850540950869
 21
-8580.232371483972
 31
0.0
  0
LINE
  5
1730
330
1F
100
AcDbEntity
  8
SPOJOVACÍ
  6
DASHED
100
AcDbLine
 10
-4842.850540950869
 20
-8575.388276388624
 30
0.0
 11
-4842.628117317803
 21
-8573.895120994263
 31
0.0
  0
LINE
  5
1731
330
1F
100
AcDbEntity
  8
SPOJOVACÍ
  6
DASHED
100
AcDbLine
 10
-4836.012505048522
 20
-8582.096599304154
 30
0.0
 11
-4834.689813666642
 21
-8582.825857127899
 31
0.0
  0
LINE
  5
1732
330
1F
100
AcDbEntity
  8
SPOJOVACÍ
  6
DASHED
100
AcDbLine
 10
-4834.689813666642
 20
-8582.825857127899
 30
0.0
 11
-4833.601396364291
 21
-8583.873253677522
 31
0.0
  0
LINE
  5
1733
330
1F
100
AcDbEntity
  8
SPOJOVACÍ
  6
DASHED
100
AcDbLine
 10
-4836.012505048522
 20
-8580.920671062957
 30
0.0
 11
-4836.012505048522
 21
-8582.096599304154
 31
0.0
  0
LINE
  5
1734
330
1F
100
AcDbEntity
  8
SPOJOVACÍ
  6
DASHDOT2
100
AcDbLine
 10
-4758.569982951689
 20
-8626.382761497517
 30
0.0
 11
-4758.569982951689
 21
-8694.788516706486
 31
0.0
  0
LINE
  5
1735
330
1F
100
AcDbEntity
  8
SPOJOVACÍ
  6
DASHED
100
AcDbLine
 10
-4756.859045451689
 20
-8664.295694206867
 30
0.0
 11
-4756.859045451689
 21
-8640.903859166829
 31
0.0
  0
LINE
  5
1736
330
1F
100
AcDbEntity
  8
SPOJOVACÍ
  6
DASHED
100
AcDbLine
 10
-4760.280920451688
 20
-8664.295694206838
 30
0.0
 11
-4760.280920451688
 21
-8640.903859166831
 31
0.0
  0
LINE
  5
1737
330
1F
100
AcDbEntity
  8
SPOJOVACÍ
  6
Continuous
370
    20
100
AcDbLine
 10
-4756.171777556676
 20
-8659.071233581789
 30
0.0
 11
-4760.968188351879
 21
-8660.684010165034
 31
0.0
  0
LINE
  5
1738
330
1F
100
AcDbEntity
  8
SPOJOVACÍ
  6
Continuous
370
    20
100
AcDbLine
 10
-4756.171777556676
 20
-8659.778340141214
 30
0.0
 11
-4760.968188351879
 21
-8661.391116724455
 31
0.0
  0
LINE
  5
1739
330
1F
100
AcDbEntity
  8
SPOJOVACÍ
  6
Continuous
370
    20
100
AcDbLine
 10
-4755.723906628769
 20
-8659.520207637678
 30
0.0
 11
-4761.416059274607
 21
-8660.943245799137
 31
0.0
  0
LINE
  5
173A
330
1F
100
AcDbEntity
  8
SPOJOVACÍ
  6
CIKCAK
 48
0.25
370
    20
100
AcDbLine
 10
-4755.044516528214
 20
-8642.091730141926
 30
0.0
 11
-4755.044516528214
 21
-8671.65652446045
 31
0.0
  0
LINE
  5
173B
330
1F
100
AcDbEntity
  8
SPOJOVACÍ
  6
CIKCAK
 48
0.25
370
    20
100
AcDbLine
 10
-4762.095449375163
 20
-8642.091730141926
 30
0.0
 11
-4762.095449375163
 21
-8671.65652446045
 31
0.0
  0
LINE
  5
173C
330
1F
100
AcDbEntity
  8
POPIS
370
    20
100
AcDbLine
 10
-4737.214965428851
 20
-8640.53820532016
 30
0.0
 11
-4737.214965428851
 21
-8683.313153517481
 31
0.0
  0
LINE
  5
173D
330
1F
100
AcDbEntity
  8
POPIS
100
AcDbLine
 10
-4758.881857691105
 20
-8653.719245079335
 30
0.0
 11
-4786.923319827161
 21
-8683.313153517481
 31
0.0
  0
TEXT
  5
173E
330
1F
100
AcDbEntity
  8
POPIS
100
AcDbText
 10
-4798.580248142735
 20
-8709.991799827228
 30
0.0
 40
25.0
  1
02
 41
0.8
  7
SIMPLEX7
100
AcDbText
  0
LINE
  5
173F
330
1F
100
AcDbEntity
  8
SPOJOVACÍ
  6
DASHED
100
AcDbLine
 10
-4758.569982951689
 20
-8677.000954330539
 30
0.0
 11
-4756.859045451689
 21
-8664.295694206845
 31
0.0
  0
LINE
  5
1740
330
1F
100
AcDbEntity
  8
SPOJOVACÍ
  6
DASHED
100
AcDbLine
 10
-4758.569982951689
 20
-8677.000954330539
 30
0.0
 11
-4760.280920451688
 21
-8664.295694206845
 31
0.0
  0
LINE
  5
1741
330
1F
100
AcDbEntity
  8
SPOJOVACÍ
  6
Continuous
370
    20
100
AcDbLine
 10
-4757.910982469115
 20
-8672.624464133525
 30
0.0
 11
-4759.353685131169
 21
-8673.109841490882
 31
0.0
  0
LINE
  5
1742
330
1F
100
AcDbEntity
  8
SPOJOVACÍ
  6
Continuous
370
    20
100
AcDbLine
 10
-4757.910982469115
 20
-8672.009588864467
 30
0.0
 11
-4759.353685131169
 21
-8672.494966221817
 31
0.0
  0
LINE
  5
1743
330
1F
100
AcDbEntity
  8
SPOJOVACÍ
  6
Continuous
370
    20
100
AcDbLine
 10
-4757.521529492827
 20
-8672.399041843004
 30
0.0
 11
-4759.743138107452
 21
-8672.719429268648
 31
0.0
  0
LINE
  5
1744
330
1F
100
AcDbEntity
  8
SPOJOVACÍ
 48
0.25
370
    20
100
AcDbLine
 10
-4755.044516528214
 20
-8671.65652446045
 30
0.0
 11
-4758.569982951689
 21
-8677.305964801174
 31
0.0
  0
LINE
  5
1745
330
1F
100
AcDbEntity
  8
SPOJOVACÍ
  6
Continuous
370
    20
100
AcDbLine
 10
-4759.743138107452
 20
-8672.719429268648
 30
0.0
 11
-4759.353685131169
 21
-8673.109841490882
 31
0.0
  0
LINE
  5
1746
330
1F
100
AcDbEntity
  8
SPOJOVACÍ
  6
Continuous
370
    20
100
AcDbLine
 10
-4759.743138107452
 20
-8672.719429268648
 30
0.0
 11
-4759.353685131169
 21
-8672.494966221817
 31
0.0
  0
LINE
  5
1747
330
1F
100
AcDbEntity
  8
SPOJOVACÍ
 48
0.25
370
    20
100
AcDbLine
 10
-4762.095449375163
 20
-8671.65652446045
 30
0.0
 11
-4758.569982951689
 21
-8677.305964801174
 31
0.0
  0
LINE
  5
1748
330
1F
100
AcDbEntity
  8
SPOJOVACÍ
  6
Continuous
370
    20
100
AcDbLine
 10
-4757.521529492827
 20
-8672.399041843004
 30
0.0
 11
-4757.910982469115
 21
-8672.624464133525
 31
0.0
  0
LINE
  5
1749
330
1F
100
AcDbEntity
  8
SPOJOVACÍ
  6
Continuous
370
    20
100
AcDbLine
 10
-4757.521529492827
 20
-8672.399041843004
 30
0.0
 11
-4757.910982469115
 21
-8672.009588864467
 31
0.0
  0
LINE
  5
174A
330
1F
100
AcDbEntity
  8
SPOJOVACÍ
  6
Continuous
370
    20
100
AcDbLine
 10
-4756.74741975365
 20
-8666.407605134271
 30
0.0
 11
-4760.221800760086
 21
-8667.575964069886
 31
0.0
  0
LINE
  5
174B
330
1F
100
AcDbEntity
  8
SPOJOVACÍ
  6
Continuous
370
    20
100
AcDbLine
 10
-4756.74741975365
 20
-8665.792729865202
 30
0.0
 11
-4760.221800760086
 21
-8666.961088800821
 31
0.0
  0
LINE
  5
174C
330
1F
100
AcDbEntity
  8
SPOJOVACÍ
  6
Continuous
370
    20
100
AcDbLine
 10
-4756.357007531984
 20
-8666.182182843742
 30
0.0
 11
-4760.611253736374
 21
-8667.185551847373
 31
0.0
  0
LINE
  5
174D
330
1F
100
AcDbEntity
  8
SPOJOVACÍ
  6
Continuous
370
    20
100
AcDbLine
 10
-4757.328721490943
 20
-8669.515555011912
 30
0.0
 11
-4759.763282228933
 21
-8670.334749208009
 31
0.0
  0
LINE
  5
174E
330
1F
100
AcDbEntity
  8
SPOJOVACÍ
  6
Continuous
370
    20
100
AcDbLine
 10
-4757.328721490943
 20
-8668.900679742849
 30
0.0
 11
-4759.763282228933
 21
-8669.719873939234
 31
0.0
  0
LINE
  5
174F
330
1F
100
AcDbEntity
  8
SPOJOVACÍ
  6
Continuous
370
    20
100
AcDbLine
 10
-4756.939268510151
 20
-8669.291091965362
 30
0.0
 11
-4760.152735205225
 21
-8669.94433698578
 31
0.0
  0
LINE
  5
1750
330
1F
100
AcDbEntity
  8
SPOJOVACÍ
  6
Continuous
370
    20
100
AcDbLine
 10
-4755.723906628769
 20
-8662.916197551927
 30
0.0
 11
-4761.416059274607
 21
-8664.339235713384
 31
0.0
  0
LINE
  5
1751
330
1F
100
AcDbEntity
  8
SPOJOVACÍ
  6
Continuous
370
    20
100
AcDbLine
 10
-4756.171777556676
 20
-8663.174330055463
 30
0.0
 11
-4760.968188351879
 21
-8664.787106638705
 31
0.0
  0
LINE
  5
1752
330
1F
100
AcDbEntity
  8
SPOJOVACÍ
  6
Continuous
370
    20
100
AcDbLine
 10
-4756.171777556676
 20
-8662.467223496038
 30
0.0
 11
-4760.968188351879
 21
-8664.080000079286
 31
0.0
  0
LINE
  5
1753
330
1F
100
AcDbEntity
  8
SPOJOVACÍ
  6
Continuous
370
    20
100
AcDbLine
 10
-4760.611253736374
 20
-8667.185551847373
 30
0.0
 11
-4760.221800760086
 21
-8667.575964069886
 31
0.0
  0
LINE
  5
1754
330
1F
100
AcDbEntity
  8
SPOJOVACÍ
  6
Continuous
370
    20
100
AcDbLine
 10
-4760.611253736374
 20
-8667.185551847373
 30
0.0
 11
-4760.221800760086
 21
-8666.961088800821
 31
0.0
  0
LINE
  5
1755
330
1F
100
AcDbEntity
  8
SPOJOVACÍ
  6
Continuous
370
    20
100
AcDbLine
 10
-4760.152735205225
 20
-8669.94433698578
 30
0.0
 11
-4759.763282228933
 21
-8670.334749208009
 31
0.0
  0
LINE
  5
1756
330
1F
100
AcDbEntity
  8
SPOJOVACÍ
  6
Continuous
370
    20
100
AcDbLine
 10
-4760.152735205225
 20
-8669.94433698578
 30
0.0
 11
-4759.763282228933
 21
-8669.719873939234
 31
0.0
  0
LINE
  5
1757
330
1F
100
AcDbEntity
  8
SPOJOVACÍ
  6
Continuous
370
    20
100
AcDbLine
 10
-4761.416059274607
 20
-8664.339235713384
 30
0.0
 11
-4760.968188351879
 21
-8664.787106638705
 31
0.0
  0
LINE
  5
1758
330
1F
100
AcDbEntity
  8
SPOJOVACÍ
  6
Continuous
370
    20
100
AcDbLine
 10
-4761.416059274607
 20
-8664.339235713384
 30
0.0
 11
-4760.968188351879
 21
-8664.080000079286
 31
0.0
  0
LINE
  5
1759
330
1F
100
AcDbEntity
  8
SPOJOVACÍ
  6
Continuous
370
    20
100
AcDbLine
 10
-4761.416059274607
 20
-8660.943245799137
 30
0.0
 11
-4760.968188351879
 21
-8660.684010165034
 31
0.0
  0
LINE
  5
175A
330
1F
100
AcDbEntity
  8
SPOJOVACÍ
  6
Continuous
370
    20
100
AcDbLine
 10
-4761.416059274607
 20
-8660.943245799137
 30
0.0
 11
-4760.968188351879
 21
-8661.391116724455
 31
0.0
  0
LINE
  5
175B
330
1F
100
AcDbEntity
  8
SPOJOVACÍ
  6
Continuous
370
    20
100
AcDbLine
 10
-4756.357007531984
 20
-8666.182182843742
 30
0.0
 11
-4756.74741975365
 21
-8666.407605134271
 31
0.0
  0
LINE
  5
175C
330
1F
100
AcDbEntity
  8
SPOJOVACÍ
  6
Continuous
370
    20
100
AcDbLine
 10
-4756.357007531984
 20
-8666.182182843742
 30
0.0
 11
-4756.74741975365
 21
-8665.792729865202
 31
0.0
  0
LINE
  5
175D
330
1F
100
AcDbEntity
  8
SPOJOVACÍ
  6
Continuous
370
    20
100
AcDbLine
 10
-4756.939268510151
 20
-8669.291091965362
 30
0.0
 11
-4757.328721490943
 21
-8669.515555011912
 31
0.0
  0
LINE
  5
175E
330
1F
100
AcDbEntity
  8
SPOJOVACÍ
  6
Continuous
370
    20
100
AcDbLine
 10
-4756.939268510151
 20
-8669.291091965362
 30
0.0
 11
-4757.328721490943
 21
-8668.900679742849
 31
0.0
  0
LINE
  5
175F
330
1F
100
AcDbEntity
  8
SPOJOVACÍ
  6
Continuous
370
    20
100
AcDbLine
 10
-4755.723906628769
 20
-8662.916197551927
 30
0.0
 11
-4756.171777556676
 21
-8663.174330055463
 31
0.0
  0
LINE
  5
1760
330
1F
100
AcDbEntity
  8
SPOJOVACÍ
  6
Continuous
370
    20
100
AcDbLine
 10
-4755.723906628769
 20
-8662.916197551927
 30
0.0
 11
-4756.171777556676
 21
-8662.467223496038
 31
0.0
  0
HATCH
  5
1761
330
1F
100
AcDbEntity
  8
izolace
100
AcDbHatch
 10
0.0
 20
0.0
 30
0.0
210
0.0
220
0.0
230
1.0
  2
SOLID
 70
     1
 71
     1
 91
        1
 92
        1
 93
       78
 72
     1
 10
-4739.400596529503
 20
-8592.055773274326
 11
-4739.400596529503
 21
-8590.555773274326
 72
     1
 10
-4739.400596529503
 20
-8590.555773274322
 11
-4735.439432143244
 21
-8590.555773274322
 72
     2
 10
-4735.439325423512
 20
-8591.919827959875
 40
1.364054689725274
 50
269.995517342284
 51
359.9956000565495
 73
     0
 72
     1
 10
-4734.075270737808
 20
-8591.919723209342
 11
-4734.075270737808
 21
-8599.076971211443
 72
     2
 10
-4735.439246532584
 20
-8599.07698508389
 40
1.363975794845864
 50
359.999417267794
 51
419.9993729339675
 73
     0
 72
     2
 10
-4734.075192481642
 20
-8601.439565130597
 40
1.364105569629164
 50
120.0000213811482
 51
239.9999786188517
 73
     1
 72
     2
 10
-4735.439246532587
 20
-8603.802145177306
 40
1.363975794849071
 50
300.0006270660934
 51
360.0005827322823
 73
     0
 72
     1
 10
-4734.075270737808
 20
-8603.802159049754
 11
-4734.075270737808
 21
-8611.844388541406
 72
     2
 10
-4735.439246505082
 20
-8611.844402397975
 40
1.363975767343869
 50
359.9994179347589
 51
419.99937360096
 73
     0
 72
     2
 10
-4734.075223001929
 20
-8614.206929566163
 40
1.364044529094629
 50
120.0000213811673
 51
239.9999786188326
 73
     1
 72
     2
 10
-4735.439246532584
 20
-8616.569456750227
 40
1.363975794846342
 50
300.0006270660323
 51
360.000582732206
 73
     0
 72
     1
 10
-4734.075270737808
 20
-8616.569470622673
 11
-4734.075270737808
 21
-8624.61170011433
 72
     2
 10
-4735.439246532584
 20
-8624.611713986777
 40
1.363975794845864
 50
359.999417267794
 51
419.9993729339675
 73
     0
 72
     2
 10
-4734.075223011099
 20
-8626.974241154961
 40
1.36404451075803
 50
120.0000213811523
 51
239.9999786188477
 73
     1
 72
     2
 10
-4735.439246532584
 20
-8629.336768323147
 40
1.363975794846342
 50
300.0006270660323
 51
360.000582732206
 73
     0
 72
     1
 10
-4734.075270737808
 20
-8629.336782195592
 11
-4734.075270737808
 21
-8638.104759940043
 72
     2
 10
-4735.439378286078
 20
-8638.104708052152
 40
1.36410754925508
 50
0.0021794154622099
 51
90.00226212980759
 73
     0
 72
     1
 10
-4735.439432143244
 20
-8639.468815600345
 11
-4741.564307506516
 21
-8639.468815600345
 72
     2
 10
-4741.564140042724
 20
-8638.104962841815
 40
1.363852768811678
 50
90.0070351938058
 51
145.6187009210029
 73
     0
 72
     2
 10
-4743.815420799358
 20
-8639.645745624257
 40
1.364200882608286
 50
34.39439223559876
 51
90.00605796273118
 73
     1
 72
     1
 10
-4743.815565038221
 20
-8638.281544749274
 11
-4747.634201942022
 21
-8638.281544749274
 72
     2
 10
-4747.634134715429
 20
-8639.64534464328
 40
1.363799895663579
 50
90.00282431468091
 51
145.614490041856
 73
     1
 72
     2
 10
-4749.885415472063
 20
-8638.104561860838
 40
1.364253740215838
 50
34.39018224991456
 51
90.00184797706905
 73
     0
 72
     1
 10
-4749.885459473727
 20
-8639.468815600345
 11
-4768.269390027806
 21
-8639.468815600345
 72
     2
 10
-4768.26943402848
 20
-8638.104561862714
 40
1.364253738340033
 50
89.9981520644866
 51
145.6098177916075
 73
     0
 72
     2
 10
-4770.520714784123
 20
-8639.645344643279
 40
1.363799895661762
 50
34.38550995812409
 51
89.99717568524264
 73
     1
 72
     1
 10
-4770.520647557528
 20
-8638.281544749274
 11
-4774.339284463316
 21
-8638.281544749274
 72
     2
 10
-4774.339428702179
 20
-8639.645745624257
 40
1.364200882607749
 50
89.99394203726883
 51
145.6056077644012
 73
     1
 72
     2
 10
-4776.59070945782
 20
-8638.104962843696
 40
1.363852766930401
 50
34.38129903734767
 51
89.99296476446124
 73
     0
 72
     1
 10
-4776.590541993035
 20
-8639.468815600345
 11
-4782.715417356306
 21
-8639.468815600345
 72
     2
 10
-4782.715471214467
 20
-8638.104708051161
 40
1.364107550249264
 50
89.99773782847865
 51
179.9978205428239
 73
     0
 72
     1
 10
-4784.079578763729
 20
-8638.104759940043
 11
-4784.079578763729
 21
-8629.336782195592
 72
     2
 10
-4782.715602967962
 20
-8629.336768324863
 40
1.363975795837245
 50
179.9994173399247
 51
239.9993730060971
 73
     0
 72
     2
 10
-4784.079626488456
 20
-8626.974241154961
 40
1.36404451075803
 50
300.0000213811523
 51
419.9999786188477
 73
     1
 72
     2
 10
-4782.715602967962
 20
-8624.611713985059
 40
1.363975795837674
 50
120.0006269939028
 51
180.0005826600752
 73
     0
 72
     1
 10
-4784.079578763729
 20
-8624.61170011433
 11
-4784.079578763729
 21
-8616.569470622673
 72
     2
 10
-4782.715602967962
 20
-8616.569456751944
 40
1.363975795837245
 50
179.9994173399247
 51
239.9993730060971
 73
     0
 72
     2
 10
-4784.079626497625
 20
-8614.206929566163
 40
1.364044529094629
 50
300.0000213811673
 51
419.9999786188326
 73
     1
 72
     2
 10
-4782.715602995464
 20
-8611.844402396258
 40
1.363975768335302
 50
120.0006263269104
 51
180.0005819931103
 73
     0
 72
     1
 10
-4784.079578763729
 20
-8611.844388541406
 11
-4784.079578763729
 21
-8603.802159049754
 72
     2
 10
-4782.715602967959
 20
-8603.802145179022
 40
1.363975795840185
 50
179.9994173398483
 51
239.9993730060361
 73
     0
 72
     2
 10
-4784.079657017912
 20
-8601.439565130597
 40
1.364105569629164
 50
300.0000213811482
 51
419.9999786188517
 73
     1
 72
     2
 10
-4782.715602967962
 20
-8599.076985082172
 40
1.363975795837674
 50
120.0006269939028
 51
180.0005826600752
 73
     0
 72
     1
 10
-4784.079578763729
 20
-8599.076971211443
 11
-4784.079578763729
 21
-8589.737297562622
 72
     2
 10
-4782.715471214467
 20
-8589.737349451505
 40
1.364107550248287
 50
180.002179457176
 51
270.0022621715213
 73
     0
 72
     1
 10
-4782.715417356306
 20
-8588.373241902321
 11
-4778.754252970052
 21
-8588.373241902321
 72
     1
 10
-4778.754252970052
 20
-8588.373241902322
 11
-4778.754252970052
 21
-8589.873241902322
 72
     1
 10
-4778.754252970052
 20
-8589.873241902322
 11
-4781.579578763729
 21
-8589.873241902322
 72
     2
 10
-4781.579578763729
 20
-8590.87324190232
 40
1.0
 50
90.0
 51
180.0
 73
     1
 72
     1
 10
-4782.579578763729
 20
-8590.873241902322
 11
-4782.579578763729
 21
-8598.999715556278
 72
     2
 10
-4784.079657017906
 20
-8601.439565130599
 40
2.864105569628209
 50
301.5842014864517
 51
418.4157985135483
 73
     0
 72
     1
 10
-4782.579578763729
 20
-8603.879414704922
 11
-4782.579578763729
 21
-8611.767132881874
 72
     2
 10
-4784.079626497622
 20
-8614.206929566163
 40
2.864044529093574
 50
301.5842355323724
 51
418.4157644675655
 73
     0
 72
     1
 10
-4782.579578763725
 20
-8616.646726250454
 11
-4782.579578763729
 21
-8624.534444486561
 72
     2
 10
-4784.07962648846
 20
-8626.974241154961
 40
2.864044510759561
 50
301.5842355427104
 51
418.4157644572895
 73
     0
 72
     1
 10
-4782.579578763729
 20
-8629.414037823362
 11
-4782.579578763729
 21
-8636.968815600345
 72
     2
 10
-4781.579578763729
 20
-8636.968815600345
 40
1.0
 50
180.0
 51
270.0
 73
     1
 72
     1
 10
-4781.579578763729
 20
-8637.968815600345
 11
-4776.661400362394
 21
-8637.968815600345
 72
     2
 10
-4774.339428702183
 20
-8639.645745624251
 40
2.864200882602513
 50
215.8368500797323
 51
270.0041807823925
 73
     0
 72
     1
 10
-4774.339219705977
 20
-8636.781544749274
 11
-4770.520647557528
 21
-8636.781544749274
 72
     2
 10
-4770.520647562277
 20
-8638.281544767725
 40
1.500000018450009
 50
270.0000001814129
 51
270.0028244958673
 73
     0
 72
     2
 10
-4770.520714784117
 20
-8639.645344643268
 40
2.863799895650613
 50
270.0028243144894
 51
324.1672517372337
 73
     0
 72
     1
 10
-4768.19894816997
 20
-8637.968815600345
 11
-4749.95590132958
 21
-8637.968815600345
 72
     2
 10
-4747.634134715434
 20
-8639.645344643268
 40
2.863799895649932
 50
215.8327482627769
 51
269.9971756855287
 73
     0
 72
     2
 10
-4747.634201937275
 20
-8638.281544698534
 40
1.499999949261109
 50
269.9971755040718
 51
269.9999998185174
 73
     0
 72
     1
 10
-4747.634201942026
 20
-8636.781544749274
 11
-4743.815629798671
 21
-8636.781544749274
 72
     2
 10
-4743.815420799355
 20
-8639.645745624253
 40
2.864200882604648
 50
269.9958191554216
 51
324.1631499202593
 73
     0
 72
     1
 10
-4741.493449139143
 20
-8637.968815600345
 11
-4736.575270737808
 21
-8637.968815600345
 72
     2
 10
-4736.575270737808
 20
-8636.968815600345
 40
1.0
 50
270.0
 51
360.0
 73
     1
 72
     1
 10
-4735.575270737808
 20
-8636.968815600345
 11
-4735.575270737808
 21
-8629.414037822144
 72
     2
 10
-4734.075223011095
 20
-8626.974241154961
 40
2.864044510759808
 50
121.5842355892687
 51
238.4157644107312
 73
     0
 72
     1
 10
-4735.575270737808
 20
-8624.534444487778
 11
-4735.575270737808
 21
-8616.646726249232
 72
     2
 10
-4734.075223001929
 20
-8614.206929566163
 40
2.864044529094177
 50
121.5842355790118
 51
238.4157644209881
 73
     0
 72
     1
 10
-4735.575270737808
 20
-8611.767132883093
 11
-4735.575270737808
 21
-8603.879414703699
 72
     2
 10
-4734.07519248164
 20
-8601.439565130601
 40
2.86410556962857
 50
121.5842015332212
 51
238.4157984667787
 73
     0
 72
     1
 10
-4735.575270737808
 20
-8598.999715557502
 11
-4735.575270737808
 21
-8593.055773274324
 72
     2
 10
-4736.575270737808
 20
-8593.055773274324
 40
1.0
 50
0.0
 51
90.0
 73
     1
 72
     1
 10
-4736.575270737808
 20
-8592.055773274323
 11
-4739.400596529503
 21
-8592.055773274323
 97
        7
330
1880
330
1781
330
17F0
330
17EF
330
17EE
330
17DF
330
1762
 75
     0
 76
     1
 98
        1
 10
-6545.01742261231
 20
-29562.51077660037
  0
POLYLINE
  5
1762
102
{ACAD_REACTORS
330
1761
102
}
330
1F
100
AcDbEntity
  8
izolace
100
AcDb2dPolyline
 66
     1
 10
0.0
 20
0.0
 30
0.0
  0
VERTEX
  5
1763
330
1762
100
AcDbEntity
  8
izolace
100
AcDbVertex
100
AcDb2dVertex
 10
-4782.579578763729
 20
-8598.999715556276
 30
0.0
 42
-0.5590620544015654
  0
VERTEX
  5
1764
330
1762
100
AcDbEntity
  8
izolace
100
AcDbVertex
100
AcDb2dVertex
 10
-4782.579578763729
 20
-8603.879414704922
 30
0.0
  0
VERTEX
  5
1765
330
1762
100
AcDbEntity
  8
izolace
100
AcDbVertex
100
AcDb2dVertex
 10
-4782.579578763729
 20
-8611.767132881874
 30
0.0
 42
-0.5590616644338536
  0
VERTEX
  5
1766
330
1762
100
AcDbEntity
  8
izolace
100
AcDbVertex
100
AcDb2dVertex
 10
-4782.579578763725
 20
-8616.646726250454
 30
0.0
  0
VERTEX
  5
1767
330
1762
100
AcDbEntity
  8
izolace
100
AcDbVertex
100
AcDb2dVertex
 10
-4782.579578763729
 20
-8624.534444486561
 30
0.0
 42
-0.559061664315726
  0
VERTEX
  5
1768
330
1762
100
AcDbEntity
  8
izolace
100
AcDbVertex
100
AcDb2dVertex
 10
-4782.579578763729
 20
-8629.414037823362
 30
0.0
  0
VERTEX
  5
1769
330
1762
100
AcDbEntity
  8
izolace
100
AcDbVertex
100
AcDb2dVertex
 10
-4782.579578763729
 20
-8636.968815600345
 30
0.0
 42
0.4142135623731029
  0
VERTEX
  5
176A
330
1762
100
AcDbEntity
  8
izolace
100
AcDbVertex
100
AcDb2dVertex
 10
-4781.579578763729
 20
-8637.968815600345
 30
0.0
  0
VERTEX
  5
176B
330
1762
100
AcDbEntity
  8
izolace
100
AcDbVertex
100
AcDb2dVertex
 10
-4776.661400362394
 20
-8637.968815600345
 30
0.0
 42
-0.2408510949208177
  0
VERTEX
  5
176C
330
1762
100
AcDbEntity
  8
izolace
100
AcDbVertex
100
AcDb2dVertex
 10
-4774.339219705977
 20
-8636.781544749274
 30
0.0
  0
VERTEX
  5
176D
330
1762
100
AcDbEntity
  8
izolace
100
AcDbVertex
100
AcDb2dVertex
 10
-4770.520647557528
 20
-8636.781544749274
 30
0.0
 42
-0.0000123233965856
  0
VERTEX
  5
176E
330
1762
100
AcDbEntity
  8
izolace
100
AcDbVertex
100
AcDb2dVertex
 10
-4770.520573617148
 20
-8636.781544751096
 30
0.0
 42
-0.2408376921551036
  0
VERTEX
  5
176F
330
1762
100
AcDbEntity
  8
izolace
100
AcDbVertex
100
AcDb2dVertex
 10
-4768.19894816997
 20
-8637.968815600345
 30
0.0
  0
VERTEX
  5
1770
330
1762
100
AcDbEntity
  8
izolace
100
AcDbVertex
100
AcDb2dVertex
 10
-4749.95590132958
 20
-8637.968815600345
 30
0.0
 42
-0.2408376921551987
  0
VERTEX
  5
1771
330
1762
100
AcDbEntity
  8
izolace
100
AcDbVertex
100
AcDb2dVertex
 10
-4747.634275882403
 20
-8636.781544751096
 30
0.0
 42
-0.0000123233965477
  0
VERTEX
  5
1772
330
1762
100
AcDbEntity
  8
izolace
100
AcDbVertex
100
AcDb2dVertex
 10
-4747.634201942026
 20
-8636.781544749274
 30
0.0
  0
VERTEX
  5
1773
330
1762
100
AcDbEntity
  8
izolace
100
AcDbVertex
100
AcDb2dVertex
 10
-4743.815629798671
 20
-8636.781544749274
 30
0.0
 42
-0.240851095207779
  0
VERTEX
  5
1774
330
1762
100
AcDbEntity
  8
izolace
100
AcDbVertex
100
AcDb2dVertex
 10
-4741.493449139143
 20
-8637.968815600345
 30
0.0
  0
VERTEX
  5
1775
330
1762
100
AcDbEntity
  8
izolace
100
AcDbVertex
100
AcDb2dVertex
 10
-4736.575270737808
 20
-8637.968815600345
 30
0.0
 42
0.4142135623730951
  0
VERTEX
  5
1776
330
1762
100
AcDbEntity
  8
izolace
100
AcDbVertex
100
AcDb2dVertex
 10
-4735.575270737808
 20
-8636.968815600345
 30
0.0
  0
VERTEX
  5
1777
330
1762
100
AcDbEntity
  8
izolace
100
AcDbVertex
100
AcDb2dVertex
 10
-4735.575270737808
 20
-8629.414037822144
 30
0.0
 42
-0.5590616637825315
  0
VERTEX
  5
1778
330
1762
100
AcDbEntity
  8
izolace
100
AcDbVertex
100
AcDb2dVertex
 10
-4735.575270737808
 20
-8624.534444487778
 30
0.0
  0
VERTEX
  5
1779
330
1762
100
AcDbEntity
  8
izolace
100
AcDbVertex
100
AcDb2dVertex
 10
-4735.575270737808
 20
-8616.646726249232
 30
0.0
 42
-0.5590616638998631
  0
VERTEX
  5
177A
330
1762
100
AcDbEntity
  8
izolace
100
AcDbVertex
100
AcDb2dVertex
 10
-4735.575270737808
 20
-8611.767132883093
 30
0.0
  0
VERTEX
  5
177B
330
1762
100
AcDbEntity
  8
izolace
100
AcDbVertex
100
AcDb2dVertex
 10
-4735.575270737808
 20
-8603.879414703699
 30
0.0
 42
-0.5590620538659819
  0
VERTEX
  5
177C
330
1762
100
AcDbEntity
  8
izolace
100
AcDbVertex
100
AcDb2dVertex
 10
-4735.575270737808
 20
-8598.999715557502
 30
0.0
  0
VERTEX
  5
177D
330
1762
100
AcDbEntity
  8
izolace
100
AcDbVertex
100
AcDb2dVertex
 10
-4735.575270737808
 20
-8593.055773274324
 30
0.0
 42
0.4142135623731143
  0
VERTEX
  5
177E
330
1762
100
AcDbEntity
  8
izolace
100
AcDbVertex
100
AcDb2dVertex
 10
-4736.575270737808
 20
-8592.055773274323
 30
0.0
  0
VERTEX
  5
177F
330
1762
100
AcDbEntity
  8
izolace
100
AcDbVertex
100
AcDb2dVertex
 10
-4739.400596529503
 20
-8592.055773274323
 30
0.0
  0
SEQEND
  5
1780
330
1762
100
AcDbEntity
  8
izolace
  0
POLYLINE
  5
1781
102
{ACAD_REACTORS
330
1761
102
}
330
1F
100
AcDbEntity
  8
izolace
100
AcDb2dPolyline
 66
     1
 10
0.0
 20
0.0
 30
0.0
  0
VERTEX
  5
1782
330
1781
100
AcDbEntity
  8
izolace
100
AcDbVertex
100
AcDb2dVertex
 10
-4778.754252970052
 20
-8588.373241902321
 30
0.0
  0
VERTEX
  5
1783
330
1781
100
AcDbEntity
  8
izolace
100
AcDbVertex
100
AcDb2dVertex
 10
-4782.715417356306
 20
-8588.373241902321
 30
0.0
 42
0.4142139852046967
  0
VERTEX
  5
1784
330
1781
100
AcDbEntity
  8
izolace
100
AcDbVertex
100
AcDb2dVertex
 10
-4784.079578763729
 20
-8589.737297562622
 30
0.0
  0
VERTEX
  5
1785
330
1781
100
AcDbEntity
  8
izolace
100
AcDbVertex
100
AcDb2dVertex
 10
-4784.079578763729
 20
-8599.076971211443
 30
0.0
 42
0.2679489850997925
  0
VERTEX
  5
1786
330
1781
100
AcDbEntity
  8
izolace
100
AcDbVertex
100
AcDb2dVertex
 10
-4783.397603792251
 20
-8600.258215308377
 30
0.0
 42
-0.5773500204086304
  0
VERTEX
  5
1787
330
1781
100
AcDbEntity
  8
izolace
100
AcDbVertex
100
AcDb2dVertex
 10
-4783.397603792251
 20
-8602.620914952817
 30
0.0
 42
0.2679489850997925
  0
VERTEX
  5
1788
330
1781
100
AcDbEntity
  8
izolace
100
AcDbVertex
100
AcDb2dVertex
 10
-4784.079578763729
 20
-8603.802159049754
 30
0.0
  0
VERTEX
  5
1789
330
1781
100
AcDbEntity
  8
izolace
100
AcDbVertex
100
AcDb2dVertex
 10
-4784.079578763729
 20
-8611.844388541406
 30
0.0
 42
0.2679489850997925
  0
VERTEX
  5
178A
330
1781
100
AcDbEntity
  8
izolace
100
AcDbVertex
100
AcDb2dVertex
 10
-4783.397603792251
 20
-8613.025632606584
 30
0.0
 42
-0.5773500204086304
  0
VERTEX
  5
178B
330
1781
100
AcDbEntity
  8
izolace
100
AcDbVertex
100
AcDb2dVertex
 10
-4783.397603792251
 20
-8615.388226525739
 30
0.0
 42
0.2679489850997925
  0
VERTEX
  5
178C
330
1781
100
AcDbEntity
  8
izolace
100
AcDbVertex
100
AcDb2dVertex
 10
-4784.079578763729
 20
-8616.569470622673
 30
0.0
  0
VERTEX
  5
178D
330
1781
100
AcDbEntity
  8
izolace
100
AcDbVertex
100
AcDb2dVertex
 10
-4784.079578763729
 20
-8624.61170011433
 30
0.0
 42
0.2679489850997925
  0
VERTEX
  5
178E
330
1781
100
AcDbEntity
  8
izolace
100
AcDbVertex
100
AcDb2dVertex
 10
-4783.397603792251
 20
-8625.792944211264
 30
0.0
 42
-0.5773500204086304
  0
VERTEX
  5
178F
330
1781
100
AcDbEntity
  8
izolace
100
AcDbVertex
100
AcDb2dVertex
 10
-4783.397603792251
 20
-8628.155538098658
 30
0.0
 42
0.2679489850997925
  0
VERTEX
  5
1790
330
1781
100
AcDbEntity
  8
izolace
100
AcDbVertex
100
AcDb2dVertex
 10
-4784.079578763729
 20
-8629.336782195592
 30
0.0
  0
VERTEX
  5
1791
330
1781
100
AcDbEntity
  8
izolace
100
AcDbVertex
100
AcDb2dVertex
 10
-4784.079578763729
 20
-8638.104759940043
 30
0.0
 42
0.4142139852046967
  0
VERTEX
  5
1792
330
1781
100
AcDbEntity
  8
izolace
100
AcDbVertex
100
AcDb2dVertex
 10
-4782.715417356306
 20
-8639.468815600345
 30
0.0
  0
VERTEX
  5
1793
330
1781
100
AcDbEntity
  8
izolace
100
AcDbVertex
100
AcDb2dVertex
 10
-4776.590541993035
 20
-8639.468815600345
 30
0.0
 42
0.247529000043869
  0
VERTEX
  5
1794
330
1781
100
AcDbEntity
  8
izolace
100
AcDbVertex
100
AcDb2dVertex
 10
-4775.465124693634
 20
-8638.875127312166
 30
0.0
 42
-0.247529000043869
  0
VERTEX
  5
1795
330
1781
100
AcDbEntity
  8
izolace
100
AcDbVertex
100
AcDb2dVertex
 10
-4774.339284463316
 20
-8638.281544749274
 30
0.0
  0
VERTEX
  5
1796
330
1781
100
AcDbEntity
  8
izolace
100
AcDbVertex
100
AcDb2dVertex
 10
-4770.520647557528
 20
-8638.281544749274
 30
0.0
 42
-0.247529000043869
  0
VERTEX
  5
1797
330
1781
100
AcDbEntity
  8
izolace
100
AcDbVertex
100
AcDb2dVertex
 10
-4769.395230258127
 20
-8638.875127312166
 30
0.0
 42
0.247529000043869
  0
VERTEX
  5
1798
330
1781
100
AcDbEntity
  8
izolace
100
AcDbVertex
100
AcDb2dVertex
 10
-4768.269390027806
 20
-8639.468815600345
 30
0.0
  0
VERTEX
  5
1799
330
1781
100
AcDbEntity
  8
izolace
100
AcDbVertex
100
AcDb2dVertex
 10
-4749.885459473727
 20
-8639.468815600345
 30
0.0
 42
0.247529000043869
  0
VERTEX
  5
179A
330
1781
100
AcDbEntity
  8
izolace
100
AcDbVertex
100
AcDb2dVertex
 10
-4748.759619241428
 20
-8638.875127312166
 30
0.0
 42
-0.247529000043869
  0
VERTEX
  5
179B
330
1781
100
AcDbEntity
  8
izolace
100
AcDbVertex
100
AcDb2dVertex
 10
-4747.634201942022
 20
-8638.281544749274
 30
0.0
  0
VERTEX
  5
179C
330
1781
100
AcDbEntity
  8
izolace
100
AcDbVertex
100
AcDb2dVertex
 10
-4743.815565038221
 20
-8638.281544749274
 30
0.0
 42
-0.247529000043869
  0
VERTEX
  5
179D
330
1781
100
AcDbEntity
  8
izolace
100
AcDbVertex
100
AcDb2dVertex
 10
-4742.689724807904
 20
-8638.875127312166
 30
0.0
 42
0.247529000043869
  0
VERTEX
  5
179E
330
1781
100
AcDbEntity
  8
izolace
100
AcDbVertex
100
AcDb2dVertex
 10
-4741.564307506516
 20
-8639.468815600345
 30
0.0
  0
VERTEX
  5
179F
330
1781
100
AcDbEntity
  8
izolace
100
AcDbVertex
100
AcDb2dVertex
 10
-4735.439432143244
 20
-8639.468815600345
 30
0.0
 42
0.4142139852046967
  0
VERTEX
  5
17A0
330
1781
100
AcDbEntity
  8
izolace
100
AcDbVertex
100
AcDb2dVertex
 10
-4734.075270737808
 20
-8638.104759940043
 30
0.0
  0
VERTEX
  5
17A1
330
1781
100
AcDbEntity
  8
izolace
100
AcDbVertex
100
AcDb2dVertex
 10
-4734.075270737808
 20
-8629.336782195592
 30
0.0
 42
0.2679489850997925
  0
VERTEX
  5
17A2
330
1781
100
AcDbEntity
  8
izolace
100
AcDbVertex
100
AcDb2dVertex
 10
-4734.757245707304
 20
-8628.155538098658
 30
0.0
 42
-0.5773500204086304
  0
VERTEX
  5
17A3
330
1781
100
AcDbEntity
  8
izolace
100
AcDbVertex
100
AcDb2dVertex
 10
-4734.757245707304
 20
-8625.792944211264
 30
0.0
 42
0.2679489850997925
  0
VERTEX
  5
17A4
330
1781
100
AcDbEntity
  8
izolace
100
AcDbVertex
100
AcDb2dVertex
 10
-4734.075270737808
 20
-8624.61170011433
 30
0.0
  0
VERTEX
  5
17A5
330
1781
100
AcDbEntity
  8
izolace
100
AcDbVertex
100
AcDb2dVertex
 10
-4734.075270737808
 20
-8616.569470622673
 30
0.0
 42
0.2679489850997925
  0
VERTEX
  5
17A6
330
1781
100
AcDbEntity
  8
izolace
100
AcDbVertex
100
AcDb2dVertex
 10
-4734.757245707304
 20
-8615.388226525739
 30
0.0
 42
-0.5773500204086304
  0
VERTEX
  5
17A7
330
1781
100
AcDbEntity
  8
izolace
100
AcDbVertex
100
AcDb2dVertex
 10
-4734.757245707304
 20
-8613.025632606584
 30
0.0
 42
0.2679489850997925
  0
VERTEX
  5
17A8
330
1781
100
AcDbEntity
  8
izolace
100
AcDbVertex
100
AcDb2dVertex
 10
-4734.075270737808
 20
-8611.844388541406
 30
0.0
  0
VERTEX
  5
17A9
330
1781
100
AcDbEntity
  8
izolace
100
AcDbVertex
100
AcDb2dVertex
 10
-4734.075270737808
 20
-8603.802159049754
 30
0.0
 42
0.2679489850997925
  0
VERTEX
  5
17AA
330
1781
100
AcDbEntity
  8
izolace
100
AcDbVertex
100
AcDb2dVertex
 10
-4734.757245707304
 20
-8602.620914952817
 30
0.0
 42
-0.5773500204086304
  0
VERTEX
  5
17AB
330
1781
100
AcDbEntity
  8
izolace
100
AcDbVertex
100
AcDb2dVertex
 10
-4734.757245707304
 20
-8600.258215308377
 30
0.0
 42
0.2679489850997925
  0
VERTEX
  5
17AC
330
1781
100
AcDbEntity
  8
izolace
100
AcDbVertex
100
AcDb2dVertex
 10
-4734.075270737808
 20
-8599.076971211443
 30
0.0
  0
VERTEX
  5
17AD
330
1781
100
AcDbEntity
  8
izolace
100
AcDbVertex
100
AcDb2dVertex
 10
-4734.075270737808
 20
-8591.919723209342
 30
0.0
 42
0.4142139852046967
  0
VERTEX
  5
17AE
330
1781
100
AcDbEntity
  8
izolace
100
AcDbVertex
100
AcDb2dVertex
 10
-4735.439432143244
 20
-8590.555773274322
 30
0.0
  0
VERTEX
  5
17AF
330
1781
100
AcDbEntity
  8
izolace
100
AcDbVertex
100
AcDb2dVertex
 10
-4739.400596529503
 20
-8590.555773274322
 30
0.0
  0
SEQEND
  5
17B0
330
1781
100
AcDbEntity
  8
izolace
  0
LINE
  5
17B1
330
1F
100
AcDbEntity
  8
nášlap_vrstvy
100
AcDbLine
 10
-4734.075270735826
 20
-8640.091730141921
 30
0.0
 11
-4784.079578763729
 21
-8640.091730141921
 31
0.0
  0
LINE
  5
17B2
330
1F
100
AcDbEntity
  8
nášlap_vrstvy
100
AcDbLine
 10
-4734.075270735826
 20
-8642.091730141919
 30
0.0
 11
-4784.079578763729
 21
-8642.091730141926
 31
0.0
  0
LWPOLYLINE
  5
17B3
330
1F
100
AcDbEntity
  8
nášlap_vrstvy
100
AcDbPolyline
 90
        4
 70
     1
 43
0.0
 10
-4778.279226694281
 20
-8642.091730141926
 10
-4778.279226694281
 20
-8640.091730141921
 10
-4765.778149687307
 20
-8640.091730141921
 10
-4765.778149687307
 20
-8642.091730141926
  0
HATCH
  5
17B4
330
1F
100
AcDbEntity
  8
nášlap_vrstvy
100
AcDbHatch
 10
0.0
 20
0.0
 30
0.0
210
0.0
220
0.0
230
1.0
  2
SOLID
 70
     1
 71
     0
 91
        3
 92
        7
 72
     0
 73
     1
 93
        4
 10
-4734.075270735826
 20
-8640.091730141925
 10
-4734.075270735826
 20
-8642.09173014192
 10
-4740.775995673353
 20
-8642.091730141926
 10
-4740.775995673353
 20
-8640.091730141925
 97
        0
 92
        7
 72
     0
 73
     1
 93
        4
 10
-4753.277072680332
 20
-8640.091730141925
 10
-4753.277072680332
 20
-8642.091730141926
 10
-4765.778149687307
 20
-8642.091730141926
 10
-4765.778149687307
 20
-8640.091730141925
 97
        0
 92
        7
 72
     0
 73
     1
 93
        4
 10
-4778.279226694281
 20
-8640.091730141921
 10
-4778.279226694281
 20
-8642.091730141929
 10
-4784.079578763729
 20
-8642.091730141926
 10
-4784.079578763729
 20
-8640.091730141921
 97
        0
 75
     0
 76
     1
 47
0.0846398039763049
 98
        3
 10
-4738.944946728916
 20
-8640.798032186966
 10
-4755.619000134473
 20
-8640.628646471316
 10
-4778.810396797977
 20
-8640.882666352565
  0
LINE
  5
17B5
330
1F
100
AcDbEntity
  8
STAVBA OBRYS
  6
Continuous
100
AcDbLine
 10
-4778.158295031022
 20
-8579.159382510294
 30
0.0
 11
-4775.637518624313
 21
-8579.159382510294
 31
0.0
  0
LINE
  5
17B6
330
1F
100
AcDbEntity
  8
STAVBA OBRYS
  6
Continuous
100
AcDbLine
 10
-4779.071727662409
 20
-8581.85875267303
 30
0.0
 11
-4776.54350984954
 21
-8581.85875267303
 31
0.0
  0
LINE
  5
17B7
330
1F
100
AcDbEntity
  8
STAVBA OBRYS
100
AcDbLine
 10
-4826.12714108724
 20
-8613.631680127232
 30
0.0
 11
-4811.542289458877
 21
-8616.885298607256
 31
0.0
  0
LWPOLYLINE
  5
17B8
330
1F
100
AcDbEntity
  8
izolace
100
AcDbPolyline
 90
        4
 70
     1
 43
0.0
 10
-4790.946479493439
 20
-8642.920671062958
 10
-4814.588212203275
 20
-8642.920671062958
 10
-4814.588212203275
 20
-8645.920671062958
 10
-4790.946479493439
 20
-8645.920671062958
  0
HATCH
  5
17B9
330
1F
100
AcDbEntity
  8
izolace
100
AcDbHatch
 10
0.0
 20
0.0
 30
0.0
210
0.0
220
0.0
230
1.0
  2
SOLID
 70
     1
 71
     0
 91
        1
 92
        7
 72
     0
 73
     1
 93
        4
 10
-4790.946479493435
 20
-8642.920671062958
 10
-4814.588212203271
 20
-8642.920671062958
 10
-4814.588212203275
 20
-8645.920671062958
 10
-4790.946479493435
 20
-8645.920671062958
 97
        0
 75
     0
 76
     1
 47
0.1901250437635136
 98
        1
 10
-4805.230417444931
 20
-8643.737482614037
  0
LINE
  5
17BA
330
1F
100
AcDbEntity
  8
STAVBA OBRYS
100
AcDbLine
 10
-4821.210844962028
 20
-8619.034303398661
 30
0.0
 11
-4811.869883380682
 21
-8622.226762894959
 31
0.0
  0
LINE
  5
17BB
330
1F
100
AcDbEntity
  8
STAVBA OBRYS
100
AcDbLine
 10
-4796.542289458881
 20
-8638.521076533594
 30
0.0
 11
-4784.54228945888
 21
-8638.521076533594
 31
0.0
  0
LINE
  5
17BD
330
1F
100
AcDbEntity
  8
STAVBA OBRYS
100
AcDbLine
 10
-4820.473402128081
 20
-8596.687086924587
 30
0.0
 11
-4811.542289458877
 21
-8596.865534159885
 31
0.0
  0
LINE
  5
17BF
330
1F
100
AcDbEntity
  8
STAVBA OBRYS
100
AcDbLine
 10
-4818.015253008918
 20
-8603.563153777763
 30
0.0
 11
-4811.542289458877
 21
-8603.783606637833
 31
0.0
  0
LINE
  5
17C0
330
1F
100
AcDbEntity
  8
STAVBA OBRYS
100
AcDbLine
 10
-4817.523624452954
 20
-8607.001186671855
 30
0.0
 11
-4811.542289458877
 21
-8607.107891346755
 31
0.0
  0
LINE
  5
17C2
330
1F
100
AcDbEntity
  8
SPOJOVACÍ
  6
DASHED
100
AcDbLine
 10
-4828.662497755795
 20
-8595.738278472397
 30
0.0
 11
-4829.032596099321
 21
-8595.524058986612
 31
0.0
  0
LINE
  5
17C3
330
1F
100
AcDbEntity
  8
STAVBA OBRYS
100
AcDbLine
 10
-4829.076918762368
 20
-8610.19364616815
 30
0.0
 11
-4811.542289458877
 21
-8612.048434458952
 31
0.0
  0
LINE
  5
17C4
330
1F
100
AcDbEntity
  8
SPOJOVACÍ
  6
DASHED
100
AcDbLine
 10
-4829.932317939019
 20
-8607.317981143355
 30
0.0
 11
-4829.691662855781
 21
-8605.386359482293
 31
0.0
  0
LINE
  5
17C5
330
1F
100
AcDbEntity
  8
SPOJOVACÍ
  6
DASHED
100
AcDbLine
 10
-4829.510259974908
 20
-8610.326169666993
 30
0.0
 11
-4829.880358318434
 21
-8610.112861753666
 31
0.0
  0
LINE
  5
17C6
330
1F
100
AcDbEntity
  8
SPOJOVACÍ
  6
DASHED
100
AcDbLine
 10
-4829.510259974908
 20
-8610.326169666993
 30
0.0
 11
-4829.880358318434
 21
-8610.697179584846
 31
0.0
  0
LINE
  5
17C7
330
1F
100
AcDbEntity
  8
SPOJOVACÍ
  6
DASHED
100
AcDbLine
 10
-4829.074528425306
 20
-8607.704487790005
 30
0.0
 11
-4829.444626768832
 21
-8608.075497708128
 31
0.0
  0
LINE
  5
17C8
330
1F
100
AcDbEntity
  8
SPOJOVACÍ
  6
DASHED
100
AcDbLine
 10
-4829.074528425306
 20
-8607.704487790005
 30
0.0
 11
-4829.444626768832
 21
-8607.491179876678
 31
0.0
  0
LINE
  5
17C9
330
1F
100
AcDbEntity
  8
SPOJOVACÍ
  6
DASHED
100
AcDbLine
 10
-4828.662497755795
 20
-8595.738278472397
 30
0.0
 11
-4829.032596099321
 21
-8596.108376817793
 31
0.0
  0
LINE
  5
17CA
330
1F
100
AcDbEntity
  8
SPOJOVACÍ
  6
DASHED
100
AcDbLine
 10
-4828.662497755795
 20
-8601.85310532557
 30
0.0
 11
-4829.032596099321
 21
-8601.639797412243
 31
0.0
  0
LINE
  5
17CB
330
1F
100
AcDbEntity
  8
SPOJOVACÍ
  6
DASHED
100
AcDbLine
 10
-4828.662497755795
 20
-8601.85310532557
 30
0.0
 11
-4829.032596099321
 21
-8602.224115243423
 31
0.0
  0
LINE
  5
17CC
330
1F
100
AcDbEntity
  8
SPOJOVACÍ
  6
DASHED
100
AcDbLine
 10
-4828.662497755795
 20
-8598.795691898981
 30
0.0
 11
-4829.032596099321
 21
-8598.582383985389
 31
0.0
  0
LINE
  5
17CD
330
1F
100
AcDbEntity
  8
SPOJOVACÍ
  6
DASHED
100
AcDbLine
 10
-4828.662497755795
 20
-8598.795691898981
 30
0.0
 11
-4829.032596099321
 21
-8599.166701816834
 31
0.0
  0
LINE
  5
17CE
330
1F
100
AcDbEntity
  8
SPOJOVACÍ
  6
DASHED
100
AcDbLine
 10
-4829.691662855781
 20
-8601.996222173488
 30
0.0
 11
-4829.691662855781
 21
-8604.464759907417
 31
0.0
  0
LINE
  5
17CF
330
1F
100
AcDbEntity
  8
SPOJOVACÍ
  6
DASHED
100
AcDbLine
 10
-4829.691662855781
 20
-8598.936985602259
 30
0.0
 11
-4829.691662855781
 21
-8601.407346480833
 31
0.0
  0
LINE
  5
17D0
330
1F
100
AcDbEntity
  8
SPOJOVACÍ
  6
DASHED
100
AcDbLine
 10
-4828.662497755795
 20
-8604.911430324611
 30
0.0
 11
-4829.032596099321
 21
-8604.697210838827
 31
0.0
  0
LINE
  5
17D1
330
1F
100
AcDbEntity
  8
SPOJOVACÍ
  6
DASHED
100
AcDbLine
 10
-4828.662497755795
 20
-8604.911430324611
 30
0.0
 11
-4829.032596099321
 21
-8605.281528670277
 31
0.0
  0
LINE
  5
17D2
330
1F
100
AcDbEntity
  8
SPOJOVACÍ
  6
DASHED
100
AcDbLine
 10
-4829.691662855781
 20
-8605.05637031717
 30
0.0
 11
-4829.691662855781
 21
-8605.386359482293
 31
0.0
  0
LINE
  5
17D3
330
1F
100
AcDbEntity
  8
SPOJOVACÍ
  6
DASHED
100
AcDbLine
 10
-4829.691662855781
 20
-8595.876837458842
 30
0.0
 11
-4829.691662855781
 21
-8598.354490915452
 31
0.0
  0
LINE
  5
17D4
330
1F
100
AcDbEntity
  8
STAVBA OBRYS
100
AcDbLine
 10
-4811.542289458877
 20
-8611.955393811738
 30
0.0
 11
-4814.573846777826
 21
-8615.105122643988
 31
0.0
  0
LINE
  5
17D5
330
1F
100
AcDbEntity
  8
SPOJOVACÍ
  6
DASHED
100
AcDbLine
 10
-4829.469239222715
 20
-8585.895120994264
 30
0.0
 11
-4828.868513090551
 21
-8584.509531128754
 31
0.0
  0
LINE
  5
17D6
330
1F
100
AcDbEntity
  8
SPOJOVACÍ
  6
DASHED
100
AcDbLine
 10
-4829.691662855781
 20
-8587.388276388622
 30
0.0
 11
-4829.691662855781
 21
-8592.232371483973
 31
0.0
  0
LINE
  5
17D7
330
1F
100
AcDbEntity
  8
SPOJOVACÍ
  6
DASHED
100
AcDbLine
 10
-4828.662497755795
 20
-8592.680865045544
 30
0.0
 11
-4829.032596099321
 21
-8592.466645559758
 31
0.0
  0
LINE
  5
17D8
330
1F
100
AcDbEntity
  8
SPOJOVACÍ
  6
DASHED
100
AcDbLine
 10
-4828.662497755795
 20
-8592.680865045544
 30
0.0
 11
-4829.032596099321
 21
-8593.05096339121
 31
0.0
  0
LINE
  5
17D9
330
1F
100
AcDbEntity
  8
SPOJOVACÍ
  6
DASHED
100
AcDbLine
 10
-4829.691662855781
 20
-8592.823981893461
 30
0.0
 11
-4829.691662855781
 21
-8595.29251962739
 31
0.0
  0
LINE
  5
17DA
330
1F
100
AcDbEntity
  8
SPOJOVACÍ
  6
DASHED
100
AcDbLine
 10
-4829.691662855781
 20
-8587.388276388622
 30
0.0
 11
-4829.469239222715
 21
-8585.895120994264
 31
0.0
  0
LINE
  5
17DB
330
1F
100
AcDbEntity
  8
SPOJOVACÍ
  6
DASHED
100
AcDbLine
 10
-4827.929593641965
 20
-8583.326310309512
 30
0.0
 11
-4826.717202509244
 21
-8582.42658846928
 31
0.0
  0
LINE
  5
17DC
330
1F
100
AcDbEntity
  8
SPOJOVACÍ
  6
DASHED
100
AcDbLine
 10
-4826.717202509244
 20
-8582.42658846928
 30
0.0
 11
-4826.016203426799
 21
-8582.096599304154
 31
0.0
  0
LINE
  5
17DD
330
1F
100
AcDbEntity
  8
SPOJOVACÍ
  6
DASHED
100
AcDbLine
 10
-4826.016203426799
 20
-8580.920671062957
 30
0.0
 11
-4826.016203426799
 21
-8582.096599304154
 31
0.0
  0
LINE
  5
17DE
330
1F
100
AcDbEntity
  8
SPOJOVACÍ
  6
DASHED
100
AcDbLine
 10
-4828.868513090551
 20
-8584.509531128754
 30
0.0
 11
-4827.929593641965
 21
-8583.326310309512
 31
0.0
  0
LINE
  5
17DF
102
{ACAD_REACTORS
330
1761
102
}
330
1F
100
AcDbEntity
  8
STAVBA OBRYS
100
AcDbLine
 10
-4782.579578763729
 20
-8598.999715556278
 30
0.0
 11
-4782.579578763729
 21
-8590.873241902322
 31
0.0
  0
LINE
  5
17E1
330
1F
100
AcDbEntity
  8
STAVBA OBRYS
  6
Continuous
100
AcDbLine
 10
-4792.210460777965
 20
-8582.352676019251
 30
0.0
 11
-4790.729620910915
 21
-8581.924795154952
 31
0.0
  0
LINE
  5
17E2
330
1F
100
AcDbEntity
  8
STAVBA OBRYS
  6
Continuous
100
AcDbLine
 10
-4789.942692187793
 20
-8579.159382510294
 30
0.0
 11
-4791.466320141222
 21
-8578.932419619411
 31
0.0
  0
LINE
  5
17E3
330
1F
100
AcDbEntity
  8
STAVBA OBRYS
  6
Continuous
100
AcDbLine
 10
-4795.342362682149
 20
-8585.609221482478
 30
0.0
 11
-4794.598222045675
 21
-8584.259536398928
 31
0.0
  0
LINE
  5
17E4
330
1F
100
AcDbEntity
  8
STAVBA OBRYS
  6
Continuous
100
AcDbLine
 10
-4795.342362682149
 20
-8585.609221482478
 30
0.0
 11
-4795.342362682149
 21
-8575.40891370521
 31
0.0
  0
LINE
  5
17E5
330
1F
100
AcDbEntity
  8
STAVBA OBRYS
  6
Continuous
100
AcDbLine
 10
-4796.542289458881
 20
-8585.609221482478
 30
0.0
 11
-4796.542289458881
 21
-8575.40891370521
 31
0.0
  0
LINE
  5
17E6
330
1F
100
AcDbEntity
  8
STAVBA OBRYS
  6
Continuous
100
AcDbLine
 10
-4796.542289458881
 20
-8585.609221482478
 30
0.0
 11
-4795.342362682149
 21
-8585.609221482478
 31
0.0
  0
LINE
  5
17E7
330
1F
100
AcDbEntity
  8
STAVBA OBRYS
  6
Continuous
100
AcDbLine
 10
-4794.598222045675
 20
-8584.259536398928
 30
0.0
 11
-4793.529450056263
 21
-8583.148906498569
 31
0.0
  0
LINE
  5
17E8
330
1F
100
AcDbEntity
  8
STAVBA OBRYS
  6
Continuous
100
AcDbLine
 10
-4793.529450056263
 20
-8583.148906498569
 30
0.0
 11
-4792.210460777965
 21
-8582.352676019251
 31
0.0
  0
LINE
  5
17E9
330
1F
100
AcDbEntity
  8
STAVBA OBRYS
  6
Continuous
100
AcDbLine
 10
-4794.087555533824
 20
-8577.361352700277
 30
0.0
 11
-4795.005639044266
 21
-8576.124218891377
 31
0.0
  0
LINE
  5
17EA
330
1F
100
AcDbEntity
  8
STAVBA OBRYS
  6
Continuous
100
AcDbLine
 10
-4795.005639044266
 20
-8576.124218891377
 30
0.0
 11
-4795.342362682149
 21
-8575.40891370521
 31
0.0
  0
LINE
  5
17EB
330
1F
100
AcDbEntity
  8
STAVBA OBRYS
  6
Continuous
100
AcDbLine
 10
-4796.542289458881
 20
-8575.40891370521
 30
0.0
 11
-4795.342362682149
 21
-8575.40891370521
 31
0.0
  0
LINE
  5
17EC
330
1F
100
AcDbEntity
  8
STAVBA OBRYS
  6
Continuous
100
AcDbLine
 10
-4791.466320141222
 20
-8578.932419619411
 30
0.0
 11
-4792.880187350926
 21
-8578.319433770262
 31
0.0
  0
LINE
  5
17ED
330
1F
100
AcDbEntity
  8
STAVBA OBRYS
  6
Continuous
100
AcDbLine
 10
-4792.880187350926
 20
-8578.319433770262
 30
0.0
 11
-4794.087555533824
 21
-8577.361352700277
 31
0.0
  0
ARC
  5
17EE
102
{ACAD_REACTORS
330
1761
102
}
330
1F
100
AcDbEntity
  8
STAVBA OBRYS
100
AcDbCircle
 10
-4781.579578763729
 20
-8590.87324190232
 30
0.0
 40
1.0
100
AcDbArc
 50
90.0
 51
180.0
  0
LINE
  5
17EF
102
{ACAD_REACTORS
330
1761
102
}
330
1F
100
AcDbEntity
  8
STAVBA OBRYS
100
AcDbLine
 10
-4778.754252970052
 20
-8589.873241902322
 30
0.0
 11
-4781.579578763729
 21
-8589.873241902322
 31
0.0
  0
LINE
  5
17F0
102
{ACAD_REACTORS
330
1761
102
}
330
1F
100
AcDbEntity
  8
STAVBA OBRYS
100
AcDbLine
 10
-4778.754252970052
 20
-8588.373241902322
 30
0.0
 11
-4778.754252970052
 21
-8589.873241902322
 31
0.0
  0
LINE
  5
17F1
330
1F
100
AcDbEntity
  8
STAVBA OBRYS
  6
Continuous
100
AcDbLine
 10
-4785.524357157879
 20
-8582.531269771457
 30
0.0
 11
-4784.164440144337
 21
-8578.486865411866
 31
0.0
  0
LINE
  5
17F2
330
1F
100
AcDbEntity
  8
STAVBA OBRYS
  6
Continuous
100
AcDbLine
 10
-4784.542091517465
 20
-8578.109214040919
 30
0.0
 11
-4784.164440144337
 21
-8578.486865411866
 31
0.0
  0
LINE
  5
17F3
330
1F
100
AcDbEntity
  8
STAVBA OBRYS
  6
Continuous
100
AcDbLine
 10
-4784.396053917549
 20
-8579.159382510294
 30
0.0
 11
-4781.877137862521
 21
-8579.159382510294
 31
0.0
  0
LINE
  5
17F4
330
1F
100
AcDbEntity
  8
STAVBA OBRYS
  6
Continuous
100
AcDbLine
 10
-4785.309486548936
 20
-8581.85875267303
 30
0.0
 11
-4782.790570493907
 21
-8581.85875267303
 31
0.0
  0
LINE
  5
17F5
330
1F
100
AcDbEntity
  8
STAVBA OBRYS
  6
Continuous
100
AcDbLine
 10
-4786.120599842758
 20
-8582.531269771457
 30
0.0
 11
-4784.760682829491
 21
-8578.486865411866
 31
0.0
  0
LINE
  5
17F6
330
1F
100
AcDbEntity
  8
STAVBA OBRYS
  6
Continuous
100
AcDbLine
 10
-4784.542091517465
 20
-8578.109214040919
 30
0.0
 11
-4784.760682829491
 21
-8578.486865411866
 31
0.0
  0
LINE
  5
17F7
330
1F
100
AcDbEntity
  8
STAVBA OBRYS
  6
Continuous
100
AcDbLine
 10
-4785.742018293928
 20
-8582.908921146769
 30
0.0
 11
-4786.120599842758
 21
-8582.531269771457
 31
0.0
  0
LINE
  5
17F8
330
1F
100
AcDbEntity
  8
STAVBA OBRYS
  6
Continuous
100
AcDbLine
 10
-4785.742018293928
 20
-8582.908921146769
 30
0.0
 11
-4785.524357157879
 21
-8582.531269771457
 31
0.0
  0
LINE
  5
17F9
330
1F
100
AcDbEntity
  8
STAVBA OBRYS
  6
Continuous
100
AcDbLine
 10
-4785.742018293928
 20
-8582.908921146769
 30
0.0
 11
-4784.542091517465
 21
-8578.109214040919
 31
0.0
  0
LINE
  5
17FA
330
1F
100
AcDbEntity
  8
STAVBA OBRYS
  6
Continuous
100
AcDbLine
 10
-4789.942692187793
 20
-8581.85875267303
 30
0.0
 11
-4785.904799058113
 21
-8581.85875267303
 31
0.0
  0
LINE
  5
17FB
330
1F
100
AcDbEntity
  8
STAVBA OBRYS
  6
Continuous
100
AcDbLine
 10
-4789.942692187793
 20
-8579.159382510294
 30
0.0
 11
-4784.999738008864
 21
-8579.159382510294
 31
0.0
  0
LINE
  5
17FC
330
1F
100
AcDbEntity
  8
STAVBA OBRYS
  6
Continuous
100
AcDbLine
 10
-4790.729620910915
 20
-8581.924795154952
 30
0.0
 11
-4789.942692187793
 21
-8581.85875267303
 31
0.0
  0
LINE
  5
17FD
330
1F
100
AcDbEntity
  8
STAVBA OBRYS
  6
Continuous
100
AcDbLine
 10
-4779.880050428856
 20
-8582.531269771457
 30
0.0
 11
-4778.520133415582
 21
-8578.486865411866
 31
0.0
  0
LINE
  5
17FE
330
1F
100
AcDbEntity
  8
STAVBA OBRYS
  6
Continuous
100
AcDbLine
 10
-4779.283807743701
 20
-8582.531269771457
 30
0.0
 11
-4777.923890730435
 21
-8578.486865411866
 31
0.0
  0
LINE
  5
17FF
330
1F
100
AcDbEntity
  8
STAVBA OBRYS
  6
Continuous
100
AcDbLine
 10
-4778.302472279265
 20
-8578.109214040919
 30
0.0
 11
-4778.520133415582
 21
-8578.486865411866
 31
0.0
  0
LINE
  5
1800
330
1F
100
AcDbEntity
  8
STAVBA OBRYS
  6
Continuous
100
AcDbLine
 10
-4778.302472279265
 20
-8578.109214040919
 30
0.0
 11
-4777.923890730435
 21
-8578.486865411866
 31
0.0
  0
LINE
  5
1801
330
1F
100
AcDbEntity
  8
STAVBA OBRYS
  6
Continuous
100
AcDbLine
 10
-4779.502399055727
 20
-8582.908921146769
 30
0.0
 11
-4779.880050428856
 21
-8582.531269771457
 31
0.0
  0
LINE
  5
1802
330
1F
100
AcDbEntity
  8
STAVBA OBRYS
  6
Continuous
100
AcDbLine
 10
-4779.502399055727
 20
-8582.908921146769
 30
0.0
 11
-4779.283807743701
 21
-8582.531269771457
 31
0.0
  0
LINE
  5
1803
330
1F
100
AcDbEntity
  8
STAVBA OBRYS
  6
Continuous
100
AcDbLine
 10
-4779.502399055727
 20
-8582.908921146769
 30
0.0
 11
-4778.302472279265
 21
-8578.109214040919
 31
0.0
  0
LINE
  5
1804
330
1F
100
AcDbEntity
  8
STAVBA OBRYS
  6
Continuous
100
AcDbLine
 10
-4782.999860048094
 20
-8582.531269771457
 30
0.0
 11
-4781.640873210253
 21
-8578.486865411866
 31
0.0
  0
LINE
  5
1805
330
1F
100
AcDbEntity
  8
STAVBA OBRYS
  6
Continuous
100
AcDbLine
 10
-4782.403617362939
 20
-8582.531269771457
 30
0.0
 11
-4781.044630525375
 21
-8578.486865411866
 31
0.0
  0
LINE
  5
1806
330
1F
100
AcDbEntity
  8
STAVBA OBRYS
  6
Continuous
100
AcDbLine
 10
-4781.422281898227
 20
-8578.109214040919
 30
0.0
 11
-4781.640873210253
 21
-8578.486865411866
 31
0.0
  0
LINE
  5
1807
330
1F
100
AcDbEntity
  8
STAVBA OBRYS
  6
Continuous
100
AcDbLine
 10
-4781.422281898227
 20
-8578.109214040919
 30
0.0
 11
-4781.044630525375
 21
-8578.486865411866
 31
0.0
  0
LINE
  5
1808
330
1F
100
AcDbEntity
  8
STAVBA OBRYS
  6
Continuous
100
AcDbLine
 10
-4782.622208674966
 20
-8582.908921146769
 30
0.0
 11
-4782.999860048094
 21
-8582.531269771457
 31
0.0
  0
LINE
  5
1809
330
1F
100
AcDbEntity
  8
STAVBA OBRYS
  6
Continuous
100
AcDbLine
 10
-4782.622208674966
 20
-8582.908921146769
 30
0.0
 11
-4782.403617362939
 21
-8582.531269771457
 31
0.0
  0
LINE
  5
180A
330
1F
100
AcDbEntity
  8
STAVBA OBRYS
  6
Continuous
100
AcDbLine
 10
-4782.622208674966
 20
-8582.908921146769
 30
0.0
 11
-4781.422281898227
 21
-8578.109214040919
 31
0.0
  0
LINE
  5
180B
330
1F
100
AcDbEntity
  8
STAVBA OBRYS
  6
Continuous
100
AcDbLine
 10
-4781.280895177366
 20
-8579.159382510294
 30
0.0
 11
-4778.752677364496
 21
-8579.159382510294
 31
0.0
  0
LINE
  5
180C
330
1F
100
AcDbEntity
  8
STAVBA OBRYS
  6
Continuous
100
AcDbLine
 10
-4782.186886402593
 20
-8581.85875267303
 30
0.0
 11
-4779.666109995884
 21
-8581.85875267303
 31
0.0
  0
LWPOLYLINE
  5
180D
330
1F
100
AcDbEntity
  8
izolace
100
AcDbPolyline
 90
        4
 70
     1
 43
0.0
 10
-4743.663014073769
 20
-8642.920671062958
 10
-4767.304746783604
 20
-8642.920671062958
 10
-4767.304746783604
 20
-8645.920671062958
 10
-4743.663014073769
 20
-8645.920671062958
  0
HATCH
  5
180E
330
1F
100
AcDbEntity
  8
izolace
100
AcDbHatch
 10
0.0
 20
0.0
 30
0.0
210
0.0
220
0.0
230
1.0
  2
SOLID
 70
     1
 71
     0
 91
        1
 92
        7
 72
     0
 73
     1
 93
        4
 10
-4743.663014073765
 20
-8642.920671062958
 10
-4767.3047467836
 20
-8642.920671062958
 10
-4767.304746783604
 20
-8645.920671062958
 10
-4743.663014073765
 20
-8645.920671062958
 97
        0
 75
     0
 76
     1
 47
0.1901250437635136
 98
        1
 10
-4757.94695202526
 20
-8643.737482614037
  0
LWPOLYLINE
  5
180F
330
1F
100
AcDbEntity
  8
nášlap_vrstvy
100
AcDbPolyline
 90
        4
 70
     1
 43
0.0
 10
-4753.277072680332
 20
-8642.091730141926
 10
-4753.277072680332
 20
-8640.091730141921
 10
-4740.775995673353
 20
-8640.091730141921
 10
-4740.775995673353
 20
-8642.091730141926
  0
LINE
  5
1810
330
1F
100
AcDbEntity
  8
SPOJOVACÍ
  6
DASHED
100
AcDbLine
 10
-4751.819982951689
 20
-8637.721224864254
 30
0.0
 11
-4756.859045451689
 21
-8640.903859166829
 31
0.0
  0
LINE
  5
1811
330
1F
100
AcDbEntity
  8
SPOJOVACÍ
100
AcDbLine
 10
-4765.319982951688
 20
-8637.721224864254
 30
0.0
 11
-4760.280920451688
 21
-8640.903859166831
 31
0.0
  0
LINE
  5
1812
330
1F
100
AcDbEntity
  8
SPOJOVACÍ
  6
Continuous
370
    20
100
AcDbLine
 10
-4756.171777559262
 20
-8648.651143408127
 30
0.0
 11
-4760.968188354468
 21
-8650.263919991372
 31
0.0
  0
LINE
  5
1813
330
1F
100
AcDbEntity
  8
SPOJOVACÍ
  6
Continuous
370
    20
100
AcDbLine
 10
-4756.171777559262
 20
-8649.358249967551
 30
0.0
 11
-4760.968188354468
 21
-8650.971026550793
 31
0.0
  0
LINE
  5
1814
330
1F
100
AcDbEntity
  8
SPOJOVACÍ
  6
Continuous
370
    20
100
AcDbLine
 10
-4755.723906631356
 20
-8649.100117464014
 30
0.0
 11
-4761.416059277198
 21
-8650.523155625473
 31
0.0
  0
LINE
  5
1815
330
1F
100
AcDbEntity
  8
SPOJOVACÍ
  6
Continuous
370
    20
100
AcDbLine
 10
-4755.723906628769
 20
-8656.124217723428
 30
0.0
 11
-4761.416059274607
 21
-8657.547255884885
 31
0.0
  0
LINE
  5
1816
330
1F
100
AcDbEntity
  8
SPOJOVACÍ
  6
Continuous
370
    20
100
AcDbLine
 10
-4756.171777556676
 20
-8656.382350226962
 30
0.0
 11
-4760.968188351879
 21
-8657.995126810204
 31
0.0
  0
LINE
  5
1817
330
1F
100
AcDbEntity
  8
SPOJOVACÍ
  6
Continuous
370
    20
100
AcDbLine
 10
-4756.171777556676
 20
-8655.675243667538
 30
0.0
 11
-4760.968188351879
 21
-8657.288020250785
 31
0.0
  0
LINE
  5
1818
330
1F
100
AcDbEntity
  8
SPOJOVACÍ
  6
Continuous
370
    20
100
AcDbLine
 10
-4755.723906628769
 20
-8652.728227809177
 30
0.0
 11
-4761.416059274607
 21
-8654.151265970636
 31
0.0
  0
LINE
  5
1819
330
1F
100
AcDbEntity
  8
SPOJOVACÍ
  6
Continuous
370
    20
100
AcDbLine
 10
-4756.171777556676
 20
-8652.986360312713
 30
0.0
 11
-4760.968188351879
 21
-8654.599136895955
 31
0.0
  0
LINE
  5
181A
330
1F
100
AcDbEntity
  8
SPOJOVACÍ
  6
Continuous
370
    20
100
AcDbLine
 10
-4756.171777556676
 20
-8652.279253753288
 30
0.0
 11
-4760.968188351879
 21
-8653.892030336534
 31
0.0
  0
INSERT
  5
181B
330
1F
100
AcDbEntity
  8
POPIS
370
    20
100
AcDbBlockReference
  2
E_PUNKT
 10
-4759.012161997397
 20
-8653.645326516706
 30
0.0
 50
270.0
  0
LINE
  5
181C
330
1F
100
AcDbEntity
  8
SPOJOVACÍ
  6
Continuous
370
    20
100
AcDbLine
 10
-4761.416059277198
 20
-8650.523155625473
 30
0.0
 11
-4760.968188354468
 21
-8650.263919991372
 31
0.0
  0
LINE
  5
181D
330
1F
100
AcDbEntity
  8
SPOJOVACÍ
  6
Continuous
370
    20
100
AcDbLine
 10
-4761.416059277198
 20
-8650.523155625473
 30
0.0
 11
-4760.968188354468
 21
-8650.971026550793
 31
0.0
  0
LINE
  5
181E
330
1F
100
AcDbEntity
  8
SPOJOVACÍ
  6
Continuous
370
    20
100
AcDbLine
 10
-4761.416059274607
 20
-8657.547255884885
 30
0.0
 11
-4760.968188351879
 21
-8657.995126810204
 31
0.0
  0
LINE
  5
181F
330
1F
100
AcDbEntity
  8
SPOJOVACÍ
  6
Continuous
370
    20
100
AcDbLine
 10
-4761.416059274607
 20
-8657.547255884885
 30
0.0
 11
-4760.968188351879
 21
-8657.288020250785
 31
0.0
  0
LINE
  5
1820
330
1F
100
AcDbEntity
  8
SPOJOVACÍ
  6
Continuous
370
    20
100
AcDbLine
 10
-4761.416059274607
 20
-8654.151265970636
 30
0.0
 11
-4760.968188351879
 21
-8654.599136895955
 31
0.0
  0
LINE
  5
1821
330
1F
100
AcDbEntity
  8
SPOJOVACÍ
  6
Continuous
370
    20
100
AcDbLine
 10
-4761.416059274607
 20
-8654.151265970636
 30
0.0
 11
-4760.968188351879
 21
-8653.892030336534
 31
0.0
  0
LINE
  5
1822
330
1F
100
AcDbEntity
  8
SPOJOVACÍ
  6
Continuous
370
    20
100
AcDbLine
 10
-4755.723906628769
 20
-8659.520207637678
 30
0.0
 11
-4756.171777556676
 21
-8659.071233581789
 31
0.0
  0
LINE
  5
1823
330
1F
100
AcDbEntity
  8
SPOJOVACÍ
  6
Continuous
370
    20
100
AcDbLine
 10
-4755.723906628769
 20
-8659.520207637678
 30
0.0
 11
-4756.171777556676
 21
-8659.778340141214
 31
0.0
  0
LINE
  5
1824
330
1F
100
AcDbEntity
  8
SPOJOVACÍ
  6
Continuous
370
    20
100
AcDbLine
 10
-4755.723906628769
 20
-8656.124217723428
 30
0.0
 11
-4756.171777556676
 21
-8656.382350226962
 31
0.0
  0
LINE
  5
1825
330
1F
100
AcDbEntity
  8
SPOJOVACÍ
  6
Continuous
370
    20
100
AcDbLine
 10
-4755.723906628769
 20
-8656.124217723428
 30
0.0
 11
-4756.171777556676
 21
-8655.675243667538
 31
0.0
  0
LINE
  5
1826
330
1F
100
AcDbEntity
  8
SPOJOVACÍ
  6
Continuous
370
    20
100
AcDbLine
 10
-4755.723906628769
 20
-8652.728227809177
 30
0.0
 11
-4756.171777556676
 21
-8652.986360312713
 31
0.0
  0
LINE
  5
1827
330
1F
100
AcDbEntity
  8
SPOJOVACÍ
  6
Continuous
370
    20
100
AcDbLine
 10
-4755.723906628769
 20
-8652.728227809177
 30
0.0
 11
-4756.171777556676
 21
-8652.279253753288
 31
0.0
  0
LINE
  5
1828
330
1F
100
AcDbEntity
  8
SPOJOVACÍ
  6
Continuous
100
AcDbLine
 10
-4755.723906631356
 20
-8645.704127549764
 30
0.0
 11
-4761.416059277198
 21
-8647.127165711223
 31
0.0
  0
LINE
  5
1829
330
1F
100
AcDbEntity
  8
SPOJOVACÍ
  6
Continuous
100
AcDbLine
 10
-4756.171777559262
 20
-8645.9622600533
 30
0.0
 11
-4760.968188354468
 21
-8647.575036636544
 31
0.0
  0
LINE
  5
182A
330
1F
100
AcDbEntity
  8
SPOJOVACÍ
  6
Continuous
100
AcDbLine
 10
-4756.171777559262
 20
-8645.255153493875
 30
0.0
 11
-4760.968188354468
 21
-8646.867930077121
 31
0.0
  0
LINE
  5
182B
330
1F
100
AcDbEntity
  8
SPOJOVACÍ
  6
Continuous
100
AcDbLine
 10
-4755.723906631356
 20
-8642.308137635515
 30
0.0
 11
-4761.416059277198
 21
-8643.731175796972
 31
0.0
  0
LINE
  5
182C
330
1F
100
AcDbEntity
  8
SPOJOVACÍ
  6
Continuous
100
AcDbLine
 10
-4756.171777559262
 20
-8642.566270139051
 30
0.0
 11
-4760.968188354468
 21
-8644.179046722292
 31
0.0
  0
LINE
  5
182D
330
1F
100
AcDbEntity
  8
SPOJOVACÍ
  6
Continuous
100
AcDbLine
 10
-4756.171777559262
 20
-8641.859163579626
 30
0.0
 11
-4760.968188354468
 21
-8643.471940162873
 31
0.0
  0
LINE
  5
182E
330
1F
100
AcDbEntity
  8
SPOJOVACÍ
  6
Continuous
100
AcDbLine
 10
-4761.416059277198
 20
-8647.127165711223
 30
0.0
 11
-4760.968188354468
 21
-8647.575036636544
 31
0.0
  0
LINE
  5
182F
330
1F
100
AcDbEntity
  8
SPOJOVACÍ
  6
Continuous
100
AcDbLine
 10
-4761.416059277198
 20
-8647.127165711223
 30
0.0
 11
-4760.968188354468
 21
-8646.867930077121
 31
0.0
  0
LINE
  5
1830
330
1F
100
AcDbEntity
  8
SPOJOVACÍ
  6
Continuous
100
AcDbLine
 10
-4761.416059277198
 20
-8643.731175796972
 30
0.0
 11
-4760.968188354468
 21
-8644.179046722292
 31
0.0
  0
LINE
  5
1831
330
1F
100
AcDbEntity
  8
SPOJOVACÍ
  6
Continuous
100
AcDbLine
 10
-4761.416059277198
 20
-8643.731175796972
 30
0.0
 11
-4760.968188354468
 21
-8643.471940162873
 31
0.0
  0
LINE
  5
1832
330
1F
100
AcDbEntity
  8
SPOJOVACÍ
  6
Continuous
100
AcDbLine
 10
-4755.723906631356
 20
-8645.704127549764
 30
0.0
 11
-4756.171777559262
 21
-8645.9622600533
 31
0.0
  0
LINE
  5
1833
330
1F
100
AcDbEntity
  8
SPOJOVACÍ
  6
Continuous
100
AcDbLine
 10
-4755.723906631356
 20
-8645.704127549764
 30
0.0
 11
-4756.171777559262
 21
-8645.255153493875
 31
0.0
  0
LINE
  5
1834
330
1F
100
AcDbEntity
  8
SPOJOVACÍ
  6
Continuous
100
AcDbLine
 10
-4755.723906631356
 20
-8642.308137635515
 30
0.0
 11
-4756.171777559262
 21
-8642.566270139051
 31
0.0
  0
LINE
  5
1835
330
1F
100
AcDbEntity
  8
SPOJOVACÍ
  6
Continuous
100
AcDbLine
 10
-4755.723906631356
 20
-8642.308137635515
 30
0.0
 11
-4756.171777559262
 21
-8641.859163579626
 31
0.0
  0
LINE
  5
1836
330
1F
100
AcDbEntity
  8
SPOJOVACÍ
  6
Continuous
370
    20
100
AcDbLine
 10
-4755.723906631356
 20
-8649.100117464014
 30
0.0
 11
-4756.171777559262
 21
-8648.651143408127
 31
0.0
  0
LINE
  5
1837
330
1F
100
AcDbEntity
  8
SPOJOVACÍ
  6
Continuous
370
    20
100
AcDbLine
 10
-4755.723906631356
 20
-8649.100117464014
 30
0.0
 11
-4756.171777559262
 21
-8649.358249967551
 31
0.0
  0
LINE
  5
1838
330
1F
100
AcDbEntity
  8
SPOJOVACÍ
100
AcDbLine
 10
-4751.819982951689
 20
-8636.279636497784
 30
0.0
 11
-4765.319982951688
 21
-8636.279636497784
 31
0.0
  0
LINE
  5
1839
330
1F
100
AcDbEntity
  8
SPOJOVACÍ
100
AcDbLine
 10
-4751.819982951689
 20
-8637.721224864254
 30
0.0
 11
-4765.319982951688
 21
-8637.721224864254
 31
0.0
  0
LINE
  5
183A
330
1F
100
AcDbEntity
  8
SPOJOVACÍ
100
AcDbLine
 10
-4765.319982951688
 20
-8637.721224864254
 30
0.0
 11
-4765.319982951688
 21
-8636.84431424212
 31
0.0
  0
LINE
  5
183B
330
1F
100
AcDbEntity
  8
SPOJOVACÍ
100
AcDbLine
 10
-4765.319982951688
 20
-8636.279636497784
 30
0.0
 11
-4765.319982951688
 21
-8637.721224864254
 31
0.0
  0
LINE
  5
183C
330
1F
100
AcDbEntity
  8
SPOJOVACÍ
100
AcDbLine
 10
-4751.819982951689
 20
-8636.84431424212
 30
0.0
 11
-4751.819982951689
 21
-8637.721224864254
 31
0.0
  0
LINE
  5
183D
330
1F
100
AcDbEntity
  8
SPOJOVACÍ
100
AcDbLine
 10
-4751.819982951689
 20
-8637.721224864254
 30
0.0
 11
-4751.819982951689
 21
-8636.84431424212
 31
0.0
  0
LINE
  5
183E
330
1F
100
AcDbEntity
  8
SPOJOVACÍ
100
AcDbLine
 10
-4751.819982951689
 20
-8636.279636497784
 30
0.0
 11
-4751.819982951689
 21
-8637.721224864254
 31
0.0
  0
INSERT
  5
183F
330
1F
100
AcDbEntity
  8
POPIS
100
AcDbBlockReference
  2
E_PUNKT
 10
-4737.244033759725
 20
-8640.822840476948
 30
0.0
 50
270.0
  0
LINE
  5
1840
330
1F
100
AcDbEntity
  8
STAVBA OBRYS
  6
Continuous
100
AcDbLine
 10
-4751.044964838067
 20
-8581.262509985423
 30
0.0
 11
-4753.365753448423
 21
-8580.972295140268
 31
0.0
  0
LINE
  5
1841
330
1F
100
AcDbEntity
  8
STAVBA OBRYS
  6
Continuous
100
AcDbLine
 10
-4753.669920933745
 20
-8580.083047075492
 30
0.0
 11
-4751.52493554876
 21
-8579.81515644718
 31
0.0
  0
LINE
  5
1842
330
1F
100
AcDbEntity
  8
STAVBA OBRYS
  6
Continuous
100
AcDbLine
 10
-4751.315645994575
 20
-8578.974277529811
 30
0.0
 11
-4751.694227543405
 21
-8579.351928900756
 31
0.0
  0
LINE
  5
1843
330
1F
100
AcDbEntity
  8
STAVBA OBRYS
  6
Continuous
100
AcDbLine
 10
-4750.899857413853
 20
-8581.712715070931
 30
0.0
 11
-4751.694227543405
 21
-8579.351928900756
 31
0.0
  0
LINE
  5
1844
330
1F
100
AcDbEntity
  8
STAVBA OBRYS
  6
Continuous
100
AcDbLine
 10
-4764.182403699265
 20
-8580.083047075492
 30
0.0
 11
-4766.32738908425
 21
-8579.81515644718
 31
0.0
  0
LINE
  5
1845
330
1F
100
AcDbEntity
  8
STAVBA OBRYS
  6
Continuous
100
AcDbLine
 10
-4766.807359794944
 20
-8581.262509985423
 30
0.0
 11
-4764.486571184589
 21
-8580.972295140268
 31
0.0
  0
LINE
  5
1846
330
1F
100
AcDbEntity
  8
STAVBA OBRYS
  6
Continuous
100
AcDbLine
 10
-4769.606258764597
 20
-8579.40494892176
 30
0.0
 11
-4771.577301275883
 21
-8579.159382510294
 31
0.0
  0
LINE
  5
1847
330
1F
100
AcDbEntity
  8
STAVBA OBRYS
  6
Continuous
100
AcDbLine
 10
-4771.577301275883
 20
-8581.85875267303
 30
0.0
 11
-4770.380165026526
 21
-8581.708994370307
 31
0.0
  0
LINE
  5
1848
330
1F
100
AcDbEntity
  8
STAVBA OBRYS
  6
Continuous
100
AcDbLine
 10
-4773.640431190925
 20
-8582.531269771457
 30
0.0
 11
-4772.280514177382
 21
-8578.486865411866
 31
0.0
  0
LINE
  5
1849
330
1F
100
AcDbEntity
  8
STAVBA OBRYS
  6
Continuous
100
AcDbLine
 10
-4773.04418850577
 20
-8582.531269771457
 30
0.0
 11
-4771.684271492228
 21
-8578.486865411866
 31
0.0
  0
LINE
  5
184A
330
1F
100
AcDbEntity
  8
STAVBA OBRYS
  6
Continuous
100
AcDbLine
 10
-4772.061922865356
 20
-8578.109214040919
 30
0.0
 11
-4772.280514177382
 21
-8578.486865411866
 31
0.0
  0
LINE
  5
184B
330
1F
100
AcDbEntity
  8
STAVBA OBRYS
  6
Continuous
100
AcDbLine
 10
-4772.061922865356
 20
-8578.109214040919
 30
0.0
 11
-4771.684271492228
 21
-8578.486865411866
 31
0.0
  0
LINE
  5
184C
330
1F
100
AcDbEntity
  8
STAVBA OBRYS
  6
Continuous
100
AcDbLine
 10
-4773.261849641818
 20
-8582.908921146769
 30
0.0
 11
-4773.640431190925
 21
-8582.531269771457
 31
0.0
  0
LINE
  5
184D
330
1F
100
AcDbEntity
  8
STAVBA OBRYS
  6
Continuous
100
AcDbLine
 10
-4773.261849641818
 20
-8582.908921146769
 30
0.0
 11
-4773.04418850577
 21
-8582.531269771457
 31
0.0
  0
LINE
  5
184E
330
1F
100
AcDbEntity
  8
STAVBA OBRYS
  6
Continuous
100
AcDbLine
 10
-4773.261849641818
 20
-8582.908921146769
 30
0.0
 11
-4772.061922865356
 21
-8578.109214040919
 31
0.0
  0
LINE
  5
184F
330
1F
100
AcDbEntity
  8
STAVBA OBRYS
  6
Continuous
100
AcDbLine
 10
-4776.760240809887
 20
-8582.531269771457
 30
0.0
 11
-4775.400323796344
 21
-8578.486865411866
 31
0.0
  0
LINE
  5
1850
330
1F
100
AcDbEntity
  8
STAVBA OBRYS
  6
Continuous
100
AcDbLine
 10
-4776.163998124739
 20
-8582.531269771457
 30
0.0
 11
-4774.804081111466
 21
-8578.486865411866
 31
0.0
  0
LINE
  5
1851
330
1F
100
AcDbEntity
  8
STAVBA OBRYS
  6
Continuous
100
AcDbLine
 10
-4775.182662660296
 20
-8578.109214040919
 30
0.0
 11
-4775.400323796344
 21
-8578.486865411866
 31
0.0
  0
LINE
  5
1852
330
1F
100
AcDbEntity
  8
STAVBA OBRYS
  6
Continuous
100
AcDbLine
 10
-4775.182662660296
 20
-8578.109214040919
 30
0.0
 11
-4774.804081111466
 21
-8578.486865411866
 31
0.0
  0
LINE
  5
1853
330
1F
100
AcDbEntity
  8
STAVBA OBRYS
  6
Continuous
100
AcDbLine
 10
-4776.382589436758
 20
-8582.908921146769
 30
0.0
 11
-4776.760240809887
 21
-8582.531269771457
 31
0.0
  0
LINE
  5
1854
330
1F
100
AcDbEntity
  8
STAVBA OBRYS
  6
Continuous
100
AcDbLine
 10
-4776.382589436758
 20
-8582.908921146769
 30
0.0
 11
-4776.163998124739
 21
-8582.531269771457
 31
0.0
  0
LINE
  5
1855
330
1F
100
AcDbEntity
  8
STAVBA OBRYS
  6
Continuous
100
AcDbLine
 10
-4776.382589436758
 20
-8582.908921146769
 30
0.0
 11
-4775.182662660296
 21
-8578.109214040919
 31
0.0
  0
LINE
  5
1856
330
1F
100
AcDbEntity
  8
STAVBA OBRYS
  6
Continuous
100
AcDbLine
 10
-4771.914024913767
 20
-8579.159382510294
 30
0.0
 11
-4771.577301275883
 21
-8579.159382510294
 31
0.0
  0
LINE
  5
1857
330
1F
100
AcDbEntity
  8
STAVBA OBRYS
  6
Continuous
100
AcDbLine
 10
-4775.03662506038
 20
-8579.159382510294
 30
0.0
 11
-4772.517709005351
 21
-8579.159382510294
 31
0.0
  0
LINE
  5
1858
330
1F
100
AcDbEntity
  8
STAVBA OBRYS
  6
Continuous
100
AcDbLine
 10
-4772.824667017772
 20
-8581.85875267303
 30
0.0
 11
-4771.577301275883
 21
-8581.85875267303
 31
0.0
  0
LINE
  5
1859
330
1F
100
AcDbEntity
  8
STAVBA OBRYS
  6
Continuous
100
AcDbLine
 10
-4775.938895582254
 20
-8581.85875267303
 30
0.0
 11
-4773.420909702926
 21
-8581.85875267303
 31
0.0
  0
LINE
  5
185A
330
1F
100
AcDbEntity
  8
STAVBA OBRYS
  6
Continuous
100
AcDbLine
 10
-4767.170128355206
 20
-8582.090366446243
 30
0.0
 11
-4766.536678638437
 21
-8578.974277529811
 31
0.0
  0
LINE
  5
185B
330
1F
100
AcDbEntity
  8
STAVBA OBRYS
  6
Continuous
100
AcDbLine
 10
-4767.548709904313
 20
-8581.712715070931
 30
0.0
 11
-4766.754339774485
 21
-8579.351928900756
 31
0.0
  0
LINE
  5
185C
330
1F
100
AcDbEntity
  8
STAVBA OBRYS
  6
Continuous
100
AcDbLine
 10
-4766.952467219158
 20
-8581.712715070931
 30
0.0
 11
-4766.158097089607
 21
-8579.351928900756
 31
0.0
  0
LINE
  5
185D
330
1F
100
AcDbEntity
  8
STAVBA OBRYS
  6
Continuous
100
AcDbLine
 10
-4766.536678638437
 20
-8578.974277529811
 30
0.0
 11
-4766.754339774485
 21
-8579.351928900756
 31
0.0
  0
LINE
  5
185E
330
1F
100
AcDbEntity
  8
STAVBA OBRYS
  6
Continuous
100
AcDbLine
 10
-4766.536678638437
 20
-8578.974277529811
 30
0.0
 11
-4766.158097089607
 21
-8579.351928900756
 31
0.0
  0
LINE
  5
185F
330
1F
100
AcDbEntity
  8
STAVBA OBRYS
  6
Continuous
100
AcDbLine
 10
-4767.170128355206
 20
-8582.090366446243
 30
0.0
 11
-4767.548709904313
 21
-8581.712715070931
 31
0.0
  0
LINE
  5
1860
330
1F
100
AcDbEntity
  8
STAVBA OBRYS
  6
Continuous
100
AcDbLine
 10
-4767.170128355206
 20
-8582.090366446243
 30
0.0
 11
-4766.952467219158
 21
-8581.712715070931
 31
0.0
  0
LINE
  5
1861
330
1F
100
AcDbEntity
  8
STAVBA OBRYS
  6
Continuous
100
AcDbLine
 10
-4770.184828109504
 20
-8582.654983152348
 30
0.0
 11
-4769.2118642272
 21
-8578.529653499606
 31
0.0
  0
LINE
  5
1862
330
1F
100
AcDbEntity
  8
STAVBA OBRYS
  6
Continuous
100
AcDbLine
 10
-4770.562479482633
 20
-8582.276401604064
 30
0.0
 11
-4769.429525363248
 21
-8578.907304870551
 31
0.0
  0
LINE
  5
1863
330
1F
100
AcDbEntity
  8
STAVBA OBRYS
  6
Continuous
100
AcDbLine
 10
-4769.966236797478
 20
-8582.276401604064
 30
0.0
 11
-4768.833282678094
 21
-8578.907304870551
 31
0.0
  0
LINE
  5
1864
330
1F
100
AcDbEntity
  8
STAVBA OBRYS
  6
Continuous
100
AcDbLine
 10
-4769.2118642272
 20
-8578.529653499606
 30
0.0
 11
-4769.429525363248
 21
-8578.907304870551
 31
0.0
  0
LINE
  5
1865
330
1F
100
AcDbEntity
  8
STAVBA OBRYS
  6
Continuous
100
AcDbLine
 10
-4769.2118642272
 20
-8578.529653499606
 30
0.0
 11
-4768.833282678094
 21
-8578.907304870551
 31
0.0
  0
LINE
  5
1866
330
1F
100
AcDbEntity
  8
STAVBA OBRYS
  6
Continuous
100
AcDbLine
 10
-4770.184828109504
 20
-8582.654983152348
 30
0.0
 11
-4770.562479482633
 21
-8582.276401604064
 31
0.0
  0
LINE
  5
1867
330
1F
100
AcDbEntity
  8
STAVBA OBRYS
  6
Continuous
100
AcDbLine
 10
-4770.184828109504
 20
-8582.654983152348
 30
0.0
 11
-4769.966236797478
 21
-8582.276401604064
 31
0.0
  0
LINE
  5
1868
330
1F
100
AcDbEntity
  8
STAVBA OBRYS
  6
Continuous
100
AcDbLine
 10
-4766.899447198698
 20
-8579.743532914323
 30
0.0
 11
-4769.036061001552
 21
-8579.476572458984
 31
0.0
  0
LINE
  5
1869
330
1F
100
AcDbEntity
  8
STAVBA OBRYS
  6
Continuous
100
AcDbLine
 10
-4769.759737770673
 20
-8581.63178977778
 30
0.0
 11
-4767.438018984608
 21
-8581.341574928261
 31
0.0
  0
LINE
  5
186A
330
1F
100
AcDbEntity
  8
STAVBA OBRYS
  6
Continuous
100
AcDbLine
 10
-4764.156358776887
 20
-8581.525749735771
 30
0.0
 11
-4763.845680061113
 21
-8579.371462594314
 31
0.0
  0
LINE
  5
186B
330
1F
100
AcDbEntity
  8
STAVBA OBRYS
  6
Continuous
100
AcDbLine
 10
-4764.534010150015
 20
-8581.148098364826
 30
0.0
 11
-4764.06334119743
 21
-8579.749113965259
 31
0.0
  0
LINE
  5
186C
330
1F
100
AcDbEntity
  8
STAVBA OBRYS
  6
Continuous
100
AcDbLine
 10
-4763.937767464867
 20
-8581.148098364826
 30
0.0
 11
-4763.467098512283
 21
-8579.749113965259
 31
0.0
  0
LINE
  5
186D
330
1F
100
AcDbEntity
  8
STAVBA OBRYS
  6
Continuous
100
AcDbLine
 10
-4763.845680061113
 20
-8579.371462594314
 30
0.0
 11
-4764.06334119743
 21
-8579.749113965259
 31
0.0
  0
LINE
  5
186E
330
1F
100
AcDbEntity
  8
STAVBA OBRYS
  6
Continuous
100
AcDbLine
 10
-4763.845680061113
 20
-8579.371462594314
 30
0.0
 11
-4763.467098512283
 21
-8579.749113965259
 31
0.0
  0
LINE
  5
186F
330
1F
100
AcDbEntity
  8
STAVBA OBRYS
  6
Continuous
100
AcDbLine
 10
-4764.156358776887
 20
-8581.525749735771
 30
0.0
 11
-4764.534010150015
 21
-8581.148098364826
 31
0.0
  0
LINE
  5
1870
330
1F
100
AcDbEntity
  8
STAVBA OBRYS
  6
Continuous
100
AcDbLine
 10
-4764.156358776887
 20
-8581.525749735771
 30
0.0
 11
-4763.937767464867
 21
-8581.148098364826
 31
0.0
  0
LINE
  5
1871
330
1F
100
AcDbEntity
  8
STAVBA OBRYS
  6
Continuous
100
AcDbLine
 10
-4763.866143928735
 20
-8580.895090547743
 30
0.0
 11
-4760.77703011093
 21
-8580.509067593844
 31
0.0
  0
LINE
  5
1872
330
1F
100
AcDbEntity
  8
STAVBA OBRYS
  6
Continuous
100
AcDbLine
 10
-4760.77703011093
 20
-8580.509067593844
 30
0.0
 11
-4763.613136112199
 21
-8580.154670612715
 31
0.0
  0
LINE
  5
1873
330
1F
100
AcDbEntity
  8
STAVBA OBRYS
  6
Continuous
100
AcDbLine
 10
-4757.07529452208
 20
-8580.509067593844
 30
0.0
 11
-4754.239188520812
 21
-8580.154670612715
 31
0.0
  0
LINE
  5
1874
330
1F
100
AcDbEntity
  8
STAVBA OBRYS
  6
Continuous
100
AcDbLine
 10
-4753.986180704276
 20
-8580.895090547743
 30
0.0
 11
-4757.07529452208
 21
-8580.509067593844
 31
0.0
  0
LINE
  5
1875
330
1F
100
AcDbEntity
  8
STAVBA OBRYS
  6
Continuous
100
AcDbLine
 10
-4753.695965856124
 20
-8581.525749735771
 30
0.0
 11
-4753.914557168143
 21
-8581.148098364826
 31
0.0
  0
LINE
  5
1876
330
1F
100
AcDbEntity
  8
STAVBA OBRYS
  6
Continuous
100
AcDbLine
 10
-4753.695965856124
 20
-8581.525749735771
 30
0.0
 11
-4753.318314482996
 21
-8581.148098364826
 31
0.0
  0
LINE
  5
1877
330
1F
100
AcDbEntity
  8
STAVBA OBRYS
  6
Continuous
100
AcDbLine
 10
-4754.006644571898
 20
-8579.371462594314
 30
0.0
 11
-4754.385226120728
 21
-8579.749113965259
 31
0.0
  0
LINE
  5
1878
330
1F
100
AcDbEntity
  8
STAVBA OBRYS
  6
Continuous
100
AcDbLine
 10
-4754.006644571898
 20
-8579.371462594314
 30
0.0
 11
-4753.788983435581
 21
-8579.749113965259
 31
0.0
  0
LINE
  5
1879
330
1F
100
AcDbEntity
  8
STAVBA OBRYS
  6
Continuous
100
AcDbLine
 10
-4753.914557168143
 20
-8581.148098364826
 30
0.0
 11
-4754.385226120728
 21
-8579.749113965259
 31
0.0
  0
LINE
  5
187A
330
1F
100
AcDbEntity
  8
STAVBA OBRYS
  6
Continuous
100
AcDbLine
 10
-4753.318314482996
 20
-8581.148098364826
 30
0.0
 11
-4753.788983435581
 21
-8579.749113965259
 31
0.0
  0
LINE
  5
187B
330
1F
100
AcDbEntity
  8
STAVBA OBRYS
  6
Continuous
100
AcDbLine
 10
-4753.695965856124
 20
-8581.525749735771
 30
0.0
 11
-4754.006644571898
 21
-8579.371462594314
 31
0.0
  0
LINE
  5
187C
330
1F
100
AcDbEntity
  8
STAVBA OBRYS
  6
Continuous
100
AcDbLine
 10
-4736.571429455645
 20
-8579.159382510294
 30
0.0
 11
-4739.099647268514
 21
-8579.159382510294
 31
0.0
  0
LINE
  5
187D
330
1F
100
AcDbEntity
  8
STAVBA OBRYS
  6
Continuous
100
AcDbLine
 10
-4738.349925577284
 20
-8582.908921146769
 30
0.0
 11
-4739.549852353746
 21
-8578.109214040919
 31
0.0
  0
LINE
  5
187E
330
1F
100
AcDbEntity
  8
STAVBA OBRYS
  6
Continuous
100
AcDbLine
 10
-4738.349925577284
 20
-8582.908921146769
 30
0.0
 11
-4738.56851688931
 21
-8582.531269771457
 31
0.0
  0
LINE
  5
187F
330
1F
100
AcDbEntity
  8
STAVBA OBRYS
  6
Continuous
100
AcDbLine
 10
-4737.972274204156
 20
-8582.531269771457
 30
0.0
 11
-4739.332191217428
 21
-8578.486865411866
 31
0.0
  0
LINE
  5
1880
102
{ACAD_REACTORS
330
1761
102
}
330
1F
100
AcDbEntity
  8
STAVBA OBRYS
100
AcDbLine
 10
-4739.400596529503
 20
-8592.055773274326
 30
0.0
 11
-4739.400596529503
 21
-8590.555773274326
 31
0.0
  0
LINE
  5
1881
330
1F
100
AcDbEntity
  8
STAVBA OBRYS
  6
Continuous
100
AcDbLine
 10
-4745.027657615239
 20
-8581.85875267303
 30
0.0
 11
-4746.275023357127
 21
-8581.85875267303
 31
0.0
  0
LINE
  5
1882
330
1F
100
AcDbEntity
  8
STAVBA OBRYS
  6
Continuous
100
AcDbLine
 10
-4742.815699572631
 20
-8579.159382510294
 30
0.0
 11
-4745.33461562766
 21
-8579.159382510294
 31
0.0
  0
LINE
  5
1883
330
1F
100
AcDbEntity
  8
STAVBA OBRYS
  6
Continuous
100
AcDbLine
 10
-4744.590474991193
 20
-8582.908921146769
 30
0.0
 11
-4745.790401767655
 21
-8578.109214040919
 31
0.0
  0
LINE
  5
1884
330
1F
100
AcDbEntity
  8
STAVBA OBRYS
  6
Continuous
100
AcDbLine
 10
-4744.808136127241
 20
-8582.531269771457
 30
0.0
 11
-4746.168053140784
 21
-8578.486865411866
 31
0.0
  0
LINE
  5
1885
330
1F
100
AcDbEntity
  8
STAVBA OBRYS
  6
Continuous
100
AcDbLine
 10
-4744.211893442087
 20
-8582.531269771457
 30
0.0
 11
-4745.571810455628
 21
-8578.486865411866
 31
0.0
  0
LINE
  5
1886
330
1F
100
AcDbEntity
  8
STAVBA OBRYS
  6
Continuous
100
AcDbLine
 10
-4745.938299719244
 20
-8579.159382510294
 30
0.0
 11
-4746.275023357127
 21
-8579.159382510294
 31
0.0
  0
LINE
  5
1887
330
1F
100
AcDbEntity
  8
STAVBA OBRYS
  6
Continuous
100
AcDbLine
 10
-4746.275023357127
 20
-8581.85875267303
 30
0.0
 11
-4747.472159606484
 21
-8581.708994370307
 31
0.0
  0
LINE
  5
1888
330
1F
100
AcDbEntity
  8
STAVBA OBRYS
  6
Continuous
100
AcDbLine
 10
-4748.092586862338
 20
-8581.63178977778
 30
0.0
 11
-4750.414305648402
 21
-8581.341574928261
 31
0.0
  0
LINE
  5
1889
330
1F
100
AcDbEntity
  8
STAVBA OBRYS
  6
Continuous
100
AcDbLine
 10
-4750.952877434312
 20
-8579.743532914323
 30
0.0
 11
-4748.816263631459
 21
-8579.476572458984
 31
0.0
  0
LINE
  5
188A
330
1F
100
AcDbEntity
  8
STAVBA OBRYS
  6
Continuous
100
AcDbLine
 10
-4748.246065868413
 20
-8579.40494892176
 30
0.0
 11
-4746.275023357127
 21
-8579.159382510294
 31
0.0
  0
LINE
  5
188B
330
1F
100
AcDbEntity
  8
STAVBA OBRYS
  6
Continuous
100
AcDbLine
 10
-4747.667496523507
 20
-8582.654983152348
 30
0.0
 11
-4747.886087835533
 21
-8582.276401604064
 31
0.0
  0
LINE
  5
188C
330
1F
100
AcDbEntity
  8
STAVBA OBRYS
  6
Continuous
100
AcDbLine
 10
-4747.667496523507
 20
-8582.654983152348
 30
0.0
 11
-4747.289845150379
 21
-8582.276401604064
 31
0.0
  0
LINE
  5
188D
330
1F
100
AcDbEntity
  8
STAVBA OBRYS
  6
Continuous
100
AcDbLine
 10
-4748.640460405812
 20
-8578.529653499606
 30
0.0
 11
-4749.019041954918
 21
-8578.907304870551
 31
0.0
  0
LINE
  5
188E
330
1F
100
AcDbEntity
  8
STAVBA OBRYS
  6
Continuous
100
AcDbLine
 10
-4748.640460405812
 20
-8578.529653499606
 30
0.0
 11
-4748.422799269763
 21
-8578.907304870551
 31
0.0
  0
LINE
  5
188F
330
1F
100
AcDbEntity
  8
STAVBA OBRYS
  6
Continuous
100
AcDbLine
 10
-4747.886087835533
 20
-8582.276401604064
 30
0.0
 11
-4749.019041954918
 21
-8578.907304870551
 31
0.0
  0
LINE
  5
1890
330
1F
100
AcDbEntity
  8
STAVBA OBRYS
  6
Continuous
100
AcDbLine
 10
-4747.289845150379
 20
-8582.276401604064
 30
0.0
 11
-4748.422799269763
 21
-8578.907304870551
 31
0.0
  0
LINE
  5
1891
330
1F
100
AcDbEntity
  8
STAVBA OBRYS
  6
Continuous
100
AcDbLine
 10
-4747.667496523507
 20
-8582.654983152348
 30
0.0
 11
-4748.640460405812
 21
-8578.529653499606
 31
0.0
  0
LINE
  5
1892
330
1F
100
AcDbEntity
  8
STAVBA OBRYS
  6
Continuous
100
AcDbLine
 10
-4750.682196277804
 20
-8582.090366446243
 30
0.0
 11
-4750.899857413853
 21
-8581.712715070931
 31
0.0
  0
LINE
  5
1893
330
1F
100
AcDbEntity
  8
STAVBA OBRYS
  6
Continuous
100
AcDbLine
 10
-4750.682196277804
 20
-8582.090366446243
 30
0.0
 11
-4750.303614728698
 21
-8581.712715070931
 31
0.0
  0
LINE
  5
1894
330
1F
100
AcDbEntity
  8
STAVBA OBRYS
  6
Continuous
100
AcDbLine
 10
-4751.315645994575
 20
-8578.974277529811
 30
0.0
 11
-4751.097984858526
 21
-8579.351928900756
 31
0.0
  0
LINE
  5
1895
330
1F
100
AcDbEntity
  8
STAVBA OBRYS
  6
Continuous
100
AcDbLine
 10
-4750.303614728698
 20
-8581.712715070931
 30
0.0
 11
-4751.097984858526
 21
-8579.351928900756
 31
0.0
  0
LINE
  5
1896
330
1F
100
AcDbEntity
  8
STAVBA OBRYS
  6
Continuous
100
AcDbLine
 10
-4750.682196277804
 20
-8582.090366446243
 30
0.0
 11
-4751.315645994575
 21
-8578.974277529811
 31
0.0
  0
LINE
  5
1897
330
1F
100
AcDbEntity
  8
STAVBA OBRYS
  6
Continuous
100
AcDbLine
 10
-4745.790401767655
 20
-8578.109214040919
 30
0.0
 11
-4746.168053140784
 21
-8578.486865411866
 31
0.0
  0
LINE
  5
1898
330
1F
100
AcDbEntity
  8
STAVBA OBRYS
  6
Continuous
100
AcDbLine
 10
-4745.790401767655
 20
-8578.109214040919
 30
0.0
 11
-4745.571810455628
 21
-8578.486865411866
 31
0.0
  0
LINE
  5
1899
330
1F
100
AcDbEntity
  8
STAVBA OBRYS
  6
Continuous
100
AcDbLine
 10
-4738.780596970602
 20
-8581.85875267303
 30
0.0
 11
-4741.308814783471
 21
-8581.85875267303
 31
0.0
  0
LINE
  5
189A
330
1F
100
AcDbEntity
  8
STAVBA OBRYS
  6
Continuous
100
AcDbLine
 10
-4739.694029601989
 20
-8579.159382510294
 30
0.0
 11
-4742.214806008698
 21
-8579.159382510294
 31
0.0
  0
LINE
  5
189B
330
1F
100
AcDbEntity
  8
STAVBA OBRYS
  6
Continuous
100
AcDbLine
 10
-4741.913429050756
 20
-8581.85875267303
 30
0.0
 11
-4744.431414930084
 21
-8581.85875267303
 31
0.0
  0
LINE
  5
189C
330
1F
100
AcDbEntity
  8
STAVBA OBRYS
  6
Continuous
100
AcDbLine
 10
-4739.549852353746
 20
-8578.109214040919
 30
0.0
 11
-4739.928433902576
 21
-8578.486865411866
 31
0.0
  0
LINE
  5
189D
330
1F
100
AcDbEntity
  8
STAVBA OBRYS
  6
Continuous
100
AcDbLine
 10
-4739.549852353746
 20
-8578.109214040919
 30
0.0
 11
-4739.332191217428
 21
-8578.486865411866
 31
0.0
  0
LINE
  5
189E
330
1F
100
AcDbEntity
  8
STAVBA OBRYS
  6
Continuous
100
AcDbLine
 10
-4738.56851688931
 20
-8582.531269771457
 30
0.0
 11
-4739.928433902576
 21
-8578.486865411866
 31
0.0
  0
LINE
  5
189F
330
1F
100
AcDbEntity
  8
STAVBA OBRYS
  6
Continuous
100
AcDbLine
 10
-4741.469735196253
 20
-8582.908921146769
 30
0.0
 11
-4742.669661972715
 21
-8578.109214040919
 31
0.0
  0
LINE
  5
18A0
330
1F
100
AcDbEntity
  8
STAVBA OBRYS
  6
Continuous
100
AcDbLine
 10
-4741.469735196253
 20
-8582.908921146769
 30
0.0
 11
-4741.688326508272
 21
-8582.531269771457
 31
0.0
  0
LINE
  5
18A1
330
1F
100
AcDbEntity
  8
STAVBA OBRYS
  6
Continuous
100
AcDbLine
 10
-4741.469735196253
 20
-8582.908921146769
 30
0.0
 11
-4741.092083823125
 21
-8582.531269771457
 31
0.0
  0
LINE
  5
18A2
330
1F
100
AcDbEntity
  8
STAVBA OBRYS
  6
Continuous
100
AcDbLine
 10
-4742.669661972715
 20
-8578.109214040919
 30
0.0
 11
-4743.048243521545
 21
-8578.486865411866
 31
0.0
  0
LINE
  5
18A3
330
1F
100
AcDbEntity
  8
STAVBA OBRYS
  6
Continuous
100
AcDbLine
 10
-4742.669661972715
 20
-8578.109214040919
 30
0.0
 11
-4742.452000836666
 21
-8578.486865411866
 31
0.0
  0
LINE
  5
18A4
330
1F
100
AcDbEntity
  8
STAVBA OBRYS
  6
Continuous
100
AcDbLine
 10
-4741.688326508272
 20
-8582.531269771457
 30
0.0
 11
-4743.048243521545
 21
-8578.486865411866
 31
0.0
  0
LINE
  5
18A5
330
1F
100
AcDbEntity
  8
STAVBA OBRYS
  6
Continuous
100
AcDbLine
 10
-4741.092083823125
 20
-8582.531269771457
 30
0.0
 11
-4742.452000836666
 21
-8578.486865411866
 31
0.0
  0
LINE
  5
18A6
330
1F
100
AcDbEntity
  8
STAVBA OBRYS
  6
Continuous
100
AcDbLine
 10
-4744.590474991193
 20
-8582.908921146769
 30
0.0
 11
-4744.808136127241
 21
-8582.531269771457
 31
0.0
  0
LINE
  5
18A7
330
1F
100
AcDbEntity
  8
STAVBA OBRYS
  6
Continuous
100
AcDbLine
 10
-4744.590474991193
 20
-8582.908921146769
 30
0.0
 11
-4744.211893442087
 21
-8582.531269771457
 31
0.0
  0
LINE
  5
18A8
330
1F
100
AcDbEntity
  8
STAVBA OBRYS
  6
Continuous
100
AcDbLine
 10
-4727.909632445218
 20
-8579.159382510294
 30
0.0
 11
-4732.852586624146
 21
-8579.159382510294
 31
0.0
  0
LINE
  5
18A9
330
1F
100
AcDbEntity
  8
STAVBA OBRYS
  6
Continuous
100
AcDbLine
 10
-4732.110306339083
 20
-8582.908921146769
 30
0.0
 11
-4731.731724790253
 21
-8582.531269771457
 31
0.0
  0
LINE
  5
18AA
330
1F
100
AcDbEntity
  8
STAVBA OBRYS
  6
Continuous
100
AcDbLine
 10
-4731.731724790253
 20
-8582.531269771457
 30
0.0
 11
-4733.091641803519
 21
-8578.486865411866
 31
0.0
  0
LINE
  5
18AB
330
1F
100
AcDbEntity
  8
STAVBA OBRYS
  6
Continuous
100
AcDbLine
 10
-4732.542838084074
 20
-8581.85875267303
 30
0.0
 11
-4735.061754139104
 21
-8581.85875267303
 31
0.0
  0
LINE
  5
18AC
330
1F
100
AcDbEntity
  8
STAVBA OBRYS
  6
Continuous
100
AcDbLine
 10
-4735.665438230419
 20
-8581.85875267303
 30
0.0
 11
-4738.186214637127
 21
-8581.85875267303
 31
0.0
  0
LINE
  5
18AD
330
1F
100
AcDbEntity
  8
STAVBA OBRYS
  6
Continuous
100
AcDbLine
 10
-4733.456270715461
 20
-8579.159382510294
 30
0.0
 11
-4735.975186770491
 21
-8579.159382510294
 31
0.0
  0
LINE
  5
18AE
330
1F
100
AcDbEntity
  8
STAVBA OBRYS
  6
Continuous
100
AcDbLine
 10
-4732.110306339083
 20
-8582.908921146769
 30
0.0
 11
-4733.310233115545
 21
-8578.109214040919
 31
0.0
  0
LINE
  5
18AF
330
1F
100
AcDbEntity
  8
STAVBA OBRYS
  6
Continuous
100
AcDbLine
 10
-4732.110306339083
 20
-8582.908921146769
 30
0.0
 11
-4732.327967475131
 21
-8582.531269771457
 31
0.0
  0
LINE
  5
18B0
330
1F
100
AcDbEntity
  8
STAVBA OBRYS
  6
Continuous
100
AcDbLine
 10
-4733.310233115545
 20
-8578.109214040919
 30
0.0
 11
-4733.687884488674
 21
-8578.486865411866
 31
0.0
  0
LINE
  5
18B1
330
1F
100
AcDbEntity
  8
STAVBA OBRYS
  6
Continuous
100
AcDbLine
 10
-4733.310233115545
 20
-8578.109214040919
 30
0.0
 11
-4733.091641803519
 21
-8578.486865411866
 31
0.0
  0
LINE
  5
18B2
330
1F
100
AcDbEntity
  8
STAVBA OBRYS
  6
Continuous
100
AcDbLine
 10
-4732.327967475131
 20
-8582.531269771457
 30
0.0
 11
-4733.687884488674
 21
-8578.486865411866
 31
0.0
  0
LINE
  5
18B3
330
1F
100
AcDbEntity
  8
STAVBA OBRYS
  6
Continuous
100
AcDbLine
 10
-4735.230115958045
 20
-8582.908921146769
 30
0.0
 11
-4736.430042734784
 21
-8578.109214040919
 31
0.0
  0
LINE
  5
18B4
330
1F
100
AcDbEntity
  8
STAVBA OBRYS
  6
Continuous
100
AcDbLine
 10
-4735.230115958045
 20
-8582.908921146769
 30
0.0
 11
-4735.448707270072
 21
-8582.531269771457
 31
0.0
  0
LINE
  5
18B5
330
1F
100
AcDbEntity
  8
STAVBA OBRYS
  6
Continuous
100
AcDbLine
 10
-4735.230115958045
 20
-8582.908921146769
 30
0.0
 11
-4734.852464584917
 21
-8582.531269771457
 31
0.0
  0
LINE
  5
18B6
330
1F
100
AcDbEntity
  8
STAVBA OBRYS
  6
Continuous
100
AcDbLine
 10
-4736.430042734784
 20
-8578.109214040919
 30
0.0
 11
-4736.807694107636
 21
-8578.486865411866
 31
0.0
  0
LINE
  5
18B7
330
1F
100
AcDbEntity
  8
STAVBA OBRYS
  6
Continuous
100
AcDbLine
 10
-4736.430042734784
 20
-8578.109214040919
 30
0.0
 11
-4736.211451422757
 21
-8578.486865411866
 31
0.0
  0
LINE
  5
18B8
330
1F
100
AcDbEntity
  8
STAVBA OBRYS
  6
Continuous
100
AcDbLine
 10
-4735.448707270072
 20
-8582.531269771457
 30
0.0
 11
-4736.807694107636
 21
-8578.486865411866
 31
0.0
  0
LINE
  5
18B9
330
1F
100
AcDbEntity
  8
STAVBA OBRYS
  6
Continuous
100
AcDbLine
 10
-4734.852464584917
 20
-8582.531269771457
 30
0.0
 11
-4736.211451422757
 21
-8578.486865411866
 31
0.0
  0
LINE
  5
18BA
330
1F
100
AcDbEntity
  8
STAVBA OBRYS
  6
Continuous
100
AcDbLine
 10
-4738.349925577284
 20
-8582.908921146769
 30
0.0
 11
-4737.972274204156
 21
-8582.531269771457
 31
0.0
  0
LINE
  5
18BB
330
1F
100
AcDbEntity
  8
STAVBA OBRYS
  6
Continuous
100
AcDbLine
 10
-4727.909632445218
 20
-8579.159382510294
 30
0.0
 11
-4726.386004491788
 21
-8578.932419619411
 31
0.0
  0
LINE
  5
18BC
330
1F
100
AcDbEntity
  8
STAVBA OBRYS
  6
Continuous
100
AcDbLine
 10
-4727.122703722096
 20
-8581.924795154952
 30
0.0
 11
-4727.909632445218
 21
-8581.85875267303
 31
0.0
  0
LINE
  5
18BD
330
1F
100
AcDbEntity
  8
STAVBA OBRYS
  6
Continuous
100
AcDbLine
 10
-4725.641863855045
 20
-8582.352676019251
 30
0.0
 11
-4727.122703722096
 21
-8581.924795154952
 31
0.0
  0
LINE
  5
18BE
330
1F
100
AcDbEntity
  8
STAVBA OBRYS
  6
Continuous
100
AcDbLine
 10
-4727.909632445218
 20
-8581.85875267303
 30
0.0
 11
-4731.947525574898
 21
-8581.85875267303
 31
0.0
  0
LINE
  5
18BF
330
1F
100
AcDbEntity
  8
CETRIS
100
AcDbLine
 10
-4909.155143042615
 20
-8568.920671062958
 30
0.0
 11
-4811.542289458877
 21
-8568.920671062958
 31
0.0
  0
LWPOLYLINE
  5
18C0
330
1F
100
AcDbEntity
  8
nášlap_vrstvy
100
AcDbPolyline
 90
        4
 70
     1
 43
0.0
 10
-4799.411525268846
 20
-8566.872198371498
 10
-4899.411525268845
 20
-8566.872198371498
 10
-4899.411525268845
 20
-8561.872198371499
 10
-4799.411525268846
 20
-8561.872198371499
  0
LINE
  5
18C1
330
1F
100
AcDbEntity
  8
nášlap_vrstvy
100
AcDbLine
 10
-4909.155143042615
 20
-8566.872198371498
 30
0.0
 11
-4799.411525268846
 21
-8566.872198371498
 31
0.0
  0
HATCH
  5
18C2
330
1F
100
AcDbEntity
  8
nášlap_vrstvy
100
AcDbHatch
 10
0.0
 20
0.0
 30
0.0
210
0.0
220
0.0
230
1.0
  2
AR-SAND
 70
     0
 71
     0
 91
        3
 92
        7
 72
     0
 73
     1
 93
        9
 10
-4796.542289458869
 20
-8527.59784703594
 10
-4799.471878373337
 20
-8527.59784703594
 10
-4799.471878373337
 20
-8559.595471287222
 10
-4799.411525268846
 20
-8561.872198371293
 10
-4799.411525268846
 20
-8566.872198371498
 10
-4909.155143042611
 20
-8566.872198371498
 10
-4909.155143042611
 20
-8568.920671062958
 10
-4797.077163445265
 20
-8568.920671062958
 10
-4796.542289458877
 20
-8568.920671062958
 97
        0
 92
       22
 72
     0
 73
     1
 93
        4
 10
-4799.471878373337
 20
-8559.595471287297
 10
-4804.517002898498
 20
-8559.595471287297
 10
-4804.517002898498
 20
-8561.872198371499
 10
-4799.411525268842
 20
-8561.872198371499
 97
        0
 92
       23
 72
     0
 73
     1
 93
        4
 10
-4899.411525268845
 20
-8561.872198371499
 10
-4903.125063865886
 20
-8561.872198371499
 10
-4903.125063865889
 20
-8566.872198371498
 10
-4899.411525268845
 20
-8566.872198371498
 97
        0
 75
     0
 76
     1
 52
90.0
 41
0.05
 77
     0
 78
     4
 53
127.5
 43
-30892.97428803269
 44
-10774.30833229233
 45
-2.447066186646711
 46
-0.0800015647992021
 79
     6
 49
0.0
 49
-1.9304
 49
0.0
 49
-2.159
 49
0.0
 49
-2.06375
 53
97.49999999999985
 43
-30892.97428803269
 44
-10774.30833229233
 45
-3.584125502841771
 46
2.247616415690013
 79
     6
 49
0.0
 49
-1.041399999999999
 49
0.0
 49
-1.7399
 49
0.0
 49
-0.66675
 53
57.5
 43
-30892.97428803269
 44
-10775.87043229233
 45
-0.0071859233927282
 46
3.95496185120729
 79
     6
 49
0.0
 49
-0.635
 49
0.0
 49
-2.286
 49
0.0
 49
-2.9845
 53
47.5
 43
-30892.97428803269
 44
-10775.87043229233
 45
-1.11464661628608
 46
3.817782262361486
 79
     6
 49
0.0
 49
-0.3175
 49
0.0
 49
-1.498599999999999
 49
0.0
 49
-1.7145
 47
0.2229474623524009
 98
        3
 10
-4797.727936883384
 20
-8565.626285382581
 10
-4801.297277810034
 20
-8560.721453017652
 10
-4901.01599990133
 20
-8564.734501610214
  0
LWPOLYLINE
  5
18C3
330
1F
100
AcDbEntity
  8
nášlap_vrstvy
100
AcDbPolyline
 90
        4
 70
     0
 43
0.0
 10
-4909.155143042615
 20
-8561.872198371499
 10
-4903.125063865886
 20
-8561.872198371499
 10
-4903.125063865886
 20
-8566.872198371498
 10
-4909.155143042615
 20
-8566.872198371498
  0
LINE
  5
18C4
330
1F
100
AcDbEntity
  8
nášlap_vrstvy
100
AcDbLine
 10
-4903.125063865886
 20
-8561.872198371499
 30
0.0
 11
-4899.411525268845
 21
-8561.872198371499
 31
0.0
  0
LINE
  5
18C5
330
1F
100
AcDbEntity
  8
SPOJOVACÍ
  6
DASHED
100
AcDbLine
 10
-4849.17138314361
 20
-8570.096599304154
 30
0.0
 11
-4839.175081521887
 21
-8570.096599304154
 31
0.0
  0
LINE
  5
18C6
330
1F
100
AcDbEntity
  8
SPOJOVACÍ
  6
DASHED
100
AcDbLine
 10
-4849.17138314361
 20
-8568.920671062958
 30
0.0
 11
-4839.175081521887
 21
-8568.920671062958
 31
0.0
  0
LINE
  5
18C7
330
1F
100
AcDbEntity
  8
SPOJOVACÍ
  6
DASHED
100
AcDbLine
 10
-4849.17138314361
 20
-8570.096599304154
 30
0.0
 11
-4847.84869176173
 21
-8570.825857127898
 31
0.0
  0
LINE
  5
18C8
330
1F
100
AcDbEntity
  8
SPOJOVACÍ
  6
DASHED
100
AcDbLine
 10
-4847.84869176173
 20
-8570.825857127898
 30
0.0
 11
-4846.760274459379
 21
-8571.873253677521
 31
0.0
  0
LINE
  5
18C9
330
1F
100
AcDbEntity
  8
SPOJOVACÍ
  6
DASHED
100
AcDbLine
 10
-4846.760274459379
 20
-8571.873253677521
 30
0.0
 11
-4845.979968589647
 21
-8573.165863170254
 31
0.0
  0
LINE
  5
18CA
330
1F
100
AcDbEntity
  8
SPOJOVACÍ
  6
DASHED
100
AcDbLine
 10
-4849.17138314361
 20
-8568.920671062958
 30
0.0
 11
-4849.17138314361
 21
-8570.096599304154
 31
0.0
  0
LINE
  5
18CB
330
1F
100
AcDbEntity
  8
SPOJOVACÍ
  6
DASHED
100
AcDbLine
 10
-4841.088471737053
 20
-8571.326310309514
 30
0.0
 11
-4839.876080604332
 21
-8570.426588469279
 31
0.0
  0
LINE
  5
18CC
330
1F
100
AcDbEntity
  8
SPOJOVACÍ
  6
DASHED
100
AcDbLine
 10
-4839.876080604332
 20
-8570.426588469279
 30
0.0
 11
-4839.175081521887
 21
-8570.096599304154
 31
0.0
  0
LINE
  5
18CD
330
1F
100
AcDbEntity
  8
SPOJOVACÍ
  6
DASHED
100
AcDbLine
 10
-4839.175081521887
 20
-8568.920671062958
 30
0.0
 11
-4839.175081521887
 21
-8570.096599304154
 31
0.0
  0
LINE
  5
18CE
330
1F
100
AcDbEntity
  8
SPOJOVACÍ
  6
DASHED
100
AcDbLine
 10
-4842.027391185638
 20
-8572.509531128753
 30
0.0
 11
-4841.088471737053
 21
-8571.326310309514
 31
0.0
  0
LWPOLYLINE
  5
18CF
330
1F
100
AcDbEntity
  8
nášlap_vrstvy
100
AcDbPolyline
 90
        4
 70
     1
 43
0.0
 10
-4799.471878373337
 20
-8559.595471287297
 10
-4804.517002898498
 20
-8559.595471287297
 10
-4804.517002898498
 20
-8527.59784703594
 10
-4799.471878373337
 20
-8527.59784703594
  0
LINE
  5
18D0
330
1F
100
AcDbEntity
  8
nášlap_vrstvy
100
AcDbLine
 10
-4804.517002898498
 20
-8559.595471287297
 30
0.0
 11
-4804.517002898498
 21
-8561.872198371499
 31
0.0
  0
LINE
  5
18D1
330
1F
100
AcDbEntity
  8
nášlap_vrstvy
100
AcDbLine
 10
-4799.471878373337
 20
-8559.595471287297
 30
0.0
 11
-4799.411525268846
 21
-8561.872198371499
 31
0.0
  0
LINE
  5
18D2
330
1F
100
AcDbEntity
  8
STAVBA OBRYS
100
AcDbLine
 10
-4797.077163445265
 20
-8534.920671062957
 30
0.0
 11
-4796.542289458877
 21
-8534.920671062957
 31
0.0
  0
LINE
  5
18D3
330
1F
100
AcDbEntity
  8
nášlap_vrstvy
100
AcDbLine
 10
-4799.471878373337
 20
-8527.59784703594
 30
0.0
 11
-4796.542289458877
 21
-8527.59784703594
 31
0.0
  0
LINE
  5
18D4
330
1F
100
AcDbEntity
  8
SPOJOVACÍ
  6
Continuous
100
AcDbLine
 10
-4779.071727662409
 20
-8358.940813542131
 30
0.0
 11
-4776.54350984954
 21
-8358.940813542131
 31
0.0
  0
LINE
  5
18D5
330
1F
100
AcDbEntity
  8
SPOJOVACÍ
  6
Continuous
100
AcDbLine
 10
-4778.158295031022
 20
-8356.241443379396
 30
0.0
 11
-4775.637518624313
 21
-8356.241443379396
 31
0.0
  0
LINE
  5
18D6
330
1F
100
AcDbEntity
  8
SPOJOVACÍ
  6
Continuous
100
AcDbLine
 10
-4796.542289458881
 20
-8362.691282351581
 30
0.0
 11
-4796.542289458881
 21
-8352.490974574314
 31
0.0
  0
LINE
  5
18D7
330
1F
100
AcDbEntity
  8
SPOJOVACÍ
  6
Continuous
100
AcDbLine
 10
-4795.342362682149
 20
-8362.691282351581
 30
0.0
 11
-4795.342362682149
 21
-8352.490974574314
 31
0.0
  0
LINE
  5
18D8
330
1F
100
AcDbEntity
  8
SPOJOVACÍ
  6
Continuous
100
AcDbLine
 10
-4785.742018293928
 20
-8359.990982015871
 30
0.0
 11
-4784.542091517465
 21
-8355.191274910023
 31
0.0
  0
LINE
  5
18D9
330
1F
100
AcDbEntity
  8
SPOJOVACÍ
  6
Continuous
100
AcDbLine
 10
-4785.524357157879
 20
-8359.613330640561
 30
0.0
 11
-4784.164440144337
 21
-8355.568926280968
 31
0.0
  0
LINE
  5
18DA
330
1F
100
AcDbEntity
  8
SPOJOVACÍ
  6
Continuous
100
AcDbLine
 10
-4786.120599842758
 20
-8359.613330640561
 30
0.0
 11
-4784.760682829491
 21
-8355.568926280968
 31
0.0
  0
LINE
  5
18DB
330
1F
100
AcDbEntity
  8
SPOJOVACÍ
  6
Continuous
100
AcDbLine
 10
-4782.622208674966
 20
-8359.990982015871
 30
0.0
 11
-4781.422281898227
 21
-8355.191274910023
 31
0.0
  0
LINE
  5
18DC
330
1F
100
AcDbEntity
  8
SPOJOVACÍ
  6
Continuous
100
AcDbLine
 10
-4782.403617362939
 20
-8359.613330640561
 30
0.0
 11
-4781.044630525375
 21
-8355.568926280968
 31
0.0
  0
LINE
  5
18DD
330
1F
100
AcDbEntity
  8
SPOJOVACÍ
  6
Continuous
100
AcDbLine
 10
-4782.999860048094
 20
-8359.613330640561
 30
0.0
 11
-4781.640873210253
 21
-8355.568926280968
 31
0.0
  0
LINE
  5
18DE
330
1F
100
AcDbEntity
  8
SPOJOVACÍ
  6
Continuous
100
AcDbLine
 10
-4779.502399055727
 20
-8359.990982015871
 30
0.0
 11
-4778.302472279265
 21
-8355.191274910023
 31
0.0
  0
LINE
  5
18DF
330
1F
100
AcDbEntity
  8
SPOJOVACÍ
  6
Continuous
100
AcDbLine
 10
-4779.283807743701
 20
-8359.613330640561
 30
0.0
 11
-4777.923890730435
 21
-8355.568926280968
 31
0.0
  0
LINE
  5
18E0
330
1F
100
AcDbEntity
  8
SPOJOVACÍ
  6
Continuous
100
AcDbLine
 10
-4779.880050428856
 20
-8359.613330640561
 30
0.0
 11
-4778.520133415582
 21
-8355.568926280968
 31
0.0
  0
LINE
  5
18E1
330
1F
100
AcDbEntity
  8
SPOJOVACÍ
  6
Continuous
100
AcDbLine
 10
-4792.210460777965
 20
-8359.434736888353
 30
0.0
 11
-4790.729620910915
 21
-8359.006856024054
 31
0.0
  0
LINE
  5
18E2
330
1F
100
AcDbEntity
  8
SPOJOVACÍ
  6
Continuous
100
AcDbLine
 10
-4796.542289458881
 20
-8362.691282351581
 30
0.0
 11
-4795.342362682149
 21
-8362.691282351581
 31
0.0
  0
LINE
  5
18E3
330
1F
100
AcDbEntity
  8
SPOJOVACÍ
  6
Continuous
100
AcDbLine
 10
-4793.529450056263
 20
-8360.230967367671
 30
0.0
 11
-4792.210460777965
 21
-8359.434736888353
 31
0.0
  0
LINE
  5
18E4
330
1F
100
AcDbEntity
  8
SPOJOVACÍ
  6
Continuous
100
AcDbLine
 10
-4794.598222045675
 20
-8361.34159726803
 30
0.0
 11
-4793.529450056263
 21
-8360.230967367671
 31
0.0
  0
LINE
  5
18E5
330
1F
100
AcDbEntity
  8
SPOJOVACÍ
  6
Continuous
100
AcDbLine
 10
-4795.342362682149
 20
-8362.691282351581
 30
0.0
 11
-4794.598222045675
 21
-8361.34159726803
 31
0.0
  0
LINE
  5
18E6
330
1F
100
AcDbEntity
  8
SPOJOVACÍ
  6
Continuous
100
AcDbLine
 10
-4785.309486548936
 20
-8358.940813542131
 30
0.0
 11
-4782.790570493907
 21
-8358.940813542131
 31
0.0
  0
LINE
  5
18E7
330
1F
100
AcDbEntity
  8
SPOJOVACÍ
  6
Continuous
100
AcDbLine
 10
-4790.729620910915
 20
-8359.006856024054
 30
0.0
 11
-4789.942692187793
 21
-8358.940813542131
 31
0.0
  0
LINE
  5
18E8
330
1F
100
AcDbEntity
  8
SPOJOVACÍ
  6
Continuous
100
AcDbLine
 10
-4789.942692187793
 20
-8358.940813542131
 30
0.0
 11
-4785.904799058113
 21
-8358.940813542131
 31
0.0
  0
LINE
  5
18E9
330
1F
100
AcDbEntity
  8
SPOJOVACÍ
  6
Continuous
100
AcDbLine
 10
-4785.742018293928
 20
-8359.990982015871
 30
0.0
 11
-4785.524357157879
 21
-8359.613330640561
 31
0.0
  0
LINE
  5
18EA
330
1F
100
AcDbEntity
  8
SPOJOVACÍ
  6
Continuous
100
AcDbLine
 10
-4785.742018293928
 20
-8359.990982015871
 30
0.0
 11
-4786.120599842758
 21
-8359.613330640561
 31
0.0
  0
LINE
  5
18EB
330
1F
100
AcDbEntity
  8
SPOJOVACÍ
  6
Continuous
100
AcDbLine
 10
-4782.186886402593
 20
-8358.940813542131
 30
0.0
 11
-4779.666109995884
 21
-8358.940813542131
 31
0.0
  0
LINE
  5
18EC
330
1F
100
AcDbEntity
  8
SPOJOVACÍ
  6
Continuous
100
AcDbLine
 10
-4782.622208674966
 20
-8359.990982015871
 30
0.0
 11
-4782.403617362939
 21
-8359.613330640561
 31
0.0
  0
LINE
  5
18ED
330
1F
100
AcDbEntity
  8
SPOJOVACÍ
  6
Continuous
100
AcDbLine
 10
-4782.622208674966
 20
-8359.990982015871
 30
0.0
 11
-4782.999860048094
 21
-8359.613330640561
 31
0.0
  0
LINE
  5
18EE
330
1F
100
AcDbEntity
  8
SPOJOVACÍ
  6
Continuous
100
AcDbLine
 10
-4779.502399055727
 20
-8359.990982015871
 30
0.0
 11
-4779.283807743701
 21
-8359.613330640561
 31
0.0
  0
LINE
  5
18EF
330
1F
100
AcDbEntity
  8
SPOJOVACÍ
  6
Continuous
100
AcDbLine
 10
-4779.502399055727
 20
-8359.990982015871
 30
0.0
 11
-4779.880050428856
 21
-8359.613330640561
 31
0.0
  0
LINE
  5
18F0
330
1F
100
AcDbEntity
  8
SPOJOVACÍ
  6
Continuous
100
AcDbLine
 10
-4789.942692187793
 20
-8356.241443379396
 30
0.0
 11
-4791.466320141222
 21
-8356.014480488513
 31
0.0
  0
LINE
  5
18F1
330
1F
100
AcDbEntity
  8
SPOJOVACÍ
  6
Continuous
100
AcDbLine
 10
-4792.880187350926
 20
-8355.401494639364
 30
0.0
 11
-4794.087555533824
 21
-8354.443413569381
 31
0.0
  0
LINE
  5
18F2
330
1F
100
AcDbEntity
  8
SPOJOVACÍ
  6
Continuous
100
AcDbLine
 10
-4791.466320141222
 20
-8356.014480488513
 30
0.0
 11
-4792.880187350926
 21
-8355.401494639364
 31
0.0
  0
LINE
  5
18F3
330
1F
100
AcDbEntity
  8
SPOJOVACÍ
  6
Continuous
100
AcDbLine
 10
-4796.542289458881
 20
-8352.490974574314
 30
0.0
 11
-4795.342362682149
 21
-8352.490974574314
 31
0.0
  0
LINE
  5
18F4
330
1F
100
AcDbEntity
  8
SPOJOVACÍ
  6
Continuous
100
AcDbLine
 10
-4795.005639044266
 20
-8353.206279760481
 30
0.0
 11
-4795.342362682149
 21
-8352.490974574314
 31
0.0
  0
LINE
  5
18F5
330
1F
100
AcDbEntity
  8
SPOJOVACÍ
  6
Continuous
100
AcDbLine
 10
-4794.087555533824
 20
-8354.443413569381
 30
0.0
 11
-4795.005639044266
 21
-8353.206279760481
 31
0.0
  0
LINE
  5
18F6
330
1F
100
AcDbEntity
  8
SPOJOVACÍ
  6
Continuous
100
AcDbLine
 10
-4784.396053917549
 20
-8356.241443379396
 30
0.0
 11
-4781.877137862521
 21
-8356.241443379396
 31
0.0
  0
LINE
  5
18F7
330
1F
100
AcDbEntity
  8
SPOJOVACÍ
  6
Continuous
100
AcDbLine
 10
-4784.542091517465
 20
-8355.191274910023
 30
0.0
 11
-4784.164440144337
 21
-8355.568926280968
 31
0.0
  0
LINE
  5
18F8
330
1F
100
AcDbEntity
  8
SPOJOVACÍ
  6
Continuous
100
AcDbLine
 10
-4789.942692187793
 20
-8356.241443379396
 30
0.0
 11
-4784.999738008864
 21
-8356.241443379396
 31
0.0
  0
LINE
  5
18F9
330
1F
100
AcDbEntity
  8
SPOJOVACÍ
  6
Continuous
100
AcDbLine
 10
-4784.542091517465
 20
-8355.191274910023
 30
0.0
 11
-4784.760682829491
 21
-8355.568926280968
 31
0.0
  0
LINE
  5
18FA
330
1F
100
AcDbEntity
  8
SPOJOVACÍ
  6
Continuous
100
AcDbLine
 10
-4781.280895177366
 20
-8356.241443379396
 30
0.0
 11
-4778.752677364496
 21
-8356.241443379396
 31
0.0
  0
LINE
  5
18FB
330
1F
100
AcDbEntity
  8
SPOJOVACÍ
  6
Continuous
100
AcDbLine
 10
-4781.422281898227
 20
-8355.191274910023
 30
0.0
 11
-4781.044630525375
 21
-8355.568926280968
 31
0.0
  0
LINE
  5
18FC
330
1F
100
AcDbEntity
  8
SPOJOVACÍ
  6
Continuous
100
AcDbLine
 10
-4781.422281898227
 20
-8355.191274910023
 30
0.0
 11
-4781.640873210253
 21
-8355.568926280968
 31
0.0
  0
LINE
  5
18FD
330
1F
100
AcDbEntity
  8
SPOJOVACÍ
  6
Continuous
100
AcDbLine
 10
-4778.302472279265
 20
-8355.191274910023
 30
0.0
 11
-4777.923890730435
 21
-8355.568926280968
 31
0.0
  0
LINE
  5
18FE
330
1F
100
AcDbEntity
  8
SPOJOVACÍ
  6
Continuous
100
AcDbLine
 10
-4778.302472279265
 20
-8355.191274910023
 30
0.0
 11
-4778.520133415582
 21
-8355.568926280968
 31
0.0
  0
LINE
  5
18FF
330
1F
100
AcDbEntity
  8
SPOJOVACÍ
  6
Continuous
100
AcDbLine
 10
-4769.966236797478
 20
-8359.358462473165
 30
0.0
 11
-4768.833282678094
 21
-8355.989365739652
 31
0.0
  0
LINE
  5
1900
330
1F
100
AcDbEntity
  8
SPOJOVACÍ
  6
Continuous
100
AcDbLine
 10
-4770.562479482633
 20
-8359.358462473165
 30
0.0
 11
-4769.429525363248
 21
-8355.989365739652
 31
0.0
  0
LINE
  5
1901
330
1F
100
AcDbEntity
  8
SPOJOVACÍ
  6
Continuous
100
AcDbLine
 10
-4770.184828109504
 20
-8359.73704402145
 30
0.0
 11
-4769.2118642272
 21
-8355.611714368707
 31
0.0
  0
LINE
  5
1902
330
1F
100
AcDbEntity
  8
SPOJOVACÍ
  6
Continuous
100
AcDbLine
 10
-4766.952467219158
 20
-8358.794775940033
 30
0.0
 11
-4766.158097089607
 21
-8356.433989769859
 31
0.0
  0
LINE
  5
1903
330
1F
100
AcDbEntity
  8
SPOJOVACÍ
  6
Continuous
100
AcDbLine
 10
-4767.548709904313
 20
-8358.794775940033
 30
0.0
 11
-4766.754339774485
 21
-8356.433989769859
 31
0.0
  0
LINE
  5
1904
330
1F
100
AcDbEntity
  8
SPOJOVACÍ
  6
Continuous
100
AcDbLine
 10
-4767.170128355206
 20
-8359.172427315344
 30
0.0
 11
-4766.536678638437
 21
-8356.056338398913
 31
0.0
  0
LINE
  5
1905
330
1F
100
AcDbEntity
  8
SPOJOVACÍ
  6
Continuous
100
AcDbLine
 10
-4763.937767464867
 20
-8358.230159233928
 30
0.0
 11
-4763.467098512283
 21
-8356.831174834361
 31
0.0
  0
LINE
  5
1906
330
1F
100
AcDbEntity
  8
SPOJOVACÍ
  6
Continuous
100
AcDbLine
 10
-4764.534010150015
 20
-8358.230159233928
 30
0.0
 11
-4764.06334119743
 21
-8356.831174834361
 31
0.0
  0
LINE
  5
1907
330
1F
100
AcDbEntity
  8
SPOJOVACÍ
  6
Continuous
100
AcDbLine
 10
-4764.156358776887
 20
-8358.607810604873
 30
0.0
 11
-4763.845680061113
 21
-8356.453523463416
 31
0.0
  0
LINE
  5
1908
330
1F
100
AcDbEntity
  8
SPOJOVACÍ
  6
Continuous
100
AcDbLine
 10
-4776.382589436758
 20
-8359.990982015871
 30
0.0
 11
-4775.182662660296
 21
-8355.191274910023
 31
0.0
  0
LINE
  5
1909
330
1F
100
AcDbEntity
  8
SPOJOVACÍ
  6
Continuous
100
AcDbLine
 10
-4776.163998124739
 20
-8359.613330640561
 30
0.0
 11
-4774.804081111466
 21
-8355.568926280968
 31
0.0
  0
LINE
  5
190A
330
1F
100
AcDbEntity
  8
SPOJOVACÍ
  6
Continuous
100
AcDbLine
 10
-4776.760240809887
 20
-8359.613330640561
 30
0.0
 11
-4775.400323796344
 21
-8355.568926280968
 31
0.0
  0
LINE
  5
190B
330
1F
100
AcDbEntity
  8
SPOJOVACÍ
  6
Continuous
100
AcDbLine
 10
-4773.261849641818
 20
-8359.990982015871
 30
0.0
 11
-4772.061922865356
 21
-8355.191274910023
 31
0.0
  0
LINE
  5
190C
330
1F
100
AcDbEntity
  8
SPOJOVACÍ
  6
Continuous
100
AcDbLine
 10
-4773.04418850577
 20
-8359.613330640561
 30
0.0
 11
-4771.684271492228
 21
-8355.568926280968
 31
0.0
  0
LINE
  5
190D
330
1F
100
AcDbEntity
  8
SPOJOVACÍ
  6
Continuous
100
AcDbLine
 10
-4773.640431190925
 20
-8359.613330640561
 30
0.0
 11
-4772.280514177382
 21
-8355.568926280968
 31
0.0
  0
LINE
  5
190E
330
1F
100
AcDbEntity
  8
SPOJOVACÍ
  6
Continuous
100
AcDbLine
 10
-4744.211893442087
 20
-8359.613330640561
 30
0.0
 11
-4745.571810455628
 21
-8355.568926280968
 31
0.0
  0
LINE
  5
190F
330
1F
100
AcDbEntity
  8
SPOJOVACÍ
  6
Continuous
100
AcDbLine
 10
-4744.808136127241
 20
-8359.613330640561
 30
0.0
 11
-4746.168053140784
 21
-8355.568926280968
 31
0.0
  0
LINE
  5
1910
330
1F
100
AcDbEntity
  8
SPOJOVACÍ
  6
Continuous
100
AcDbLine
 10
-4744.590474991193
 20
-8359.990982015871
 30
0.0
 11
-4745.790401767655
 21
-8355.191274910023
 31
0.0
  0
LINE
  5
1911
330
1F
100
AcDbEntity
  8
SPOJOVACÍ
  6
Continuous
100
AcDbLine
 10
-4741.092083823125
 20
-8359.613330640561
 30
0.0
 11
-4742.452000836666
 21
-8355.568926280968
 31
0.0
  0
LINE
  5
1912
330
1F
100
AcDbEntity
  8
SPOJOVACÍ
  6
Continuous
100
AcDbLine
 10
-4741.688326508272
 20
-8359.613330640561
 30
0.0
 11
-4743.048243521545
 21
-8355.568926280968
 31
0.0
  0
LINE
  5
1913
330
1F
100
AcDbEntity
  8
SPOJOVACÍ
  6
Continuous
100
AcDbLine
 10
-4741.469735196253
 20
-8359.990982015871
 30
0.0
 11
-4742.669661972715
 21
-8355.191274910023
 31
0.0
  0
LINE
  5
1914
330
1F
100
AcDbEntity
  8
SPOJOVACÍ
  6
Continuous
100
AcDbLine
 10
-4737.972274204156
 20
-8359.613330640561
 30
0.0
 11
-4739.332191217428
 21
-8355.568926280968
 31
0.0
  0
LINE
  5
1915
330
1F
100
AcDbEntity
  8
SPOJOVACÍ
  6
Continuous
100
AcDbLine
 10
-4738.56851688931
 20
-8359.613330640561
 30
0.0
 11
-4739.928433902576
 21
-8355.568926280968
 31
0.0
  0
LINE
  5
1916
330
1F
100
AcDbEntity
  8
SPOJOVACÍ
  6
Continuous
100
AcDbLine
 10
-4738.349925577284
 20
-8359.990982015871
 30
0.0
 11
-4739.549852353746
 21
-8355.191274910023
 31
0.0
  0
LINE
  5
1917
330
1F
100
AcDbEntity
  8
SPOJOVACÍ
  6
Continuous
100
AcDbLine
 10
-4753.695965856124
 20
-8358.607810604873
 30
0.0
 11
-4754.006644571898
 21
-8356.453523463416
 31
0.0
  0
LINE
  5
1918
330
1F
100
AcDbEntity
  8
SPOJOVACÍ
  6
Continuous
100
AcDbLine
 10
-4753.318314482996
 20
-8358.230159233928
 30
0.0
 11
-4753.788983435581
 21
-8356.831174834361
 31
0.0
  0
LINE
  5
1919
330
1F
100
AcDbEntity
  8
SPOJOVACÍ
  6
Continuous
100
AcDbLine
 10
-4753.914557168143
 20
-8358.230159233928
 30
0.0
 11
-4754.385226120728
 21
-8356.831174834361
 31
0.0
  0
LINE
  5
191A
330
1F
100
AcDbEntity
  8
SPOJOVACÍ
  6
Continuous
100
AcDbLine
 10
-4750.682196277804
 20
-8359.172427315344
 30
0.0
 11
-4751.315645994575
 21
-8356.056338398913
 31
0.0
  0
LINE
  5
191B
330
1F
100
AcDbEntity
  8
SPOJOVACÍ
  6
Continuous
100
AcDbLine
 10
-4750.303614728698
 20
-8358.794775940033
 30
0.0
 11
-4751.097984858526
 21
-8356.433989769859
 31
0.0
  0
LINE
  5
191C
330
1F
100
AcDbEntity
  8
SPOJOVACÍ
  6
Continuous
100
AcDbLine
 10
-4750.899857413853
 20
-8358.794775940033
 30
0.0
 11
-4751.694227543405
 21
-8356.433989769859
 31
0.0
  0
LINE
  5
191D
330
1F
100
AcDbEntity
  8
SPOJOVACÍ
  6
Continuous
100
AcDbLine
 10
-4747.667496523507
 20
-8359.73704402145
 30
0.0
 11
-4748.640460405812
 21
-8355.611714368707
 31
0.0
  0
LINE
  5
191E
330
1F
100
AcDbEntity
  8
SPOJOVACÍ
  6
Continuous
100
AcDbLine
 10
-4747.289845150379
 20
-8359.358462473165
 30
0.0
 11
-4748.422799269763
 21
-8355.989365739652
 31
0.0
  0
LINE
  5
191F
330
1F
100
AcDbEntity
  8
SPOJOVACÍ
  6
Continuous
100
AcDbLine
 10
-4747.886087835533
 20
-8359.358462473165
 30
0.0
 11
-4749.019041954918
 21
-8355.989365739652
 31
0.0
  0
LINE
  5
1920
330
1F
100
AcDbEntity
  8
SPOJOVACÍ
  6
Continuous
100
AcDbLine
 10
-4734.852464584917
 20
-8359.613330640561
 30
0.0
 11
-4736.211451422757
 21
-8355.568926280968
 31
0.0
  0
LINE
  5
1921
330
1F
100
AcDbEntity
  8
SPOJOVACÍ
  6
Continuous
100
AcDbLine
 10
-4735.448707270072
 20
-8359.613330640561
 30
0.0
 11
-4736.807694107636
 21
-8355.568926280968
 31
0.0
  0
LINE
  5
1922
330
1F
100
AcDbEntity
  8
SPOJOVACÍ
  6
Continuous
100
AcDbLine
 10
-4735.230115958045
 20
-8359.990982015871
 30
0.0
 11
-4736.430042734784
 21
-8355.191274910023
 31
0.0
  0
LINE
  5
1923
330
1F
100
AcDbEntity
  8
SPOJOVACÍ
  6
Continuous
100
AcDbLine
 10
-4731.731724790253
 20
-8359.613330640561
 30
0.0
 11
-4733.091641803519
 21
-8355.568926280968
 31
0.0
  0
LINE
  5
1924
330
1F
100
AcDbEntity
  8
SPOJOVACÍ
  6
Continuous
100
AcDbLine
 10
-4732.327967475131
 20
-8359.613330640561
 30
0.0
 11
-4733.687884488674
 21
-8355.568926280968
 31
0.0
  0
LINE
  5
1925
330
1F
100
AcDbEntity
  8
SPOJOVACÍ
  6
Continuous
100
AcDbLine
 10
-4732.110306339083
 20
-8359.990982015871
 30
0.0
 11
-4733.310233115545
 21
-8355.191274910023
 31
0.0
  0
LINE
  5
1926
330
1F
100
AcDbEntity
  8
SPOJOVACÍ
  6
Continuous
100
AcDbLine
 10
-4751.044964838067
 20
-8358.344570854525
 30
0.0
 11
-4753.365753448423
 21
-8358.054356009372
 31
0.0
  0
LINE
  5
1927
330
1F
100
AcDbEntity
  8
SPOJOVACÍ
  6
Continuous
100
AcDbLine
 10
-4766.807359794944
 20
-8358.344570854525
 30
0.0
 11
-4764.486571184589
 21
-8358.054356009372
 31
0.0
  0
LINE
  5
1928
330
1F
100
AcDbEntity
  8
SPOJOVACÍ
  6
Continuous
100
AcDbLine
 10
-4771.577301275883
 20
-8358.940813542131
 30
0.0
 11
-4770.380165026526
 21
-8358.791055239409
 31
0.0
  0
LINE
  5
1929
330
1F
100
AcDbEntity
  8
SPOJOVACÍ
  6
Continuous
100
AcDbLine
 10
-4775.938895582254
 20
-8358.940813542131
 30
0.0
 11
-4773.420909702926
 21
-8358.940813542131
 31
0.0
  0
LINE
  5
192A
330
1F
100
AcDbEntity
  8
SPOJOVACÍ
  6
Continuous
100
AcDbLine
 10
-4772.824667017772
 20
-8358.940813542131
 30
0.0
 11
-4771.577301275883
 21
-8358.940813542131
 31
0.0
  0
LINE
  5
192B
330
1F
100
AcDbEntity
  8
SPOJOVACÍ
  6
Continuous
100
AcDbLine
 10
-4776.382589436758
 20
-8359.990982015871
 30
0.0
 11
-4776.163998124739
 21
-8359.613330640561
 31
0.0
  0
LINE
  5
192C
330
1F
100
AcDbEntity
  8
SPOJOVACÍ
  6
Continuous
100
AcDbLine
 10
-4776.382589436758
 20
-8359.990982015871
 30
0.0
 11
-4776.760240809887
 21
-8359.613330640561
 31
0.0
  0
LINE
  5
192D
330
1F
100
AcDbEntity
  8
SPOJOVACÍ
  6
Continuous
100
AcDbLine
 10
-4773.261849641818
 20
-8359.990982015871
 30
0.0
 11
-4773.04418850577
 21
-8359.613330640561
 31
0.0
  0
LINE
  5
192E
330
1F
100
AcDbEntity
  8
SPOJOVACÍ
  6
Continuous
100
AcDbLine
 10
-4773.261849641818
 20
-8359.990982015871
 30
0.0
 11
-4773.640431190925
 21
-8359.613330640561
 31
0.0
  0
LINE
  5
192F
330
1F
100
AcDbEntity
  8
SPOJOVACÍ
  6
Continuous
100
AcDbLine
 10
-4769.759737770673
 20
-8358.713850646884
 30
0.0
 11
-4767.438018984608
 21
-8358.423635797363
 31
0.0
  0
LINE
  5
1930
330
1F
100
AcDbEntity
  8
SPOJOVACÍ
  6
Continuous
100
AcDbLine
 10
-4770.184828109504
 20
-8359.73704402145
 30
0.0
 11
-4769.966236797478
 21
-8359.358462473165
 31
0.0
  0
LINE
  5
1931
330
1F
100
AcDbEntity
  8
SPOJOVACÍ
  6
Continuous
100
AcDbLine
 10
-4770.184828109504
 20
-8359.73704402145
 30
0.0
 11
-4770.562479482633
 21
-8359.358462473165
 31
0.0
  0
LINE
  5
1932
330
1F
100
AcDbEntity
  8
SPOJOVACÍ
  6
Continuous
100
AcDbLine
 10
-4767.170128355206
 20
-8359.172427315344
 30
0.0
 11
-4766.952467219158
 21
-8358.794775940033
 31
0.0
  0
LINE
  5
1933
330
1F
100
AcDbEntity
  8
SPOJOVACÍ
  6
Continuous
100
AcDbLine
 10
-4767.170128355206
 20
-8359.172427315344
 30
0.0
 11
-4767.548709904313
 21
-8358.794775940033
 31
0.0
  0
LINE
  5
1934
330
1F
100
AcDbEntity
  8
SPOJOVACÍ
  6
Continuous
100
AcDbLine
 10
-4760.77703011093
 20
-8357.591128462948
 30
0.0
 11
-4763.613136112199
 21
-8357.236731481817
 31
0.0
  0
LINE
  5
1935
330
1F
100
AcDbEntity
  8
SPOJOVACÍ
  6
Continuous
100
AcDbLine
 10
-4763.866143928735
 20
-8357.977151416845
 30
0.0
 11
-4760.77703011093
 21
-8357.591128462948
 31
0.0
  0
LINE
  5
1936
330
1F
100
AcDbEntity
  8
SPOJOVACÍ
  6
Continuous
100
AcDbLine
 10
-4764.156358776887
 20
-8358.607810604873
 30
0.0
 11
-4763.937767464867
 21
-8358.230159233928
 31
0.0
  0
LINE
  5
1937
330
1F
100
AcDbEntity
  8
SPOJOVACÍ
  6
Continuous
100
AcDbLine
 10
-4764.156358776887
 20
-8358.607810604873
 30
0.0
 11
-4764.534010150015
 21
-8358.230159233928
 31
0.0
  0
LINE
  5
1938
330
1F
100
AcDbEntity
  8
SPOJOVACÍ
  6
Continuous
100
AcDbLine
 10
-4753.695965856124
 20
-8358.607810604873
 30
0.0
 11
-4753.318314482996
 21
-8358.230159233928
 31
0.0
  0
LINE
  5
1939
330
1F
100
AcDbEntity
  8
SPOJOVACÍ
  6
Continuous
100
AcDbLine
 10
-4753.695965856124
 20
-8358.607810604873
 30
0.0
 11
-4753.914557168143
 21
-8358.230159233928
 31
0.0
  0
LINE
  5
193A
330
1F
100
AcDbEntity
  8
SPOJOVACÍ
  6
Continuous
100
AcDbLine
 10
-4753.986180704276
 20
-8357.977151416845
 30
0.0
 11
-4757.07529452208
 21
-8357.591128462948
 31
0.0
  0
LINE
  5
193B
330
1F
100
AcDbEntity
  8
SPOJOVACÍ
  6
Continuous
100
AcDbLine
 10
-4757.07529452208
 20
-8357.591128462948
 30
0.0
 11
-4754.239188520812
 21
-8357.236731481817
 31
0.0
  0
LINE
  5
193C
330
1F
100
AcDbEntity
  8
SPOJOVACÍ
  6
Continuous
100
AcDbLine
 10
-4738.349925577284
 20
-8359.990982015871
 30
0.0
 11
-4738.56851688931
 21
-8359.613330640561
 31
0.0
  0
LINE
  5
193D
330
1F
100
AcDbEntity
  8
SPOJOVACÍ
  6
Continuous
100
AcDbLine
 10
-4745.027657615239
 20
-8358.940813542131
 30
0.0
 11
-4746.275023357127
 21
-8358.940813542131
 31
0.0
  0
LINE
  5
193E
330
1F
100
AcDbEntity
  8
SPOJOVACÍ
  6
Continuous
100
AcDbLine
 10
-4750.682196277804
 20
-8359.172427315344
 30
0.0
 11
-4750.303614728698
 21
-8358.794775940033
 31
0.0
  0
LINE
  5
193F
330
1F
100
AcDbEntity
  8
SPOJOVACÍ
  6
Continuous
100
AcDbLine
 10
-4750.682196277804
 20
-8359.172427315344
 30
0.0
 11
-4750.899857413853
 21
-8358.794775940033
 31
0.0
  0
LINE
  5
1940
330
1F
100
AcDbEntity
  8
SPOJOVACÍ
  6
Continuous
100
AcDbLine
 10
-4747.667496523507
 20
-8359.73704402145
 30
0.0
 11
-4747.289845150379
 21
-8359.358462473165
 31
0.0
  0
LINE
  5
1941
330
1F
100
AcDbEntity
  8
SPOJOVACÍ
  6
Continuous
100
AcDbLine
 10
-4747.667496523507
 20
-8359.73704402145
 30
0.0
 11
-4747.886087835533
 21
-8359.358462473165
 31
0.0
  0
LINE
  5
1942
330
1F
100
AcDbEntity
  8
SPOJOVACÍ
  6
Continuous
100
AcDbLine
 10
-4748.092586862338
 20
-8358.713850646884
 30
0.0
 11
-4750.414305648402
 21
-8358.423635797363
 31
0.0
  0
LINE
  5
1943
330
1F
100
AcDbEntity
  8
SPOJOVACÍ
  6
Continuous
100
AcDbLine
 10
-4746.275023357127
 20
-8358.940813542131
 30
0.0
 11
-4747.472159606484
 21
-8358.791055239409
 31
0.0
  0
LINE
  5
1944
330
1F
100
AcDbEntity
  8
SPOJOVACÍ
  6
Continuous
100
AcDbLine
 10
-4744.590474991193
 20
-8359.990982015871
 30
0.0
 11
-4744.211893442087
 21
-8359.613330640561
 31
0.0
  0
LINE
  5
1945
330
1F
100
AcDbEntity
  8
SPOJOVACÍ
  6
Continuous
100
AcDbLine
 10
-4744.590474991193
 20
-8359.990982015871
 30
0.0
 11
-4744.808136127241
 21
-8359.613330640561
 31
0.0
  0
LINE
  5
1946
330
1F
100
AcDbEntity
  8
SPOJOVACÍ
  6
Continuous
100
AcDbLine
 10
-4741.469735196253
 20
-8359.990982015871
 30
0.0
 11
-4741.092083823125
 21
-8359.613330640561
 31
0.0
  0
LINE
  5
1947
330
1F
100
AcDbEntity
  8
SPOJOVACÍ
  6
Continuous
100
AcDbLine
 10
-4741.469735196253
 20
-8359.990982015871
 30
0.0
 11
-4741.688326508272
 21
-8359.613330640561
 31
0.0
  0
LINE
  5
1948
330
1F
100
AcDbEntity
  8
SPOJOVACÍ
  6
Continuous
100
AcDbLine
 10
-4741.913429050756
 20
-8358.940813542131
 30
0.0
 11
-4744.431414930084
 21
-8358.940813542131
 31
0.0
  0
LINE
  5
1949
330
1F
100
AcDbEntity
  8
SPOJOVACÍ
  6
Continuous
100
AcDbLine
 10
-4738.780596970602
 20
-8358.940813542131
 30
0.0
 11
-4741.308814783471
 21
-8358.940813542131
 31
0.0
  0
LINE
  5
194A
330
1F
100
AcDbEntity
  8
SPOJOVACÍ
  6
Continuous
100
AcDbLine
 10
-4732.110306339083
 20
-8359.990982015871
 30
0.0
 11
-4731.731724790253
 21
-8359.613330640561
 31
0.0
  0
LINE
  5
194B
330
1F
100
AcDbEntity
  8
SPOJOVACÍ
  6
Continuous
100
AcDbLine
 10
-4738.349925577284
 20
-8359.990982015871
 30
0.0
 11
-4737.972274204156
 21
-8359.613330640561
 31
0.0
  0
LINE
  5
194C
330
1F
100
AcDbEntity
  8
SPOJOVACÍ
  6
Continuous
100
AcDbLine
 10
-4735.230115958045
 20
-8359.990982015871
 30
0.0
 11
-4734.852464584917
 21
-8359.613330640561
 31
0.0
  0
LINE
  5
194D
330
1F
100
AcDbEntity
  8
SPOJOVACÍ
  6
Continuous
100
AcDbLine
 10
-4735.230115958045
 20
-8359.990982015871
 30
0.0
 11
-4735.448707270072
 21
-8359.613330640561
 31
0.0
  0
LINE
  5
194E
330
1F
100
AcDbEntity
  8
SPOJOVACÍ
  6
Continuous
100
AcDbLine
 10
-4732.110306339083
 20
-8359.990982015871
 30
0.0
 11
-4732.327967475131
 21
-8359.613330640561
 31
0.0
  0
LINE
  5
194F
330
1F
100
AcDbEntity
  8
SPOJOVACÍ
  6
Continuous
100
AcDbLine
 10
-4735.665438230419
 20
-8358.940813542131
 30
0.0
 11
-4738.186214637127
 21
-8358.940813542131
 31
0.0
  0
LINE
  5
1950
330
1F
100
AcDbEntity
  8
SPOJOVACÍ
  6
Continuous
100
AcDbLine
 10
-4732.542838084074
 20
-8358.940813542131
 30
0.0
 11
-4735.061754139104
 21
-8358.940813542131
 31
0.0
  0
LINE
  5
1951
330
1F
100
AcDbEntity
  8
SPOJOVACÍ
  6
Continuous
100
AcDbLine
 10
-4727.909632445218
 20
-8358.940813542131
 30
0.0
 11
-4731.947525574898
 21
-8358.940813542131
 31
0.0
  0
LINE
  5
1952
330
1F
100
AcDbEntity
  8
SPOJOVACÍ
  6
Continuous
100
AcDbLine
 10
-4725.641863855045
 20
-8359.434736888353
 30
0.0
 11
-4727.122703722096
 21
-8359.006856024054
 31
0.0
  0
LINE
  5
1953
330
1F
100
AcDbEntity
  8
SPOJOVACÍ
  6
Continuous
100
AcDbLine
 10
-4727.122703722096
 20
-8359.006856024054
 30
0.0
 11
-4727.909632445218
 21
-8358.940813542131
 31
0.0
  0
LINE
  5
1954
330
1F
100
AcDbEntity
  8
SPOJOVACÍ
  6
Continuous
100
AcDbLine
 10
-4751.315645994575
 20
-8356.056338398913
 30
0.0
 11
-4751.694227543405
 21
-8356.433989769859
 31
0.0
  0
LINE
  5
1955
330
1F
100
AcDbEntity
  8
SPOJOVACÍ
  6
Continuous
100
AcDbLine
 10
-4753.669920933745
 20
-8357.165107944593
 30
0.0
 11
-4751.52493554876
 21
-8356.897217316284
 31
0.0
  0
LINE
  5
1956
330
1F
100
AcDbEntity
  8
SPOJOVACÍ
  6
Continuous
100
AcDbLine
 10
-4764.182403699265
 20
-8357.165107944593
 30
0.0
 11
-4766.32738908425
 21
-8356.897217316284
 31
0.0
  0
LINE
  5
1957
330
1F
100
AcDbEntity
  8
SPOJOVACÍ
  6
Continuous
100
AcDbLine
 10
-4769.606258764597
 20
-8356.487009790864
 30
0.0
 11
-4771.577301275883
 21
-8356.241443379396
 31
0.0
  0
LINE
  5
1958
330
1F
100
AcDbEntity
  8
SPOJOVACÍ
  6
Continuous
100
AcDbLine
 10
-4775.03662506038
 20
-8356.241443379396
 30
0.0
 11
-4772.517709005351
 21
-8356.241443379396
 31
0.0
  0
LINE
  5
1959
330
1F
100
AcDbEntity
  8
SPOJOVACÍ
  6
Continuous
100
AcDbLine
 10
-4771.914024913767
 20
-8356.241443379396
 30
0.0
 11
-4771.577301275883
 21
-8356.241443379396
 31
0.0
  0
LINE
  5
195A
330
1F
100
AcDbEntity
  8
SPOJOVACÍ
  6
Continuous
100
AcDbLine
 10
-4775.182662660296
 20
-8355.191274910023
 30
0.0
 11
-4774.804081111466
 21
-8355.568926280968
 31
0.0
  0
LINE
  5
195B
330
1F
100
AcDbEntity
  8
SPOJOVACÍ
  6
Continuous
100
AcDbLine
 10
-4775.182662660296
 20
-8355.191274910023
 30
0.0
 11
-4775.400323796344
 21
-8355.568926280968
 31
0.0
  0
LINE
  5
195C
330
1F
100
AcDbEntity
  8
SPOJOVACÍ
  6
Continuous
100
AcDbLine
 10
-4772.061922865356
 20
-8355.191274910023
 30
0.0
 11
-4771.684271492228
 21
-8355.568926280968
 31
0.0
  0
LINE
  5
195D
330
1F
100
AcDbEntity
  8
SPOJOVACÍ
  6
Continuous
100
AcDbLine
 10
-4772.061922865356
 20
-8355.191274910023
 30
0.0
 11
-4772.280514177382
 21
-8355.568926280968
 31
0.0
  0
LINE
  5
195E
330
1F
100
AcDbEntity
  8
SPOJOVACÍ
  6
Continuous
100
AcDbLine
 10
-4766.899447198698
 20
-8356.825593783424
 30
0.0
 11
-4769.036061001552
 21
-8356.558633328088
 31
0.0
  0
LINE
  5
195F
330
1F
100
AcDbEntity
  8
SPOJOVACÍ
  6
Continuous
100
AcDbLine
 10
-4769.2118642272
 20
-8355.611714368707
 30
0.0
 11
-4768.833282678094
 21
-8355.989365739652
 31
0.0
  0
LINE
  5
1960
330
1F
100
AcDbEntity
  8
SPOJOVACÍ
  6
Continuous
100
AcDbLine
 10
-4769.2118642272
 20
-8355.611714368707
 30
0.0
 11
-4769.429525363248
 21
-8355.989365739652
 31
0.0
  0
LINE
  5
1961
330
1F
100
AcDbEntity
  8
SPOJOVACÍ
  6
Continuous
100
AcDbLine
 10
-4766.536678638437
 20
-8356.056338398913
 30
0.0
 11
-4766.158097089607
 21
-8356.433989769859
 31
0.0
  0
LINE
  5
1962
330
1F
100
AcDbEntity
  8
SPOJOVACÍ
  6
Continuous
100
AcDbLine
 10
-4766.536678638437
 20
-8356.056338398913
 30
0.0
 11
-4766.754339774485
 21
-8356.433989769859
 31
0.0
  0
LINE
  5
1963
330
1F
100
AcDbEntity
  8
SPOJOVACÍ
  6
Continuous
100
AcDbLine
 10
-4763.845680061113
 20
-8356.453523463416
 30
0.0
 11
-4763.467098512283
 21
-8356.831174834361
 31
0.0
  0
LINE
  5
1964
330
1F
100
AcDbEntity
  8
SPOJOVACÍ
  6
Continuous
100
AcDbLine
 10
-4763.845680061113
 20
-8356.453523463416
 30
0.0
 11
-4764.06334119743
 21
-8356.831174834361
 31
0.0
  0
LINE
  5
1965
330
1F
100
AcDbEntity
  8
SPOJOVACÍ
  6
Continuous
100
AcDbLine
 10
-4754.006644571898
 20
-8356.453523463416
 30
0.0
 11
-4753.788983435581
 21
-8356.831174834361
 31
0.0
  0
LINE
  5
1966
330
1F
100
AcDbEntity
  8
SPOJOVACÍ
  6
Continuous
100
AcDbLine
 10
-4754.006644571898
 20
-8356.453523463416
 30
0.0
 11
-4754.385226120728
 21
-8356.831174834361
 31
0.0
  0
LINE
  5
1967
330
1F
100
AcDbEntity
  8
SPOJOVACÍ
  6
Continuous
100
AcDbLine
 10
-4736.571429455645
 20
-8356.241443379396
 30
0.0
 11
-4739.099647268514
 21
-8356.241443379396
 31
0.0
  0
LINE
  5
1968
330
1F
100
AcDbEntity
  8
SPOJOVACÍ
  6
Continuous
100
AcDbLine
 10
-4742.815699572631
 20
-8356.241443379396
 30
0.0
 11
-4745.33461562766
 21
-8356.241443379396
 31
0.0
  0
LINE
  5
1969
330
1F
100
AcDbEntity
  8
SPOJOVACÍ
  6
Continuous
100
AcDbLine
 10
-4745.790401767655
 20
-8355.191274910023
 30
0.0
 11
-4745.571810455628
 21
-8355.568926280968
 31
0.0
  0
LINE
  5
196A
330
1F
100
AcDbEntity
  8
SPOJOVACÍ
  6
Continuous
100
AcDbLine
 10
-4745.790401767655
 20
-8355.191274910023
 30
0.0
 11
-4746.168053140784
 21
-8355.568926280968
 31
0.0
  0
LINE
  5
196B
330
1F
100
AcDbEntity
  8
SPOJOVACÍ
  6
Continuous
100
AcDbLine
 10
-4751.315645994575
 20
-8356.056338398913
 30
0.0
 11
-4751.097984858526
 21
-8356.433989769859
 31
0.0
  0
LINE
  5
196C
330
1F
100
AcDbEntity
  8
SPOJOVACÍ
  6
Continuous
100
AcDbLine
 10
-4748.640460405812
 20
-8355.611714368707
 30
0.0
 11
-4748.422799269763
 21
-8355.989365739652
 31
0.0
  0
LINE
  5
196D
330
1F
100
AcDbEntity
  8
SPOJOVACÍ
  6
Continuous
100
AcDbLine
 10
-4748.640460405812
 20
-8355.611714368707
 30
0.0
 11
-4749.019041954918
 21
-8355.989365739652
 31
0.0
  0
LINE
  5
196E
330
1F
100
AcDbEntity
  8
SPOJOVACÍ
  6
Continuous
100
AcDbLine
 10
-4748.246065868413
 20
-8356.487009790864
 30
0.0
 11
-4746.275023357127
 21
-8356.241443379396
 31
0.0
  0
LINE
  5
196F
330
1F
100
AcDbEntity
  8
SPOJOVACÍ
  6
Continuous
100
AcDbLine
 10
-4750.952877434312
 20
-8356.825593783424
 30
0.0
 11
-4748.816263631459
 21
-8356.558633328088
 31
0.0
  0
LINE
  5
1970
330
1F
100
AcDbEntity
  8
SPOJOVACÍ
  6
Continuous
100
AcDbLine
 10
-4745.938299719244
 20
-8356.241443379396
 30
0.0
 11
-4746.275023357127
 21
-8356.241443379396
 31
0.0
  0
LINE
  5
1971
330
1F
100
AcDbEntity
  8
SPOJOVACÍ
  6
Continuous
100
AcDbLine
 10
-4742.669661972715
 20
-8355.191274910023
 30
0.0
 11
-4742.452000836666
 21
-8355.568926280968
 31
0.0
  0
LINE
  5
1972
330
1F
100
AcDbEntity
  8
SPOJOVACÍ
  6
Continuous
100
AcDbLine
 10
-4742.669661972715
 20
-8355.191274910023
 30
0.0
 11
-4743.048243521545
 21
-8355.568926280968
 31
0.0
  0
LINE
  5
1973
330
1F
100
AcDbEntity
  8
SPOJOVACÍ
  6
Continuous
100
AcDbLine
 10
-4739.549852353746
 20
-8355.191274910023
 30
0.0
 11
-4739.332191217428
 21
-8355.568926280968
 31
0.0
  0
LINE
  5
1974
330
1F
100
AcDbEntity
  8
SPOJOVACÍ
  6
Continuous
100
AcDbLine
 10
-4739.549852353746
 20
-8355.191274910023
 30
0.0
 11
-4739.928433902576
 21
-8355.568926280968
 31
0.0
  0
LINE
  5
1975
330
1F
100
AcDbEntity
  8
SPOJOVACÍ
  6
Continuous
100
AcDbLine
 10
-4739.694029601989
 20
-8356.241443379396
 30
0.0
 11
-4742.214806008698
 21
-8356.241443379396
 31
0.0
  0
LINE
  5
1976
330
1F
100
AcDbEntity
  8
SPOJOVACÍ
  6
Continuous
100
AcDbLine
 10
-4727.909632445218
 20
-8356.241443379396
 30
0.0
 11
-4732.852586624146
 21
-8356.241443379396
 31
0.0
  0
LINE
  5
1977
330
1F
100
AcDbEntity
  8
SPOJOVACÍ
  6
Continuous
100
AcDbLine
 10
-4736.430042734784
 20
-8355.191274910023
 30
0.0
 11
-4736.211451422757
 21
-8355.568926280968
 31
0.0
  0
LINE
  5
1978
330
1F
100
AcDbEntity
  8
SPOJOVACÍ
  6
Continuous
100
AcDbLine
 10
-4736.430042734784
 20
-8355.191274910023
 30
0.0
 11
-4736.807694107636
 21
-8355.568926280968
 31
0.0
  0
LINE
  5
1979
330
1F
100
AcDbEntity
  8
SPOJOVACÍ
  6
Continuous
100
AcDbLine
 10
-4733.310233115545
 20
-8355.191274910023
 30
0.0
 11
-4733.091641803519
 21
-8355.568926280968
 31
0.0
  0
LINE
  5
197A
330
1F
100
AcDbEntity
  8
SPOJOVACÍ
  6
Continuous
100
AcDbLine
 10
-4733.310233115545
 20
-8355.191274910023
 30
0.0
 11
-4733.687884488674
 21
-8355.568926280968
 31
0.0
  0
LINE
  5
197B
330
1F
100
AcDbEntity
  8
SPOJOVACÍ
  6
Continuous
100
AcDbLine
 10
-4733.456270715461
 20
-8356.241443379396
 30
0.0
 11
-4735.975186770491
 21
-8356.241443379396
 31
0.0
  0
LINE
  5
197C
330
1F
100
AcDbEntity
  8
SPOJOVACÍ
  6
Continuous
100
AcDbLine
 10
-4727.909632445218
 20
-8356.241443379396
 30
0.0
 11
-4726.386004491788
 21
-8356.014480488513
 31
0.0
  0
INSERT
  5
197D
330
1F
100
AcDbEntity
  8
POPIS
100
AcDbBlockReference
  2
E_PUNKT
 10
-4625.468220097938
 20
-8575.271697418243
 30
0.0
 50
270.0
  0
LINE
  5
197E
330
1F
100
AcDbEntity
  8
SPOJOVACÍ
  6
DASHED
100
AcDbLine
 10
-4548.773083778349
 20
-8573.165863170254
 30
0.0
 11
-4548.353760531336
 21
-8574.617086239964
 31
0.0
  0
LINE
  5
197F
330
1F
100
AcDbEntity
  8
SPOJOVACÍ
  6
DASHED
100
AcDbLine
 10
-4545.421232506505
 20
-8573.895120994263
 30
0.0
 11
-4544.820506374341
 21
-8572.509531128753
 31
0.0
  0
LINE
  5
1980
330
1F
100
AcDbEntity
  8
STAVBA OBRYS
100
AcDbLine
 10
-4721.31003517413
 20
-8638.52107653359
 30
0.0
 11
-4721.310035174133
 21
-8296.558841787744
 31
0.0
  0
LINE
  5
1981
330
1F
100
AcDbEntity
  8
SPOJOVACÍ
  6
DASHED
100
AcDbLine
 10
-4645.421232506506
 20
-8573.895120994263
 30
0.0
 11
-4644.82050637434
 21
-8572.509531128753
 31
0.0
  0
LINE
  5
1982
330
1F
100
AcDbEntity
  8
SPOJOVACÍ
  6
DASHED
100
AcDbLine
 10
-4648.773083778349
 20
-8573.165863170254
 30
0.0
 11
-4648.353760531335
 21
-8574.617086239964
 31
0.0
  0
LINE
  5
1983
330
1F
100
AcDbEntity
  8
CETRIS
100
AcDbLine
 10
-4597.940190054433
 20
-8568.920671062958
 30
0.0
 11
-4597.940190054433
 21
-8580.920671062957
 31
0.0
  0
LINE
  5
1984
330
1F
100
AcDbEntity
  8
izolace
  6
IZOLACE
 48
0.7
370
    20
100
AcDbLine
 10
-4713.799560428586
 20
-8622.920671062958
 30
0.0
 11
-4713.81003517413
 21
-8568.920671062958
 31
0.0
  0
LWPOLYLINE
  5
1985
330
1F
100
AcDbEntity
  8
izolace
100
AcDbPolyline
 90
        4
 70
     1
 43
0.0
 10
-4721.31003517413
 20
-8568.920671062958
 10
-4706.31003517413
 20
-8568.920671062958
 10
-4706.289085683041
 20
-8622.920671062958
 10
-4721.31003517413
 20
-8622.920671062958
  0
LINE
  5
1986
330
1F
100
AcDbEntity
  8
CETRIS
100
AcDbLine
 10
-4706.31003517413
 20
-8592.920671062959
 30
0.0
 11
-4706.31003517413
 21
-8568.920671062958
 31
0.0
  0
LINE
  5
1987
330
1F
100
AcDbEntity
  8
izolace
  6
IZOLACE
 48
2.399999999999999
370
    20
100
AcDbLine
 10
-4640.642128087336
 20
-8617.920671062957
 30
0.0
 11
-4390.424106528334
 21
-8617.920671062957
 31
0.0
  0
LWPOLYLINE
  5
1988
330
1F
100
AcDbEntity
  8
izolace
100
AcDbPolyline
 90
        4
 70
     1
 43
0.0
 10
-4507.245686975417
 20
-8642.920671062958
 10
-4530.887419685252
 20
-8642.920671062958
 10
-4530.887419685252
 20
-8645.920671062958
 10
-4507.245686975417
 20
-8645.920671062958
  0
HATCH
  5
1989
330
1F
100
AcDbEntity
  8
izolace
100
AcDbHatch
 10
0.0
 20
0.0
 30
0.0
210
0.0
220
0.0
230
1.0
  2
SOLID
 70
     1
 71
     0
 91
        1
 92
        7
 72
     0
 73
     1
 93
        4
 10
-4507.245686975413
 20
-8642.920671062958
 10
-4530.887419685249
 20
-8642.920671062958
 10
-4530.887419685252
 20
-8645.920671062958
 10
-4507.245686975413
 20
-8645.920671062958
 97
        0
 75
     0
 76
     1
 47
0.1901250437635136
 98
        1
 10
-4521.529624926908
 20
-8643.737482614037
  0
LINE
  5
198A
330
1F
100
AcDbEntity
  8
CETRIS
100
AcDbLine
 10
-4705.492917726512
 20
-8580.920671062957
 30
0.0
 11
-4390.424106528334
 21
-8580.920671062957
 31
0.0
  0
LINE
  5
198B
330
1F
100
AcDbEntity
  8
CETRIS
100
AcDbLine
 10
-4642.376257951072
 20
-8592.920671062959
 30
0.0
 11
-4390.424106528334
 21
-8593.095338446307
 31
0.0
  0
LWPOLYLINE
  5
198C
330
1F
100
AcDbEntity
  8
izolace
100
AcDbPolyline
 90
        4
 70
     1
 43
0.0
 10
-4601.812617814757
 20
-8642.920671062958
 10
-4625.454350524592
 20
-8642.920671062958
 10
-4625.454350524592
 20
-8645.920671062958
 10
-4601.812617814757
 20
-8645.920671062958
  0
HATCH
  5
198D
330
1F
100
AcDbEntity
  8
izolace
100
AcDbHatch
 10
0.0
 20
0.0
 30
0.0
210
0.0
220
0.0
230
1.0
  2
SOLID
 70
     1
 71
     0
 91
        1
 92
        7
 72
     0
 73
     1
 93
        4
 10
-4601.812617814753
 20
-8642.920671062958
 10
-4625.454350524589
 20
-8642.920671062958
 10
-4625.454350524592
 20
-8645.920671062958
 10
-4601.812617814753
 20
-8645.920671062958
 97
        0
 75
     0
 76
     1
 47
0.1901250437635136
 98
        1
 10
-4616.096555766249
 20
-8643.737482614037
  0
TEXT
  5
198E
330
1F
100
AcDbEntity
  8
POPIS
100
AcDbText
 10
-4601.4509414286
 20
-8709.991799827228
 30
0.0
 40
25.0
  1
07
 41
0.8
  7
SIMPLEX7
100
AcDbText
  0
LINE
  5
198F
330
1F
100
AcDbEntity
  8
POPIS
370
    20
100
AcDbLine
 10
-4625.439151767063
 20
-8575.299307793867
 30
0.0
 11
-4625.439151767063
 21
-8683.313153517481
 31
0.0
  0
TEXT
  5
1990
330
1F
100
AcDbEntity
  8
POPIS
100
AcDbText
 10
-4644.602893996554
 20
-8709.991799827228
 30
0.0
 40
25.0
  1
06
 41
0.8
  7
SIMPLEX7
100
AcDbText
  0
LINE
  5
1991
330
1F
100
AcDbEntity
  8
STAVBA OBRYS
100
AcDbLine
 10
-4668.082514728141
 20
-8607.492334532436
 30
0.0
 11
-4683.323029546628
 21
-8605.773317552895
 31
0.0
  0
LINE
  5
1992
330
1F
100
AcDbEntity
  8
STAVBA OBRYS
100
AcDbLine
 10
-4665.870182000074
 20
-8603.808727175557
 30
0.0
 11
-4679.881623315536
 21
-8603.072005917182
 31
0.0
  0
LINE
  5
1993
330
1F
100
AcDbEntity
  8
STAVBA OBRYS
100
AcDbLine
 10
-4666.115996278056
 20
-8600.125119818681
 30
0.0
 11
-4683.814660215706
 21
-8599.388398560302
 31
0.0
  0
LINE
  5
1994
330
1F
100
AcDbEntity
  8
STAVBA OBRYS
100
AcDbLine
 10
-4670.786476012173
 20
-8619.525451259244
 30
0.0
 11
-4681.110696818561
 21
-8618.297582140284
 31
0.0
  0
LINE
  5
1995
330
1F
100
AcDbEntity
  8
STAVBA OBRYS
100
AcDbLine
 10
-4655.545961193686
 20
-8617.560860881907
 30
0.0
 11
-4673.490439409317
 21
-8613.631680127232
 31
0.0
  0
LINE
  5
1996
330
1F
100
AcDbEntity
  8
STAVBA OBRYS
100
AcDbLine
 10
-4663.90366354999
 20
-8598.651677301925
 30
0.0
 11
-4678.160919143433
 21
-8618.297582140284
 31
0.0
  0
LWPOLYLINE
  5
1997
330
1F
100
AcDbEntity
  8
0
100
AcDbPolyline
 90
        6
 70
     0
 43
0.0
 10
-4706.300724289202
 20
-8592.920671062959
 10
-4641.31003517413
 20
-8592.920671062959
 10
-4641.31003517413
 20
-8622.920671062958
 10
-4721.31003517413
 20
-8622.920671062958
 10
-4721.31003517413
 20
-8592.920671062959
 10
-4721.300721085176
 20
-8592.920671062959
  0
LINE
  5
1998
330
1F
100
AcDbEntity
  8
izolace
  6
IZOLACE
100
AcDbLine
 10
-4641.31003517413
 20
-8632.920671062958
 30
0.0
 11
-4721.265583531294
 21
-8632.920671062958
 31
0.0
  0
LINE
  5
1999
330
1F
100
AcDbEntity
  8
STAVBA OBRYS
100
AcDbLine
 10
-4666.853441225117
 20
-8611.42151528711
 30
0.0
 11
-4688.730954227804
 21
-8610.19364616815
 31
0.0
  0
LINE
  5
199A
330
1F
100
AcDbEntity
  8
STAVBA OBRYS
100
AcDbLine
 10
-4670.54066173419
 20
-8596.441512461803
 30
0.0
 11
-4697.33447086209
 21
-8596.687086924587
 31
0.0
  0
LINE
  5
199B
330
1F
100
AcDbEntity
  8
STAVBA OBRYS
100
AcDbLine
 10
-4691.680731902932
 20
-8613.631680127232
 30
0.0
 11
-4706.291424890689
 21
-8616.89106335047
 31
0.0
  0
LINE
  5
199C
330
1F
100
AcDbEntity
  8
STAVBA OBRYS
100
AcDbLine
 10
-4699.792619981252
 20
-8598.160529441344
 30
0.0
 11
-4687.010252168815
 21
-8618.543155538079
 31
0.0
  0
LINE
  5
199D
330
1F
100
AcDbEntity
  8
STAVBA OBRYS
100
AcDbLine
 10
-4696.597028028143
 20
-8619.034303398661
 30
0.0
 11
-4705.937989609489
 21
-8622.226762894959
 31
0.0
  0
LWPOLYLINE
  5
199E
330
1F
100
AcDbEntity
  8
izolace
100
AcDbPolyline
 90
        4
 70
     1
 43
0.0
 10
-4696.379548654099
 20
-8642.920671062958
 10
-4720.021281363933
 20
-8642.920671062958
 10
-4720.021281363933
 20
-8645.920671062958
 10
-4696.379548654099
 20
-8645.920671062958
  0
HATCH
  5
199F
330
1F
100
AcDbEntity
  8
izolace
100
AcDbHatch
 10
0.0
 20
0.0
 30
0.0
210
0.0
220
0.0
230
1.0
  2
SOLID
 70
     1
 71
     0
 91
        1
 92
        7
 72
     0
 73
     1
 93
        4
 10
-4696.379548654095
 20
-8642.920671062958
 10
-4720.02128136393
 20
-8642.920671062958
 10
-4720.021281363933
 20
-8645.920671062958
 10
-4696.379548654095
 20
-8645.920671062958
 97
        0
 75
     0
 76
     1
 47
0.1901250437635136
 98
        1
 10
-4710.66348660559
 20
-8643.737482614037
  0
LINE
  5
19A1
330
1F
100
AcDbEntity
  8
STAVBA OBRYS
100
AcDbLine
 10
-4681.110696818561
 20
-8618.297582140284
 30
0.0
 11
-4696.597028028143
 21
-8619.034303398661
 31
0.0
  0
LINE
  5
19A2
330
1F
100
AcDbEntity
  8
STAVBA OBRYS
100
AcDbLine
 10
-4688.730954227804
 20
-8610.19364616815
 30
0.0
 11
-4706.293302468199
 21
-8612.051366528898
 31
0.0
  0
LINE
  5
19A3
330
1F
100
AcDbEntity
  8
STAVBA OBRYS
100
AcDbLine
 10
-4697.33447086209
 20
-8596.687086924587
 30
0.0
 11
-4706.299193605076
 21
-8596.866205702722
 31
0.0
  0
LINE
  5
19A4
330
1F
100
AcDbEntity
  8
STAVBA OBRYS
100
AcDbLine
 10
-4683.323029546628
 20
-8605.773317552895
 30
0.0
 11
-4700.284248537218
 21
-8607.001186671855
 31
0.0
  0
LINE
  5
19A5
330
1F
100
AcDbEntity
  8
STAVBA OBRYS
100
AcDbLine
 10
-4679.881623315536
 20
-8603.072005917182
 30
0.0
 11
-4699.792619981252
 21
-8603.563153777763
 31
0.0
  0
LINE
  5
19A6
330
1F
100
AcDbEntity
  8
STAVBA OBRYS
100
AcDbLine
 10
-4683.814660215706
 20
-8599.388398560302
 30
0.0
 11
-4706.297934017434
 21
-8600.112954389066
 31
0.0
  0
LINE
  5
19A8
330
1F
100
AcDbEntity
  8
STAVBA OBRYS
100
AcDbLine
 10
-4700.284248537218
 20
-8607.001186671855
 30
0.0
 11
-4706.295220101775
 21
-8607.108420051572
 31
0.0
  0
LINE
  5
19A9
330
1F
100
AcDbEntity
  8
STAVBA OBRYS
100
AcDbLine
 10
-4699.792619981252
 20
-8603.563153777763
 30
0.0
 11
-4706.296509566287
 21
-8603.78465990081
 31
0.0
  0
LINE
  5
19AC
330
1F
100
AcDbEntity
  8
STAVBA OBRYS
100
AcDbLine
 10
-4706.293350893514
 20
-8611.926544064832
 30
0.0
 11
-4703.234026212345
 21
-8615.105122643988
 31
0.0
  0
LINE
  5
19AD
330
1F
100
AcDbEntity
  8
CETRIS
100
AcDbLine
 10
-4706.292965218429
 20
-8612.920671062958
 30
0.0
 11
-4706.160824813308
 21
-8612.920671062958
 31
0.0
  0
LINE
  5
19AE
330
1F
100
AcDbEntity
  8
STAVBA OBRYS
  6
Continuous
100
AcDbLine
 10
-4721.31003517413
 20
-8585.609221482478
 30
0.0
 11
-4721.31003517413
 21
-8575.40891370521
 31
0.0
  0
LINE
  5
19AF
330
1F
100
AcDbEntity
  8
STAVBA OBRYS
  6
Continuous
100
AcDbLine
 10
-4722.509961950861
 20
-8585.609221482478
 30
0.0
 11
-4722.509961950861
 21
-8575.40891370521
 31
0.0
  0
LINE
  5
19B0
330
1F
100
AcDbEntity
  8
STAVBA OBRYS
  6
Continuous
100
AcDbLine
 10
-4722.509961950861
 20
-8585.609221482478
 30
0.0
 11
-4723.254102587335
 21
-8584.259536398928
 31
0.0
  0
LINE
  5
19B1
330
1F
100
AcDbEntity
  8
STAVBA OBRYS
  6
Continuous
100
AcDbLine
 10
-4721.31003517413
 20
-8585.609221482478
 30
0.0
 11
-4722.509961950861
 21
-8585.609221482478
 31
0.0
  0
LINE
  5
19B2
330
1F
100
AcDbEntity
  8
STAVBA OBRYS
  6
Continuous
100
AcDbLine
 10
-4724.972137282086
 20
-8578.319433770262
 30
0.0
 11
-4723.764769099187
 21
-8577.361352700277
 31
0.0
  0
LINE
  5
19B3
330
1F
100
AcDbEntity
  8
STAVBA OBRYS
  6
Continuous
100
AcDbLine
 10
-4721.31003517413
 20
-8575.40891370521
 30
0.0
 11
-4722.509961950861
 21
-8575.40891370521
 31
0.0
  0
LINE
  5
19B4
330
1F
100
AcDbEntity
  8
STAVBA OBRYS
  6
Continuous
100
AcDbLine
 10
-4722.846685588745
 20
-8576.124218891377
 30
0.0
 11
-4722.509961950861
 21
-8575.40891370521
 31
0.0
  0
LINE
  5
19B5
330
1F
100
AcDbEntity
  8
STAVBA OBRYS
  6
Continuous
100
AcDbLine
 10
-4723.764769099187
 20
-8577.361352700277
 30
0.0
 11
-4722.846685588745
 21
-8576.124218891377
 31
0.0
  0
LINE
  5
19B6
330
1F
100
AcDbEntity
  8
STAVBA OBRYS
  6
Continuous
100
AcDbLine
 10
-4723.254102587335
 20
-8584.259536398928
 30
0.0
 11
-4724.322874576748
 21
-8583.148906498569
 31
0.0
  0
LINE
  5
19B7
330
1F
100
AcDbEntity
  8
CETRIS
100
AcDbLine
 10
-4706.31003517413
 20
-8580.920671062957
 30
0.0
 11
-4705.492917726515
 21
-8580.920671062957
 31
0.0
  0
LINE
  5
19B8
330
1F
100
AcDbEntity
  8
SPOJOVACÍ
  6
DASHED
100
AcDbLine
 10
-4688.477468147583
 20
-8595.738278472397
 30
0.0
 11
-4688.107369804057
 21
-8595.524058986612
 31
0.0
  0
LINE
  5
19B9
330
1F
100
AcDbEntity
  8
SPOJOVACÍ
  6
DASHED
100
AcDbLine
 10
-4684.802920288115
 20
-8594.988966058119
 30
0.0
 11
-4684.802920288115
 21
-8597.459326936695
 31
0.0
  0
LINE
  5
19BA
330
1F
100
AcDbEntity
  8
SPOJOVACÍ
  6
DASHED
100
AcDbLine
 10
-4683.77375518385
 20
-8594.562350231193
 30
0.0
 11
-4688.477468147583
 21
-8595.738278472397
 31
0.0
  0
LINE
  5
19BB
330
1F
100
AcDbEntity
  8
SPOJOVACÍ
  6
DASHED
100
AcDbLine
 10
-4684.143853531655
 20
-8594.77656971698
 30
0.0
 11
-4688.107369804057
 21
-8596.108376817793
 31
0.0
  0
LINE
  5
19BC
330
1F
100
AcDbEntity
  8
SPOJOVACÍ
  6
DASHED
100
AcDbLine
 10
-4686.125611665716
 20
-8615.970625223949
 30
0.0
 11
-4686.472920707223
 21
-8613.191241342706
 31
0.0
  0
LINE
  5
19BD
330
1F
100
AcDbEntity
  8
SPOJOVACÍ
  6
DASHED
100
AcDbLine
 10
-4685.499361510156
 20
-8612.87310261709
 30
0.0
 11
-4686.870366221731
 21
-8613.334358190623
 31
0.0
  0
LINE
  5
19BE
330
1F
100
AcDbEntity
  8
SPOJOVACÍ
  6
DASHED
100
AcDbLine
 10
-4685.499361510156
 20
-8612.288784785645
 30
0.0
 11
-4686.870366221731
 21
-8612.750040359179
 31
0.0
  0
LINE
  5
19BF
330
1F
100
AcDbEntity
  8
SPOJOVACÍ
  6
DASHED
100
AcDbLine
 10
-4684.393624335702
 20
-8606.965202671132
 30
0.0
 11
-4687.695339134545
 21
-8608.075497708128
 31
0.0
  0
LINE
  5
19C0
330
1F
100
AcDbEntity
  8
SPOJOVACÍ
  6
DASHED
100
AcDbLine
 10
-4684.022614418384
 20
-8606.750983185346
 30
0.0
 11
-4688.065437478072
 21
-8607.704487790005
 31
0.0
  0
LINE
  5
19C1
330
1F
100
AcDbEntity
  8
SPOJOVACÍ
  6
DASHED
100
AcDbLine
 10
-4684.946037138171
 20
-8609.918696857885
 30
0.0
 11
-4687.259607584944
 21
-8610.697179584846
 31
0.0
  0
LINE
  5
19C2
330
1F
100
AcDbEntity
  8
SPOJOVACÍ
  6
DASHED
100
AcDbLine
 10
-4684.946037138171
 20
-8609.334379026433
 30
0.0
 11
-4687.259607584944
 21
-8610.112861753666
 31
0.0
  0
LINE
  5
19C3
330
1F
100
AcDbEntity
  8
SPOJOVACÍ
  6
DASHED
100
AcDbLine
 10
-4684.575938790367
 20
-8609.705388944558
 30
0.0
 11
-4687.629705928469
 21
-8610.326169666993
 31
0.0
  0
LINE
  5
19C4
330
1F
100
AcDbEntity
  8
SPOJOVACÍ
  6
DASHED
100
AcDbLine
 10
-4685.129263166628
 20
-8612.658883131311
 30
0.0
 11
-4687.240464565257
 21
-8612.963348272769
 31
0.0
  0
LINE
  5
19C5
330
1F
100
AcDbEntity
  8
SPOJOVACÍ
  6
DASHED
100
AcDbLine
 10
-4684.393624335702
 20
-8606.38088483968
 30
0.0
 11
-4687.695339134545
 21
-8607.491179876678
 31
0.0
  0
LINE
  5
19C6
330
1F
100
AcDbEntity
  8
SPOJOVACÍ
  6
DASHED
100
AcDbLine
 10
-4683.77375518385
 20
-8603.735502083678
 30
0.0
 11
-4688.477468147583
 21
-8604.911430324611
 31
0.0
  0
LINE
  5
19C7
330
1F
100
AcDbEntity
  8
SPOJOVACÍ
  6
DASHED
100
AcDbLine
 10
-4684.143853531655
 20
-8603.948809997005
 30
0.0
 11
-4688.107369804057
 21
-8605.281528670277
 31
0.0
  0
LINE
  5
19C8
330
1F
100
AcDbEntity
  8
SPOJOVACÍ
  6
DASHED
100
AcDbLine
 10
-4683.77375518385
 20
-8597.619763658048
 30
0.0
 11
-4688.477468147583
 21
-8598.795691898981
 31
0.0
  0
LINE
  5
19C9
330
1F
100
AcDbEntity
  8
SPOJOVACÍ
  6
DASHED
100
AcDbLine
 10
-4684.143853531655
 20
-8597.833983143834
 30
0.0
 11
-4688.107369804057
 21
-8599.166701816834
 31
0.0
  0
LINE
  5
19CA
330
1F
100
AcDbEntity
  8
SPOJOVACÍ
  6
DASHED
100
AcDbLine
 10
-4684.143853531655
 20
-8597.24966531238
 30
0.0
 11
-4688.107369804057
 21
-8598.582383985389
 31
0.0
  0
LINE
  5
19CB
330
1F
100
AcDbEntity
  8
SPOJOVACÍ
  6
DASHED
100
AcDbLine
 10
-4683.77375518385
 20
-8600.677177084637
 30
0.0
 11
-4688.477468147583
 21
-8601.85310532557
 31
0.0
  0
LINE
  5
19CC
330
1F
100
AcDbEntity
  8
SPOJOVACÍ
  6
DASHED
100
AcDbLine
 10
-4684.143853531655
 20
-8600.891396570416
 30
0.0
 11
-4688.107369804057
 21
-8602.224115243423
 31
0.0
  0
LINE
  5
19CD
330
1F
100
AcDbEntity
  8
SPOJOVACÍ
  6
DASHED
100
AcDbLine
 10
-4684.143853531655
 20
-8600.307078738971
 30
0.0
 11
-4688.107369804057
 21
-8601.639797412243
 31
0.0
  0
LINE
  5
19CE
330
1F
100
AcDbEntity
  8
SPOJOVACÍ
  6
DASHED
100
AcDbLine
 10
-4684.143853531655
 20
-8603.364492165553
 30
0.0
 11
-4688.107369804057
 21
-8604.697210838827
 31
0.0
  0
LINE
  5
19CF
330
1F
100
AcDbEntity
  8
STAVBA OBRYS
100
AcDbLine
 10
-4673.490439409317
 20
-8613.631680127232
 30
0.0
 11
-4691.680731902932
 21
-8613.631680127232
 31
0.0
  0
LINE
  5
19D0
330
1F
100
AcDbEntity
  8
SPOJOVACÍ
  6
DASHED
100
AcDbLine
 10
-4687.207647964358
 20
-8607.317981143355
 30
0.0
 11
-4687.448303047596
 21
-8605.386359482293
 31
0.0
  0
LINE
  5
19D1
330
1F
100
AcDbEntity
  8
SPOJOVACÍ
  6
DASHED
100
AcDbLine
 10
-4688.065437478072
 20
-8607.704487790005
 30
0.0
 11
-4687.695339134545
 21
-8607.491179876678
 31
0.0
  0
LINE
  5
19D2
330
1F
100
AcDbEntity
  8
SPOJOVACÍ
  6
DASHED
100
AcDbLine
 10
-4688.065437478072
 20
-8607.704487790005
 30
0.0
 11
-4687.695339134545
 21
-8608.075497708128
 31
0.0
  0
LINE
  5
19D3
330
1F
100
AcDbEntity
  8
SPOJOVACÍ
  6
DASHED
100
AcDbLine
 10
-4687.629705928469
 20
-8610.326169666993
 30
0.0
 11
-4687.259607584944
 21
-8610.697179584846
 31
0.0
  0
LINE
  5
19D4
330
1F
100
AcDbEntity
  8
SPOJOVACÍ
  6
DASHED
100
AcDbLine
 10
-4687.629705928469
 20
-8610.326169666993
 30
0.0
 11
-4687.259607584944
 21
-8610.112861753666
 31
0.0
  0
LINE
  5
19D5
330
1F
100
AcDbEntity
  8
SPOJOVACÍ
  6
DASHED
100
AcDbLine
 10
-4686.543111773702
 20
-8612.63335910738
 30
0.0
 11
-4686.805644589447
 21
-8610.531273430096
 31
0.0
  0
LINE
  5
19D6
330
1F
100
AcDbEntity
  8
SPOJOVACÍ
  6
DASHED
100
AcDbLine
 10
-4687.240464565257
 20
-8612.963348272769
 30
0.0
 11
-4686.870366221731
 21
-8613.334358190623
 31
0.0
  0
LINE
  5
19D7
330
1F
100
AcDbEntity
  8
SPOJOVACÍ
  6
DASHED
100
AcDbLine
 10
-4687.240464565257
 20
-8612.963348272769
 30
0.0
 11
-4686.870366221731
 21
-8612.750040359179
 31
0.0
  0
LINE
  5
19D8
330
1F
100
AcDbEntity
  8
SPOJOVACÍ
  6
DASHED
100
AcDbLine
 10
-4686.875835651648
 20
-8609.970656477935
 30
0.0
 11
-4687.137456897879
 21
-8607.876774951138
 31
0.0
  0
LINE
  5
19D9
330
1F
100
AcDbEntity
  8
SPOJOVACÍ
  6
DASHED
100
AcDbLine
 10
-4687.448303047596
 20
-8595.876837458842
 30
0.0
 11
-4687.448303047596
 21
-8598.354490915452
 31
0.0
  0
LINE
  5
19DA
330
1F
100
AcDbEntity
  8
SPOJOVACÍ
  6
DASHED
100
AcDbLine
 10
-4687.448303047596
 20
-8605.05637031717
 30
0.0
 11
-4687.448303047596
 21
-8605.386359482293
 31
0.0
  0
LINE
  5
19DB
330
1F
100
AcDbEntity
  8
SPOJOVACÍ
  6
DASHED
100
AcDbLine
 10
-4688.477468147583
 20
-8604.911430324611
 30
0.0
 11
-4688.107369804057
 21
-8605.281528670277
 31
0.0
  0
LINE
  5
19DC
330
1F
100
AcDbEntity
  8
SPOJOVACÍ
  6
DASHED
100
AcDbLine
 10
-4688.477468147583
 20
-8604.911430324611
 30
0.0
 11
-4688.107369804057
 21
-8604.697210838827
 31
0.0
  0
LINE
  5
19DD
330
1F
100
AcDbEntity
  8
SPOJOVACÍ
  6
DASHED
100
AcDbLine
 10
-4687.448303047596
 20
-8598.936985602259
 30
0.0
 11
-4687.448303047596
 21
-8601.407346480833
 31
0.0
  0
LINE
  5
19DE
330
1F
100
AcDbEntity
  8
SPOJOVACÍ
  6
DASHED
100
AcDbLine
 10
-4687.448303047596
 20
-8601.996222173488
 30
0.0
 11
-4687.448303047596
 21
-8604.464759907417
 31
0.0
  0
LINE
  5
19DF
330
1F
100
AcDbEntity
  8
SPOJOVACÍ
  6
DASHED
100
AcDbLine
 10
-4688.477468147583
 20
-8598.795691898981
 30
0.0
 11
-4688.107369804057
 21
-8599.166701816834
 31
0.0
  0
LINE
  5
19E0
330
1F
100
AcDbEntity
  8
SPOJOVACÍ
  6
DASHED
100
AcDbLine
 10
-4688.477468147583
 20
-8598.795691898981
 30
0.0
 11
-4688.107369804057
 21
-8598.582383985389
 31
0.0
  0
LINE
  5
19E1
330
1F
100
AcDbEntity
  8
SPOJOVACÍ
  6
DASHED
100
AcDbLine
 10
-4688.477468147583
 20
-8601.85310532557
 30
0.0
 11
-4688.107369804057
 21
-8602.224115243423
 31
0.0
  0
LINE
  5
19E2
330
1F
100
AcDbEntity
  8
SPOJOVACÍ
  6
DASHED
100
AcDbLine
 10
-4688.477468147583
 20
-8601.85310532557
 30
0.0
 11
-4688.107369804057
 21
-8601.639797412243
 31
0.0
  0
LINE
  5
19E3
330
1F
100
AcDbEntity
  8
SPOJOVACÍ
  6
DASHED
100
AcDbLine
 10
-4688.477468147583
 20
-8595.738278472397
 30
0.0
 11
-4688.107369804057
 21
-8596.108376817793
 31
0.0
  0
LINE
  5
19E4
330
1F
100
AcDbEntity
  8
SPOJOVACÍ
  6
DASHED
100
AcDbLine
 10
-4684.802920288115
 20
-8605.386359482293
 30
0.0
 11
-4684.949683424783
 21
-8606.559553006665
 31
0.0
  0
LINE
  5
19E5
330
1F
100
AcDbEntity
  8
SPOJOVACÍ
  6
DASHED
100
AcDbLine
 10
-4685.025343925459
 20
-8607.1675717174
 30
0.0
 11
-4685.309754477988
 21
-8609.442856127744
 31
0.0
  0
LINE
  5
19E6
330
1F
100
AcDbEntity
  8
SPOJOVACÍ
  6
DASHED
100
AcDbLine
 10
-4685.38723812197
 20
-8610.060902133616
 30
0.0
 11
-4685.671648670221
 21
-8612.335274971764
 31
0.0
  0
LINE
  5
19E7
330
1F
100
AcDbEntity
  8
SPOJOVACÍ
  6
DASHED
100
AcDbLine
 10
-4685.747309170896
 20
-8612.9432936825
 30
0.0
 11
-4686.125611665716
 21
-8615.970625223949
 31
0.0
  0
LINE
  5
19E8
330
1F
100
AcDbEntity
  8
SPOJOVACÍ
  6
DASHED
100
AcDbLine
 10
-4684.575938790367
 20
-8609.705388944558
 30
0.0
 11
-4684.946037138171
 21
-8609.918696857885
 31
0.0
  0
LINE
  5
19E9
330
1F
100
AcDbEntity
  8
SPOJOVACÍ
  6
DASHED
100
AcDbLine
 10
-4684.575938790367
 20
-8609.705388944558
 30
0.0
 11
-4684.946037138171
 21
-8609.334379026433
 31
0.0
  0
LINE
  5
19EA
330
1F
100
AcDbEntity
  8
SPOJOVACÍ
  6
DASHED
100
AcDbLine
 10
-4685.129263166628
 20
-8612.658883131311
 30
0.0
 11
-4685.499361510156
 21
-8612.87310261709
 31
0.0
  0
LINE
  5
19EB
330
1F
100
AcDbEntity
  8
SPOJOVACÍ
  6
DASHED
100
AcDbLine
 10
-4685.129263166628
 20
-8612.658883131311
 30
0.0
 11
-4685.499361510156
 21
-8612.288784785645
 31
0.0
  0
LINE
  5
19EC
330
1F
100
AcDbEntity
  8
SPOJOVACÍ
  6
DASHED
100
AcDbLine
 10
-4684.022614418384
 20
-8606.750983185346
 30
0.0
 11
-4684.393624335702
 21
-8606.965202671132
 31
0.0
  0
LINE
  5
19ED
330
1F
100
AcDbEntity
  8
SPOJOVACÍ
  6
DASHED
100
AcDbLine
 10
-4684.022614418384
 20
-8606.750983185346
 30
0.0
 11
-4684.393624335702
 21
-8606.38088483968
 31
0.0
  0
LINE
  5
19EE
330
1F
100
AcDbEntity
  8
SPOJOVACÍ
  6
DASHED
100
AcDbLine
 10
-4684.802920288115
 20
-8604.163941055244
 30
0.0
 11
-4684.802920288115
 21
-8605.386359482293
 31
0.0
  0
LINE
  5
19EF
330
1F
100
AcDbEntity
  8
SPOJOVACÍ
  6
DASHED
100
AcDbLine
 10
-4683.77375518385
 20
-8603.735502083678
 30
0.0
 11
-4684.143853531655
 21
-8603.948809997005
 31
0.0
  0
LINE
  5
19F0
330
1F
100
AcDbEntity
  8
SPOJOVACÍ
  6
DASHED
100
AcDbLine
 10
-4683.77375518385
 20
-8597.619763658048
 30
0.0
 11
-4684.143853531655
 21
-8597.833983143834
 31
0.0
  0
LINE
  5
19F1
330
1F
100
AcDbEntity
  8
SPOJOVACÍ
  6
DASHED
100
AcDbLine
 10
-4683.77375518385
 20
-8597.619763658048
 30
0.0
 11
-4684.143853531655
 21
-8597.24966531238
 31
0.0
  0
LINE
  5
19F2
330
1F
100
AcDbEntity
  8
SPOJOVACÍ
  6
DASHED
100
AcDbLine
 10
-4684.802920288115
 20
-8601.111997062051
 30
0.0
 11
-4684.802920288115
 21
-8603.579623223792
 31
0.0
  0
LINE
  5
19F3
330
1F
100
AcDbEntity
  8
SPOJOVACÍ
  6
DASHED
100
AcDbLine
 10
-4683.77375518385
 20
-8600.677177084637
 30
0.0
 11
-4684.143853531655
 21
-8600.891396570416
 31
0.0
  0
LINE
  5
19F4
330
1F
100
AcDbEntity
  8
SPOJOVACÍ
  6
DASHED
100
AcDbLine
 10
-4683.77375518385
 20
-8600.677177084637
 30
0.0
 11
-4684.143853531655
 21
-8600.307078738971
 31
0.0
  0
LINE
  5
19F5
330
1F
100
AcDbEntity
  8
SPOJOVACÍ
  6
DASHED
100
AcDbLine
 10
-4683.77375518385
 20
-8603.735502083678
 30
0.0
 11
-4684.143853531655
 21
-8603.364492165553
 31
0.0
  0
LINE
  5
19F6
330
1F
100
AcDbEntity
  8
SPOJOVACÍ
  6
DASHED
100
AcDbLine
 10
-4684.802920288115
 20
-8598.0418216235
 30
0.0
 11
-4684.802920288115
 21
-8600.51947508011
 31
0.0
  0
LINE
  5
19F7
330
1F
100
AcDbEntity
  8
SPOJOVACÍ
  6
DASHED
100
AcDbLine
 10
-4683.77375518385
 20
-8591.504936804611
 30
0.0
 11
-4688.477468147583
 21
-8592.680865045544
 31
0.0
  0
LINE
  5
19F8
330
1F
100
AcDbEntity
  8
SPOJOVACÍ
  6
DASHED
100
AcDbLine
 10
-4684.143853531655
 20
-8591.718244717938
 30
0.0
 11
-4688.107369804057
 21
-8593.05096339121
 31
0.0
  0
LINE
  5
19F9
330
1F
100
AcDbEntity
  8
SPOJOVACÍ
  6
DASHED
100
AcDbLine
 10
-4684.143853531655
 20
-8591.133926886758
 30
0.0
 11
-4688.107369804057
 21
-8592.466645559758
 31
0.0
  0
LINE
  5
19FA
330
1F
100
AcDbEntity
  8
SPOJOVACÍ
  6
DASHED
100
AcDbLine
 10
-4684.143853531655
 20
-8594.192251885528
 30
0.0
 11
-4688.107369804057
 21
-8595.524058986612
 31
0.0
  0
LINE
  5
19FB
330
1F
100
AcDbEntity
  8
SPOJOVACÍ
  6
DASHED
100
AcDbLine
 10
-4681.127460854855
 20
-8580.920671062957
 30
0.0
 11
-4691.123762476578
 21
-8580.920671062957
 31
0.0
  0
LINE
  5
19FC
330
1F
100
AcDbEntity
  8
SPOJOVACÍ
  6
DASHED
100
AcDbLine
 10
-4681.127460854855
 20
-8582.096599304154
 30
0.0
 11
-4691.123762476578
 21
-8582.096599304154
 31
0.0
  0
LINE
  5
19FD
330
1F
100
AcDbEntity
  8
SPOJOVACÍ
  6
DASHED
100
AcDbLine
 10
-4687.670726680662
 20
-8585.895120994264
 30
0.0
 11
-4688.271452812827
 21
-8584.509531128754
 31
0.0
  0
LINE
  5
19FE
330
1F
100
AcDbEntity
  8
SPOJOVACÍ
  6
DASHED
100
AcDbLine
 10
-4687.448303047596
 20
-8587.388276388622
 30
0.0
 11
-4687.670726680662
 21
-8585.895120994264
 31
0.0
  0
LINE
  5
19FF
330
1F
100
AcDbEntity
  8
SPOJOVACÍ
  6
DASHED
100
AcDbLine
 10
-4687.448303047596
 20
-8592.823981893461
 30
0.0
 11
-4687.448303047596
 21
-8595.29251962739
 31
0.0
  0
LINE
  5
1A00
330
1F
100
AcDbEntity
  8
SPOJOVACÍ
  6
DASHED
100
AcDbLine
 10
-4688.477468147583
 20
-8592.680865045544
 30
0.0
 11
-4688.107369804057
 21
-8593.05096339121
 31
0.0
  0
LINE
  5
1A01
330
1F
100
AcDbEntity
  8
SPOJOVACÍ
  6
DASHED
100
AcDbLine
 10
-4688.477468147583
 20
-8592.680865045544
 30
0.0
 11
-4688.107369804057
 21
-8592.466645559758
 31
0.0
  0
LINE
  5
1A02
330
1F
100
AcDbEntity
  8
SPOJOVACÍ
  6
DASHED
100
AcDbLine
 10
-4687.448303047596
 20
-8587.388276388622
 30
0.0
 11
-4687.448303047596
 21
-8592.232371483973
 31
0.0
  0
LINE
  5
1A03
330
1F
100
AcDbEntity
  8
SPOJOVACÍ
  6
DASHED
100
AcDbLine
 10
-4688.271452812827
 20
-8584.509531128754
 30
0.0
 11
-4689.210372261412
 21
-8583.326310309512
 31
0.0
  0
LINE
  5
1A04
330
1F
100
AcDbEntity
  8
SPOJOVACÍ
  6
DASHED
100
AcDbLine
 10
-4691.123762476578
 20
-8580.920671062957
 30
0.0
 11
-4691.123762476578
 21
-8582.096599304154
 31
0.0
  0
LINE
  5
1A05
330
1F
100
AcDbEntity
  8
SPOJOVACÍ
  6
DASHED
100
AcDbLine
 10
-4690.422763394134
 20
-8582.42658846928
 30
0.0
 11
-4691.123762476578
 21
-8582.096599304154
 31
0.0
  0
LINE
  5
1A06
330
1F
100
AcDbEntity
  8
SPOJOVACÍ
  6
DASHED
100
AcDbLine
 10
-4689.210372261412
 20
-8583.326310309512
 30
0.0
 11
-4690.422763394134
 21
-8582.42658846928
 31
0.0
  0
LINE
  5
1A07
330
1F
100
AcDbEntity
  8
SPOJOVACÍ
  6
DASHED
100
AcDbLine
 10
-4683.538569539087
 20
-8583.873253677522
 30
0.0
 11
-4684.318875408819
 21
-8585.165863170253
 31
0.0
  0
LINE
  5
1A08
330
1F
100
AcDbEntity
  8
SPOJOVACÍ
  6
DASHED
100
AcDbLine
 10
-4684.318875408819
 20
-8585.165863170253
 30
0.0
 11
-4684.738198655832
 21
-8586.617086239963
 31
0.0
  0
LINE
  5
1A09
330
1F
100
AcDbEntity
  8
SPOJOVACÍ
  6
DASHED
100
AcDbLine
 10
-4684.738198655832
 20
-8586.617086239963
 30
0.0
 11
-4684.802920288115
 21
-8587.388276388622
 31
0.0
  0
LINE
  5
1A0A
330
1F
100
AcDbEntity
  8
SPOJOVACÍ
  6
DASHED
100
AcDbLine
 10
-4684.802920288115
 20
-8591.928817914704
 30
0.0
 11
-4684.802920288115
 21
-8594.397355648631
 31
0.0
  0
LINE
  5
1A0B
330
1F
100
AcDbEntity
  8
SPOJOVACÍ
  6
DASHED
100
AcDbLine
 10
-4683.77375518385
 20
-8591.504936804611
 30
0.0
 11
-4684.143853531655
 21
-8591.718244717938
 31
0.0
  0
LINE
  5
1A0C
330
1F
100
AcDbEntity
  8
SPOJOVACÍ
  6
DASHED
100
AcDbLine
 10
-4683.77375518385
 20
-8591.504936804611
 30
0.0
 11
-4684.143853531655
 21
-8591.133926886758
 31
0.0
  0
LINE
  5
1A0D
330
1F
100
AcDbEntity
  8
SPOJOVACÍ
  6
DASHED
100
AcDbLine
 10
-4683.77375518385
 20
-8594.562350231193
 30
0.0
 11
-4684.143853531655
 21
-8594.77656971698
 31
0.0
  0
LINE
  5
1A0E
330
1F
100
AcDbEntity
  8
SPOJOVACÍ
  6
DASHED
100
AcDbLine
 10
-4683.77375518385
 20
-8594.562350231193
 30
0.0
 11
-4684.143853531655
 21
-8594.192251885528
 31
0.0
  0
LINE
  5
1A0F
330
1F
100
AcDbEntity
  8
SPOJOVACÍ
  6
DASHED
100
AcDbLine
 10
-4684.802920288115
 20
-8587.388276388622
 30
0.0
 11
-4684.802920288115
 21
-8591.345411655709
 31
0.0
  0
LINE
  5
1A10
330
1F
100
AcDbEntity
  8
SPOJOVACÍ
  6
DASHED
100
AcDbLine
 10
-4681.127460854855
 20
-8580.920671062957
 30
0.0
 11
-4681.127460854855
 21
-8582.096599304154
 31
0.0
  0
LINE
  5
1A11
330
1F
100
AcDbEntity
  8
SPOJOVACÍ
  6
DASHED
100
AcDbLine
 10
-4682.450152236735
 20
-8582.825857127899
 30
0.0
 11
-4683.538569539087
 21
-8583.873253677522
 31
0.0
  0
LINE
  5
1A12
330
1F
100
AcDbEntity
  8
SPOJOVACÍ
  6
DASHED
100
AcDbLine
 10
-4681.127460854855
 20
-8582.096599304154
 30
0.0
 11
-4682.450152236735
 21
-8582.825857127899
 31
0.0
  0
LINE
  5
1A13
330
1F
100
AcDbEntity
  8
STAVBA OBRYS
100
AcDbLine
 10
-4646.450813890321
 20
-8603.808727175557
 30
0.0
 11
-4658.987367424777
 21
-8617.806434279703
 31
0.0
  0
LINE
  5
1A14
330
1F
100
AcDbEntity
  8
STAVBA OBRYS
100
AcDbLine
 10
-4644.484295440237
 20
-8622.472336292752
 30
0.0
 11
-4655.545961193686
 21
-8617.560860881907
 31
0.0
  0
LWPOLYLINE
  5
1A15
330
1F
100
AcDbEntity
  8
izolace
100
AcDbPolyline
 90
        4
 70
     1
 43
0.0
 10
-4649.096083234428
 20
-8642.920671062958
 10
-4672.737815944263
 20
-8642.920671062958
 10
-4672.737815944263
 20
-8645.920671062958
 10
-4649.096083234428
 20
-8645.920671062958
  0
HATCH
  5
1A16
330
1F
100
AcDbEntity
  8
izolace
100
AcDbHatch
 10
0.0
 20
0.0
 30
0.0
210
0.0
220
0.0
230
1.0
  2
SOLID
 70
     1
 71
     0
 91
        1
 92
        7
 72
     0
 73
     1
 93
        4
 10
-4649.096083234424
 20
-8642.920671062958
 10
-4672.737815944259
 20
-8642.920671062958
 10
-4672.737815944263
 20
-8645.920671062958
 10
-4649.096083234424
 20
-8645.920671062958
 97
        0
 75
     0
 76
     1
 47
0.1901250437635136
 98
        1
 10
-4663.380021185919
 20
-8643.737482614037
  0
LINE
  5
1A17
330
1F
100
AcDbEntity
  8
STAVBA OBRYS
100
AcDbLine
 10
-4659.478998093855
 20
-8622.472336292752
 30
0.0
 11
-4670.786476012173
 21
-8619.525451259244
 31
0.0
  0
LINE
  5
1A18
330
1F
100
AcDbEntity
  8
izolace
100
AcDbLine
 10
-4641.31003517413
 20
-8622.920671062958
 30
0.0
 11
-4641.31003517413
 21
-8642.920671062958
 31
0.0
  0
LINE
  5
1A19
330
1F
100
AcDbEntity
  8
STAVBA OBRYS
100
AcDbLine
 10
-4641.288703487128
 20
-8616.08741730016
 30
0.0
 11
-4666.853441225117
 21
-8611.42151528711
 31
0.0
  0
LINE
  5
1A1A
330
1F
100
AcDbEntity
  8
STAVBA OBRYS
100
AcDbLine
 10
-4641.042889209145
 20
-8611.42151528711
 30
0.0
 11
-4668.082514728141
 21
-8607.492334532436
 31
0.0
  0
LINE
  5
1A1B
330
1F
100
AcDbEntity
  8
STAVBA OBRYS
100
AcDbLine
 10
-4641.53451776511
 20
-8605.282169692314
 30
0.0
 11
-4665.870182000074
 21
-8603.808727175557
 31
0.0
  0
LINE
  5
1A1C
330
1F
100
AcDbEntity
  8
STAVBA OBRYS
100
AcDbLine
 10
-4641.53451776511
 20
-8602.089710196016
 30
0.0
 11
-4666.115996278056
 21
-8600.125119818681
 31
0.0
  0
LINE
  5
1A1D
330
1F
100
AcDbEntity
  8
STAVBA OBRYS
100
AcDbLine
 10
-4641.288703487128
 20
-8597.178234785172
 30
0.0
 11
-4670.54066173419
 21
-8596.441512461803
 31
0.0
  0
LINE
  5
1A1E
330
1F
100
AcDbEntity
  8
SPOJOVACÍ
  6
DASHED
100
AcDbLine
 10
-4646.966347521451
 20
-8603.970625223949
 30
0.0
 11
-4646.619038479944
 21
-8601.191241342705
 31
0.0
  0
LINE
  5
1A1F
330
1F
100
AcDbEntity
  8
SPOJOVACÍ
  6
DASHED
100
AcDbLine
 10
-4649.318204003317
 20
-8579.50493680461
 30
0.0
 11
-4644.614491039585
 21
-8580.680865045543
 31
0.0
  0
LINE
  5
1A20
330
1F
100
AcDbEntity
  8
SPOJOVACÍ
  6
DASHED
100
AcDbLine
 10
-4648.948105655512
 20
-8579.718244717938
 30
0.0
 11
-4644.984589383112
 21
-8581.050963391211
 31
0.0
  0
LINE
  5
1A21
330
1F
100
AcDbEntity
  8
SPOJOVACÍ
  6
DASHED
100
AcDbLine
 10
-4648.948105655512
 20
-8579.133926886758
 30
0.0
 11
-4644.984589383112
 21
-8580.466645559758
 31
0.0
  0
LINE
  5
1A22
330
1F
100
AcDbEntity
  8
SPOJOVACÍ
  6
DASHED
100
AcDbLine
 10
-4649.318204003317
 20
-8582.562350231194
 30
0.0
 11
-4644.614491039585
 21
-8583.738278472399
 31
0.0
  0
LINE
  5
1A23
330
1F
100
AcDbEntity
  8
SPOJOVACÍ
  6
DASHED
100
AcDbLine
 10
-4648.948105655512
 20
-8582.77656971698
 30
0.0
 11
-4644.984589383112
 21
-8584.108376817793
 31
0.0
  0
LINE
  5
1A24
330
1F
100
AcDbEntity
  8
SPOJOVACÍ
  6
DASHED
100
AcDbLine
 10
-4648.948105655512
 20
-8582.192251885528
 30
0.0
 11
-4644.984589383112
 21
-8583.524058986611
 31
0.0
  0
LINE
  5
1A25
330
1F
100
AcDbEntity
  8
SPOJOVACÍ
  6
DASHED
100
AcDbLine
 10
-4648.698334851466
 20
-8594.965202671131
 30
0.0
 11
-4645.396620052623
 21
-8596.075497708129
 31
0.0
  0
LINE
  5
1A26
330
1F
100
AcDbEntity
  8
SPOJOVACÍ
  6
DASHED
100
AcDbLine
 10
-4648.698334851466
 20
-8594.380884839679
 30
0.0
 11
-4645.396620052623
 21
-8595.491179876677
 31
0.0
  0
LINE
  5
1A27
330
1F
100
AcDbEntity
  8
SPOJOVACÍ
  6
DASHED
100
AcDbLine
 10
-4649.069344768784
 20
-8594.750983185347
 30
0.0
 11
-4645.026521709096
 21
-8595.704487790005
 31
0.0
  0
LINE
  5
1A28
330
1F
100
AcDbEntity
  8
SPOJOVACÍ
  6
DASHED
100
AcDbLine
 10
-4648.145922048995
 20
-8597.918696857886
 30
0.0
 11
-4645.832351602225
 21
-8598.697179584846
 31
0.0
  0
LINE
  5
1A29
330
1F
100
AcDbEntity
  8
SPOJOVACÍ
  6
DASHED
100
AcDbLine
 10
-4648.145922048995
 20
-8597.334379026433
 30
0.0
 11
-4645.832351602225
 21
-8598.112861753666
 31
0.0
  0
LINE
  5
1A2A
330
1F
100
AcDbEntity
  8
SPOJOVACÍ
  6
DASHED
100
AcDbLine
 10
-4648.5160203968
 20
-8597.705388944559
 30
0.0
 11
-4645.462253258698
 21
-8598.326169666993
 31
0.0
  0
LINE
  5
1A2B
330
1F
100
AcDbEntity
  8
SPOJOVACÍ
  6
DASHED
100
AcDbLine
 10
-4647.592597677012
 20
-8600.873102617091
 30
0.0
 11
-4646.221592965438
 21
-8601.334358190623
 31
0.0
  0
LINE
  5
1A2C
330
1F
100
AcDbEntity
  8
SPOJOVACÍ
  6
DASHED
100
AcDbLine
 10
-4647.592597677012
 20
-8600.288784785645
 30
0.0
 11
-4646.221592965438
 21
-8600.750040359178
 31
0.0
  0
LINE
  5
1A2D
330
1F
100
AcDbEntity
  8
SPOJOVACÍ
  6
DASHED
100
AcDbLine
 10
-4647.962696020538
 20
-8600.658883131311
 30
0.0
 11
-4645.85149462191
 21
-8600.963348272768
 31
0.0
  0
LINE
  5
1A2E
330
1F
100
AcDbEntity
  8
SPOJOVACÍ
  6
DASHED
100
AcDbLine
 10
-4649.318204003317
 20
-8585.619763658048
 30
0.0
 11
-4644.614491039585
 21
-8586.795691898981
 31
0.0
  0
LINE
  5
1A2F
330
1F
100
AcDbEntity
  8
SPOJOVACÍ
  6
DASHED
100
AcDbLine
 10
-4648.948105655512
 20
-8585.833983143833
 30
0.0
 11
-4644.984589383112
 21
-8587.166701816833
 31
0.0
  0
LINE
  5
1A30
330
1F
100
AcDbEntity
  8
SPOJOVACÍ
  6
DASHED
100
AcDbLine
 10
-4648.948105655512
 20
-8585.249665312382
 30
0.0
 11
-4644.984589383112
 21
-8586.582383985389
 31
0.0
  0
LINE
  5
1A31
330
1F
100
AcDbEntity
  8
SPOJOVACÍ
  6
DASHED
100
AcDbLine
 10
-4649.318204003317
 20
-8588.677177084639
 30
0.0
 11
-4644.614491039585
 21
-8589.853105325572
 31
0.0
  0
LINE
  5
1A32
330
1F
100
AcDbEntity
  8
SPOJOVACÍ
  6
DASHED
100
AcDbLine
 10
-4648.948105655512
 20
-8588.891396570415
 30
0.0
 11
-4644.984589383112
 21
-8590.224115243424
 31
0.0
  0
LINE
  5
1A33
330
1F
100
AcDbEntity
  8
SPOJOVACÍ
  6
DASHED
100
AcDbLine
 10
-4648.948105655512
 20
-8588.307078738971
 30
0.0
 11
-4644.984589383112
 21
-8589.639797412244
 31
0.0
  0
LINE
  5
1A34
330
1F
100
AcDbEntity
  8
SPOJOVACÍ
  6
DASHED
100
AcDbLine
 10
-4649.318204003317
 20
-8591.735502083677
 30
0.0
 11
-4644.614491039585
 21
-8592.911430324612
 31
0.0
  0
LINE
  5
1A35
330
1F
100
AcDbEntity
  8
SPOJOVACÍ
  6
DASHED
100
AcDbLine
 10
-4648.948105655512
 20
-8591.948809997004
 30
0.0
 11
-4644.984589383112
 21
-8593.281528670278
 31
0.0
  0
LINE
  5
1A36
330
1F
100
AcDbEntity
  8
SPOJOVACÍ
  6
DASHED
100
AcDbLine
 10
-4648.948105655512
 20
-8591.364492165554
 30
0.0
 11
-4644.984589383112
 21
-8592.697210838826
 31
0.0
  0
LINE
  5
1A37
330
1F
100
AcDbEntity
  8
SPOJOVACÍ
  6
DASHED
100
AcDbLine
 10
-4648.066615261709
 20
-8595.1675717174
 30
0.0
 11
-4647.782204709179
 21
-8597.442856127743
 31
0.0
  0
LINE
  5
1A38
330
1F
100
AcDbEntity
  8
SPOJOVACÍ
  6
DASHED
100
AcDbLine
 10
-4647.704721065198
 20
-8598.060902133616
 30
0.0
 11
-4647.420310516947
 21
-8600.335274971763
 31
0.0
  0
LINE
  5
1A39
330
1F
100
AcDbEntity
  8
SPOJOVACÍ
  6
DASHED
100
AcDbLine
 10
-4647.344650016271
 20
-8600.943293682499
 30
0.0
 11
-4646.966347521451
 21
-8603.970625223949
 31
0.0
  0
LINE
  5
1A3A
330
1F
100
AcDbEntity
  8
SPOJOVACÍ
  6
DASHED
100
AcDbLine
 10
-4648.5160203968
 20
-8597.705388944559
 30
0.0
 11
-4648.145922048995
 21
-8597.918696857886
 31
0.0
  0
LINE
  5
1A3B
330
1F
100
AcDbEntity
  8
SPOJOVACÍ
  6
DASHED
100
AcDbLine
 10
-4648.5160203968
 20
-8597.705388944559
 30
0.0
 11
-4648.145922048995
 21
-8597.334379026433
 31
0.0
  0
LINE
  5
1A3C
330
1F
100
AcDbEntity
  8
SPOJOVACÍ
  6
DASHED
100
AcDbLine
 10
-4647.962696020538
 20
-8600.658883131311
 30
0.0
 11
-4647.592597677012
 21
-8600.873102617091
 31
0.0
  0
LINE
  5
1A3D
330
1F
100
AcDbEntity
  8
SPOJOVACÍ
  6
DASHED
100
AcDbLine
 10
-4647.962696020538
 20
-8600.658883131311
 30
0.0
 11
-4647.592597677012
 21
-8600.288784785645
 31
0.0
  0
LINE
  5
1A3E
330
1F
100
AcDbEntity
  8
SPOJOVACÍ
  6
DASHED
100
AcDbLine
 10
-4648.289038899052
 20
-8582.98896605812
 30
0.0
 11
-4648.289038899052
 21
-8585.459326936694
 31
0.0
  0
LINE
  5
1A3F
330
1F
100
AcDbEntity
  8
SPOJOVACÍ
  6
DASHED
100
AcDbLine
 10
-4648.289038899052
 20
-8586.041821623499
 30
0.0
 11
-4648.289038899052
 21
-8588.519475080111
 31
0.0
  0
LINE
  5
1A40
330
1F
100
AcDbEntity
  8
SPOJOVACÍ
  6
DASHED
100
AcDbLine
 10
-4648.289038899052
 20
-8589.111997062051
 30
0.0
 11
-4648.289038899052
 21
-8591.579623223791
 31
0.0
  0
LINE
  5
1A41
330
1F
100
AcDbEntity
  8
SPOJOVACÍ
  6
DASHED
100
AcDbLine
 10
-4648.289038899052
 20
-8592.163941055243
 30
0.0
 11
-4648.289038899052
 21
-8593.386359482293
 31
0.0
  0
LINE
  5
1A42
330
1F
100
AcDbEntity
  8
SPOJOVACÍ
  6
DASHED
100
AcDbLine
 10
-4648.289038899052
 20
-8593.386359482293
 30
0.0
 11
-4648.142275762384
 21
-8594.559553006664
 31
0.0
  0
LINE
  5
1A43
330
1F
100
AcDbEntity
  8
SPOJOVACÍ
  6
DASHED
100
AcDbLine
 10
-4649.069344768784
 20
-8594.750983185347
 30
0.0
 11
-4648.698334851466
 21
-8594.965202671131
 31
0.0
  0
LINE
  5
1A44
330
1F
100
AcDbEntity
  8
SPOJOVACÍ
  6
DASHED
100
AcDbLine
 10
-4649.069344768784
 20
-8594.750983185347
 30
0.0
 11
-4648.698334851466
 21
-8594.380884839679
 31
0.0
  0
LINE
  5
1A45
330
1F
100
AcDbEntity
  8
SPOJOVACÍ
  6
DASHED
100
AcDbLine
 10
-4649.318204003317
 20
-8585.619763658048
 30
0.0
 11
-4648.948105655512
 21
-8585.833983143833
 31
0.0
  0
LINE
  5
1A46
330
1F
100
AcDbEntity
  8
SPOJOVACÍ
  6
DASHED
100
AcDbLine
 10
-4649.318204003317
 20
-8585.619763658048
 30
0.0
 11
-4648.948105655512
 21
-8585.249665312382
 31
0.0
  0
LINE
  5
1A47
330
1F
100
AcDbEntity
  8
SPOJOVACÍ
  6
DASHED
100
AcDbLine
 10
-4649.318204003317
 20
-8588.677177084639
 30
0.0
 11
-4648.948105655512
 21
-8588.891396570415
 31
0.0
  0
LINE
  5
1A48
330
1F
100
AcDbEntity
  8
SPOJOVACÍ
  6
DASHED
100
AcDbLine
 10
-4649.318204003317
 20
-8588.677177084639
 30
0.0
 11
-4648.948105655512
 21
-8588.307078738971
 31
0.0
  0
LINE
  5
1A49
330
1F
100
AcDbEntity
  8
SPOJOVACÍ
  6
DASHED
100
AcDbLine
 10
-4649.318204003317
 20
-8591.735502083677
 30
0.0
 11
-4648.948105655512
 21
-8591.948809997004
 31
0.0
  0
LINE
  5
1A4A
330
1F
100
AcDbEntity
  8
SPOJOVACÍ
  6
DASHED
100
AcDbLine
 10
-4649.318204003317
 20
-8591.735502083677
 30
0.0
 11
-4648.948105655512
 21
-8591.364492165554
 31
0.0
  0
LINE
  5
1A4B
330
1F
100
AcDbEntity
  8
SPOJOVACÍ
  6
DASHED
100
AcDbLine
 10
-4648.353760531335
 20
-8574.617086239964
 30
0.0
 11
-4648.289038899052
 21
-8575.388276388624
 31
0.0
  0
LINE
  5
1A4C
330
1F
100
AcDbEntity
  8
SPOJOVACÍ
  6
DASHED
100
AcDbLine
 10
-4648.289038899052
 20
-8575.388276388624
 30
0.0
 11
-4648.289038899052
 21
-8579.34541165571
 31
0.0
  0
LINE
  5
1A4D
330
1F
100
AcDbEntity
  8
SPOJOVACÍ
  6
DASHED
100
AcDbLine
 10
-4648.289038899052
 20
-8579.928817914703
 30
0.0
 11
-4648.289038899052
 21
-8582.39735564863
 31
0.0
  0
LINE
  5
1A4E
330
1F
100
AcDbEntity
  8
SPOJOVACÍ
  6
DASHED
100
AcDbLine
 10
-4649.318204003317
 20
-8579.50493680461
 30
0.0
 11
-4648.948105655512
 21
-8579.718244717938
 31
0.0
  0
LINE
  5
1A4F
330
1F
100
AcDbEntity
  8
SPOJOVACÍ
  6
DASHED
100
AcDbLine
 10
-4649.318204003317
 20
-8579.50493680461
 30
0.0
 11
-4648.948105655512
 21
-8579.133926886758
 31
0.0
  0
LINE
  5
1A50
330
1F
100
AcDbEntity
  8
SPOJOVACÍ
  6
DASHED
100
AcDbLine
 10
-4649.318204003317
 20
-8582.562350231194
 30
0.0
 11
-4648.948105655512
 21
-8582.77656971698
 31
0.0
  0
LINE
  5
1A51
330
1F
100
AcDbEntity
  8
SPOJOVACÍ
  6
DASHED
100
AcDbLine
 10
-4649.318204003317
 20
-8582.562350231194
 30
0.0
 11
-4648.948105655512
 21
-8582.192251885528
 31
0.0
  0
LINE
  5
1A52
330
1F
100
AcDbEntity
  8
SPOJOVACÍ
  6
DASHED
100
AcDbLine
 10
-4645.026521709096
 20
-8595.704487790005
 30
0.0
 11
-4645.396620052623
 21
-8595.491179876677
 31
0.0
  0
LINE
  5
1A53
330
1F
100
AcDbEntity
  8
SPOJOVACÍ
  6
DASHED
100
AcDbLine
 10
-4646.548847413465
 20
-8600.63335910738
 30
0.0
 11
-4646.286314597721
 21
-8598.531273430095
 31
0.0
  0
LINE
  5
1A54
330
1F
100
AcDbEntity
  8
SPOJOVACÍ
  6
DASHED
100
AcDbLine
 10
-4646.216123535519
 20
-8597.970656477935
 30
0.0
 11
-4645.954502289288
 21
-8595.87677495114
 31
0.0
  0
LINE
  5
1A55
330
1F
100
AcDbEntity
  8
SPOJOVACÍ
  6
DASHED
100
AcDbLine
 10
-4645.026521709096
 20
-8595.704487790005
 30
0.0
 11
-4645.396620052623
 21
-8596.075497708129
 31
0.0
  0
LINE
  5
1A56
330
1F
100
AcDbEntity
  8
SPOJOVACÍ
  6
DASHED
100
AcDbLine
 10
-4645.462253258698
 20
-8598.326169666993
 30
0.0
 11
-4645.832351602225
 21
-8598.697179584846
 31
0.0
  0
LINE
  5
1A57
330
1F
100
AcDbEntity
  8
SPOJOVACÍ
  6
DASHED
100
AcDbLine
 10
-4645.462253258698
 20
-8598.326169666993
 30
0.0
 11
-4645.832351602225
 21
-8598.112861753666
 31
0.0
  0
LINE
  5
1A58
330
1F
100
AcDbEntity
  8
SPOJOVACÍ
  6
DASHED
100
AcDbLine
 10
-4645.85149462191
 20
-8600.963348272768
 30
0.0
 11
-4646.221592965438
 21
-8601.334358190623
 31
0.0
  0
LINE
  5
1A59
330
1F
100
AcDbEntity
  8
SPOJOVACÍ
  6
DASHED
100
AcDbLine
 10
-4645.85149462191
 20
-8600.963348272768
 30
0.0
 11
-4646.221592965438
 21
-8600.750040359178
 31
0.0
  0
LINE
  5
1A5A
330
1F
100
AcDbEntity
  8
SPOJOVACÍ
  6
DASHED
100
AcDbLine
 10
-4645.643656139571
 20
-8583.876837458841
 30
0.0
 11
-4645.643656139571
 21
-8586.354490915454
 31
0.0
  0
HATCH
  5
1A5B
330
1F
100
AcDbEntity
  8
CETRIS
370
    20
100
AcDbHatch
 10
0.0
 20
0.0
 30
0.0
210
0.0
220
0.0
230
1.0
  2
ANSI31
 70
     0
 71
     0
 91
        1
 92
        7
 72
     0
 73
     1
 93
       25
 10
-4636.539022087534
 20
-8580.920671062957
 10
-4644.854297055611
 20
-8580.920671062957
 10
-4644.984589383112
 20
-8581.050963391211
 10
-4645.37207983669
 20
-8580.920671062957
 10
-4645.643656139571
 20
-8580.920671062957
 10
-4645.64365613957
 20
-8583.302601642675
 10
-4644.984589383111
 20
-8583.524058986611
 10
-4644.614491039585
 20
-8583.738278472399
 10
-4644.984589383112
 20
-8584.108376817793
 10
-4645.643656139571
 20
-8583.886919473901
 10
-4645.643656139571
 20
-8586.360775062223
 10
-4644.984589383112
 20
-8586.582383985389
 10
-4644.614491039585
 20
-8586.795691898981
 10
-4644.984589383112
 20
-8587.166701816833
 10
-4645.643656139571
 20
-8586.945092893666
 10
-4645.643656139571
 20
-8589.41818848903
 10
-4644.984589383111
 20
-8589.639797412244
 10
-4644.614491039585
 20
-8589.853105325572
 10
-4644.984589383112
 20
-8590.224115243424
 10
-4645.643656139571
 20
-8590.002506320253
 10
-4645.643656139571
 20
-8592.475601915612
 10
-4648.948105655512
 20
-8591.364492165554
 10
-4649.318204003317
 20
-8591.735502083677
 10
-4644.577528086203
 20
-8592.920671062957
 10
-4636.539022087534
 20
-8592.920671062957
 97
        0
 75
     0
 76
     1
 52
0.0
 41
1.0
 77
     0
 78
     1
 53
45.0
 43
-5060.436830593764
 44
-8831.201453900856
 45
-2.245064030267287
 46
2.245064030267288
 79
     0
 47
0.2420148754633407
 98
        1
 10
-4640.911353568413
 20
-8586.91475772604
  0
LINE
  5
1A5C
330
1F
100
AcDbEntity
  8
SPOJOVACÍ
  6
DASHED
100
AcDbLine
 10
-4645.643656139571
 20
-8586.936985602259
 30
0.0
 11
-4645.643656139571
 21
-8589.407346480832
 31
0.0
  0
LINE
  5
1A5D
330
1F
100
AcDbEntity
  8
SPOJOVACÍ
  6
DASHED
100
AcDbLine
 10
-4645.643656139571
 20
-8589.996222173487
 30
0.0
 11
-4645.643656139571
 21
-8592.464759907416
 31
0.0
  0
LINE
  5
1A5E
330
1F
100
AcDbEntity
  8
SPOJOVACÍ
  6
DASHED
100
AcDbLine
 10
-4645.643656139571
 20
-8593.056370317169
 30
0.0
 11
-4645.643656139571
 21
-8593.386359482293
 31
0.0
  0
LINE
  5
1A5F
330
1F
100
AcDbEntity
  8
SPOJOVACÍ
  6
DASHED
100
AcDbLine
 10
-4645.884311222809
 20
-8595.317981143354
 30
0.0
 11
-4645.643656139571
 21
-8593.386359482293
 31
0.0
  0
LINE
  5
1A60
330
1F
100
AcDbEntity
  8
SPOJOVACÍ
  6
DASHED
100
AcDbLine
 10
-4644.614491039585
 20
-8586.795691898981
 30
0.0
 11
-4644.984589383112
 21
-8587.166701816833
 31
0.0
  0
LINE
  5
1A61
330
1F
100
AcDbEntity
  8
SPOJOVACÍ
  6
DASHED
100
AcDbLine
 10
-4644.614491039585
 20
-8586.795691898981
 30
0.0
 11
-4644.984589383112
 21
-8586.582383985389
 31
0.0
  0
LINE
  5
1A62
330
1F
100
AcDbEntity
  8
SPOJOVACÍ
  6
DASHED
100
AcDbLine
 10
-4644.614491039585
 20
-8589.853105325572
 30
0.0
 11
-4644.984589383112
 21
-8590.224115243424
 31
0.0
  0
LINE
  5
1A63
330
1F
100
AcDbEntity
  8
SPOJOVACÍ
  6
DASHED
100
AcDbLine
 10
-4644.614491039585
 20
-8589.853105325572
 30
0.0
 11
-4644.984589383112
 21
-8589.639797412244
 31
0.0
  0
LINE
  5
1A64
330
1F
100
AcDbEntity
  8
SPOJOVACÍ
  6
DASHED
100
AcDbLine
 10
-4644.614491039585
 20
-8592.911430324612
 30
0.0
 11
-4644.984589383112
 21
-8593.281528670278
 31
0.0
  0
LINE
  5
1A65
330
1F
100
AcDbEntity
  8
SPOJOVACÍ
  6
DASHED
100
AcDbLine
 10
-4644.614491039585
 20
-8592.911430324612
 30
0.0
 11
-4644.984589383112
 21
-8592.697210838826
 31
0.0
  0
LINE
  5
1A66
330
1F
100
AcDbEntity
  8
SPOJOVACÍ
  6
DASHED
100
AcDbLine
 10
-4645.643656139571
 20
-8575.388276388624
 30
0.0
 11
-4645.421232506506
 21
-8573.895120994263
 31
0.0
  0
LINE
  5
1A67
330
1F
100
AcDbEntity
  8
SPOJOVACÍ
  6
DASHED
100
AcDbLine
 10
-4645.643656139571
 20
-8575.388276388624
 30
0.0
 11
-4645.643656139571
 21
-8580.232371483972
 31
0.0
  0
LINE
  5
1A68
330
1F
100
AcDbEntity
  8
SPOJOVACÍ
  6
DASHED
100
AcDbLine
 10
-4645.643656139571
 20
-8580.823981893463
 30
0.0
 11
-4645.643656139571
 21
-8583.29251962739
 31
0.0
  0
LINE
  5
1A69
330
1F
100
AcDbEntity
  8
SPOJOVACÍ
  6
DASHED
100
AcDbLine
 10
-4644.614491039585
 20
-8580.680865045543
 30
0.0
 11
-4644.984589383112
 21
-8581.050963391211
 31
0.0
  0
LINE
  5
1A6A
330
1F
100
AcDbEntity
  8
SPOJOVACÍ
  6
DASHED
100
AcDbLine
 10
-4644.614491039585
 20
-8580.680865045543
 30
0.0
 11
-4644.984589383112
 21
-8580.466645559758
 31
0.0
  0
LINE
  5
1A6B
330
1F
100
AcDbEntity
  8
SPOJOVACÍ
  6
DASHED
100
AcDbLine
 10
-4644.614491039585
 20
-8583.738278472399
 30
0.0
 11
-4644.984589383112
 21
-8584.108376817793
 31
0.0
  0
LINE
  5
1A6C
330
1F
100
AcDbEntity
  8
SPOJOVACÍ
  6
DASHED
100
AcDbLine
 10
-4644.614491039585
 20
-8583.738278472399
 30
0.0
 11
-4644.984589383112
 21
-8583.524058986611
 31
0.0
  0
LINE
  5
1A6D
330
1F
100
AcDbEntity
  8
POPIS
370
    20
100
AcDbLine
 10
-4582.852001997799
 20
-8586.373850235951
 30
0.0
 11
-4582.852001997799
 21
-8683.313153517481
 31
0.0
  0
LINE
  5
1A6E
330
1F
100
AcDbEntity
  8
POPIS
370
    20
100
AcDbLine
 10
-4546.779523870315
 20
-8604.849774523483
 30
0.0
 11
-4546.779523870315
 21
-8683.313153517481
 31
0.0
  0
TEXT
  5
1A6F
330
1F
100
AcDbEntity
  8
POPIS
100
AcDbText
 10
-4557.29316413408
 20
-8709.991799827228
 30
0.0
 40
25.0
  1
09
 41
0.8
  7
SIMPLEX7
100
AcDbText
  0
LWPOLYLINE
  5
1A70
330
1F
100
AcDbEntity
  8
izolace
100
AcDbPolyline
 90
        4
 70
     1
 43
0.0
 10
-4554.529152395087
 20
-8642.920671062958
 10
-4578.170885104922
 20
-8642.920671062958
 10
-4578.170885104922
 20
-8645.920671062958
 10
-4554.529152395087
 20
-8645.920671062958
  0
HATCH
  5
1A71
330
1F
100
AcDbEntity
  8
izolace
100
AcDbHatch
 10
0.0
 20
0.0
 30
0.0
210
0.0
220
0.0
230
1.0
  2
SOLID
 70
     1
 71
     0
 91
        1
 92
        7
 72
     0
 73
     1
 93
        4
 10
-4554.529152395083
 20
-8642.920671062958
 10
-4578.170885104919
 20
-8642.920671062958
 10
-4578.170885104922
 20
-8645.920671062958
 10
-4554.529152395083
 20
-8645.920671062958
 97
        0
 75
     0
 76
     1
 47
0.1901250437635136
 98
        1
 10
-4568.813090346579
 20
-8643.737482614037
  0
INSERT
  5
1A72
330
1F
100
AcDbEntity
  8
POPIS
100
AcDbBlockReference
  2
E_PUNKT
 10
-4582.881070328673
 20
-8586.346239860324
 30
0.0
 50
270.0
  0
LINE
  5
1A73
330
1F
100
AcDbEntity
  8
SPOJOVACÍ
  6
DASHED
100
AcDbLine
 10
-4549.069344768784
 20
-8594.750983185347
 30
0.0
 11
-4545.026521709096
 21
-8595.704487790005
 31
0.0
  0
LINE
  5
1A74
330
1F
100
AcDbEntity
  8
SPOJOVACÍ
  6
DASHED
100
AcDbLine
 10
-4548.698334851466
 20
-8594.965202671131
 30
0.0
 11
-4545.396620052623
 21
-8596.075497708129
 31
0.0
  0
LINE
  5
1A75
330
1F
100
AcDbEntity
  8
SPOJOVACÍ
  6
DASHED
100
AcDbLine
 10
-4545.026521709096
 20
-8595.704487790005
 30
0.0
 11
-4545.396620052623
 21
-8595.491179876677
 31
0.0
  0
LINE
  5
1A76
330
1F
100
AcDbEntity
  8
SPOJOVACÍ
  6
DASHED
100
AcDbLine
 10
-4548.066615261709
 20
-8595.1675717174
 30
0.0
 11
-4547.78220470918
 21
-8597.442856127743
 31
0.0
  0
INSERT
  5
1A77
330
1F
100
AcDbEntity
  8
POPIS
100
AcDbBlockReference
  2
E_PUNKT
 10
-4546.634937680436
 20
-8602.5533229077
 30
0.0
 50
270.0
  0
LINE
  5
1A78
330
1F
100
AcDbEntity
  8
SPOJOVACÍ
  6
DASHED
100
AcDbLine
 10
-4547.962696020539
 20
-8600.658883131311
 30
0.0
 11
-4545.851494621911
 21
-8600.963348272768
 31
0.0
  0
LINE
  5
1A79
330
1F
100
AcDbEntity
  8
SPOJOVACÍ
  6
DASHED
100
AcDbLine
 10
-4547.592597677012
 20
-8600.288784785645
 30
0.0
 11
-4546.221592965437
 21
-8600.750040359178
 31
0.0
  0
LINE
  5
1A7A
330
1F
100
AcDbEntity
  8
SPOJOVACÍ
  6
DASHED
100
AcDbLine
 10
-4547.592597677012
 20
-8600.873102617091
 30
0.0
 11
-4546.221592965437
 21
-8601.334358190623
 31
0.0
  0
LINE
  5
1A7B
330
1F
100
AcDbEntity
  8
SPOJOVACÍ
  6
DASHED
100
AcDbLine
 10
-4545.851494621911
 20
-8600.963348272768
 30
0.0
 11
-4546.221592965437
 21
-8600.750040359178
 31
0.0
  0
LINE
  5
1A7C
330
1F
100
AcDbEntity
  8
SPOJOVACÍ
  6
DASHED
100
AcDbLine
 10
-4545.851494621911
 20
-8600.963348272768
 30
0.0
 11
-4546.221592965437
 21
-8601.334358190623
 31
0.0
  0
LINE
  5
1A7D
330
1F
100
AcDbEntity
  8
SPOJOVACÍ
  6
DASHED
100
AcDbLine
 10
-4547.962696020539
 20
-8600.658883131311
 30
0.0
 11
-4547.592597677012
 21
-8600.288784785645
 31
0.0
  0
LINE
  5
1A7E
330
1F
100
AcDbEntity
  8
SPOJOVACÍ
  6
DASHED
100
AcDbLine
 10
-4547.962696020539
 20
-8600.658883131311
 30
0.0
 11
-4547.592597677012
 21
-8600.873102617091
 31
0.0
  0
LINE
  5
1A7F
330
1F
100
AcDbEntity
  8
SPOJOVACÍ
  6
DASHED
100
AcDbLine
 10
-4548.5160203968
 20
-8597.705388944559
 30
0.0
 11
-4545.462253258698
 21
-8598.326169666993
 31
0.0
  0
LINE
  5
1A80
330
1F
100
AcDbEntity
  8
SPOJOVACÍ
  6
DASHED
100
AcDbLine
 10
-4548.145922048996
 20
-8597.334379026433
 30
0.0
 11
-4545.832351602224
 21
-8598.112861753666
 31
0.0
  0
LINE
  5
1A81
330
1F
100
AcDbEntity
  8
SPOJOVACÍ
  6
DASHED
100
AcDbLine
 10
-4548.145922048996
 20
-8597.918696857886
 30
0.0
 11
-4545.832351602224
 21
-8598.697179584846
 31
0.0
  0
LINE
  5
1A82
330
1F
100
AcDbEntity
  8
SPOJOVACÍ
  6
DASHED
100
AcDbLine
 10
-4545.462253258698
 20
-8598.326169666993
 30
0.0
 11
-4545.832351602224
 21
-8598.112861753666
 31
0.0
  0
LINE
  5
1A83
330
1F
100
AcDbEntity
  8
SPOJOVACÍ
  6
DASHED
100
AcDbLine
 10
-4545.462253258698
 20
-8598.326169666993
 30
0.0
 11
-4545.832351602224
 21
-8598.697179584846
 31
0.0
  0
LINE
  5
1A84
330
1F
100
AcDbEntity
  8
SPOJOVACÍ
  6
DASHED
100
AcDbLine
 10
-4548.5160203968
 20
-8597.705388944559
 30
0.0
 11
-4548.145922048996
 21
-8597.334379026433
 31
0.0
  0
LINE
  5
1A85
330
1F
100
AcDbEntity
  8
SPOJOVACÍ
  6
DASHED
100
AcDbLine
 10
-4548.5160203968
 20
-8597.705388944559
 30
0.0
 11
-4548.145922048996
 21
-8597.918696857886
 31
0.0
  0
LINE
  5
1A86
330
1F
100
AcDbEntity
  8
SPOJOVACÍ
  6
DASHED
100
AcDbLine
 10
-4545.026521709096
 20
-8595.704487790005
 30
0.0
 11
-4545.396620052623
 21
-8596.075497708129
 31
0.0
  0
LINE
  5
1A87
330
1F
100
AcDbEntity
  8
SPOJOVACÍ
  6
DASHED
100
AcDbLine
 10
-4546.216123535519
 20
-8597.970656477935
 30
0.0
 11
-4545.954502289289
 21
-8595.87677495114
 31
0.0
  0
LINE
  5
1A88
330
1F
100
AcDbEntity
  8
SPOJOVACÍ
  6
DASHED
100
AcDbLine
 10
-4546.548847413465
 20
-8600.63335910738
 30
0.0
 11
-4546.286314597721
 21
-8598.531273430095
 31
0.0
  0
LINE
  5
1A89
330
1F
100
AcDbEntity
  8
SPOJOVACÍ
  6
DASHED
100
AcDbLine
 10
-4547.344650016271
 20
-8600.943293682499
 30
0.0
 11
-4546.966347521451
 21
-8603.970625223949
 31
0.0
  0
LINE
  5
1A8A
330
1F
100
AcDbEntity
  8
SPOJOVACÍ
  6
DASHED
100
AcDbLine
 10
-4547.704721065198
 20
-8598.060902133616
 30
0.0
 11
-4547.420310516947
 21
-8600.335274971763
 31
0.0
  0
LINE
  5
1A8B
330
1F
100
AcDbEntity
  8
SPOJOVACÍ
  6
DASHED
100
AcDbLine
 10
-4546.966347521451
 20
-8603.970625223949
 30
0.0
 11
-4546.619038479945
 21
-8601.191241342705
 31
0.0
  0
LINE
  5
1A8C
330
1F
100
AcDbEntity
  8
SPOJOVACÍ
  6
DASHED
100
AcDbLine
 10
-4545.643656139571
 20
-8583.876837458841
 30
0.0
 11
-4545.643656139571
 21
-8586.354490915454
 31
0.0
  0
LINE
  5
1A8D
330
1F
100
AcDbEntity
  8
SPOJOVACÍ
  6
DASHED
100
AcDbLine
 10
-4548.289038899052
 20
-8582.98896605812
 30
0.0
 11
-4548.289038899052
 21
-8585.459326936694
 31
0.0
  0
LINE
  5
1A8E
330
1F
100
AcDbEntity
  8
SPOJOVACÍ
  6
DASHED
100
AcDbLine
 10
-4548.948105655512
 20
-8591.364492165554
 30
0.0
 11
-4544.984589383111
 21
-8592.697210838826
 31
0.0
  0
LINE
  5
1A8F
330
1F
100
AcDbEntity
  8
SPOJOVACÍ
  6
DASHED
100
AcDbLine
 10
-4548.948105655512
 20
-8591.948809997004
 30
0.0
 11
-4544.984589383111
 21
-8593.281528670278
 31
0.0
  0
LINE
  5
1A90
330
1F
100
AcDbEntity
  8
SPOJOVACÍ
  6
DASHED
100
AcDbLine
 10
-4549.318204003316
 20
-8591.735502083677
 30
0.0
 11
-4544.614491039585
 21
-8592.911430324612
 31
0.0
  0
LINE
  5
1A91
330
1F
100
AcDbEntity
  8
SPOJOVACÍ
  6
DASHED
100
AcDbLine
 10
-4548.948105655512
 20
-8588.307078738971
 30
0.0
 11
-4544.984589383111
 21
-8589.639797412244
 31
0.0
  0
LINE
  5
1A92
330
1F
100
AcDbEntity
  8
SPOJOVACÍ
  6
DASHED
100
AcDbLine
 10
-4548.948105655512
 20
-8588.891396570415
 30
0.0
 11
-4544.984589383111
 21
-8590.224115243424
 31
0.0
  0
LINE
  5
1A93
330
1F
100
AcDbEntity
  8
SPOJOVACÍ
  6
DASHED
100
AcDbLine
 10
-4549.318204003316
 20
-8588.677177084639
 30
0.0
 11
-4544.614491039585
 21
-8589.853105325572
 31
0.0
  0
LINE
  5
1A94
330
1F
100
AcDbEntity
  8
SPOJOVACÍ
  6
DASHED
100
AcDbLine
 10
-4548.948105655512
 20
-8585.249665312382
 30
0.0
 11
-4544.984589383111
 21
-8586.582383985389
 31
0.0
  0
LINE
  5
1A95
330
1F
100
AcDbEntity
  8
SPOJOVACÍ
  6
DASHED
100
AcDbLine
 10
-4548.948105655512
 20
-8585.833983143833
 30
0.0
 11
-4544.984589383111
 21
-8587.166701816833
 31
0.0
  0
LINE
  5
1A96
330
1F
100
AcDbEntity
  8
SPOJOVACÍ
  6
DASHED
100
AcDbLine
 10
-4549.318204003316
 20
-8585.619763658048
 30
0.0
 11
-4544.614491039585
 21
-8586.795691898981
 31
0.0
  0
LINE
  5
1A97
330
1F
100
AcDbEntity
  8
SPOJOVACÍ
  6
DASHED
100
AcDbLine
 10
-4549.069344768784
 20
-8594.750983185347
 30
0.0
 11
-4548.698334851466
 21
-8594.380884839679
 31
0.0
  0
LINE
  5
1A98
330
1F
100
AcDbEntity
  8
SPOJOVACÍ
  6
DASHED
100
AcDbLine
 10
-4549.069344768784
 20
-8594.750983185347
 30
0.0
 11
-4548.698334851466
 21
-8594.965202671131
 31
0.0
  0
LINE
  5
1A99
330
1F
100
AcDbEntity
  8
SPOJOVACÍ
  6
DASHED
100
AcDbLine
 10
-4549.318204003316
 20
-8591.735502083677
 30
0.0
 11
-4548.948105655512
 21
-8591.364492165554
 31
0.0
  0
LINE
  5
1A9A
330
1F
100
AcDbEntity
  8
SPOJOVACÍ
  6
DASHED
100
AcDbLine
 10
-4549.318204003316
 20
-8591.735502083677
 30
0.0
 11
-4548.948105655512
 21
-8591.948809997004
 31
0.0
  0
LINE
  5
1A9B
330
1F
100
AcDbEntity
  8
SPOJOVACÍ
  6
DASHED
100
AcDbLine
 10
-4549.318204003316
 20
-8588.677177084639
 30
0.0
 11
-4548.948105655512
 21
-8588.307078738971
 31
0.0
  0
LINE
  5
1A9C
330
1F
100
AcDbEntity
  8
SPOJOVACÍ
  6
DASHED
100
AcDbLine
 10
-4549.318204003316
 20
-8588.677177084639
 30
0.0
 11
-4548.948105655512
 21
-8588.891396570415
 31
0.0
  0
LINE
  5
1A9D
330
1F
100
AcDbEntity
  8
SPOJOVACÍ
  6
DASHED
100
AcDbLine
 10
-4549.318204003316
 20
-8585.619763658048
 30
0.0
 11
-4548.948105655512
 21
-8585.249665312382
 31
0.0
  0
LINE
  5
1A9E
330
1F
100
AcDbEntity
  8
SPOJOVACÍ
  6
DASHED
100
AcDbLine
 10
-4549.318204003316
 20
-8585.619763658048
 30
0.0
 11
-4548.948105655512
 21
-8585.833983143833
 31
0.0
  0
LINE
  5
1A9F
330
1F
100
AcDbEntity
  8
SPOJOVACÍ
  6
DASHED
100
AcDbLine
 10
-4544.614491039585
 20
-8592.911430324612
 30
0.0
 11
-4544.984589383111
 21
-8592.697210838826
 31
0.0
  0
LINE
  5
1AA0
330
1F
100
AcDbEntity
  8
SPOJOVACÍ
  6
DASHED
100
AcDbLine
 10
-4544.614491039585
 20
-8592.911430324612
 30
0.0
 11
-4544.984589383111
 21
-8593.281528670278
 31
0.0
  0
LINE
  5
1AA1
330
1F
100
AcDbEntity
  8
SPOJOVACÍ
  6
DASHED
100
AcDbLine
 10
-4544.614491039585
 20
-8589.853105325572
 30
0.0
 11
-4544.984589383111
 21
-8589.639797412244
 31
0.0
  0
LINE
  5
1AA2
330
1F
100
AcDbEntity
  8
SPOJOVACÍ
  6
DASHED
100
AcDbLine
 10
-4544.614491039585
 20
-8589.853105325572
 30
0.0
 11
-4544.984589383111
 21
-8590.224115243424
 31
0.0
  0
LINE
  5
1AA3
330
1F
100
AcDbEntity
  8
SPOJOVACÍ
  6
DASHED
100
AcDbLine
 10
-4544.614491039585
 20
-8586.795691898981
 30
0.0
 11
-4544.984589383111
 21
-8586.582383985389
 31
0.0
  0
LINE
  5
1AA4
330
1F
100
AcDbEntity
  8
SPOJOVACÍ
  6
DASHED
100
AcDbLine
 10
-4544.614491039585
 20
-8586.795691898981
 30
0.0
 11
-4544.984589383111
 21
-8587.166701816833
 31
0.0
  0
LINE
  5
1AA5
330
1F
100
AcDbEntity
  8
SPOJOVACÍ
  6
DASHED
100
AcDbLine
 10
-4548.698334851466
 20
-8594.380884839679
 30
0.0
 11
-4545.396620052623
 21
-8595.491179876677
 31
0.0
  0
LINE
  5
1AA6
330
1F
100
AcDbEntity
  8
SPOJOVACÍ
  6
DASHED
100
AcDbLine
 10
-4545.884311222809
 20
-8595.317981143354
 30
0.0
 11
-4545.643656139571
 21
-8593.386359482293
 31
0.0
  0
LINE
  5
1AA7
330
1F
100
AcDbEntity
  8
SPOJOVACÍ
  6
DASHED
100
AcDbLine
 10
-4548.289038899052
 20
-8593.386359482293
 30
0.0
 11
-4548.142275762383
 21
-8594.559553006664
 31
0.0
  0
LINE
  5
1AA8
330
1F
100
AcDbEntity
  8
SPOJOVACÍ
  6
DASHED
100
AcDbLine
 10
-4545.643656139571
 20
-8593.056370317169
 30
0.0
 11
-4545.643656139571
 21
-8593.386359482293
 31
0.0
  0
LINE
  5
1AA9
330
1F
100
AcDbEntity
  8
SPOJOVACÍ
  6
DASHED
100
AcDbLine
 10
-4545.643656139571
 20
-8589.996222173487
 30
0.0
 11
-4545.643656139571
 21
-8592.464759907416
 31
0.0
  0
LINE
  5
1AAA
330
1F
100
AcDbEntity
  8
SPOJOVACÍ
  6
DASHED
100
AcDbLine
 10
-4548.289038899052
 20
-8592.163941055243
 30
0.0
 11
-4548.289038899052
 21
-8593.386359482293
 31
0.0
  0
LINE
  5
1AAB
330
1F
100
AcDbEntity
  8
SPOJOVACÍ
  6
DASHED
100
AcDbLine
 10
-4548.289038899052
 20
-8589.111997062051
 30
0.0
 11
-4548.289038899052
 21
-8591.579623223791
 31
0.0
  0
LINE
  5
1AAC
330
1F
100
AcDbEntity
  8
SPOJOVACÍ
  6
DASHED
100
AcDbLine
 10
-4545.643656139571
 20
-8586.936985602259
 30
0.0
 11
-4545.643656139571
 21
-8589.407346480832
 31
0.0
  0
LINE
  5
1AAD
330
1F
100
AcDbEntity
  8
SPOJOVACÍ
  6
DASHED
100
AcDbLine
 10
-4548.289038899052
 20
-8586.041821623499
 30
0.0
 11
-4548.289038899052
 21
-8588.519475080111
 31
0.0
  0
LINE
  5
1AAE
330
1F
100
AcDbEntity
  8
SPOJOVACÍ
  6
DASHED
100
AcDbLine
 10
-4548.948105655512
 20
-8582.192251885528
 30
0.0
 11
-4544.984589383111
 21
-8583.524058986611
 31
0.0
  0
LINE
  5
1AAF
330
1F
100
AcDbEntity
  8
SPOJOVACÍ
  6
DASHED
100
AcDbLine
 10
-4548.948105655512
 20
-8582.77656971698
 30
0.0
 11
-4544.984589383111
 21
-8584.108376817793
 31
0.0
  0
LINE
  5
1AB0
330
1F
100
AcDbEntity
  8
SPOJOVACÍ
  6
DASHED
100
AcDbLine
 10
-4549.318204003316
 20
-8582.562350231194
 30
0.0
 11
-4544.614491039585
 21
-8583.738278472399
 31
0.0
  0
LINE
  5
1AB1
330
1F
100
AcDbEntity
  8
SPOJOVACÍ
  6
DASHED
100
AcDbLine
 10
-4548.948105655512
 20
-8579.133926886758
 30
0.0
 11
-4544.984589383111
 21
-8580.466645559758
 31
0.0
  0
LINE
  5
1AB2
330
1F
100
AcDbEntity
  8
SPOJOVACÍ
  6
DASHED
100
AcDbLine
 10
-4548.948105655512
 20
-8579.718244717938
 30
0.0
 11
-4544.984589383111
 21
-8581.050963391211
 31
0.0
  0
LINE
  5
1AB3
330
1F
100
AcDbEntity
  8
SPOJOVACÍ
  6
DASHED
100
AcDbLine
 10
-4549.318204003316
 20
-8579.50493680461
 30
0.0
 11
-4544.614491039585
 21
-8580.680865045543
 31
0.0
  0
LINE
  5
1AB4
330
1F
100
AcDbEntity
  8
SPOJOVACÍ
  6
DASHED
100
AcDbLine
 10
-4549.318204003316
 20
-8582.562350231194
 30
0.0
 11
-4548.948105655512
 21
-8582.192251885528
 31
0.0
  0
LINE
  5
1AB5
330
1F
100
AcDbEntity
  8
SPOJOVACÍ
  6
DASHED
100
AcDbLine
 10
-4549.318204003316
 20
-8582.562350231194
 30
0.0
 11
-4548.948105655512
 21
-8582.77656971698
 31
0.0
  0
LINE
  5
1AB6
330
1F
100
AcDbEntity
  8
SPOJOVACÍ
  6
DASHED
100
AcDbLine
 10
-4549.318204003316
 20
-8579.50493680461
 30
0.0
 11
-4548.948105655512
 21
-8579.133926886758
 31
0.0
  0
LINE
  5
1AB7
330
1F
100
AcDbEntity
  8
SPOJOVACÍ
  6
DASHED
100
AcDbLine
 10
-4549.318204003316
 20
-8579.50493680461
 30
0.0
 11
-4548.948105655512
 21
-8579.718244717938
 31
0.0
  0
LINE
  5
1AB8
330
1F
100
AcDbEntity
  8
SPOJOVACÍ
  6
DASHED
100
AcDbLine
 10
-4544.614491039585
 20
-8583.738278472399
 30
0.0
 11
-4544.984589383111
 21
-8583.524058986611
 31
0.0
  0
LINE
  5
1AB9
330
1F
100
AcDbEntity
  8
SPOJOVACÍ
  6
DASHED
100
AcDbLine
 10
-4544.614491039585
 20
-8583.738278472399
 30
0.0
 11
-4544.984589383111
 21
-8584.108376817793
 31
0.0
  0
LINE
  5
1ABA
330
1F
100
AcDbEntity
  8
SPOJOVACÍ
  6
DASHED
100
AcDbLine
 10
-4544.614491039585
 20
-8580.680865045543
 30
0.0
 11
-4544.984589383111
 21
-8580.466645559758
 31
0.0
  0
LINE
  5
1ABB
330
1F
100
AcDbEntity
  8
SPOJOVACÍ
  6
DASHED
100
AcDbLine
 10
-4544.614491039585
 20
-8580.680865045543
 30
0.0
 11
-4544.984589383111
 21
-8581.050963391211
 31
0.0
  0
LINE
  5
1ABC
330
1F
100
AcDbEntity
  8
SPOJOVACÍ
  6
DASHED
100
AcDbLine
 10
-4545.643656139571
 20
-8580.823981893463
 30
0.0
 11
-4545.643656139571
 21
-8583.29251962739
 31
0.0
  0
LINE
  5
1ABD
330
1F
100
AcDbEntity
  8
SPOJOVACÍ
  6
DASHED
100
AcDbLine
 10
-4548.289038899052
 20
-8579.928817914703
 30
0.0
 11
-4548.289038899052
 21
-8582.39735564863
 31
0.0
  0
LINE
  5
1ABE
330
1F
100
AcDbEntity
  8
SPOJOVACÍ
  6
DASHED
100
AcDbLine
 10
-4548.289038899052
 20
-8575.388276388624
 30
0.0
 11
-4548.289038899052
 21
-8579.34541165571
 31
0.0
  0
LINE
  5
1ABF
330
1F
100
AcDbEntity
  8
SPOJOVACÍ
  6
DASHED
100
AcDbLine
 10
-4545.643656139571
 20
-8575.388276388624
 30
0.0
 11
-4545.643656139571
 21
-8580.232371483972
 31
0.0
  0
LINE
  5
1AC0
330
1F
100
AcDbEntity
  8
SPOJOVACÍ
  6
DASHED
100
AcDbLine
 10
-4548.353760531336
 20
-8574.617086239964
 30
0.0
 11
-4548.289038899052
 21
-8575.388276388624
 31
0.0
  0
LINE
  5
1AC1
330
1F
100
AcDbEntity
  8
SPOJOVACÍ
  6
DASHED
100
AcDbLine
 10
-4545.643656139571
 20
-8575.388276388624
 30
0.0
 11
-4545.421232506505
 21
-8573.895120994263
 31
0.0
  0
TEXT
  5
1AC2
330
1F
100
AcDbEntity
  8
POPIS
100
AcDbText
 10
-4420.386541157927
 20
-8709.991799827228
 30
0.0
 40
25.0
  1
12
 41
0.8
  7
SIMPLEX7
100
AcDbText
  0
LINE
  5
1AC3
330
1F
100
AcDbEntity
  8
POPIS
370
    20
100
AcDbLine
 10
-4494.754145346912
 20
-8625.31186231593
 30
0.0
 11
-4494.754145346912
 21
-8683.313153517481
 31
0.0
  0
LINE
  5
1AC4
330
1F
100
AcDbEntity
  8
POPIS
370
    20
100
AcDbLine
 10
-4444.548914443338
 20
-8643.27719781326
 30
0.0
 11
-4444.548914443338
 21
-8683.313153517481
 31
0.0
  0
TEXT
  5
1AC5
330
1F
100
AcDbEntity
  8
POPIS
100
AcDbText
 10
-4509.089558574152
 20
-8709.991799827228
 30
0.0
 40
25.0
  1
10
 41
0.8
  7
SIMPLEX7
100
AcDbText
  0
TEXT
  5
1AC6
330
1F
100
AcDbEntity
  8
POPIS
100
AcDbText
 10
-4463.46659453806
 20
-8709.991799827228
 30
0.0
 40
25.0
  1
11
 41
0.8
  7
SIMPLEX7
100
AcDbText
  0
HATCH
  5
1AC7
330
1F
100
AcDbEntity
  8
izolace
100
AcDbHatch
 10
0.0
 20
0.0
 30
0.0
210
0.0
220
0.0
230
1.0
  2
SOLID
 70
     1
 71
     0
 91
        1
 92
        7
 72
     0
 73
     1
 93
        4
 10
-4459.962221555743
 20
-8642.920671062958
 10
-4483.603954265578
 20
-8642.920671062958
 10
-4483.603954265581
 20
-8645.920671062958
 10
-4459.962221555743
 20
-8645.920671062958
 97
        0
 75
     0
 76
     1
 47
0.1901250437635136
 98
        1
 10
-4474.246159507238
 20
-8643.737482614037
  0
INSERT
  5
1AC8
330
1F
100
AcDbEntity
  8
POPIS
100
AcDbBlockReference
  2
E_PUNKT
 10
-4494.783213677786
 20
-8625.284251940305
 30
0.0
 50
270.0
  0
INSERT
  5
1AC9
330
1F
100
AcDbEntity
  8
POPIS
100
AcDbBlockReference
  2
E_PUNKT
 10
-4444.577982774212
 20
-8643.249587437635
 30
0.0
 50
270.0
  0
HATCH
  5
1ACA
330
1F
100
AcDbEntity
  8
izolace
100
AcDbHatch
 10
0.0
 20
0.0
 30
0.0
210
0.0
220
0.0
230
1.0
  2
SOLID
 70
     1
 71
     0
 91
        1
 92
        7
 72
     0
 73
     1
 93
        4
 10
-4412.678756136073
 20
-8642.920671062958
 10
-4436.320488845908
 20
-8642.920671062958
 10
-4436.320488845911
 20
-8645.920671062958
 10
-4412.678756136073
 20
-8645.920671062958
 97
        0
 75
     0
 76
     1
 47
0.1901250437635136
 98
        1
 10
-4426.962694087568
 20
-8643.737482614037
  0
INSERT
  5
1ACB
330
1F
100
AcDbEntity
  8
POPIS
100
AcDbBlockReference
  2
E_PUNKT
 10
-4398.937838705644
 20
-8661.164163251923
 30
0.0
 50
270.0
  0
LINE
  5
1ACC
330
1F
100
AcDbEntity
  8
POPIS
370
    20
100
AcDbLine
 10
-4398.90877037477
 20
-8661.191773627548
 30
0.0
 11
-4398.90877037477
 21
-8683.313153517481
 31
0.0
  0
LINE
  5
1ACD
330
1F
100
AcDbEntity
  8
CETRIS
100
AcDbLine
 10
-4706.31003517413
 20
-8568.920671062958
 30
0.0
 11
-4390.424106528334
 21
-8568.920671062958
 31
0.0
  0
LINE
  5
1ACE
330
1F
100
AcDbEntity
  8
nášlap_vrstvy
100
AcDbLine
 10
-4390.424106528334
 20
-8566.872198371498
 30
0.0
 11
-4718.440799364162
 21
-8566.872198371498
 31
0.0
  0
LWPOLYLINE
  5
1ACF
330
1F
100
AcDbEntity
  8
nášlap_vrstvy
100
AcDbPolyline
 90
        4
 70
     1
 43
0.0
 10
-4614.727260767121
 20
-8566.872198371498
 10
-4514.727260767122
 20
-8566.872198371498
 10
-4514.727260767122
 20
-8561.872198371499
 10
-4614.727260767121
 20
-8561.872198371499
  0
HATCH
  5
1AD0
330
1F
100
AcDbEntity
  8
nášlap_vrstvy
370
    20
100
AcDbHatch
 10
0.0
 20
0.0
 30
0.0
210
0.0
220
0.0
230
1.0
  2
AR-SAND
 70
     0
 71
     0
 91
        6
 92
        7
 72
     0
 73
     1
 93
        4
 10
-4509.88235528229
 20
-8566.872198371498
 10
-4700.34106171751
 20
-8566.872198371498
 10
-4702.755313021411
 20
-8568.920671062958
 10
-4509.882355282287
 20
-8568.920671062958
 97
        0
 92
        7
 72
     0
 73
     1
 93
        4
 10
-4614.727260767125
 20
-8561.872198371499
 10
-4618.440799364162
 20
-8561.872198371499
 10
-4618.440799364162
 20
-8566.872198371498
 10
-4614.727260767121
 20
-8566.872198371498
 97
        0
 92
        7
 72
     0
 73
     1
 93
        4
 10
-4510.749296605733
 20
-8561.872198371499
 10
-4514.727260767122
 20
-8561.872198371499
 10
-4514.727260767122
 20
-8566.872198371498
 10
-4510.749296605728
 20
-8566.872198371498
 97
        0
 92
        7
 72
     0
 73
     1
 93
        4
 10
-4718.380446259668
 20
-8527.59784703594
 10
-4721.31003517413
 20
-8527.59784703594
 10
-4721.310035174126
 20
-8556.482636723428
 10
-4718.380446259675
 20
-8553.564712840627
 97
        0
 92
        7
 72
     0
 73
     1
 93
       10
 10
-4718.380446259678
 20
-8553.564712840625
 10
-4721.310035174126
 20
-8556.482636723428
 10
-4721.310035174126
 20
-8568.920671062958
 10
-4720.492917726511
 20
-8568.920671062958
 10
-4705.492917726512
 20
-8568.920671062958
 10
-4702.755313021411
 20
-8568.920671062958
 10
-4700.341061717514
 20
-8566.872198371498
 10
-4718.440799364162
 20
-8566.872198371498
 10
-4718.440799364166
 20
-8561.872198371679
 10
-4718.380446259671
 20
-8559.595471287378
 97
        0
 92
       23
 72
     0
 73
     1
 93
        4
 10
-4713.335321734507
 20
-8559.595471287297
 10
-4718.380446259675
 20
-8559.595471287297
 10
-4718.440799364162
 20
-8561.872198371499
 10
-4713.33532173451
 20
-8561.872198371499
 97
        0
 75
     0
 76
     1
 52
90.0
 41
0.05
 77
     0
 78
     4
 53
127.5
 43
-29871.04188831461
 44
-10774.30833229233
 45
-2.447066186646711
 46
-0.0800015647992021
 79
     6
 49
0.0
 49
-1.9304
 49
0.0
 49
-2.159
 49
0.0
 49
-2.06375
 53
97.49999999999985
 43
-29871.04188831461
 44
-10774.30833229233
 45
-3.584125502841771
 46
2.247616415690013
 79
     6
 49
0.0
 49
-1.041399999999999
 49
0.0
 49
-1.7399
 49
0.0
 49
-0.66675
 53
57.5
 43
-29871.04188831461
 44
-10775.87043229233
 45
-0.0071859233927282
 46
3.95496185120729
 79
     6
 49
0.0
 49
-0.635
 49
0.0
 49
-2.286
 49
0.0
 49
-2.9845
 53
47.5
 43
-29871.04188831461
 44
-10775.87043229233
 45
-1.11464661628608
 46
3.817782262361486
 79
     6
 49
0.0
 49
-0.3175
 49
0.0
 49
-1.498599999999999
 49
0.0
 49
-1.7145
 47
0.2237823716160949
 98
        6
 10
-4553.88434720871
 20
-8567.788666229281
 10
-4616.609295679293
 20
-8563.957817591022
 10
-4513.113128810804
 20
-8565.002601626085
 10
-4719.484367067882
 20
-8551.396542805361
 10
-4719.260464673236
 20
-8559.452713315888
 10
-4717.021251524118
 20
-8560.57161872477
  0
LWPOLYLINE
  5
1AD1
330
1F
100
AcDbEntity
  8
nášlap_vrstvy
100
AcDbPolyline
 90
        4
 70
     1
 43
0.0
 10
-4718.440799364162
 20
-8566.872198371498
 10
-4618.440799364162
 20
-8566.872198371498
 10
-4618.440799364162
 20
-8561.872198371499
 10
-4718.440799364162
 20
-8561.872198371499
  0
LWPOLYLINE
  5
1AD3
330
1F
100
AcDbEntity
  8
nášlap_vrstvy
100
AcDbPolyline
 90
        4
 70
     1
 43
0.0
 10
-4718.380446259671
 20
-8559.595471287297
 10
-4713.33532173451
 20
-8559.595471287297
 10
-4713.33532173451
 20
-8527.59784703594
 10
-4718.380446259671
 20
-8527.59784703594
  0
LINE
  5
1AD4
330
1F
100
AcDbEntity
  8
nášlap_vrstvy
100
AcDbLine
 10
-4713.33532173451
 20
-8559.595471287297
 30
0.0
 11
-4713.33532173451
 21
-8561.872198371499
 31
0.0
  0
LINE
  5
1AD5
330
1F
100
AcDbEntity
  8
nášlap_vrstvy
100
AcDbLine
 10
-4718.380446259671
 20
-8559.595471287297
 30
0.0
 11
-4718.440799364162
 21
-8561.872198371499
 31
0.0
  0
LINE
  5
1AD6
330
1F
100
AcDbEntity
  8
nášlap_vrstvy
100
AcDbLine
 10
-4718.380446259671
 20
-8527.59784703594
 30
0.0
 11
-4721.31003517413
 21
-8527.59784703594
 31
0.0
  0
LINE
  5
1AD7
330
1F
100
AcDbEntity
  8
SPOJOVACÍ
  6
DASHED
100
AcDbLine
 10
-4651.964498332312
 20
-8568.920671062958
 30
0.0
 11
-4641.96819671059
 21
-8568.920671062958
 31
0.0
  0
LINE
  5
1AD8
330
1F
100
AcDbEntity
  8
SPOJOVACÍ
  6
DASHED
100
AcDbLine
 10
-4651.964498332312
 20
-8570.096599304154
 30
0.0
 11
-4641.96819671059
 21
-8570.096599304154
 31
0.0
  0
LINE
  5
1AD9
330
1F
100
AcDbEntity
  8
SPOJOVACÍ
  6
DASHED
100
AcDbLine
 10
-4651.964498332312
 20
-8568.920671062958
 30
0.0
 11
-4651.964498332312
 21
-8570.096599304154
 31
0.0
  0
LINE
  5
1ADA
330
1F
100
AcDbEntity
  8
SPOJOVACÍ
  6
DASHED
100
AcDbLine
 10
-4649.553389648081
 20
-8571.873253677521
 30
0.0
 11
-4648.773083778349
 21
-8573.165863170254
 31
0.0
  0
LINE
  5
1ADB
330
1F
100
AcDbEntity
  8
SPOJOVACÍ
  6
DASHED
100
AcDbLine
 10
-4650.641806950432
 20
-8570.825857127898
 30
0.0
 11
-4649.553389648081
 21
-8571.873253677521
 31
0.0
  0
LINE
  5
1ADC
330
1F
100
AcDbEntity
  8
SPOJOVACÍ
  6
DASHED
100
AcDbLine
 10
-4651.964498332312
 20
-8570.096599304154
 30
0.0
 11
-4650.641806950432
 21
-8570.825857127898
 31
0.0
  0
LINE
  5
1ADD
330
1F
100
AcDbEntity
  8
SPOJOVACÍ
  6
DASHED
100
AcDbLine
 10
-4644.82050637434
 20
-8572.509531128753
 30
0.0
 11
-4643.881586925756
 21
-8571.326310309514
 31
0.0
  0
LINE
  5
1ADE
330
1F
100
AcDbEntity
  8
SPOJOVACÍ
  6
DASHED
100
AcDbLine
 10
-4641.96819671059
 20
-8568.920671062958
 30
0.0
 11
-4641.96819671059
 21
-8570.096599304154
 31
0.0
  0
LINE
  5
1ADF
330
1F
100
AcDbEntity
  8
SPOJOVACÍ
  6
DASHED
100
AcDbLine
 10
-4642.669195793034
 20
-8570.426588469279
 30
0.0
 11
-4641.96819671059
 21
-8570.096599304154
 31
0.0
  0
LINE
  5
1AE0
330
1F
100
AcDbEntity
  8
SPOJOVACÍ
  6
DASHED
100
AcDbLine
 10
-4643.881586925756
 20
-8571.326310309514
 30
0.0
 11
-4642.669195793034
 21
-8570.426588469279
 31
0.0
  0
INSERT
  5
1AE2
330
1F
100
AcDbEntity
  8
POPIS
100
AcDbBlockReference
  2
E_PUNKT
 10
-4568.86022928487
 20
-8561.11095058344
 30
0.0
 50
270.0
  0
LINE
  5
1AE3
330
1F
100
AcDbEntity
  8
POPIS
370
    20
100
AcDbLine
 10
-4569.006795956134
 20
-8490.381999574124
 30
0.0
 11
-4569.006795956134
 21
-8561.872198371499
 31
0.0
  0
LINE
  5
1AE4
330
1F
100
AcDbEntity
  8
nášlap_vrstvy
100
AcDbLine
 10
-4614.727260767121
 20
-8561.872198371499
 30
0.0
 11
-4618.440799364162
 21
-8561.872198371499
 31
0.0
  0
LINE
  5
1AE5
330
1F
100
AcDbEntity
  8
SPOJOVACÍ
  6
DASHED
100
AcDbLine
 10
-4542.669195793034
 20
-8570.426588469279
 30
0.0
 11
-4541.96819671059
 21
-8570.096599304154
 31
0.0
  0
LINE
  5
1AE6
330
1F
100
AcDbEntity
  8
SPOJOVACÍ
  6
DASHED
100
AcDbLine
 10
-4551.964498332313
 20
-8570.096599304154
 30
0.0
 11
-4541.96819671059
 21
-8570.096599304154
 31
0.0
  0
LINE
  5
1AE7
330
1F
100
AcDbEntity
  8
SPOJOVACÍ
  6
DASHED
100
AcDbLine
 10
-4551.964498332313
 20
-8568.920671062958
 30
0.0
 11
-4541.96819671059
 21
-8568.920671062958
 31
0.0
  0
LINE
  5
1AE8
330
1F
100
AcDbEntity
  8
SPOJOVACÍ
  6
DASHED
100
AcDbLine
 10
-4551.964498332313
 20
-8570.096599304154
 30
0.0
 11
-4550.641806950433
 21
-8570.825857127898
 31
0.0
  0
LINE
  5
1AE9
330
1F
100
AcDbEntity
  8
SPOJOVACÍ
  6
DASHED
100
AcDbLine
 10
-4550.641806950433
 20
-8570.825857127898
 30
0.0
 11
-4549.553389648081
 21
-8571.873253677521
 31
0.0
  0
LINE
  5
1AEA
330
1F
100
AcDbEntity
  8
SPOJOVACÍ
  6
DASHED
100
AcDbLine
 10
-4549.553389648081
 20
-8571.873253677521
 30
0.0
 11
-4548.773083778349
 21
-8573.165863170254
 31
0.0
  0
LINE
  5
1AEB
330
1F
100
AcDbEntity
  8
SPOJOVACÍ
  6
DASHED
100
AcDbLine
 10
-4551.964498332313
 20
-8568.920671062958
 30
0.0
 11
-4551.964498332313
 21
-8570.096599304154
 31
0.0
  0
LINE
  5
1AEC
330
1F
100
AcDbEntity
  8
SPOJOVACÍ
  6
DASHED
100
AcDbLine
 10
-4543.881586925755
 20
-8571.326310309514
 30
0.0
 11
-4542.669195793034
 21
-8570.426588469279
 31
0.0
  0
LINE
  5
1AED
330
1F
100
AcDbEntity
  8
SPOJOVACÍ
  6
DASHED
100
AcDbLine
 10
-4544.820506374341
 20
-8572.509531128753
 30
0.0
 11
-4543.881586925755
 21
-8571.326310309514
 31
0.0
  0
LINE
  5
1AEE
330
1F
100
AcDbEntity
  8
SPOJOVACÍ
  6
DASHED
100
AcDbLine
 10
-4541.96819671059
 20
-8568.920671062958
 30
0.0
 11
-4541.96819671059
 21
-8570.096599304154
 31
0.0
  0
TEXT
  5
1AEF
330
1F
100
AcDbEntity
  8
POPIS
100
AcDbText
 10
-4586.340903029718
 20
-8481.144344086926
 30
0.0
 40
25.0
  1
01
 41
0.85
  7
SIMPLEX7
100
AcDbText
  0
LINE
  5
1AF0
330
1F
100
AcDbEntity
  8
SPOJOVACÍ
  6
Continuous
100
AcDbLine
 10
-4722.509961950861
 20
-8362.691282351581
 30
0.0
 11
-4722.509961950861
 21
-8352.490974574314
 31
0.0
  0
LINE
  5
1AF1
330
1F
100
AcDbEntity
  8
SPOJOVACÍ
  6
Continuous
100
AcDbLine
 10
-4721.31003517413
 20
-8362.691282351581
 30
0.0
 11
-4721.31003517413
 21
-8352.490974574314
 31
0.0
  0
LINE
  5
1AF2
330
1F
100
AcDbEntity
  8
SPOJOVACÍ
  6
Continuous
100
AcDbLine
 10
-4722.509961950861
 20
-8362.691282351581
 30
0.0
 11
-4723.254102587335
 21
-8361.34159726803
 31
0.0
  0
LINE
  5
1AF3
330
1F
100
AcDbEntity
  8
SPOJOVACÍ
  6
Continuous
100
AcDbLine
 10
-4723.254102587335
 20
-8361.34159726803
 30
0.0
 11
-4724.322874576748
 21
-8360.230967367671
 31
0.0
  0
LINE
  5
1AF4
330
1F
100
AcDbEntity
  8
SPOJOVACÍ
  6
Continuous
100
AcDbLine
 10
-4721.31003517413
 20
-8362.691282351581
 30
0.0
 11
-4722.509961950861
 21
-8362.691282351581
 31
0.0
  0
LINE
  5
1AF5
330
1F
100
AcDbEntity
  8
SPOJOVACÍ
  6
Continuous
100
AcDbLine
 10
-4723.764769099187
 20
-8354.443413569381
 30
0.0
 11
-4722.846685588745
 21
-8353.206279760481
 31
0.0
  0
LINE
  5
1AF6
330
1F
100
AcDbEntity
  8
SPOJOVACÍ
  6
Continuous
100
AcDbLine
 10
-4722.846685588745
 20
-8353.206279760481
 30
0.0
 11
-4722.509961950861
 21
-8352.490974574314
 31
0.0
  0
LINE
  5
1AF7
330
1F
100
AcDbEntity
  8
SPOJOVACÍ
  6
Continuous
100
AcDbLine
 10
-4721.31003517413
 20
-8352.490974574314
 30
0.0
 11
-4722.509961950861
 21
-8352.490974574314
 31
0.0
  0
LINE
  5
1AF8
330
1F
100
AcDbEntity
  8
SPOJOVACÍ
  6
Continuous
100
AcDbLine
 10
-4724.972137282086
 20
-8355.401494639364
 30
0.0
 11
-4723.764769099187
 21
-8354.443413569381
 31
0.0
  0
LINE
  5
1AF9
330
1F
100
AcDbEntity
  8
nášlap_vrstvy
100
AcDbLine
 10
-4514.727260767122
 20
-8561.872198371499
 30
0.0
 11
-4390.424106528334
 21
-8561.872198371499
 31
0.0
  0
HATCH
  5
1AFA
330
1F
100
AcDbEntity
  8
nášlap_vrstvy
100
AcDbHatch
 10
0.0
 20
0.0
 30
0.0
210
0.0
220
0.0
230
1.0
  2
AR-SAND
 70
     0
 71
     0
 91
        2
 92
        7
 72
     0
 73
     1
 93
        4
 10
-4390.424106528334
 20
-8566.872198371498
 10
-4510.749296605733
 20
-8566.872198371498
 10
-4510.749296605733
 20
-8568.920671062958
 10
-4390.424106528334
 20
-8568.920671062958
 97
        0
 92
        7
 72
     0
 73
     1
 93
        4
 10
-4410.749296605732
 20
-8561.872198371499
 10
-4414.872678436132
 20
-8561.872198371499
 10
-4414.872678436128
 20
-8566.872198371498
 10
-4410.749296605728
 20
-8566.872198371498
 97
        0
 75
     0
 76
     1
 52
90.0
 41
0.05
 77
     0
 78
     4
 53
127.5
 43
-6651.636702215345
 44
-10608.3380709634
 45
-2.447066186646711
 46
-0.0800015647992021
 79
     6
 49
0.0
 49
-1.9304
 49
0.0
 49
-2.159
 49
0.0
 49
-2.06375
 53
97.49999999999989
 43
-6651.636702215345
 44
-10608.3380709634
 45
-3.584125502841771
 46
2.247616415690013
 79
     6
 49
0.0
 49
-1.041399999999999
 49
0.0
 49
-1.7399
 49
0.0
 49
-0.66675
 53
57.5
 43
-6651.636702215345
 44
-10609.9001709634
 45
-0.0071859233927282
 46
3.95496185120729
 79
     6
 49
0.0
 49
-0.635
 49
0.0
 49
-2.286
 49
0.0
 49
-2.9845
 53
47.5
 43
-6651.636702215345
 44
-10609.9001709634
 45
-1.11464661628608
 46
3.817782262361486
 79
     6
 49
0.0
 49
-0.3175
 49
0.0
 49
-1.498599999999999
 49
0.0
 49
-1.7145
 47
0.247503409296348
 98
        2
 10
-4469.748569294648
 20
-8567.577110795554
 10
-4412.296450175118
 20
-8564.112074937462
  0
LINE
  5
1AFB
330
1F
100
AcDbEntity
  8
nášlap_vrstvy
100
AcDbLine
 10
-4510.749296605733
 20
-8561.872198371499
 30
0.0
 11
-4510.749296605728
 21
-8566.872198371498
 31
0.0
  0
LINE
  5
1AFC
330
1F
100
AcDbEntity
  8
nášlap_vrstvy
100
AcDbLine
 10
-4414.872678436132
 20
-8561.872198371499
 30
0.0
 11
-4414.872678436128
 21
-8566.872198371498
 31
0.0
  0
LINE
  5
1AFD
330
1F
100
AcDbEntity
  8
nášlap_vrstvy
100
AcDbLine
 10
-4410.749296605732
 20
-8561.872198371499
 30
0.0
 11
-4410.749296605728
 21
-8566.872198371498
 31
0.0
  0
INSERT
  5
2DA0
330
1F
100
AcDbEntity
  8
POPIS
100
AcDbBlockReference
  2
E_PUNKT
 10
-4872.126920621421
 20
-8609.830225917363
 30
0.0
 50
270.0
  0
LINE
  5
2DA1
330
1F
100
AcDbEntity
  8
POPIS
370
    20
100
AcDbLine
 10
-4872.097852290547
 20
-8608.607836292991
 30
0.0
 11
-4872.097852290547
 21
-8683.313153517481
 31
0.0
  0
TEXT
  5
2DA2
330
1F
100
AcDbEntity
  8
POPIS
100
AcDbText
 10
-4882.017157486401
 20
-8709.991799827228
 30
0.0
 40
25.0
  1
04
 41
0.8
  7
SIMPLEX7
100
AcDbText
  0
TEXT
  5
2DA3
330
1F
100
AcDbEntity
  8
POPIS
100
AcDbText
 10
-4692.660823298778
 20
-8709.991799827228
 30
0.0
 40
25.0
  1
05
 41
0.8
  7
SIMPLEX7
100
AcDbText
  0
LINE
  5
2DA4
330
1F
100
AcDbEntity
  8
POPIS
370
    20
100
AcDbLine
 10
-4682.741518102923
 20
-8632.638453680206
 30
0.0
 11
-4682.741518102923
 21
-8683.313153517481
 31
0.0
  0
INSERT
  5
2DA5
330
1F
100
AcDbEntity
  8
POPIS
100
AcDbBlockReference
  2
E_PUNKT
 10
-4682.770586433797
 20
-8633.86084330458
 30
0.0
 50
270.0
  0
HATCH
  5
2DE0
330
1F
100
AcDbEntity
  8
STAVBA OBRYS
100
AcDbHatch
 10
0.0
 20
0.0
 30
0.0
210
0.0
220
0.0
230
1.0
  2
ANSI35
 70
     0
 71
     0
 91
       12
 92
        7
 72
     0
 73
     1
 93
       10
 10
-4390.424106528334
 20
-8645.920671062958
 10
-4755.044516528214
 20
-8645.920671062958
 10
-4755.044516528214
 20
-8671.65652446045
 10
-4758.622359296736
 20
-8677.389896117222
 10
-4758.603766504951
 20
-8677.251827803189
 10
-4762.095449375163
 20
-8671.65652446045
 10
-4762.095449375163
 20
-8645.920671062958
 10
-4909.308917796154
 20
-8645.920671062958
 10
-4909.308917796154
 20
-8736.472324093698
 10
-4390.424106528334
 20
-8736.472324093698
 97
        0
 92
       22
 72
     1
 73
     1
 93
        2
 10
-4398.90877037477
 20
-8662.441773627548
 42
-1.0
 10
-4398.908770374773
 20
-8659.941773627549
 42
-1.0
 97
        0
 92
       24
 93
        4
 72
     1
 10
-4699.042985645299
 20
-8716.800292323817
 11
-4661.416450856759
 21
-8716.800292323817
 72
     1
 10
-4661.416450856759
 20
-8716.800292323817
 11
-4661.416450856759
 21
-8678.507318244692
 72
     1
 10
-4661.416450856759
 20
-8678.507318244692
 11
-4699.042985645299
 21
-8678.507318244692
 72
     1
 10
-4699.042985645299
 20
-8678.507318244692
 11
-4699.042985645299
 21
-8716.800292323817
 97
        0
 92
       24
 93
        4
 72
     1
 10
-4888.399319832923
 20
-8716.800292323817
 11
-4850.772785044383
 21
-8716.800292323817
 72
     1
 10
-4850.772785044383
 20
-8716.800292323817
 11
-4850.772785044383
 21
-8678.507318244692
 72
     1
 10
-4850.772785044383
 20
-8678.507318244692
 11
-4888.399319832923
 21
-8678.507318244692
 72
     1
 10
-4888.399319832923
 20
-8678.507318244692
 11
-4888.399319832923
 21
-8716.800292323817
 97
        0
 92
       24
 93
        4
 72
     1
 10
-4469.742174347064
 20
-8716.267379636233
 11
-4432.328804633558
 21
-8716.267379636233
 72
     1
 10
-4432.328804633558
 20
-8716.267379636233
 11
-4432.328804633558
 21
-8678.613900782208
 72
     1
 10
-4432.328804633558
 20
-8678.61390078221
 11
-4469.742174347064
 21
-8678.61390078221
 72
     1
 10
-4469.742174347064
 20
-8678.61390078221
 11
-4469.742174347064
 21
-8716.267379636233
 97
        0
 92
       24
 93
        4
 72
     1
 10
-4515.471720920674
 20
-8716.800292323817
 11
-4477.845186132134
 21
-8716.800292323817
 72
     1
 10
-4477.845186132133
 20
-8716.800292323817
 11
-4477.845186132133
 21
-8678.507318244692
 72
     1
 10
-4477.845186132133
 20
-8678.507318244692
 11
-4515.471720920673
 21
-8678.507318244692
 72
     1
 10
-4515.471720920674
 20
-8678.507318244692
 11
-4515.471720920674
 21
-8716.800292323817
 97
        0
 92
      137
 93
        4
 72
     1
 10
-4426.662120966931
 20
-8716.267379636233
 11
-4389.248751253426
 21
-8716.267379636233
 72
     1
 10
-4389.248751253426
 20
-8716.267379636233
 11
-4389.248751253426
 21
-8678.613900782208
 72
     1
 10
-4389.248751253426
 20
-8678.61390078221
 11
-4426.662120966931
 21
-8678.61390078221
 72
     1
 10
-4426.662120966931
 20
-8678.61390078221
 11
-4426.662120966931
 21
-8716.267379636233
 97
        0
 92
       24
 93
        4
 72
     1
 10
-4563.675326480601
 20
-8716.800292323817
 11
-4526.048791692061
 21
-8716.800292323817
 72
     1
 10
-4526.048791692061
 20
-8716.800292323817
 11
-4526.048791692061
 21
-8678.507318244692
 72
     1
 10
-4526.048791692061
 20
-8678.507318244692
 11
-4563.675326480601
 21
-8678.507318244692
 72
     1
 10
-4563.675326480601
 20
-8678.507318244692
 11
-4563.675326480601
 21
-8716.800292323817
 97
        0
 92
       24
 93
        4
 72
     1
 10
-4650.985056343075
 20
-8716.800292323817
 11
-4613.358521554535
 21
-8716.800292323817
 72
     1
 10
-4613.358521554535
 20
-8716.800292323817
 11
-4613.358521554535
 21
-8678.507318244692
 72
     1
 10
-4613.358521554535
 20
-8678.507318244692
 11
-4650.985056343075
 21
-8678.507318244692
 72
     1
 10
-4650.985056343075
 20
-8678.507318244692
 11
-4650.985056343075
 21
-8716.800292323817
 97
        0
 92
       24
 93
        4
 72
     1
 10
-4607.833103775121
 20
-8716.800292323817
 11
-4570.206568986581
 21
-8716.800292323817
 72
     1
 10
-4570.206568986581
 20
-8716.800292323817
 11
-4570.206568986581
 21
-8678.507318244692
 72
     1
 10
-4570.206568986581
 20
-8678.507318244692
 11
-4607.833103775121
 21
-8678.507318244692
 72
     1
 10
-4607.833103775121
 20
-8678.507318244692
 11
-4607.833103775121
 21
-8716.800292323817
 97
        0
 92
       24
 93
        4
 72
     1
 10
-4804.962410489256
 20
-8716.800292323817
 11
-4767.335875700716
 21
-8716.800292323817
 72
     1
 10
-4767.335875700716
 20
-8716.800292323817
 11
-4767.335875700716
 21
-8678.507318244692
 72
     1
 10
-4767.335875700716
 20
-8678.507318244692
 11
-4804.962410489256
 21
-8678.507318244692
 72
     1
 10
-4804.962410489256
 20
-8678.507318244692
 11
-4804.962410489256
 21
-8716.800292323817
 97
        0
 92
       24
 93
        4
 72
     1
 10
-4751.985269008415
 20
-8716.821608831322
 11
-4714.350207616873
 21
-8716.821608831322
 72
     1
 10
-4714.350207616873
 20
-8716.821608831322
 11
-4714.350207616873
 21
-8678.50305494319
 72
     1
 10
-4714.350207616873
 20
-8678.50305494319
 11
-4751.985269008415
 21
-8678.50305494319
 72
     1
 10
-4751.985269008415
 20
-8678.50305494319
 11
-4751.985269008415
 21
-8716.821608831322
 97
        0
 75
     0
 76
     1
 52
0.0
 41
2.0
 77
     0
 78
     2
 53
45.0
 43
-5028.955578075245
 44
-8929.567551521721
 45
-8.980256121069151
 46
8.980256121069153
 79
     0
 53
45.0
 43
-5019.975318075245
 44
-8929.567551521721
 45
-8.980256121069151
 46
8.980256121069153
 79
     4
 49
15.875
 49
-3.174999999999999
 49
0.0
 49
-3.174999999999999
 47
0.8551882524420493
 98
        2
 10
-4625.092538656774
 20
-8723.053566897648
 10
-4625.092538656774
 20
-8723.053566897648
  0
LINE
  5
4E9F
330
1F
100
AcDbEntity
  8
CETRIS
100
AcDbLine
 10
-4641.31003517413
 20
-8593.421410348627
 30
0.0
 11
-4390.424453156336
 21
-8593.595338326155
 31
0.0
  0
LINE
  5
4EA0
330
1F
100
AcDbEntity
  8
CETRIS
100
AcDbLine
 10
-4641.310381802131
 20
-8593.921410228475
 30
0.0
 11
-4390.424799784337
 21
-8594.095338206006
 31
0.0
  0
LINE
  5
4EA1
330
1F
100
AcDbEntity
  8
CETRIS
100
AcDbLine
 10
-4641.310728430133
 20
-8594.421410108326
 30
0.0
 11
-4390.425146412339
 21
-8594.595338085854
 31
0.0
  0
LINE
  5
4EA2
330
1F
100
AcDbEntity
  8
CETRIS
100
AcDbLine
 10
-4909.155143042615
 20
-8593.420671062956
 30
0.0
 11
-4876.497837816041
 21
-8593.420671062956
 31
0.0
  0
LINE
  5
4EA3
330
1F
100
AcDbEntity
  8
CETRIS
100
AcDbLine
 10
-4909.155143042615
 20
-8593.920671062958
 30
0.0
 11
-4876.497837816041
 21
-8593.920671062958
 31
0.0
  0
LINE
  5
4EA4
330
1F
100
AcDbEntity
  8
CETRIS
100
AcDbLine
 10
-4909.155143042615
 20
-8594.420671062957
 30
0.0
 11
-4876.497837816041
 21
-8594.420671062957
 31
0.0
  0
LINE
  5
4EA5
330
1F
100
AcDbEntity
  8
POPIS
370
    20
100
AcDbLine
 10
-4473.269566507649
 20
-8490.381999574124
 30
0.0
 11
-4473.269566507649
 21
-8594.937907756939
 31
0.0
  0
TEXT
  5
4EA6
330
1F
100
AcDbEntity
  8
POPIS
100
AcDbText
 10
-4490.603673581232
 20
-8481.144344086926
 30
0.0
 40
25.0
  1
08
 41
0.85
  7
SIMPLEX7
100
AcDbText
  0
INSERT
  5
4EA7
330
1F
100
AcDbEntity
  8
POPIS
100
AcDbBlockReference
  2
E_PUNKT
 10
-4473.122999836385
 20
-8593.088289730868
 30
0.0
 50
270.0
  0
TEXT
  5
6076
330
1F
100
AcDbEntity
  8
POPIS
100
AcDbText
 10
-4921.616988372107
 20
-8201.413738107197
 30
0.0
 40
50.0
  1
Návaznost podlahy s příčkou
 41
0.85
  7
SIMPLEX7
100
AcDbText
  0
TEXT
  5
6077
330
1F
100
AcDbEntity
  8
POPIS
100
AcDbText
 10
-4272.487611098729
 20
-8713.832183012428
 30
0.0
 40
25.0
  1
12
 41
0.85
  7
SIMPLEX7
100
AcDbText
  0
TEXT
  5
6078
330
1F
100
AcDbEntity
  8
POPIS
100
AcDbText
 10
-4272.487611098729
 20
-8678.54655681973
 30
0.0
 40
25.0
  1
11
 41
0.85
  7
SIMPLEX7
100
AcDbText
  0
TEXT
  5
6079
330
1F
100
AcDbEntity
  8
POPIS
100
AcDbText
 10
-4272.487611098729
 20
-8358.157540328482
 30
0.0
 40
25.0
  1
02
 41
0.85
  7
SIMPLEX7
100
AcDbText
  0
TEXT
  5
607A
330
1F
100
AcDbEntity
  8
POPIS
100
AcDbText
 10
-4272.487611098729
 20
-8321.562528712854
 30
0.0
 40
25.0
  1
01
 41
0.85
  7
SIMPLEX7
100
AcDbText
  0
TEXT
  5
607B
330
1F
100
AcDbEntity
  8
POPIS
100
AcDbText
 10
-4272.487611098729
 20
-8643.691902249976
 30
0.0
 40
25.0
  1
10
 41
0.85
  7
SIMPLEX7
100
AcDbText
  0
TEXT
  5
607C
330
1F
100
AcDbEntity
  8
POPIS
100
AcDbText
 10
-4272.487611098729
 20
-8608.406276057278
 30
0.0
 40
25.0
  1
09
 41
0.85
  7
SIMPLEX7
100
AcDbText
  0
TEXT
  5
607D
330
1F
100
AcDbEntity
  8
POPIS
100
AcDbText
 10
-4272.487611098729
 20
-8572.880635155977
 30
0.0
 40
25.0
  1
08
 41
0.85
  7
SIMPLEX7
100
AcDbText
  0
TEXT
  5
607E
330
1F
100
AcDbEntity
  8
POPIS
100
AcDbText
 10
-4272.487611098729
 20
-8502.159823613798
 30
0.0
 40
25.0
  1
06
 41
0.85
  7
SIMPLEX7
100
AcDbText
  0
TEXT
  5
607F
330
1F
100
AcDbEntity
  8
POPIS
100
AcDbText
 10
-4272.487611098729
 20
-8466.755662395636
 30
0.0
 40
25.0
  1
05
 41
0.85
  7
SIMPLEX7
100
AcDbText
  0
TEXT
  5
6080
330
1F
100
AcDbEntity
  8
POPIS
100
AcDbText
 10
-4272.487611098729
 20
-8428.871577358048
 30
0.0
 40
25.0
  1
04
 41
0.85
  7
SIMPLEX7
100
AcDbText
  0
TEXT
  5
6081
330
1F
100
AcDbEntity
  8
POPIS
100
AcDbText
 10
-4272.487611098729
 20
-8392.27656574242
 30
0.0
 40
25.0
  1
03
 41
0.85
  7
SIMPLEX7
100
AcDbText
  0
TEXT
  5
6082
330
1F
100
AcDbEntity
  8
POPIS
100
AcDbText
 10
-4272.487611098729
 20
-8536.045095153083
 30
0.0
 40
25.0
  1
07
 41
0.85
  7
SIMPLEX7
100
AcDbText
  0
TEXT
  5
6083
330
1F
100
AcDbEntity
  8
POPIS
100
AcDbText
 10
-4218.143907938987
 20
-8393.093643444618
 30
0.0
 40
25.0
  1
Těsnící podložka
 41
0.7
  7
SIMPLEX7
100
AcDbText
  0
TEXT
  5
6084
330
1F
100
AcDbEntity
  8
POPIS
100
AcDbText
 10
-4218.143907938987
 20
-8503.185157181516
 30
0.0
 40
25.0
  1
Deska CETRIS    tl. 12 mm, horní vrtaná
 41
0.7
  7
SIMPLEX7
100
AcDbText
  0
TEXT
  5
6085
330
1F
100
AcDbEntity
  8
POPIS
100
AcDbText
 10
-4218.143907938987
 20
-8537.135345426237
 30
0.0
 40
25.0
  1
Deska CETRIS    tl. 12 mm, spodní
 41
0.7
  7
SIMPLEX7
100
AcDbText
  0
TEXT
  5
6086
330
1F
100
AcDbEntity
  8
POPIS
100
AcDbText
 10
-4220.186259994929
 20
-8573.388723010376
 30
0.0
 40
25.0
  1
Separační fólie-pěnová fólie tl. 2 mm
 41
0.7
  7
SIMPLEX7
100
AcDbText
  0
TEXT
  5
6087
330
1F
100
AcDbEntity
  8
POPIS
100
AcDbText
 10
-4220.186259994929
 20
-8607.873215058415
 30
0.0
 40
25.0
  1
Vrut 4,2x35 mm
 41
0.7
  7
SIMPLEX7
100
AcDbText
  0
TEXT
  5
6088
330
1F
100
AcDbEntity
  8
POPIS
100
AcDbText
 10
-4218.143907938987
 20
-8714.137238550794
 30
0.0
 40
25.0
  1
Stropní konstrukce
 41
0.7
  7
SIMPLEX7
100
AcDbText
  0
TEXT
  5
6089
330
1F
100
AcDbEntity
  8
POPIS
100
AcDbText
 10
-4220.186259994929
 20
-8643.879715958062
 30
0.0
 40
25.0
  1
Izolace EPS
 41
0.7
  7
SIMPLEX7
100
AcDbText
  0
TEXT
  5
608A
330
1F
100
AcDbEntity
  8
POPIS
100
AcDbText
 10
-4218.143907938987
 20
-8677.3016985479
 30
0.0
 40
25.0
  1
Parozábrana
 41
0.7
  7
SIMPLEX7
100
AcDbText
  0
TEXT
  5
608B
330
1F
100
AcDbEntity
  8
POPIS
100
AcDbText
 10
-4218.143907938987
 20
-8428.4506619594
 30
0.0
 40
25.0
  1
Podkladní dřevěná lišta
 41
0.7
  7
SIMPLEX7
100
AcDbText
  0
TEXT
  5
608C
330
1F
100
AcDbEntity
  8
POPIS
100
AcDbText
 10
-4218.143907938987
 20
-8466.590145565888
 30
0.0
 40
25.0
  1
Izolace EPS
 41
0.7
  7
SIMPLEX7
100
AcDbText
  0
CIRCLE
  5
608D
330
1F
100
AcDbEntity
  8
POPIS
100
AcDbCircle
 10
-4044.835387863726
 20
-8515.66894799278
 30
0.0
 40
7.795592338044182
  0
TEXT
  5
608E
330
1F
100
AcDbEntity
  8
POPIS
100
AcDbText
 10
-4048.166708202354
 20
-8519.550690014272
 30
0.0
 40
8.399999999999998
  1
R
 41
0.85
  7
SIMPLEX7
100
AcDbText
  0
CIRCLE
  5
608F
330
1F
100
AcDbEntity
  8
POPIS
100
AcDbCircle
 10
-4044.449972155319
 20
-8474.60019545508
 30
0.0
 40
7.795592338044182
  0
TEXT
  5
6090
330
1F
100
AcDbEntity
  8
POPIS
100
AcDbText
 10
-4047.781292493947
 20
-8478.481937476574
 30
0.0
 40
8.399999999999998
  1
R
 41
0.85
  7
SIMPLEX7
100
AcDbText
  0
TEXT
  5
6091
330
1F
100
AcDbEntity
  8
POPIS
100
AcDbText
 10
-4218.143907938987
 20
-8322.532416480498
 30
0.0
 40
25.0
  1
Nášlapná vrstva
 41
0.7
  7
SIMPLEX7
100
AcDbText
  0
TEXT
  5
6092
330
1F
100
AcDbEntity
  8
POPIS
100
AcDbText
 10
-4218.143907938987
 20
-8356.498631828991
 30
0.0
 40
25.0
  1
Hmoždinka
 41
0.7
  7
SIMPLEX7
100
AcDbText
  0
ENDSEC
  0
SECTION
  2
OBJECTS
  0
DICTIONARY
  5
C
330
0
100
AcDbDictionary
281
     1
  3
ACAD_GROUP
350
D
  3
ACAD_LAYOUT
350
1A
  3
ACAD_MLINESTYLE
350
17
  3
ACAD_PLOTSETTINGS
350
19
  3
ACAD_PLOTSTYLENAME
350
E
  3
AcDbVariableDictionary
350
8A0
  0
DICTIONARY
  5
D
102
{ACAD_REACTORS
330
C
102
}
330
C
100
AcDbDictionary
281
     1
  0
DICTIONARY
  5
1A
102
{ACAD_REACTORS
330
C
102
}
330
C
100
AcDbDictionary
281
     1
  3
Model
350
22
  3
Rozvržení1
350
1E
  3
Rozvržení2
350
26
  0
DICTIONARY
  5
17
102
{ACAD_REACTORS
330
C
102
}
330
C
100
AcDbDictionary
281
     1
  3
Standard
350
18
  0
DICTIONARY
  5
19
102
{ACAD_REACTORS
330
C
102
}
330
C
100
AcDbDictionary
281
     1
  0
ACDBDICTIONARYWDFLT
  5
E
102
{ACAD_REACTORS
330
C
102
}
330
C
100
AcDbDictionary
281
     1
  3
Normal
350
F
100
AcDbDictionaryWithDefault
340
F
  0
DICTIONARY
  5
8A0
102
{ACAD_REACTORS
330
C
102
}
330
C
100
AcDbDictionary
281
     1
  3
DIMASSOC
350
8A1
  0
LAYOUT
  5
22
102
{ACAD_REACTORS
330
1A
102
}
330
1A
100
AcDbPlotSettings
  1

  2
HP DeskJet 690C
  4

  6

 40
0.0
 41
0.0
 42
0.0
 43
0.0
 44
0.0
 45
0.0
 46
0.0
 47
0.0
 48
0.0
 49
0.0
140
0.0
141
0.0
142
1.0
143
1.0
 70
  1712
 72
     0
 73
     0
 74
     0
  7
monochrome.ctb
 75
     0
147
1.0
148
0.0
149
0.0
100
AcDbLayout
  1
Model
 70
     1
 71
     0
 10
0.0
 20
0.0
 11
12.0
 21
9.0
 12
0.0
 22
0.0
 32
0.0
 14
0.0
 24
0.0
 34
0.0
 15
0.0
 25
0.0
 35
0.0
146
0.0
 13
0.0
 23
0.0
 33
0.0
 16
1.0
 26
0.0
 36
0.0
 17
0.0
 27
1.0
 37
0.0
 76
     0
330
1F
  0
LAYOUT
  5
1E
102
{ACAD_REACTORS
330
1A
102
}
330
1A
100
AcDbPlotSettings
  1

  2
HP DeskJet 690C
  4

  6

 40
0.0
 41
0.0
 42
0.0
 43
0.0
 44
0.0
 45
0.0
 46
0.0
 47
0.0
 48
0.0
 49
0.0
140
0.0
141
0.0
142
1.0
143
1.0
 70
   688
 72
     0
 73
     0
 74
     5
  7
monochrome.ctb
 75
    16
147
1.0
148
0.0
149
0.0
100
AcDbLayout
  1
Rozvržení1
 70
     1
 71
     1
 10
0.0
 20
0.0
 11
420.0
 21
297.0
 12
0.0
 22
0.0
 32
0.0
 14
1.000000000000000E+20
 24
1.000000000000000E+20
 34
1.000000000000000E+20
 15
-1.000000000000000E+20
 25
-1.000000000000000E+20
 35
-1.000000000000000E+20
146
0.0
 13
0.0
 23
0.0
 33
0.0
 16
1.0
 26
0.0
 36
0.0
 17
0.0
 27
1.0
 37
0.0
 76
     0
330
1B
  0
LAYOUT
  5
26
102
{ACAD_REACTORS
330
1A
102
}
330
1A
100
AcDbPlotSettings
  1

  2
HP DeskJet 690C
  4

  6

 40
0.0
 41
0.0
 42
0.0
 43
0.0
 44
0.0
 45
0.0
 46
0.0
 47
0.0
 48
0.0
 49
0.0
140
0.0
141
0.0
142
1.0
143
1.0
 70
   688
 72
     0
 73
     0
 74
     5
  7
monochrome.ctb
 75
    16
147
1.0
148
0.0
149
0.0
100
AcDbLayout
  1
Rozvržení2
 70
     1
 71
     2
 10
0.0
 20
0.0
 11
12.0
 21
9.0
 12
0.0
 22
0.0
 32
0.0
 14
0.0
 24
0.0
 34
0.0
 15
0.0
 25
0.0
 35
0.0
146
0.0
 13
0.0
 23
0.0
 33
0.0
 16
1.0
 26
0.0
 36
0.0
 17
0.0
 27
1.0
 37
0.0
 76
     0
330
23
  0
MLINESTYLE
  5
18
102
{ACAD_REACTORS
330
17
102
}
330
17
100
AcDbMlineStyle
  2
STANDARD
 70
     0
  3

 62
   256
 51
90.0
 52
90.0
 71
     2
 49
0.5
 62
   256
  6
BYLAYER
 49
-0.5
 62
   256
  6
BYLAYER
  0
ACDBPLACEHOLDER
  5
F
102
{ACAD_REACTORS
330
E
102
}
330
E
  0
DICTIONARYVAR
  5
8A1
102
{ACAD_REACTORS
330
8A0
102
}
330
8A0
100
DictionaryVariables
280
     0
  1
1
  0
ENDSEC
  0
EOF
