  0
SECTION
  2
HEADER
  9
$ACADVER
  1
AC1015
  9
$ACADMAINTVER
 70
    14
  9
$DWGCODEPAGE
  3
ANSI_1250
  9
$INSBASE
 10
0.0
 20
0.0
 30
0.0
  9
$EXTMIN
 10
-837.7846298768599
 20
-7218.815423246015
 30
-0.0015258207003583
  9
$EXTMAX
 10
304.3733462413511
 20
-6590.37527637979
 30
0.0000000349246037
  9
$LIMMIN
 10
0.0
 20
0.0
  9
$LIMMAX
 10
420.0
 20
297.0
  9
$ORTHOMODE
 70
     1
  9
$REGENMODE
 70
     1
  9
$FILLMODE
 70
     1
  9
$QTEXTMODE
 70
     0
  9
$MIRRTEXT
 70
     1
  9
$LTSCALE
 40
1.0
  9
$ATTMODE
 70
     1
  9
$TEXTSIZE
 40
102.0
  9
$TRACEWID
 40
1.0
  9
$TEXTSTYLE
  7
SIMPLEX7
  9
$CLAYER
  8
STAVBA OBRYS
  9
$CELTYPE
  6
ByLayer
  9
$CECOLOR
 62
   256
  9
$CELTSCALE
 40
1.0
  9
$DISPSILH
 70
     0
  9
$DIMSCALE
 40
1.0
  9
$DIMASZ
 40
2.5
  9
$DIMEXO
 40
0.625
  9
$DIMDLI
 40
3.75
  9
$DIMRND
 40
0.0
  9
$DIMDLE
 40
0.0
  9
$DIMEXE
 40
1.25
  9
$DIMTP
 40
0.0
  9
$DIMTM
 40
0.0
  9
$DIMTXT
 40
2.5
  9
$DIMCEN
 40
2.5
  9
$DIMTSZ
 40
0.0
  9
$DIMTOL
 70
     0
  9
$DIMLIM
 70
     0
  9
$DIMTIH
 70
     0
  9
$DIMTOH
 70
     0
  9
$DIMSE1
 70
     0
  9
$DIMSE2
 70
     0
  9
$DIMTAD
 70
     1
  9
$DIMZIN
 70
     8
  9
$DIMBLK
  1

  9
$DIMASO
 70
     1
  9
$DIMSHO
 70
     1
  9
$DIMPOST
  1

  9
$DIMAPOST
  1

  9
$DIMALT
 70
     0
  9
$DIMALTD
 70
     3
  9
$DIMALTF
 40
0.03937007874016
  9
$DIMLFAC
 40
1.0
  9
$DIMTOFL
 70
     1
  9
$DIMTVP
 40
0.0
  9
$DIMTIX
 70
     0
  9
$DIMSOXD
 70
     0
  9
$DIMSAH
 70
     0
  9
$DIMBLK1
  1

  9
$DIMBLK2
  1

  9
$DIMSTYLE
  2
ISO-25
  9
$DIMCLRD
 70
     0
  9
$DIMCLRE
 70
     0
  9
$DIMCLRT
 70
     0
  9
$DIMTFAC
 40
1.0
  9
$DIMGAP
 40
0.625
  9
$DIMJUST
 70
     0
  9
$DIMSD1
 70
     0
  9
$DIMSD2
 70
     0
  9
$DIMTOLJ
 70
     0
  9
$DIMTZIN
 70
     8
  9
$DIMALTZ
 70
     0
  9
$DIMALTTZ
 70
     0
  9
$DIMUPT
 70
     0
  9
$DIMDEC
 70
     2
  9
$DIMTDEC
 70
     2
  9
$DIMALTU
 70
     2
  9
$DIMALTTD
 70
     3
  9
$DIMTXSTY
  7
Standard
  9
$DIMAUNIT
 70
     0
  9
$DIMADEC
 70
     0
  9
$DIMALTRND
 40
0.0
  9
$DIMAZIN
 70
     0
  9
$DIMDSEP
 70
    44
  9
$DIMATFIT
 70
     3
  9
$DIMFRAC
 70
     0
  9
$DIMLDRBLK
  1

  9
$DIMLUNIT
 70
     2
  9
$DIMLWD
 70
    -2
  9
$DIMLWE
 70
    -2
  9
$DIMTMOVE
 70
     0
  9
$LUNITS
 70
     2
  9
$LUPREC
 70
     4
  9
$SKETCHINC
 40
1.0
  9
$FILLETRAD
 40
0.0
  9
$AUNITS
 70
     0
  9
$AUPREC
 70
     0
  9
$MENU
  1
.
  9
$ELEVATION
 40
0.0
  9
$PELEVATION
 40
0.0
  9
$THICKNESS
 40
0.0
  9
$LIMCHECK
 70
     0
  9
$CHAMFERA
 40
10.0
  9
$CHAMFERB
 40
10.0
  9
$CHAMFERC
 40
20.0
  9
$CHAMFERD
 40
0.0
  9
$SKPOLY
 70
     0
  9
$TDCREATE
 40
2452681.284131944
  9
$TDUCREATE
 40
2452681.242465277
  9
$TDUPDATE
 40
2455601.580100636
  9
$TDUUPDATE
 40
2455601.538433970
  9
$TDINDWG
 40
0.6496607639
  9
$TDUSRTIMER
 40
0.6496607639
  9
$USRTIMER
 70
     1
  9
$ANGBASE
 50
0.0
  9
$ANGDIR
 70
     0
  9
$PDMODE
 70
     0
  9
$PDSIZE
 40
0.0
  9
$PLINEWID
 40
0.0
  9
$SPLFRAME
 70
     0
  9
$SPLINETYPE
 70
     6
  9
$SPLINESEGS
 70
     8
  9
$HANDSEED
  5
6118
  9
$SURFTAB1
 70
     6
  9
$SURFTAB2
 70
     6
  9
$SURFTYPE
 70
     6
  9
$SURFU
 70
     6
  9
$SURFV
 70
     6
  9
$UCSBASE
  2

  9
$UCSNAME
  2

  9
$UCSORG
 10
0.0
 20
0.0
 30
0.0
  9
$UCSXDIR
 10
1.0
 20
0.0
 30
0.0
  9
$UCSYDIR
 10
0.0
 20
1.0
 30
0.0
  9
$UCSORTHOREF
  2

  9
$UCSORTHOVIEW
 70
     0
  9
$UCSORGTOP
 10
0.0
 20
0.0
 30
0.0
  9
$UCSORGBOTTOM
 10
0.0
 20
0.0
 30
0.0
  9
$UCSORGLEFT
 10
0.0
 20
0.0
 30
0.0
  9
$UCSORGRIGHT
 10
0.0
 20
0.0
 30
0.0
  9
$UCSORGFRONT
 10
0.0
 20
0.0
 30
0.0
  9
$UCSORGBACK
 10
0.0
 20
0.0
 30
0.0
  9
$PUCSBASE
  2

  9
$PUCSNAME
  2

  9
$PUCSORG
 10
0.0
 20
0.0
 30
0.0
  9
$PUCSXDIR
 10
1.0
 20
0.0
 30
0.0
  9
$PUCSYDIR
 10
0.0
 20
1.0
 30
0.0
  9
$PUCSORTHOREF
  2

  9
$PUCSORTHOVIEW
 70
     0
  9
$PUCSORGTOP
 10
0.0
 20
0.0
 30
0.0
  9
$PUCSORGBOTTOM
 10
0.0
 20
0.0
 30
0.0
  9
$PUCSORGLEFT
 10
0.0
 20
0.0
 30
0.0
  9
$PUCSORGRIGHT
 10
0.0
 20
0.0
 30
0.0
  9
$PUCSORGFRONT
 10
0.0
 20
0.0
 30
0.0
  9
$PUCSORGBACK
 10
0.0
 20
0.0
 30
0.0
  9
$USERI1
 70
     0
  9
$USERI2
 70
     0
  9
$USERI3
 70
     0
  9
$USERI4
 70
     0
  9
$USERI5
 70
     0
  9
$USERR1
 40
0.0
  9
$USERR2
 40
0.0
  9
$USERR3
 40
0.0
  9
$USERR4
 40
0.0
  9
$USERR5
 40
0.0
  9
$WORLDVIEW
 70
     1
  9
$SHADEDGE
 70
     3
  9
$SHADEDIF
 70
    70
  9
$TILEMODE
 70
     1
  9
$MAXACTVP
 70
    64
  9
$PINSBASE
 10
0.0
 20
0.0
 30
0.0
  9
$PLIMCHECK
 70
     0
  9
$PEXTMIN
 10
1.000000000000000E+20
 20
1.000000000000000E+20
 30
1.000000000000000E+20
  9
$PEXTMAX
 10
-1.000000000000000E+20
 20
-1.000000000000000E+20
 30
-1.000000000000000E+20
  9
$PLIMMIN
 10
0.0
 20
0.0
  9
$PLIMMAX
 10
420.0
 20
297.0
  9
$UNITMODE
 70
     0
  9
$VISRETAIN
 70
     1
  9
$PLINEGEN
 70
     0
  9
$PSLTSCALE
 70
     1
  9
$TREEDEPTH
 70
  3020
  9
$CMLSTYLE
  2
Standard
  9
$CMLJUST
 70
     0
  9
$CMLSCALE
 40
20.0
  9
$PROXYGRAPHICS
 70
     1
  9
$MEASUREMENT
 70
     1
  9
$CELWEIGHT
370
    -1
  9
$ENDCAPS
280
     0
  9
$JOINSTYLE
280
     0
  9
$LWDISPLAY
290
     1
  9
$INSUNITS
 70
     4
  9
$HYPERLINKBASE
  1

  9
$STYLESHEET
  1

  9
$XEDIT
290
     1
  9
$CEPSNTYPE
380
     0
  9
$PSTYLEMODE
290
     1
  9
$FINGERPRINTGUID
  2
{CED30962-9BF9-4233-B154-46CCBBBAD92E}
  9
$VERSIONGUID
  2
{78D748A8-2D00-4D20-8CF7-FBE91B4D4F08}
  9
$EXTNAMES
290
     1
  9
$PSVPSCALE
 40
0.0
  9
$OLESTARTUP
290
     0
  0
ENDSEC
  0
SECTION
  2
CLASSES
  0
CLASS
  1
ACDBDICTIONARYWDFLT
  2
AcDbDictionaryWithDefault
  3
AutoCAD 2000
 90
        0
280
     0
281
     0
  0
CLASS
  1
ACDBPLACEHOLDER
  2
AcDbPlaceHolder
  3
AutoCAD 2000
 90
        0
280
     0
281
     0
  0
CLASS
  1
LAYOUT
  2
AcDbLayout
  3
AutoCAD 2000
 90
        0
280
     0
281
     0
  0
CLASS
  1
DICTIONARYVAR
  2
AcDbDictionaryVar
  3
AutoCAD 2000
 90
        0
280
     0
281
     0
  0
ENDSEC
  0
SECTION
  2
TABLES
  0
TABLE
  2
VPORT
  5
8
330
0
100
AcDbSymbolTable
 70
     2
  0
VPORT
  5
6117
330
8
100
AcDbSymbolTableRecord
100
AcDbViewportTableRecord
  2
*Active
 70
     0
 10
0.0
 20
0.0
 11
1.0
 21
1.0
 12
-266.7056418177545
 22
-6904.595349812902
 13
0.0
 23
0.0
 14
10.0
 24
10.0
 15
10.0
 25
10.0
 16
0.0
 26
0.0
 36
1.0
 17
0.0
 27
0.0
 37
0.0
 40
633.0553743829914
 41
2.031862745098039
 42
50.0
 43
0.0
 44
0.0
 50
0.0
 51
0.0
 71
     0
 72
   100
 73
     1
 74
     3
 75
     0
 76
     0
 77
     0
 78
     0
281
     0
 65
     1
110
0.0
120
0.0
130
0.0
111
1.0
121
0.0
131
0.0
112
0.0
122
1.0
132
0.0
 79
     0
146
0.0
  0
ENDTAB
  0
TABLE
  2
LTYPE
  5
5
330
0
100
AcDbSymbolTable
 70
     5
  0
LTYPE
  5
14
330
5
100
AcDbSymbolTableRecord
100
AcDbLinetypeTableRecord
  2
ByBlock
 70
     0
  3

 72
    65
 73
     0
 40
0.0
  0
LTYPE
  5
15
330
5
100
AcDbSymbolTableRecord
100
AcDbLinetypeTableRecord
  2
ByLayer
 70
     0
  3

 72
    65
 73
     0
 40
0.0
  0
LTYPE
  5
16
330
5
100
AcDbSymbolTableRecord
100
AcDbLinetypeTableRecord
  2
Continuous
 70
     0
  3
Solid line
 72
    65
 73
     0
 40
0.0
  0
LTYPE
  5
2F
330
5
100
AcDbSymbolTableRecord
100
AcDbLinetypeTableRecord
  2
DASHED
 70
     0
  3
Dashed __ __ __ __ __ __ __ __ __ __ __ __ __ _
 72
    65
 73
     2
 40
19.04999999999999
 49
12.7
 74
     0
 49
-6.349999999999999
 74
     0
  0
LTYPE
  5
30
330
5
100
AcDbSymbolTableRecord
100
AcDbLinetypeTableRecord
  2
IZOLACE
 70
     0
  3
Izolace SSSSSSSSSSSSSSSSSSSSSSSSSSSSSSSSSSSSSSS
 72
    65
 73
     4
 40
10.16253999999999
 49
0.00254
 74
     0
 49
-2.54
 74
     4
 75
   134
340
38
 46
2.54
 50
0.0
 44
-2.54
 45
0.0
 49
-5.08
 74
     4
 75
   134
340
38
 46
2.54
 50
180.0
 44
2.54
 45
0.0
 49
-2.54
 74
     0
  0
LTYPE
  5
11D2
330
5
100
AcDbSymbolTableRecord
100
AcDbLinetypeTableRecord
  2
DASHDOT2
 70
     0
  3
Dash dot (.5x) _._._._._._._._._._._._._._._.
 72
    65
 73
     4
 40
12.7
 49
6.349999999999999
 74
     0
 49
-3.174999999999999
 74
     0
 49
0.0
 74
     0
 49
-3.174999999999999
 74
     0
  0
LTYPE
  5
11D3
330
5
100
AcDbSymbolTableRecord
100
AcDbLinetypeTableRecord
  2
CIKCAK
 70
     0
  3
Cik-cak /\/\/\/\/\/\/\/\/\/\/\/\/\/\/\/\/\/\/\/
 72
    65
 73
     4
 40
20.32254
 49
0.00254
 74
     0
 49
-5.08
 74
     4
 75
   131
340
38
 46
5.08
 50
0.0
 44
-5.08
 45
0.0
 49
-10.16
 74
     4
 75
   131
340
38
 46
5.08
 50
180.0
 44
5.08
 45
0.0
 49
-5.08
 74
     0
  0
ENDTAB
  0
TABLE
  2
LAYER
  5
2
330
0
100
AcDbSymbolTable
 70
     8
  0
LAYER
  5
10
330
2
100
AcDbSymbolTableRecord
100
AcDbLayerTableRecord
  2
0
 70
     0
 62
     7
  6
Continuous
370
    -3
390
F
  0
LAYER
  5
31
330
2
100
AcDbSymbolTableRecord
100
AcDbLayerTableRecord
  2
POPIS
 70
     0
 62
    30
  6
Continuous
370
    -3
390
F
  0
LAYER
  5
32
330
2
100
AcDbSymbolTableRecord
100
AcDbLayerTableRecord
  2
SPOJOVACÍ
 70
     0
 62
     5
  6
Continuous
370
    -3
390
F
  0
LAYER
  5
33
330
2
100
AcDbSymbolTableRecord
100
AcDbLayerTableRecord
  2
CETRIS
 70
     0
 62
     1
  6
Continuous
370
    -3
390
F
  0
LAYER
  5
34
330
2
100
AcDbSymbolTableRecord
100
AcDbLayerTableRecord
  2
izolace
 70
     0
 62
     3
  6
Continuous
370
    -3
390
F
  0
LAYER
  5
35
330
2
100
AcDbSymbolTableRecord
100
AcDbLayerTableRecord
  2
nášlap_vrstvy
 70
     0
 62
     6
  6
Continuous
370
    -3
390
F
  0
LAYER
  5
36
330
2
100
AcDbSymbolTableRecord
100
AcDbLayerTableRecord
  2
STAVBA OBRYS
 70
     0
 62
    40
  6
Continuous
370
    -3
390
F
  0
LAYER
  5
8B0
330
2
100
AcDbSymbolTableRecord
100
AcDbLayerTableRecord
  2
Defpoints
 70
     0
 62
     7
  6
Continuous
290
     0
370
    -3
390
F
  0
ENDTAB
  0
TABLE
  2
STYLE
  5
3
330
0
100
AcDbSymbolTable
 70
     3
  0
STYLE
  5
11
330
3
100
AcDbSymbolTableRecord
100
AcDbTextStyleTableRecord
  2
Standard
 70
     0
 40
0.0
 41
1.0
 50
0.0
 71
     0
 42
2.5
  3
verdana.TTF
  4

1001
ACAD
1000
Verdana
1071
       34
  0
STYLE
  5
37
330
3
100
AcDbSymbolTableRecord
100
AcDbTextStyleTableRecord
  2
SIMPLEX7
 70
     0
 40
0.0
 41
0.85
 50
0.0
 71
     0
 42
102.0
  3
ARIAL.TTF
  4

1001
ACAD
1000
Arial CE
1071
    60962
  0
STYLE
  5
38
330
3
100
AcDbSymbolTableRecord
100
AcDbTextStyleTableRecord
  2

 70
     1
 40
0.0
 41
1.0
 50
0.0
 71
     0
 42
2.5
  3
ltypeshp.shx
  4

  0
ENDTAB
  0
TABLE
  2
VIEW
  5
6
330
0
100
AcDbSymbolTable
 70
     0
  0
ENDTAB
  0
TABLE
  2
UCS
  5
7
330
0
100
AcDbSymbolTable
 70
     0
  0
ENDTAB
  0
TABLE
  2
APPID
  5
9
330
0
100
AcDbSymbolTable
 70
     1
  0
APPID
  5
12
330
9
100
AcDbSymbolTableRecord
100
AcDbRegAppTableRecord
  2
ACAD
 70
     0
  0
ENDTAB
  0
TABLE
  2
DIMSTYLE
  5
A
330
0
100
AcDbSymbolTable
 70
     2
100
AcDbDimStyleTable
 71
     1
340
27
  0
DIMSTYLE
105
27
330
A
100
AcDbSymbolTableRecord
100
AcDbDimStyleTableRecord
  2
ISO-25
 70
     0
 41
2.5
 42
0.625
 43
3.75
 44
1.25
 73
     0
 74
     0
 77
     1
 78
     8
140
2.5
141
2.5
143
0.03937007874016
147
0.625
171
     3
172
     1
271
     2
272
     2
274
     3
278
    44
283
     0
284
     8
340
11
  0
DIMSTYLE
105
5925
330
A
100
AcDbSymbolTableRecord
100
AcDbDimStyleTableRecord
  2
STANDARD
 70
     0
340
11
  0
ENDTAB
  0
TABLE
  2
BLOCK_RECORD
  5
1
330
0
100
AcDbSymbolTable
 70
     3
  0
BLOCK_RECORD
  5
1F
330
1
100
AcDbSymbolTableRecord
100
AcDbBlockTableRecord
  2
*Model_Space
340
22
  0
BLOCK_RECORD
  5
1B
330
1
100
AcDbSymbolTableRecord
100
AcDbBlockTableRecord
  2
*Paper_Space
340
1E
  0
BLOCK_RECORD
  5
23
330
1
100
AcDbSymbolTableRecord
100
AcDbBlockTableRecord
  2
*Paper_Space0
340
26
  0
BLOCK_RECORD
  5
2B
330
1
100
AcDbSymbolTableRecord
100
AcDbBlockTableRecord
  2
E_PUNKT
340
0
102
{BLKREFS
331
6B5
331
6B1
331
842
331
83F
331
75F
331
79A
331
73F
331
766
331
649
331
60D
331
60C
331
197D
331
1A72
331
1A77
331
1AC8
331
1AC9
331
1ACB
331
1AE2
331
181B
331
183F
331
1FA2
331
1FB8
331
1FBA
331
1FC4
331
1FCC
331
2008
331
224F
331
2272
331
227D
331
22F0
331
2313
331
2314
331
2355
331
23A6
331
23B1
331
24C9
331
2A02
331
2A12
331
2AC1
331
2BCD
331
2BE5
331
2C54
331
2CD0
331
2CC6
331
2CCF
331
2BE0
331
2BEB
331
2DA0
331
2DA5
331
2DE7
331
2DED
331
2DEE
331
2DEF
331
2DF2
331
2DF3
331
2DF6
331
2E8E
331
314E
331
3236
331
3206
331
32FE
331
32BF
331
3304
331
2ECD
331
3239
331
2FB9
331
3150
331
4E7F
331
4E9C
331
4EA7
331
4EAE
331
4EB8
331
5B4F
331
5B54
102
}
  0
ENDTAB
  0
ENDSEC
  0
SECTION
  2
BLOCKS
  0
BLOCK
  5
20
330
1F
100
AcDbEntity
  8
0
100
AcDbBlockBegin
  2
*Model_Space
 70
     0
 10
0.0
 20
0.0
 30
0.0
  3
*Model_Space
  1

  0
ENDBLK
  5
21
330
1F
100
AcDbEntity
  8
0
100
AcDbBlockEnd
  0
BLOCK
  5
1C
330
1B
100
AcDbEntity
 67
     1
  8
0
100
AcDbBlockBegin
  2
*Paper_Space
 70
     0
 10
0.0
 20
0.0
 30
0.0
  3
*Paper_Space
  1

  0
ENDBLK
  5
1D
330
1B
100
AcDbEntity
 67
     1
  8
0
100
AcDbBlockEnd
  0
BLOCK
  5
24
330
23
100
AcDbEntity
  8
0
100
AcDbBlockBegin
  2
*Paper_Space0
 70
     0
 10
0.0
 20
0.0
 30
0.0
  3
*Paper_Space0
  1

  0
ENDBLK
  5
25
330
23
100
AcDbEntity
  8
0
100
AcDbBlockEnd
  0
BLOCK
  5
2D
330
2B
100
AcDbEntity
  8
0
100
AcDbBlockBegin
  2
E_PUNKT
 70
     0
 10
0.0
 20
0.0
 30
0.0
  3
E_PUNKT
  1

  0
LWPOLYLINE
  5
2C
330
2B
100
AcDbEntity
  8
POPIS
100
AcDbPolyline
 90
        2
 70
     1
 43
2.5
 10
1.27761037562675
 20
0.0290683308725193
 42
-1.0
 10
-1.222389624373249
 20
0.0290683308725193
 42
-1.0
  0
ENDBLK
  5
2E
330
2B
100
AcDbEntity
  8
0
100
AcDbBlockEnd
  0
ENDSEC
  0
SECTION
  2
ENTITIES
  0
HATCH
  5
2E85
330
1F
100
AcDbEntity
  8
STAVBA OBRYS
100
AcDbHatch
 10
0.0
 20
0.0
 30
0.0
210
0.0
220
0.0
230
1.0
  2
ANSI35
 70
     0
 71
     0
 91
       12
 92
        7
 72
     0
 73
     1
 93
       10
 10
-297.2551970844836
 20
-7128.185687062014
 10
-661.8756070843626
 20
-7128.185687062014
 10
-661.8756070843626
 20
-7153.921540459506
 10
-665.4534498528842
 20
-7159.65491211628
 10
-665.4348570611002
 20
-7159.516843802245
 10
-668.9265399313114
 20
-7153.921540459506
 10
-668.9265399313114
 20
-7128.185687062014
 10
-816.140008352303
 20
-7128.185687062014
 10
-816.140008352303
 20
-7218.737340092755
 10
-297.2551970844836
 20
-7218.737340092755
 97
        0
 92
       22
 72
     1
 73
     1
 93
        2
 10
-305.7398609309196
 20
-7144.706789626605
 42
-1.0
 10
-305.7398609309211
 20
-7142.206789626605
 42
-1.0
 97
        0
 92
       24
 93
        4
 72
     1
 10
-605.8740762014474
 20
-7199.065308322875
 11
-568.2475414129071
 21
-7199.065308322875
 72
     1
 10
-568.2475414129071
 20
-7199.065308322875
 11
-568.2475414129071
 21
-7160.772334243748
 72
     1
 10
-568.2475414129071
 20
-7160.772334243748
 11
-605.8740762014474
 21
-7160.772334243748
 72
     1
 10
-605.8740762014474
 20
-7160.772334243748
 11
-605.8740762014474
 21
-7199.065308322875
 97
        0
 92
       24
 93
        4
 72
     1
 10
-795.2304103890709
 20
-7199.065308322875
 11
-757.6038756005307
 21
-7199.065308322875
 72
     1
 10
-757.6038756005307
 20
-7199.065308322875
 11
-757.6038756005307
 21
-7160.772334243748
 72
     1
 10
-757.6038756005307
 20
-7160.772334243748
 11
-795.230410389071
 21
-7160.772334243748
 72
     1
 10
-795.2304103890709
 20
-7160.772334243748
 11
-795.2304103890709
 21
-7199.065308322875
 97
        0
 92
       24
 93
        4
 72
     1
 10
-376.573264903212
 20
-7198.53239563529
 11
-339.1598951897058
 21
-7198.53239563529
 72
     1
 10
-339.1598951897058
 20
-7198.53239563529
 11
-339.1598951897058
 21
-7160.878916781266
 72
     1
 10
-339.1598951897058
 20
-7160.878916781266
 11
-376.573264903212
 21
-7160.878916781266
 72
     1
 10
-376.573264903212
 20
-7160.878916781266
 11
-376.573264903212
 21
-7198.53239563529
 97
        0
 92
       24
 93
        4
 72
     1
 10
-422.3028114768217
 20
-7199.065308322875
 11
-384.6762766882816
 21
-7199.065308322875
 72
     1
 10
-384.6762766882814
 20
-7199.065308322875
 11
-384.6762766882814
 21
-7160.772334243748
 72
     1
 10
-384.6762766882814
 20
-7160.772334243748
 11
-422.3028114768217
 21
-7160.772334243748
 72
     1
 10
-422.3028114768217
 20
-7160.772334243748
 11
-422.3028114768217
 21
-7199.065308322875
 97
        0
 92
      137
 93
        4
 72
     1
 10
-333.4932115230803
 20
-7198.53239563529
 11
-296.0798418095741
 21
-7198.53239563529
 72
     1
 10
-296.0798418095741
 20
-7198.53239563529
 11
-296.0798418095741
 21
-7160.878916781266
 72
     1
 10
-296.0798418095741
 20
-7160.878916781266
 11
-333.4932115230803
 21
-7160.878916781266
 72
     1
 10
-333.4932115230803
 20
-7160.878916781266
 11
-333.4932115230803
 21
-7198.53239563529
 97
        0
 92
       24
 93
        4
 72
     1
 10
-470.5064170367499
 20
-7199.065308322875
 11
-432.8798822482097
 21
-7199.065308322875
 72
     1
 10
-432.8798822482097
 20
-7199.065308322875
 11
-432.8798822482097
 21
-7160.772334243748
 72
     1
 10
-432.8798822482097
 20
-7160.772334243748
 11
-470.5064170367499
 21
-7160.772334243748
 72
     1
 10
-470.5064170367499
 20
-7160.772334243748
 11
-470.5064170367499
 21
-7199.065308322875
 97
        0
 92
       24
 93
        4
 72
     1
 10
-557.8161468992239
 20
-7199.065308322875
 11
-520.1896121106836
 21
-7199.065308322875
 72
     1
 10
-520.1896121106836
 20
-7199.065308322875
 11
-520.1896121106836
 21
-7160.772334243748
 72
     1
 10
-520.1896121106836
 20
-7160.772334243748
 11
-557.8161468992239
 21
-7160.772334243748
 72
     1
 10
-557.8161468992239
 20
-7160.772334243748
 11
-557.8161468992239
 21
-7199.065308322875
 97
        0
 92
       24
 93
        4
 72
     1
 10
-514.6641943312702
 20
-7199.065308322875
 11
-477.0376595427299
 21
-7199.065308322875
 72
     1
 10
-477.0376595427299
 20
-7199.065308322875
 11
-477.0376595427299
 21
-7160.772334243748
 72
     1
 10
-477.0376595427299
 20
-7160.772334243748
 11
-514.6641943312702
 21
-7160.772334243748
 72
     1
 10
-514.6641943312702
 20
-7160.772334243748
 11
-514.6641943312702
 21
-7199.065308322875
 97
        0
 92
       24
 93
        4
 72
     1
 10
-711.7935010454047
 20
-7199.065308322875
 11
-674.1669662568644
 21
-7199.065308322875
 72
     1
 10
-674.1669662568645
 20
-7199.065308322875
 11
-674.1669662568645
 21
-7160.772334243748
 72
     1
 10
-674.1669662568645
 20
-7160.772334243748
 11
-711.7935010454048
 21
-7160.772334243748
 72
     1
 10
-711.7935010454047
 20
-7160.772334243748
 11
-711.7935010454047
 21
-7199.065308322875
 97
        0
 92
       24
 93
        4
 72
     1
 10
-658.8163595645633
 20
-7199.086624830378
 11
-621.1812981730218
 21
-7199.086624830378
 72
     1
 10
-621.1812981730218
 20
-7199.086624830378
 11
-621.1812981730218
 21
-7160.768070942248
 72
     1
 10
-621.1812981730218
 20
-7160.768070942248
 11
-658.8163595645633
 21
-7160.768070942248
 72
     1
 10
-658.8163595645633
 20
-7160.768070942248
 11
-658.8163595645633
 21
-7199.086624830378
 97
        0
 75
     0
 76
     1
 52
0.0
 41
2.0
 77
     0
 78
     2
 53
45.0
 43
-935.7866686313936
 44
-7411.832567520779
 45
-8.980256121069151
 46
8.980256121069153
 79
     0
 53
45.0
 43
-926.8064086313936
 44
-7411.832567520779
 45
-8.980256121069151
 46
8.980256121069153
 79
     4
 49
15.875
 49
-3.174999999999999
 49
0.0
 49
-3.174999999999999
 47
0.8551882524420493
 98
        2
 10
-531.9236292129225
 20
-7205.318582896706
 10
-531.9236292129225
 20
-7205.318582896706
  0
LINE
  5
2E86
330
1F
100
AcDbEntity
  8
POPIS
370
    20
100
AcDbLine
 10
-589.5726086590712
 20
-7055.340361732719
 30
0.0
 11
-589.5726086590712
 21
-7165.578169516539
 31
0.0
  0
LINE
  5
2E87
330
1F
100
AcDbEntity
  8
POPIS
370
    20
100
AcDbLine
 10
-778.9289428466954
 20
-7032.561837529971
 30
0.0
 11
-778.9289428466954
 21
-7165.578169516539
 31
0.0
  0
LINE
  5
2E88
330
1F
100
AcDbEntity
  8
POPIS
370
    20
100
AcDbLine
 10
-351.380004999487
 20
-7126.654219011777
 30
0.0
 11
-351.380004999487
 21
-7165.578169516539
 31
0.0
  0
LINE
  5
2E89
330
1F
100
AcDbEntity
  8
POPIS
370
    20
100
AcDbLine
 10
-401.5852359030605
 20
-7047.299593070107
 30
0.0
 11
-401.5852359030605
 21
-7165.578169516539
 31
0.0
  0
LINE
  5
2E8A
330
1F
100
AcDbEntity
  8
POPIS
370
    20
100
AcDbLine
 10
-453.6106144264631
 20
-7024.962402828998
 30
0.0
 11
-453.6106144264631
 21
-7165.578169516539
 31
0.0
  0
LINE
  5
2E8B
330
1F
100
AcDbEntity
  8
POPIS
370
    20
100
AcDbLine
 10
-489.683092553947
 20
-7007.506269181246
 30
0.0
 11
-489.683092553947
 21
-7165.578169516539
 31
0.0
  0
LINE
  5
2E8C
330
1F
100
AcDbEntity
  8
POPIS
370
    20
100
AcDbLine
 10
-532.2702423232121
 20
-6997.427147575868
 30
0.0
 11
-532.2702423232121
 21
-7165.578169516539
 31
0.0
  0
LINE
  5
2E8D
330
1F
100
AcDbEntity
  8
SPOJOVACÍ
  6
Continuous
370
    20
100
AcDbLine
 10
-662.5549971849177
 20
-7139.218174643524
 30
0.0
 11
-663.0028681128242
 21
-7139.476307147059
 31
0.0
  0
INSERT
  5
2E8E
330
1F
100
AcDbEntity
  8
POPIS
370
    20
100
AcDbBlockReference
  2
E_PUNKT
 10
-665.8432525535463
 20
-7136.739283436803
 30
0.0
 50
270.0
  0
LINE
  5
2E8F
330
1F
100
AcDbEntity
  8
SPOJOVACÍ
  6
Continuous
370
    20
100
AcDbLine
 10
-663.0028681128242
 20
-7138.769200587635
 30
0.0
 11
-667.7992789080271
 21
-7140.381977170881
 31
0.0
  0
LINE
  5
2E90
330
1F
100
AcDbEntity
  8
SPOJOVACÍ
  6
Continuous
370
    20
100
AcDbLine
 10
-662.5549971849177
 20
-7139.218174643524
 30
0.0
 11
-668.2471498307568
 21
-7140.641212804982
 31
0.0
  0
LINE
  5
2E91
330
1F
100
AcDbEntity
  8
POPIS
100
AcDbLine
 10
-665.7129482472537
 20
-7135.984261078393
 30
0.0
 11
-693.7544103833097
 21
-7165.578169516539
 31
0.0
  0
LINE
  5
2E92
330
1F
100
AcDbEntity
  8
POPIS
370
    20
100
AcDbLine
 10
-644.0460559849998
 20
-7122.803221319216
 30
0.0
 11
-644.0460559849998
 21
-7165.578169516539
 31
0.0
  0
LINE
  5
2E93
330
1F
100
AcDbEntity
  8
SPOJOVACÍ
  6
CIKCAK
 48
0.25
370
    20
100
AcDbLine
 10
-668.9265399313117
 20
-7125.185687062021
 30
0.0
 11
-668.9265399313117
 21
-7154.750481380546
 31
0.0
  0
LINE
  5
2E94
330
1F
100
AcDbEntity
  8
SPOJOVACÍ
  6
CIKCAK
 48
0.25
370
    20
100
AcDbLine
 10
-661.8756070843629
 20
-7125.185687062021
 30
0.0
 11
-661.8756070843629
 21
-7154.750481380549
 31
0.0
  0
LINE
  5
2E95
330
1F
100
AcDbEntity
  8
SPOJOVACÍ
  6
DASHED
100
AcDbLine
 10
-667.1120110078373
 20
-7147.389651126935
 30
0.0
 11
-667.1120110078373
 21
-7123.997816086928
 31
0.0
  0
LINE
  5
2E96
330
1F
100
AcDbEntity
  8
SPOJOVACÍ
  6
DASHED
100
AcDbLine
 10
-663.6901360078373
 20
-7147.389651126963
 30
0.0
 11
-663.6901360078373
 21
-7123.997816086926
 31
0.0
  0
LINE
  5
2E97
330
1F
100
AcDbEntity
  8
SPOJOVACÍ
  6
DASHDOT2
100
AcDbLine
 10
-665.4010735078372
 20
-7109.476718417612
 30
0.0
 11
-665.4010735078372
 21
-7177.882473626581
 31
0.0
  0
TEXT
  5
2E98
330
1F
100
AcDbEntity
  8
POPIS
100
AcDbText
 10
-464.1242546902285
 20
-7192.256815826286
 30
0.0
 40
25.0
  1
09
 41
0.8
  7
SIMPLEX7
100
AcDbText
  0
TEXT
  5
2E99
330
1F
100
AcDbEntity
  8
POPIS
100
AcDbText
 10
-652.4299339165418
 20
-7192.256815826286
 30
0.0
 40
25.0
  1
03
 41
0.8
  7
SIMPLEX7
100
AcDbText
  0
TEXT
  5
2E9A
330
1F
100
AcDbEntity
  8
POPIS
100
AcDbText
 10
-788.84824804255
 20
-7192.256815826286
 30
0.0
 40
25.0
  1
04
 41
0.8
  7
SIMPLEX7
100
AcDbText
  0
TEXT
  5
2E9B
330
1F
100
AcDbEntity
  8
POPIS
100
AcDbText
 10
-705.4113386988838
 20
-7192.256815826286
 30
0.0
 40
25.0
  1
02
 41
0.8
  7
SIMPLEX7
100
AcDbText
  0
LINE
  5
2E9C
330
1F
100
AcDbEntity
  8
SPOJOVACÍ
  6
Continuous
370
    20
100
AcDbLine
 10
-662.5549971849177
 20
-7142.614164557774
 30
0.0
 11
-663.0028681128242
 21
-7142.872297061309
 31
0.0
  0
LINE
  5
2E9D
330
1F
100
AcDbEntity
  8
SPOJOVACÍ
  6
Continuous
370
    20
100
AcDbLine
 10
-662.5549971849177
 20
-7142.614164557774
 30
0.0
 11
-663.0028681128242
 21
-7142.165190501884
 31
0.0
  0
LINE
  5
2E9E
330
1F
100
AcDbEntity
  8
SPOJOVACÍ
  6
Continuous
370
    20
100
AcDbLine
 10
-668.2471498307568
 20
-7140.641212804982
 30
0.0
 11
-667.7992789080271
 21
-7140.381977170881
 31
0.0
  0
LINE
  5
2E9F
330
1F
100
AcDbEntity
  8
SPOJOVACÍ
  6
Continuous
370
    20
100
AcDbLine
 10
-668.2471498307568
 20
-7140.641212804982
 30
0.0
 11
-667.7992789080271
 21
-7141.089083730301
 31
0.0
  0
LINE
  5
2EA0
330
1F
100
AcDbEntity
  8
SPOJOVACÍ
  6
Continuous
370
    20
100
AcDbLine
 10
-663.0028681128242
 20
-7139.476307147059
 30
0.0
 11
-667.7992789080271
 21
-7141.089083730301
 31
0.0
  0
LINE
  5
2EA1
330
1F
100
AcDbEntity
  8
SPOJOVACÍ
  6
Continuous
370
    20
100
AcDbLine
 10
-662.5549971849177
 20
-7146.010154472024
 30
0.0
 11
-663.0028681128242
 21
-7145.561180416135
 31
0.0
  0
LINE
  5
2EA2
330
1F
100
AcDbEntity
  8
SPOJOVACÍ
  6
Continuous
370
    20
100
AcDbLine
 10
-662.5549971849177
 20
-7146.010154472024
 30
0.0
 11
-663.0028681128242
 21
-7146.268286975559
 31
0.0
  0
LINE
  5
2EA3
330
1F
100
AcDbEntity
  8
SPOJOVACÍ
  6
Continuous
370
    20
100
AcDbLine
 10
-663.7703590663004
 20
-7152.385048885459
 30
0.0
 11
-664.1598120470916
 21
-7151.994636662945
 31
0.0
  0
LINE
  5
2EA4
330
1F
100
AcDbEntity
  8
SPOJOVACÍ
  6
Continuous
370
    20
100
AcDbLine
 10
-663.7703590663004
 20
-7152.385048885459
 30
0.0
 11
-664.1598120470916
 21
-7152.609511932009
 31
0.0
  0
LINE
  5
2EA5
330
1F
100
AcDbEntity
  8
SPOJOVACÍ
  6
Continuous
370
    20
100
AcDbLine
 10
-663.1880980881324
 20
-7149.276139763839
 30
0.0
 11
-663.5785103097987
 21
-7148.886686785299
 31
0.0
  0
LINE
  5
2EA6
330
1F
100
AcDbEntity
  8
SPOJOVACÍ
  6
Continuous
370
    20
100
AcDbLine
 10
-663.1880980881324
 20
-7149.276139763839
 30
0.0
 11
-663.5785103097987
 21
-7149.501562054367
 31
0.0
  0
LINE
  5
2EA7
330
1F
100
AcDbEntity
  8
SPOJOVACÍ
  6
Continuous
370
    20
100
AcDbLine
 10
-668.2471498307568
 20
-7144.037202719231
 30
0.0
 11
-667.7992789080271
 21
-7144.485073644552
 31
0.0
  0
LINE
  5
2EA8
330
1F
100
AcDbEntity
  8
SPOJOVACÍ
  6
Continuous
370
    20
100
AcDbLine
 10
-668.2471498307568
 20
-7144.037202719231
 30
0.0
 11
-667.7992789080271
 21
-7143.777967085132
 31
0.0
  0
LINE
  5
2EA9
330
1F
100
AcDbEntity
  8
SPOJOVACÍ
  6
Continuous
370
    20
100
AcDbLine
 10
-668.2471498307568
 20
-7147.433192633481
 30
0.0
 11
-667.7992789080271
 21
-7147.17395699938
 31
0.0
  0
LINE
  5
2EAA
330
1F
100
AcDbEntity
  8
SPOJOVACÍ
  6
Continuous
370
    20
100
AcDbLine
 10
-668.2471498307568
 20
-7147.433192633481
 30
0.0
 11
-667.7992789080271
 21
-7147.881063558802
 31
0.0
  0
LINE
  5
2EAB
330
1F
100
AcDbEntity
  8
SPOJOVACÍ
  6
Continuous
370
    20
100
AcDbLine
 10
-666.9838257613737
 20
-7153.038293905876
 30
0.0
 11
-666.5943727850827
 21
-7152.813830859329
 31
0.0
  0
LINE
  5
2EAC
330
1F
100
AcDbEntity
  8
SPOJOVACÍ
  6
Continuous
370
    20
100
AcDbLine
 10
-666.9838257613737
 20
-7153.038293905876
 30
0.0
 11
-666.5943727850827
 21
-7153.428706128106
 31
0.0
  0
LINE
  5
2EAD
330
1F
100
AcDbEntity
  8
SPOJOVACÍ
  6
Continuous
370
    20
100
AcDbLine
 10
-667.4423442925217
 20
-7150.279508767468
 30
0.0
 11
-667.0528913162343
 21
-7150.055045720917
 31
0.0
  0
LINE
  5
2EAE
330
1F
100
AcDbEntity
  8
SPOJOVACÍ
  6
Continuous
370
    20
100
AcDbLine
 10
-667.4423442925217
 20
-7150.279508767468
 30
0.0
 11
-667.0528913162343
 21
-7150.669920989982
 31
0.0
  0
LINE
  5
2EAF
330
1F
100
AcDbEntity
  8
SPOJOVACÍ
  6
Continuous
370
    20
100
AcDbLine
 10
-663.0028681128242
 20
-7145.561180416135
 30
0.0
 11
-667.7992789080271
 21
-7147.17395699938
 31
0.0
  0
LINE
  5
2EB0
330
1F
100
AcDbEntity
  8
SPOJOVACÍ
  6
Continuous
370
    20
100
AcDbLine
 10
-663.0028681128242
 20
-7146.268286975559
 30
0.0
 11
-667.7992789080271
 21
-7147.881063558802
 31
0.0
  0
LINE
  5
2EB1
330
1F
100
AcDbEntity
  8
SPOJOVACÍ
  6
Continuous
370
    20
100
AcDbLine
 10
-662.5549971849177
 20
-7146.010154472024
 30
0.0
 11
-668.2471498307568
 21
-7147.433192633481
 31
0.0
  0
LINE
  5
2EB2
330
1F
100
AcDbEntity
  8
SPOJOVACÍ
  6
Continuous
370
    20
100
AcDbLine
 10
-663.7703590663004
 20
-7152.385048885459
 30
0.0
 11
-666.9838257613737
 21
-7153.038293905876
 31
0.0
  0
LINE
  5
2EB3
330
1F
100
AcDbEntity
  8
SPOJOVACÍ
  6
Continuous
370
    20
100
AcDbLine
 10
-664.1598120470916
 20
-7151.994636662945
 30
0.0
 11
-666.5943727850827
 21
-7152.813830859329
 31
0.0
  0
LINE
  5
2EB4
330
1F
100
AcDbEntity
  8
SPOJOVACÍ
  6
Continuous
370
    20
100
AcDbLine
 10
-664.1598120470916
 20
-7152.609511932009
 30
0.0
 11
-666.5943727850827
 21
-7153.428706128106
 31
0.0
  0
LINE
  5
2EB5
330
1F
100
AcDbEntity
  8
SPOJOVACÍ
  6
Continuous
370
    20
100
AcDbLine
 10
-663.1880980881324
 20
-7149.276139763839
 30
0.0
 11
-667.4423442925217
 21
-7150.279508767468
 31
0.0
  0
LINE
  5
2EB6
330
1F
100
AcDbEntity
  8
SPOJOVACÍ
  6
Continuous
370
    20
100
AcDbLine
 10
-663.5785103097987
 20
-7148.886686785299
 30
0.0
 11
-667.0528913162343
 21
-7150.055045720917
 31
0.0
  0
LINE
  5
2EB7
330
1F
100
AcDbEntity
  8
SPOJOVACÍ
  6
Continuous
370
    20
100
AcDbLine
 10
-663.5785103097987
 20
-7149.501562054367
 30
0.0
 11
-667.0528913162343
 21
-7150.669920989982
 31
0.0
  0
LINE
  5
2EB8
330
1F
100
AcDbEntity
  8
SPOJOVACÍ
  6
Continuous
370
    20
100
AcDbLine
 10
-664.3526200489759
 20
-7155.4929987631
 30
0.0
 11
-664.7420730252633
 21
-7155.103545784564
 31
0.0
  0
LINE
  5
2EB9
330
1F
100
AcDbEntity
  8
SPOJOVACÍ
  6
Continuous
370
    20
100
AcDbLine
 10
-664.3526200489759
 20
-7155.4929987631
 30
0.0
 11
-664.7420730252633
 21
-7155.718421053622
 31
0.0
  0
LINE
  5
2EBA
330
1F
100
AcDbEntity
  8
SPOJOVACÍ
 48
0.25
370
    20
100
AcDbLine
 10
-668.9265399313117
 20
-7154.750481380546
 30
0.0
 11
-665.4010735078372
 21
-7160.39992172127
 31
0.0
  0
LINE
  5
2EBB
330
1F
100
AcDbEntity
  8
SPOJOVACÍ
  6
Continuous
370
    20
100
AcDbLine
 10
-666.5742286636014
 20
-7155.813386188744
 30
0.0
 11
-666.1847756873176
 21
-7155.588923141912
 31
0.0
  0
LINE
  5
2EBC
330
1F
100
AcDbEntity
  8
SPOJOVACÍ
  6
Continuous
370
    20
100
AcDbLine
 10
-666.5742286636014
 20
-7155.813386188744
 30
0.0
 11
-666.1847756873176
 21
-7156.203798410977
 31
0.0
  0
LINE
  5
2EBD
330
1F
100
AcDbEntity
  8
SPOJOVACÍ
 48
0.25
370
    20
100
AcDbLine
 10
-661.8756070843629
 20
-7154.750481380549
 30
0.0
 11
-665.4010735078372
 21
-7160.39992172127
 31
0.0
  0
LINE
  5
2EBE
330
1F
100
AcDbEntity
  8
SPOJOVACÍ
  6
Continuous
370
    20
100
AcDbLine
 10
-664.3526200489759
 20
-7155.4929987631
 30
0.0
 11
-666.5742286636014
 21
-7155.813386188744
 31
0.0
  0
LINE
  5
2EBF
330
1F
100
AcDbEntity
  8
SPOJOVACÍ
  6
Continuous
370
    20
100
AcDbLine
 10
-664.7420730252633
 20
-7155.103545784564
 30
0.0
 11
-666.1847756873176
 21
-7155.588923141912
 31
0.0
  0
LINE
  5
2EC0
330
1F
100
AcDbEntity
  8
SPOJOVACÍ
  6
Continuous
370
    20
100
AcDbLine
 10
-664.7420730252633
 20
-7155.718421053622
 30
0.0
 11
-666.1847756873176
 21
-7156.203798410977
 31
0.0
  0
LINE
  5
2EC1
330
1F
100
AcDbEntity
  8
SPOJOVACÍ
  6
DASHED
100
AcDbLine
 10
-665.4010735078372
 20
-7160.094911250635
 30
0.0
 11
-667.1120110078373
 21
-7147.389651126942
 31
0.0
  0
LINE
  5
2EC2
330
1F
100
AcDbEntity
  8
SPOJOVACÍ
  6
DASHED
100
AcDbLine
 10
-665.4010735078372
 20
-7160.094911250635
 30
0.0
 11
-663.6901360078373
 21
-7147.389651126942
 31
0.0
  0
LINE
  5
2EC3
330
1F
100
AcDbEntity
  8
SPOJOVACÍ
  6
Continuous
370
    20
100
AcDbLine
 10
-662.5549971849177
 20
-7142.614164557774
 30
0.0
 11
-668.2471498307568
 21
-7144.037202719231
 31
0.0
  0
LINE
  5
2EC4
330
1F
100
AcDbEntity
  8
SPOJOVACÍ
  6
Continuous
370
    20
100
AcDbLine
 10
-663.0028681128242
 20
-7142.872297061309
 30
0.0
 11
-667.7992789080271
 21
-7144.485073644552
 31
0.0
  0
LINE
  5
2EC5
330
1F
100
AcDbEntity
  8
SPOJOVACÍ
  6
Continuous
370
    20
100
AcDbLine
 10
-663.0028681128242
 20
-7142.165190501884
 30
0.0
 11
-667.7992789080271
 21
-7143.777967085132
 31
0.0
  0
TEXT
  5
2EC6
330
1F
100
AcDbEntity
  8
POPIS
100
AcDbText
 10
-599.4919138549266
 20
-7192.256815826286
 30
0.0
 40
25.0
  1
05
 41
0.8
  7
SIMPLEX7
100
AcDbText
  0
TEXT
  5
2EC7
330
1F
100
AcDbEntity
  8
POPIS
100
AcDbText
 10
-551.4339845527029
 20
-7192.256815826286
 30
0.0
 40
25.0
  1
06
 41
0.8
  7
SIMPLEX7
100
AcDbText
  0
TEXT
  5
2EC8
330
1F
100
AcDbEntity
  8
POPIS
100
AcDbText
 10
-508.2820319847487
 20
-7192.256815826286
 30
0.0
 40
25.0
  1
07
 41
0.8
  7
SIMPLEX7
100
AcDbText
  0
TEXT
  5
2EC9
330
1F
100
AcDbEntity
  8
POPIS
100
AcDbText
 10
-370.2976850942077
 20
-7192.256815826286
 30
0.0
 40
25.0
  1
11
 41
0.8
  7
SIMPLEX7
100
AcDbText
  0
TEXT
  5
2ECA
330
1F
100
AcDbEntity
  8
POPIS
100
AcDbText
 10
-415.9206491303002
 20
-7192.256815826286
 30
0.0
 40
25.0
  1
10
 41
0.8
  7
SIMPLEX7
100
AcDbText
  0
TEXT
  5
2ECB
330
1F
100
AcDbEntity
  8
POPIS
100
AcDbText
 10
-327.2176317140765
 20
-7192.256815826286
 30
0.0
 40
25.0
  1
12
 41
0.8
  7
SIMPLEX7
100
AcDbText
  0
LINE
  5
2ECC
330
1F
100
AcDbEntity
  8
POPIS
370
    20
100
AcDbLine
 10
-305.7398609309193
 20
-7143.456789626606
 30
0.0
 11
-305.7398609309193
 21
-7165.578169516539
 31
0.0
  0
INSERT
  5
2ECD
330
1F
100
AcDbEntity
  8
POPIS
100
AcDbBlockReference
  2
E_PUNKT
 10
-305.7689292617933
 20
-7143.429179250979
 30
0.0
 50
270.0
  0
LINE
  5
2ECE
330
1F
100
AcDbEntity
  8
SPOJOVACÍ
  6
DASHED
100
AcDbLine
 10
-457.4728975065808
 20
-6993.090873126956
 30
0.0
 11
-456.3844802042295
 21
-6994.13826967658
 31
0.0
  0
LINE
  5
2ECF
330
1F
100
AcDbEntity
  8
SPOJOVACÍ
  6
DASHED
100
AcDbLine
 10
-458.7955888884607
 20
-6991.185687062014
 30
0.0
 11
-448.7992872667383
 21
-6991.185687062014
 31
0.0
  0
LINE
  5
2ED0
330
1F
100
AcDbEntity
  8
SPOJOVACÍ
  6
DASHED
100
AcDbLine
 10
-458.7955888884607
 20
-6992.361615303211
 30
0.0
 11
-448.7992872667383
 21
-6992.361615303211
 31
0.0
  0
HATCH
  5
2ED1
330
1F
100
AcDbEntity
  8
nášlap_vrstvy
370
    20
100
AcDbHatch
 10
0.0
 20
0.0
 30
0.0
210
0.0
220
0.0
230
1.0
  2
AR-SAND
 70
     0
 71
     0
 91
        6
 92
        7
 72
     0
 73
     1
 93
        4
 10
-416.7134458384387
 20
-6989.137214370555
 10
-607.1721522736586
 20
-6989.137214370555
 10
-609.5864035775591
 20
-6991.185687062014
 10
-416.713445838435
 20
-6991.185687062014
 97
        0
 92
        7
 72
     0
 73
     1
 93
        4
 10
-521.5583513232738
 20
-6984.137214370555
 10
-525.2718899203098
 20
-6984.137214370555
 10
-525.2718899203098
 20
-6989.137214370555
 10
-521.5583513232702
 20
-6989.137214370555
 97
        0
 92
        7
 72
     0
 73
     1
 93
        4
 10
-417.5803871618807
 20
-6984.137214370555
 10
-421.5583513232702
 20
-6984.137214370555
 10
-421.5583513232702
 20
-6989.137214370555
 10
-417.5803871618771
 20
-6989.137214370555
 97
        0
 92
        7
 72
     0
 73
     1
 93
        4
 10
-625.2115368158154
 20
-6949.862863034995
 10
-628.1411257302786
 20
-6949.862863034995
 10
-628.141125730275
 20
-6978.747652722484
 10
-625.2115368158227
 20
-6975.829728839684
 97
        0
 92
        7
 72
     0
 73
     1
 93
       10
 10
-625.2115368158263
 20
-6975.829728839683
 10
-628.141125730275
 20
-6978.747652722486
 10
-628.141125730275
 20
-6991.185687062014
 10
-627.3240082826593
 20
-6991.185687062014
 10
-612.3240082826594
 20
-6991.185687062014
 10
-609.5864035775591
 20
-6991.185687062014
 10
-607.1721522736623
 20
-6989.137214370555
 10
-625.2718899203098
 20
-6989.137214370555
 10
-625.2718899203134
 20
-6984.137214370736
 10
-625.211536815819
 20
-6981.860487286434
 97
        0
 92
       23
 72
     0
 73
     1
 93
        4
 10
-620.1664122906548
 20
-6981.860487286354
 10
-625.2115368158227
 20
-6981.860487286354
 10
-625.2718899203098
 20
-6984.137214370555
 10
-620.1664122906584
 20
-6984.137214370555
 97
        0
 75
     0
 76
     1
 52
90.0
 41
0.05
 77
     0
 78
     4
 53
127.5
 43
-25777.87297887076
 44
-9196.573348291389
 45
-2.447066186646711
 46
-0.0800015647992021
 79
     6
 49
0.0
 49
-1.9304
 49
0.0
 49
-2.159
 49
0.0
 49
-2.06375
 53
97.49999999999985
 43
-25777.87297887076
 44
-9196.573348291389
 45
-3.584125502841771
 46
2.247616415690013
 79
     6
 49
0.0
 49
-1.041399999999999
 49
0.0
 49
-1.7399
 49
0.0
 49
-0.66675
 53
57.5
 43
-25777.87297887076
 44
-9198.135448291388
 45
-0.0071859233927282
 46
3.95496185120729
 79
     6
 49
0.0
 49
-0.635
 49
0.0
 49
-2.286
 49
0.0
 49
-2.9845
 53
47.5
 43
-25777.87297887076
 44
-9198.135448291388
 45
-1.11464661628608
 46
3.817782262361486
 79
     6
 49
0.0
 49
-0.3175
 49
0.0
 49
-1.498599999999999
 49
0.0
 49
-1.7145
 47
0.2237823716160949
 98
        6
 10
-460.7154377648583
 20
-6990.05368222834
 10
-523.4403862354408
 20
-6986.22283359008
 10
-419.9442193669526
 20
-6987.267617625143
 10
-626.3154576240301
 20
-6973.661558804419
 10
-626.0915552293843
 20
-6981.717729314945
 10
-623.8523420802664
 20
-6982.836634723826
  0
LWPOLYLINE
  5
2ED2
330
1F
100
AcDbEntity
  8
nášlap_vrstvy
100
AcDbPolyline
 90
        4
 70
     1
 43
0.0
 10
-521.5583513232702
 20
-6989.137214370555
 10
-421.5583513232702
 20
-6989.137214370555
 10
-421.5583513232702
 20
-6984.137214370555
 10
-521.5583513232702
 20
-6984.137214370555
  0
LINE
  5
2ED3
330
1F
100
AcDbEntity
  8
nášlap_vrstvy
100
AcDbLine
 10
-297.2551970844833
 20
-6989.137214370555
 30
0.0
 11
-625.2718899203101
 21
-6989.137214370555
 31
0.0
  0
LINE
  5
2ED4
330
1F
100
AcDbEntity
  8
CETRIS
100
AcDbLine
 10
-613.1411257302788
 20
-6991.185687062014
 30
0.0
 11
-297.2551970844833
 21
-6991.185687062014
 31
0.0
  0
LINE
  5
2ED6
330
1F
100
AcDbEntity
  8
CETRIS
100
AcDbLine
 10
-612.3240082826596
 20
-7003.185687062014
 30
0.0
 11
-297.2551970844833
 21
-7003.185687062014
 31
0.0
  0
LINE
  5
2ED7
330
1F
100
AcDbEntity
  8
izolace
  6
IZOLACE
 48
2.7
370
    20
100
AcDbLine
 10
-533.1201762391901
 20
-7043.205585344914
 30
0.0
 11
-297.2551970844833
 21
-7043.205585344913
 31
0.0
  0
HATCH
  5
2ED8
330
1F
100
AcDbEntity
  8
CETRIS
370
    20
100
AcDbHatch
 10
0.0
 20
0.0
 30
0.0
210
0.0
220
0.0
230
1.0
  2
ANSI31
 70
     0
 71
     0
 91
        5
 92
        7
 72
     0
 73
     1
 93
       23
 10
-297.2551970844826
 20
-7003.185687062014
 10
-451.68538761176
 20
-7003.185687062014
 10
-451.8156799392593
 20
-7003.315979390267
 10
-452.2031703928385
 20
-7003.185687062014
 10
-452.4747466957194
 20
-7003.185687062014
 10
-452.4747466957189
 20
-7005.56761764173
 10
-451.8156799392602
 20
-7005.78907498567
 10
-451.4455815957332
 20
-7006.003294471454
 10
-451.8156799392602
 20
-7006.373392816851
 10
-452.4747466957194
 20
-7006.151935472956
 10
-452.4747466957194
 20
-7008.625791061277
 10
-451.8156799392616
 20
-7008.847399984446
 10
-451.4455815957332
 20
-7009.060707898036
 10
-451.8156799392597
 20
-7009.43171781589
 10
-452.4747466957194
 20
-7009.210108892723
 10
-452.4747466957194
 20
-7011.683204488088
 10
-451.8156799392588
 20
-7011.904813411302
 10
-451.4455815957332
 20
-7012.118121324627
 10
-451.8156799392593
 20
-7012.489131242481
 10
-452.4747466957189
 20
-7012.267522319311
 10
-452.4747466957189
 20
-7014.919155048673
 10
-451.4086186423504
 20
-7015.185687062015
 10
-297.2551970844831
 20
-7015.185687062014
 97
        0
 92
        7
 72
     1
 73
     1
 93
       29
 10
-455.1201294552008
 20
-7008.320608066059
 42
0.0
 10
-455.7791962116604
 20
-7008.098999142891
 42
0.0
 10
-456.1492945594652
 20
-7007.884779657105
 42
0.0
 10
-455.7791962116604
 20
-7007.514681311438
 42
0.0
 10
-455.1201294552008
 20
-7007.73629023461
 42
0.0
 10
-455.1201294552003
 20
-7005.26304305993
 42
0.0
 10
-455.7791962116596
 20
-7005.041585716039
 42
0.0
 10
-456.1492945594652
 20
-7004.827366230251
 42
0.0
 10
-455.7791962116604
 20
-7004.457267884586
 42
0.0
 10
-455.1201294552008
 20
-7004.678725228522
 42
0.0
 10
-455.1201294552008
 20
-7003.185687062014
 42
0.0
 10
-543.3701126436826
 20
-7003.185687062014
 42
0.0
 10
-543.3701126436826
 20
-7015.185687062016
 42
0.0
 10
-498.3089952911216
 20
-7015.185687062016
 42
0.0
 10
-498.3089952911211
 20
-7009.888866235008
 42
-1.0
 10
-498.3089952911225
 20
-7007.388866235007
 42
-1.0
 10
-498.3089952911211
 20
-7009.888866235008
 42
0.0
 10
-498.3089952911211
 20
-7015.185687062016
 42
0.0
 10
-455.1201294552008
 20
-7015.185687062016
 42
0.0
 10
-455.1201294552008
 20
-7014.435434919277
 42
0.0
 10
-455.7791962116623
 20
-7014.213825996063
 42
0.0
 10
-456.1492945594652
 20
-7014.000518082736
 42
0.0
 10
-455.7791962116604
 20
-7013.629508164612
 42
0.0
 10
-455.1201294552008
 20
-7013.851117087826
 42
0.0
 10
-455.1201294552008
 20
-7011.378021492643
 42
0.0
 10
-455.7791962116632
 20
-7011.156412569474
 42
0.0
 10
-456.1492945594652
 20
-7010.942193083694
 42
0.0
 10
-455.7791962116604
 20
-7010.572094738029
 42
0.0
 10
-455.1201294552008
 20
-7010.793703661242
 42
0.0
 97
        0
 92
        7
 72
     0
 73
     1
 93
       24
 10
-555.1201294552008
 20
-7005.26304305993
 10
-555.7791962116603
 20
-7005.041585716037
 10
-556.1492945594652
 20
-7004.827366230251
 10
-555.7791962116604
 20
-7004.457267884586
 10
-555.1201294552008
 20
-7004.678725228524
 10
-555.1201294552008
 20
-7003.185687062014
 10
-613.1411257302791
 20
-7003.185687062014
 10
-613.1411257302791
 20
-7015.185687062016
 10
-555.1201294552011
 20
-7015.185687062016
 10
-555.1201294552006
 20
-7014.435434919277
 10
-555.779196211662
 20
-7014.213825996063
 10
-556.149294559465
 20
-7014.000518082737
 10
-555.7791962116604
 20
-7013.629508164612
 10
-555.1201294552008
 20
-7013.851117087826
 10
-555.1201294552011
 20
-7011.378021492643
 10
-555.7791962116596
 20
-7011.156412569473
 10
-556.149294559465
 20
-7010.942193083694
 10
-555.7791962116609
 20
-7010.572094738029
 10
-555.1201294552011
 20
-7010.793703661242
 10
-555.1201294552011
 20
-7008.320608066059
 10
-555.7791962116596
 20
-7008.098999142889
 10
-556.1492945594652
 20
-7007.884779657103
 10
-555.7791962116609
 20
-7007.51468131144
 10
-555.1201294552006
 20
-7007.73629023461
 97
        0
 92
        7
 72
     0
 73
     1
 93
       23
 10
-718.3733800150255
 20
-7003.185687062014
 10
-748.8922724230572
 20
-7003.185687062014
 10
-749.0225647505574
 20
-7003.315979390267
 10
-749.4100552041365
 20
-7003.185687062014
 10
-749.681631507017
 20
-7003.185687062014
 10
-749.6816315070168
 20
-7005.56761764173
 10
-749.0225647505581
 20
-7005.78907498567
 10
-748.6524664070311
 20
-7006.003294471456
 10
-749.0225647505574
 20
-7006.373392816851
 10
-749.6816315070168
 20
-7006.151935472956
 10
-749.6816315070173
 20
-7008.625791061277
 10
-749.0225647505572
 20
-7008.847399984448
 10
-748.6524664070307
 20
-7009.060707898036
 10
-749.0225647505574
 20
-7009.43171781589
 10
-749.681631507017
 20
-7009.210108892723
 10
-749.681631507017
 20
-7011.683204488088
 10
-749.0225647505569
 20
-7011.904813411302
 10
-748.6524664070307
 20
-7012.118121324627
 10
-749.0225647505576
 20
-7012.489131242482
 10
-749.6816315070168
 20
-7012.267522319311
 10
-749.6816315070175
 20
-7014.919155048672
 10
-748.6155034536466
 20
-7015.185687062015
 10
-718.3733800150255
 20
-7015.185687062015
 97
        0
 92
        7
 72
     0
 73
     1
 93
       24
 10
-752.3270142664984
 20
-7008.320608066059
 10
-752.9860810229576
 20
-7008.098999142891
 10
-753.3561793707626
 20
-7007.884779657103
 10
-752.9860810229581
 20
-7007.514681311438
 10
-752.3270142664983
 20
-7007.736290234608
 10
-752.3270142664987
 20
-7005.26304305993
 10
-752.98608102296
 20
-7005.041585716037
 10
-753.3561793707629
 20
-7004.827366230251
 10
-752.9860810229581
 20
-7004.457267884586
 10
-752.3270142664984
 20
-7004.678725228522
 10
-752.3270142664983
 20
-7003.185687062014
 10
-815.9862335987636
 20
-7003.185687062014
 10
-815.9862335987632
 20
-7015.185687062015
 10
-752.3270142664987
 20
-7015.185687062015
 10
-752.327014266498
 20
-7014.435434919277
 10
-752.9860810229579
 20
-7014.213825996065
 10
-753.3561793707631
 20
-7014.000518082737
 10
-752.9860810229584
 20
-7013.629508164611
 10
-752.3270142664984
 20
-7013.851117087824
 10
-752.3270142664984
 20
-7011.378021492643
 10
-752.9860810229584
 20
-7011.156412569473
 10
-753.3561793707626
 20
-7010.942193083694
 10
-752.9860810229585
 20
-7010.572094738029
 10
-752.3270142664984
 20
-7010.793703661242
 97
        0
 75
     0
 76
     1
 52
0.0
 41
1.0
 77
     0
 78
     1
 53
45.0
 43
-2558.467792771493
 44
-9030.603086962463
 45
-2.245064030267287
 46
2.245064030267288
 79
     0
 47
0.5687377918710887
 98
        5
 10
-409.4724466587738
 20
-7008.597163496874
 10
-462.9630044695566
 20
-7009.165901006079
 10
-566.5297746725789
 20
-7007.459688478469
 10
-735.5371337874546
 20
-7009.734638515282
 10
-769.6800543813894
 20
-7009.734638515282
  0
HATCH
  5
2ED9
330
1F
100
AcDbEntity
  8
CETRIS
370
    20
100
AcDbHatch
 10
0.0
 20
0.0
 30
0.0
210
0.0
220
0.0
230
1.0
  2
ANSI31
 70
     0
 71
     0
 91
        6
 92
        7
 72
     0
 73
     1
 93
       15
 10
-753.5913650155261
 20
-6994.13826967658
 10
-754.6797823178779
 20
-6993.090873126956
 10
-756.0024736997584
 20
-6992.361615303211
 10
-756.0024736997582
 20
-6991.185687062014
 10
-815.9862335987634
 20
-6991.185687062014
 10
-815.9862335987632
 20
-7003.185687062014
 10
-752.3270142664987
 20
-7003.185687062014
 10
-752.3270142664983
 20
-7002.204869640209
 10
-752.9860810229568
 20
-7001.983260716996
 10
-753.3561793707633
 20
-7001.769952803669
 10
-752.9860810229581
 20
-7001.398942885815
 10
-752.3270142664984
 20
-7001.620551808985
 10
-752.3270142664983
 20
-6997.653292387685
 10
-752.3917358987818
 20
-6996.88210223902
 10
-752.811059145795
 20
-6995.430879169312
 97
        0
 92
        7
 72
     0
 73
     1
 93
       13
 10
-718.3733800150252
 20
-6991.185687062015
 10
-746.0061720780356
 20
-6991.185687062015
 10
-746.0061720780356
 20
-6992.361615303211
 10
-746.7071711604805
 20
-6992.691604468337
 10
-747.9195622932008
 20
-6993.591326308569
 10
-748.8584817417861
 20
-6994.774547127811
 10
-749.4592078739515
 20
-6996.160136993321
 10
-749.681631507017
 20
-6997.653292387681
 10
-749.6816315070168
 20
-7002.510052635646
 10
-749.0225647505565
 20
-7002.731661558815
 10
-748.6524664070307
 20
-7002.945881044602
 10
-748.8922724230579
 20
-7003.185687062014
 10
-718.3733800150257
 20
-7003.185687062014
 97
        0
 92
        7
 72
     0
 73
     1
 93
       16
 10
-555.7791962116604
 20
-7001.398942885815
 10
-555.1201294552008
 20
-7001.620551808983
 10
-555.1201294552008
 20
-6997.65329238768
 10
-555.184851087484
 20
-6996.88210223902
 10
-555.6041743344976
 20
-6995.430879169312
 10
-556.3844802042289
 20
-6994.13826967658
 10
-557.4728975065804
 20
-6993.090873126958
 10
-558.7955888884607
 20
-6992.361615303211
 10
-558.7955888884607
 20
-6991.185687062015
 10
-613.1411257302787
 20
-6991.185687062014
 10
-613.1411257302784
 20
-7003.185687062014
 10
-612.324008282663
 20
-7003.185687062014
 10
-555.1201294552008
 20
-7003.185687062014
 10
-555.1201294552008
 20
-7002.204869640209
 10
-555.7791962116609
 20
-7001.983260716997
 10
-556.1492945594652
 20
-7001.769952803669
 97
        0
 92
        7
 72
     1
 73
     1
 93
       18
 10
-504.7712806105817
 20
-6991.185687062014
 42
0.0
 10
-548.7992872667383
 20
-6991.185687062014
 42
0.0
 10
-548.7992872667383
 20
-6992.361615303211
 42
0.0
 10
-549.5002863491826
 20
-6992.691604468338
 42
0.0
 10
-550.712677481903
 20
-6993.591326308569
 42
0.0
 10
-551.6515969304887
 20
-6994.774547127811
 42
0.0
 10
-552.2523230626534
 20
-6996.160136993319
 42
0.0
 10
-552.4747466957194
 20
-6997.65329238768
 42
0.0
 10
-552.4747466957196
 20
-7002.510052635646
 42
0.0
 10
-551.8156799392586
 20
-7002.731661558818
 42
0.0
 10
-551.445581595733
 20
-7002.945881044602
 42
0.0
 10
-551.6853876117598
 20
-7003.185687062014
 42
0.0
 10
-543.3701126436824
 20
-7003.185687062014
 42
0.0
 10
-543.3701126436824
 20
-6998.814323792925
 42
-1.0
 10
-543.3701126436838
 20
-6996.314323792926
 42
-1.0
 10
-543.3701126436824
 20
-6998.814323792925
 42
0.0
 10
-543.3701126436822
 20
-7003.185687062014
 42
0.0
 10
-504.7712806105821
 20
-7003.185687062014
 42
0.0
 97
        0
 92
        7
 72
     0
 73
     1
 93
       15
 10
-455.1201294552008
 20
-6997.653292387685
 10
-455.184851087484
 20
-6996.882102239019
 10
-455.6041743344974
 20
-6995.430879169311
 10
-456.3844802042288
 20
-6994.138269676581
 10
-457.4728975065807
 20
-6993.090873126958
 10
-458.7955888884605
 20
-6992.361615303211
 10
-458.79558888846
 20
-6991.185687062015
 10
-504.7712806105817
 20
-6991.185687062015
 10
-504.7712806105821
 20
-7003.185687062014
 10
-455.1201294552008
 20
-7003.185687062014
 10
-455.1201294552003
 20
-7002.204869640209
 10
-455.7791962116604
 20
-7001.983260716996
 10
-456.1492945594652
 20
-7001.769952803669
 10
-455.77919621166
 20
-7001.398942885815
 10
-455.1201294552008
 20
-7001.620551808983
 97
        0
 92
        7
 72
     0
 73
     1
 93
       13
 10
-297.2551970844836
 20
-6991.185687062014
 10
-448.799287266738
 20
-6991.185687062014
 10
-448.799287266738
 20
-6992.361615303211
 10
-449.500286349182
 20
-6992.691604468337
 10
-450.7126774819036
 20
-6993.591326308569
 10
-451.6515969304889
 20
-6994.774547127811
 10
-452.2523230626537
 20
-6996.160136993319
 10
-452.4747466957194
 20
-6997.65329238768
 10
-452.4747466957194
 20
-7002.510052635646
 10
-451.8156799392611
 20
-7002.731661558815
 10
-451.4455815957338
 20
-7002.945881044602
 10
-451.68538761176
 20
-7003.185687062014
 10
-297.2551970844831
 20
-7003.185687062014
 97
        0
 75
     0
 76
     1
 52
90.0
 41
1.0
 77
     0
 78
     1
 53
135.0
 43
-2558.467792771493
 44
-9030.603086962463
 45
-2.245064030267288
 46
-2.245064030267287
 79
     0
 47
0.7898775701156462
 98
        6
 10
-775.5825014851959
 20
-6995.364898008199
 10
-730.5348911507515
 20
-6997.734538696066
 10
-566.9409602979373
 20
-7001.683910528791
 10
-517.9417846025514
 20
-6998.524404268493
 10
-475.2651348283304
 20
-6999.314291826213
 10
-434.1690542820558
 20
-6997.734538696066
  0
LINE
  5
2EDA
330
1F
100
AcDbEntity
  8
izolace
100
AcDbLine
 10
-815.9862335987636
 20
-7125.185687062014
 30
0.0
 11
-297.2551970844833
 21
-7125.185687062014
 31
0.0
  0
LINE
  5
2EDB
330
1F
100
AcDbEntity
  8
izolace
100
AcDbLine
 10
-815.98623359876
 20
-7128.185687062014
 30
0.0
 11
-297.2551970844833
 21
-7128.185687062014
 31
0.0
  0
LWPOLYLINE
  5
2EDC
330
1F
100
AcDbEntity
  8
izolace
100
AcDbPolyline
 90
        4
 70
     0
 43
0.0
 10
-397.4098816624461
 20
-7128.185687062014
 10
-815.9862335987634
 20
-7128.185687062014
 10
-815.9862335987634
 20
-7125.185687062014
 10
-397.4098816624461
 20
-7125.185687062014
  0
LINE
  5
2EDD
330
1F
100
AcDbEntity
  8
SPOJOVACÍ
  6
Continuous
100
AcDbLine
 10
-628.1411257302798
 20
-6839.355892880004
 30
0.0
 11
-628.1411257302798
 21
-6829.155585102737
 31
0.0
  0
LINE
  5
2EDE
330
1F
100
AcDbEntity
  8
SPOJOVACÍ
  6
Continuous
100
AcDbLine
 10
-629.3410525070112
 20
-6839.355892880004
 30
0.0
 11
-629.3410525070112
 21
-6829.155585102737
 31
0.0
  0
LINE
  5
2EDF
330
1F
100
AcDbEntity
  8
STAVBA OBRYS
100
AcDbLine
 10
-628.1411257302789
 20
-7115.185687062013
 30
0.0
 11
-628.1411257302815
 21
-6773.170371393343
 31
0.0
  0
LINE
  5
2EE0
330
1F
100
AcDbEntity
  8
SPOJOVACÍ
  6
Continuous
100
AcDbLine
 10
-660.8377351280478
 20
-6833.11813399184
 30
0.0
 11
-661.2163166768778
 21
-6833.495785362785
 31
0.0
  0
LINE
  5
2EE1
330
1F
100
AcDbEntity
  8
SPOJOVACÍ
  6
Continuous
100
AcDbLine
 10
-660.8377351280478
 20
-6833.11813399184
 30
0.0
 11
-660.6200739917303
 21
-6833.495785362785
 31
0.0
  0
LINE
  5
2EE2
330
1F
100
AcDbEntity
  8
SPOJOVACÍ
  6
Continuous
100
AcDbLine
 10
-670.6767706172622
 20
-6833.11813399184
 30
0.0
 11
-670.8944317535797
 21
-6833.495785362785
 31
0.0
  0
LINE
  5
2EE3
330
1F
100
AcDbEntity
  8
SPOJOVACÍ
  6
Continuous
100
AcDbLine
 10
-670.6767706172622
 20
-6833.11813399184
 30
0.0
 11
-670.2981890684323
 21
-6833.495785362785
 31
0.0
  0
LINE
  5
2EE4
330
1F
100
AcDbEntity
  8
SPOJOVACÍ
  6
Continuous
100
AcDbLine
 10
-638.9413968952331
 20
-6836.655592544295
 30
0.0
 11
-640.1413236716953
 21
-6831.855885438447
 31
0.0
  0
LINE
  5
2EE5
330
1F
100
AcDbEntity
  8
SPOJOVACÍ
  6
Continuous
100
AcDbLine
 10
-639.1590580312813
 20
-6836.277941168984
 30
0.0
 11
-640.5189750448235
 21
-6832.233536809392
 31
0.0
  0
LINE
  5
2EE6
330
1F
100
AcDbEntity
  8
SPOJOVACÍ
  6
Continuous
100
AcDbLine
 10
-638.5628153464031
 20
-6836.277941168984
 30
0.0
 11
-639.9227323596687
 21
-6832.233536809392
 31
0.0
  0
LINE
  5
2EE7
330
1F
100
AcDbEntity
  8
SPOJOVACÍ
  6
Continuous
100
AcDbLine
 10
-642.0612065141949
 20
-6836.655592544295
 30
0.0
 11
-643.2611332909337
 21
-6831.855885438447
 31
0.0
  0
LINE
  5
2EE8
330
1F
100
AcDbEntity
  8
SPOJOVACÍ
  6
Continuous
100
AcDbLine
 10
-642.2797978262215
 20
-6836.277941168984
 30
0.0
 11
-643.6387846637853
 21
-6832.233536809392
 31
0.0
  0
LINE
  5
2EE9
330
1F
100
AcDbEntity
  8
SPOJOVACÍ
  6
Continuous
100
AcDbLine
 10
-641.6835551410668
 20
-6836.277941168984
 30
0.0
 11
-643.0425419789071
 21
-6832.233536809392
 31
0.0
  0
LINE
  5
2EEA
330
1F
100
AcDbEntity
  8
SPOJOVACÍ
  6
Continuous
100
AcDbLine
 10
-654.7171783916828
 20
-6836.02307300159
 30
0.0
 11
-655.8501325110674
 21
-6832.653976268076
 31
0.0
  0
LINE
  5
2EEB
330
1F
100
AcDbEntity
  8
SPOJOVACÍ
  6
Continuous
100
AcDbLine
 10
-654.1209357065281
 20
-6836.02307300159
 30
0.0
 11
-655.2538898259126
 21
-6832.653976268076
 31
0.0
  0
LINE
  5
2EEC
330
1F
100
AcDbEntity
  8
SPOJOVACÍ
  6
Continuous
100
AcDbLine
 10
-654.4985870796563
 20
-6836.401654549874
 30
0.0
 11
-655.4715509619609
 21
-6832.276324897131
 31
0.0
  0
LINE
  5
2EED
330
1F
100
AcDbEntity
  8
SPOJOVACÍ
  6
Continuous
100
AcDbLine
 10
-657.7309479700025
 20
-6835.459386468457
 30
0.0
 11
-658.5253180995541
 21
-6833.098600298282
 31
0.0
  0
LINE
  5
2EEE
330
1F
100
AcDbEntity
  8
SPOJOVACÍ
  6
Continuous
100
AcDbLine
 10
-657.1347052848477
 20
-6835.459386468457
 30
0.0
 11
-657.9290754146759
 21
-6833.098600298282
 31
0.0
  0
LINE
  5
2EEF
330
1F
100
AcDbEntity
  8
SPOJOVACÍ
  6
Continuous
100
AcDbLine
 10
-657.5132868339542
 20
-6835.837037843768
 30
0.0
 11
-658.1467365507242
 21
-6832.720948927337
 31
0.0
  0
LINE
  5
2EF0
330
1F
100
AcDbEntity
  8
SPOJOVACÍ
  6
Continuous
100
AcDbLine
 10
-660.5270564122738
 20
-6835.272421133296
 30
0.0
 11
-660.8377351280478
 21
-6833.11813399184
 31
0.0
  0
LINE
  5
2EF1
330
1F
100
AcDbEntity
  8
SPOJOVACÍ
  6
Continuous
100
AcDbLine
 10
-645.1810161334333
 20
-6836.655592544295
 30
0.0
 11
-646.3809429098955
 21
-6831.855885438447
 31
0.0
  0
LINE
  5
2EF2
330
1F
100
AcDbEntity
  8
SPOJOVACÍ
  6
Continuous
100
AcDbLine
 10
-645.3996074454598
 20
-6836.277941168984
 30
0.0
 11
-646.7595244587255
 21
-6832.233536809392
 31
0.0
  0
LINE
  5
2EF3
330
1F
100
AcDbEntity
  8
SPOJOVACÍ
  6
Continuous
100
AcDbLine
 10
-644.8033647603051
 20
-6836.277941168984
 30
0.0
 11
-646.1632817735781
 21
-6832.233536809392
 31
0.0
  0
LINE
  5
2EF4
330
1F
100
AcDbEntity
  8
SPOJOVACÍ
  6
Continuous
100
AcDbLine
 10
-648.3008257524025
 20
-6836.655592544295
 30
0.0
 11
-649.5007525288647
 21
-6831.855885438447
 31
0.0
  0
LINE
  5
2EF5
330
1F
100
AcDbEntity
  8
SPOJOVACÍ
  6
Continuous
100
AcDbLine
 10
-648.5194170644217
 20
-6836.277941168984
 30
0.0
 11
-649.8793340776947
 21
-6832.233536809392
 31
0.0
  0
LINE
  5
2EF6
330
1F
100
AcDbEntity
  8
SPOJOVACÍ
  6
Continuous
100
AcDbLine
 10
-647.9231743792743
 20
-6836.277941168984
 30
0.0
 11
-649.2830913928164
 21
-6832.233536809392
 31
0.0
  0
LINE
  5
2EF7
330
1F
100
AcDbEntity
  8
SPOJOVACÍ
  6
Continuous
100
AcDbLine
 10
-651.4215655473426
 20
-6836.655592544295
 30
0.0
 11
-652.6214923238049
 21
-6831.855885438447
 31
0.0
  0
LINE
  5
2EF8
330
1F
100
AcDbEntity
  8
SPOJOVACÍ
  6
Continuous
100
AcDbLine
 10
-651.6392266833909
 20
-6836.277941168984
 30
0.0
 11
-652.999143696933
 21
-6832.233536809392
 31
0.0
  0
LINE
  5
2EF9
330
1F
100
AcDbEntity
  8
SPOJOVACÍ
  6
Continuous
100
AcDbLine
 10
-651.0429839982362
 20
-6836.277941168984
 30
0.0
 11
-652.4029010117783
 21
-6832.233536809392
 31
0.0
  0
LINE
  5
2EFA
330
1F
100
AcDbEntity
  8
SPOJOVACÍ
  6
Continuous
100
AcDbLine
 10
-680.4715217470739
 20
-6836.277941168984
 30
0.0
 11
-679.1116047335317
 21
-6832.233536809392
 31
0.0
  0
LINE
  5
2EFB
330
1F
100
AcDbEntity
  8
SPOJOVACÍ
  6
Continuous
100
AcDbLine
 10
-679.8752790619191
 20
-6836.277941168984
 30
0.0
 11
-678.515362048377
 21
-6832.233536809392
 31
0.0
  0
LINE
  5
2EFC
330
1F
100
AcDbEntity
  8
SPOJOVACÍ
  6
Continuous
100
AcDbLine
 10
-680.0929401979674
 20
-6836.655592544295
 30
0.0
 11
-678.8930134215052
 21
-6831.855885438447
 31
0.0
  0
LINE
  5
2EFD
330
1F
100
AcDbEntity
  8
SPOJOVACÍ
  6
Continuous
100
AcDbLine
 10
-683.5913313660357
 20
-6836.277941168984
 30
0.0
 11
-682.2314143524936
 21
-6832.233536809392
 31
0.0
  0
LINE
  5
2EFE
330
1F
100
AcDbEntity
  8
SPOJOVACÍ
  6
Continuous
100
AcDbLine
 10
-682.9950886808883
 20
-6836.277941168984
 30
0.0
 11
-681.6351716676154
 21
-6832.233536809392
 31
0.0
  0
LINE
  5
2EFF
330
1F
100
AcDbEntity
  8
SPOJOVACÍ
  6
Continuous
100
AcDbLine
 10
-683.2136799929076
 20
-6836.655592544295
 30
0.0
 11
-682.0137532164453
 21
-6831.855885438447
 31
0.0
  0
LINE
  5
2F00
330
1F
100
AcDbEntity
  8
SPOJOVACÍ
  6
Continuous
100
AcDbLine
 10
-670.9874493330362
 20
-6835.272421133296
 30
0.0
 11
-670.6767706172622
 21
-6833.11813399184
 31
0.0
  0
LINE
  5
2F01
330
1F
100
AcDbEntity
  8
SPOJOVACÍ
  6
Continuous
100
AcDbLine
 10
-674.0012189113558
 20
-6835.837037843768
 30
0.0
 11
-673.3677691945858
 21
-6832.720948927337
 31
0.0
  0
LINE
  5
2F02
330
1F
100
AcDbEntity
  8
SPOJOVACÍ
  6
Continuous
100
AcDbLine
 10
-674.3798004604623
 20
-6835.459386468457
 30
0.0
 11
-673.5854303306341
 21
-6833.098600298282
 31
0.0
  0
LINE
  5
2F03
330
1F
100
AcDbEntity
  8
SPOJOVACÍ
  6
Continuous
100
AcDbLine
 10
-673.7835577753076
 20
-6835.459386468457
 30
0.0
 11
-672.9891876457559
 21
-6833.098600298282
 31
0.0
  0
LINE
  5
2F04
330
1F
100
AcDbEntity
  8
SPOJOVACÍ
  6
Continuous
100
AcDbLine
 10
-677.0159186656537
 20
-6836.401654549874
 30
0.0
 11
-676.0429547833491
 21
-6832.276324897131
 31
0.0
  0
LINE
  5
2F05
330
1F
100
AcDbEntity
  8
SPOJOVACÍ
  6
Continuous
100
AcDbLine
 10
-677.3935700387819
 20
-6836.02307300159
 30
0.0
 11
-676.2606159193974
 21
-6832.653976268076
 31
0.0
  0
LINE
  5
2F06
330
1F
100
AcDbEntity
  8
SPOJOVACÍ
  6
Continuous
100
AcDbLine
 10
-676.7973273536272
 20
-6836.02307300159
 30
0.0
 11
-675.6643732342427
 21
-6832.653976268076
 31
0.0
  0
LINE
  5
2F07
330
1F
100
AcDbEntity
  8
SPOJOVACÍ
  6
Continuous
100
AcDbLine
 10
-686.7111409850049
 20
-6836.277941168984
 30
0.0
 11
-685.351223971732
 21
-6832.233536809392
 31
0.0
  0
LINE
  5
2F08
330
1F
100
AcDbEntity
  8
SPOJOVACÍ
  6
Continuous
100
AcDbLine
 10
-686.1148982998502
 20
-6836.277941168984
 30
0.0
 11
-684.7549812865845
 21
-6832.233536809392
 31
0.0
  0
LINE
  5
2F09
330
1F
100
AcDbEntity
  8
SPOJOVACÍ
  6
Continuous
100
AcDbLine
 10
-686.3334896118767
 20
-6836.655592544295
 30
0.0
 11
-685.1335628354145
 21
-6831.855885438447
 31
0.0
  0
LINE
  5
2F0A
330
1F
100
AcDbEntity
  8
SPOJOVACÍ
  6
Continuous
100
AcDbLine
 10
-689.8309506042433
 20
-6836.277941168984
 30
0.0
 11
-688.4719637664029
 21
-6832.233536809392
 31
0.0
  0
LINE
  5
2F0B
330
1F
100
AcDbEntity
  8
SPOJOVACÍ
  6
Continuous
100
AcDbLine
 10
-689.2347079190885
 20
-6836.277941168984
 30
0.0
 11
-687.8757210815247
 21
-6832.233536809392
 31
0.0
  0
LINE
  5
2F0C
330
1F
100
AcDbEntity
  8
SPOJOVACÍ
  6
Continuous
100
AcDbLine
 10
-689.4532992311151
 20
-6836.655592544295
 30
0.0
 11
-688.2533724543764
 21
-6831.855885438447
 31
0.0
  0
LINE
  5
2F0D
330
1F
100
AcDbEntity
  8
SPOJOVACÍ
  6
Continuous
100
AcDbLine
 10
-692.9516903989069
 20
-6836.277941168984
 30
0.0
 11
-691.5917733856413
 21
-6832.233536809392
 31
0.0
  0
LINE
  5
2F0E
330
1F
100
AcDbEntity
  8
SPOJOVACÍ
  6
Continuous
100
AcDbLine
 10
-692.3554477140287
 20
-6836.277941168984
 30
0.0
 11
-690.9955307004866
 21
-6832.233536809392
 31
0.0
  0
LINE
  5
2F0F
330
1F
100
AcDbEntity
  8
SPOJOVACÍ
  6
Continuous
100
AcDbLine
 10
-692.573108850077
 20
-6836.655592544295
 30
0.0
 11
-691.3731820736147
 21
-6831.855885438447
 31
0.0
  0
LINE
  5
2F10
330
1F
100
AcDbEntity
  8
SPOJOVACÍ
  6
Continuous
100
AcDbLine
 10
-702.1734532382988
 20
-6839.355892880004
 30
0.0
 11
-702.1734532382988
 21
-6829.155585102737
 31
0.0
  0
LINE
  5
2F11
330
1F
100
AcDbEntity
  8
SPOJOVACÍ
  6
Continuous
100
AcDbLine
 10
-703.3733800150303
 20
-6839.355892880004
 30
0.0
 11
-703.3733800150303
 21
-6829.155585102737
 31
0.0
  0
LINE
  5
2F12
330
1F
100
AcDbEntity
  8
STAVBA OBRYS
  6
DASHED
100
AcDbLine
 10
-650.2413366653818
 20
-7120.201135160804
 30
0.0
 11
-650.2413366653663
 21
-6777.534851994868
 31
0.0
  0
LINE
  5
2F13
330
1F
100
AcDbEntity
  8
STAVBA OBRYS
  6
DASHED
100
AcDbLine
 10
-655.1753269504152
 20
-7120.201135160804
 30
0.0
 11
-655.1753269504006
 21
-6778.509245630765
 31
0.0
  0
LINE
  5
2F14
330
1F
100
AcDbEntity
  8
STAVBA OBRYS
  6
DASHED
100
AcDbLine
 10
-676.0569353336578
 20
-7120.201135160804
 30
0.0
 11
-676.0569353336649
 21
-6782.633069380008
 31
0.0
  0
LINE
  5
2F15
330
1F
100
AcDbEntity
  8
STAVBA OBRYS
  6
DASHED
100
AcDbLine
 10
-681.5670703921386
 20
-7120.201135160804
 30
0.0
 11
-681.5670703921459
 21
-6783.721243499484
 31
0.0
  0
LINE
  5
2F16
330
1F
100
AcDbEntity
  8
izolace
  6
IZOLACE
 48
1.5
370
    20
100
AcDbLine
 10
-665.6161311420365
 20
-7118.511956058242
 30
0.0
 11
-665.6161311420365
 21
-6780.571157505386
 31
0.0
  0
LINE
  5
2F17
330
1F
100
AcDbEntity
  8
STAVBA OBRYS
100
AcDbLine
 10
-685.5853435261997
 20
-7120.201135160804
 30
0.0
 11
-685.5853435262069
 21
-6784.514795886686
 31
0.0
  0
LINE
  5
2F18
330
1F
100
AcDbEntity
  8
STAVBA OBRYS
100
AcDbLine
 10
-646.231687085652
 20
-7120.201135160804
 30
0.0
 11
-646.2316870856557
 21
-6776.743002638273
 31
0.0
  0
LINE
  5
2F19
330
1F
100
AcDbEntity
  8
STAVBA OBRYS
100
AcDbLine
 10
-640.1411257302697
 20
-7115.185687062013
 30
0.0
 11
-640.141125730277
 21
-6775.5402024946
 31
0.0
  0
LINE
  5
2F1A
330
1F
100
AcDbEntity
  8
STAVBA OBRYS
100
AcDbLine
 10
-703.3733800150294
 20
-7115.185687062013
 30
0.0
 11
-703.3733800150257
 21
-6788.027682728477
 31
0.0
  0
LINE
  5
2F1B
330
1F
100
AcDbEntity
  8
STAVBA OBRYS
100
AcDbLine
 10
-691.3733800150294
 20
-7115.185687062013
 30
0.0
 11
-691.3733800150294
 21
-6785.657851627222
 31
0.0
  0
HATCH
  5
2F1C
330
1F
100
AcDbEntity
  8
STAVBA OBRYS
370
    20
100
AcDbHatch
 10
0.0
 20
0.0
 30
0.0
210
0.0
220
0.0
230
1.0
  2
ANSI31
 70
     0
 71
     0
 91
        6
 92
        7
 72
     0
 73
     1
 93
       12
 10
-691.3733800150301
 20
-6784.869575646145
 10
-703.3733800150264
 20
-6787.079736924444
 10
-703.3733800150264
 20
-6829.155585102737
 10
-702.1734532382986
 20
-6829.155585102737
 10
-701.836729600415
 20
-6829.870890288905
 10
-700.9186460899733
 20
-6831.108024097805
 10
-699.7112779070744
 20
-6832.066105167789
 10
-698.2974106973718
 20
-6832.679091016936
 10
-696.7737827439425
 20
-6832.906053907819
 10
-691.8179049398945
 20
-6832.906053907819
 10
-691.591773385641
 20
-6832.233536809392
 10
-691.3733800150301
 20
-6831.856227413826
 97
        0
 92
        7
 72
     0
 73
     1
 93
       23
 10
-691.3733800150301
 20
-6835.605424070556
 10
-692.1293161597288
 20
-6835.605424070556
 10
-692.3554477140285
 20
-6836.277941168984
 10
-692.5731088500768
 20
-6836.655592544295
 10
-692.9516903989068
 20
-6836.277941168984
 10
-692.7255588446532
 20
-6835.605424070556
 10
-696.7737827439425
 20
-6835.605424070556
 10
-697.560711467064
 20
-6835.671466552478
 10
-699.0415513341146
 20
-6836.099347416777
 10
-700.3605406124123
 20
-6836.895577896095
 10
-701.4293126018245
 20
-6838.006207796453
 10
-702.1734532382986
 20
-6839.355892880004
 10
-703.3733800150264
 20
-6839.355892880004
 10
-703.3733800150264
 20
-7052.073524233636
 10
-702.1734532382986
 20
-7052.073524233636
 10
-701.836729600415
 20
-7052.788829419803
 10
-700.9186460899734
 20
-7054.025963228703
 10
-699.7112779070747
 20
-7054.984044298688
 10
-698.2974106973711
 20
-7055.597030147835
 10
-696.7737827439421
 20
-7055.823993038718
 10
-691.8179049398945
 20
-7055.823993038718
 10
-691.5917733856412
 20
-7055.151475940291
 10
-691.3733800150301
 20
-7054.774166544724
 97
        0
 92
        7
 72
     0
 73
     1
 93
       15
 10
-691.3733800150301
 20
-7058.523363201455
 10
-692.1293161597288
 20
-7058.523363201455
 10
-692.3554477140285
 20
-7059.195880299883
 10
-692.5731088500768
 20
-7059.573531675194
 10
-692.9516903989068
 20
-7059.195880299883
 10
-692.7255588446532
 20
-7058.523363201455
 10
-696.7737827439427
 20
-7058.523363201455
 10
-697.5607114670644
 20
-7058.589405683377
 10
-699.0415513341147
 20
-7059.017286547676
 10
-700.3605406124123
 20
-7059.813517026994
 10
-701.4293126018245
 20
-7060.924146927352
 10
-702.1734532382986
 20
-7062.273832010903
 10
-703.3733800150264
 20
-7062.273832010903
 10
-703.3733800150264
 20
-7115.185687062016
 10
-691.3733800150301
 20
-7115.185687062016
 97
        0
 92
        7
 72
     0
 73
     1
 93
       15
 10
-628.1411257302802
 20
-7062.273832010903
 10
-629.3410525070108
 20
-7062.273832010903
 10
-630.0851931434851
 20
-7060.924146927352
 10
-631.1539651328976
 20
-7059.813517026994
 10
-632.4729544111948
 20
-7059.017286547676
 10
-633.9537942782453
 20
-7058.589405683377
 10
-634.740723001367
 20
-7058.523363201455
 10
-638.7889469006566
 20
-7058.523363201455
 10
-638.5628153464028
 20
-7059.195880299883
 10
-638.9413968952328
 20
-7059.573531675194
 10
-639.1590580312811
 20
-7059.195880299883
 10
-639.3851895855805
 20
-7058.523363201455
 10
-640.1411257302795
 20
-7058.523363201455
 10
-640.1411257302795
 20
-7115.185687062016
 10
-628.1411257302795
 20
-7115.185687062013
 97
        0
 92
        7
 72
     0
 73
     1
 93
       23
 10
-628.1411257302825
 20
-6839.355892880004
 10
-629.3410525070109
 20
-6839.355892880004
 10
-630.0851931434851
 20
-6838.006207796453
 10
-631.1539651328971
 20
-6836.895577896095
 10
-632.4729544111951
 20
-6836.099347416777
 10
-633.9537942782453
 20
-6835.671466552478
 10
-634.740723001367
 20
-6835.605424070556
 10
-638.7889469006566
 20
-6835.605424070556
 10
-638.5628153464028
 20
-6836.277941168984
 10
-638.9413968952328
 20
-6836.655592544295
 10
-639.1590580312811
 20
-6836.277941168984
 10
-639.3851895855807
 20
-6835.605424070556
 10
-640.1411257302795
 20
-6835.605424070556
 10
-640.1411257302795
 20
-7054.774166544723
 10
-639.9227323596687
 20
-7055.151475940291
 10
-639.6966008054151
 20
-7055.823993038718
 10
-634.7407230013677
 20
-7055.823993038718
 10
-633.2170950479382
 20
-7055.597030147835
 10
-631.8032278382349
 20
-7054.984044298688
 10
-630.5958596553361
 20
-7054.025963228703
 10
-629.6777761448945
 20
-7052.788829419803
 10
-629.3410525070109
 20
-7052.073524233636
 10
-628.1411257302802
 20
-7052.073524233636
 97
        0
 92
        7
 72
     0
 73
     1
 93
       12
 10
-628.1411257302831
 20
-6773.223452316166
 10
-640.1411257302795
 20
-6775.433613594465
 10
-640.1411257302795
 20
-6831.856227413826
 10
-639.9227323596687
 20
-6832.233536809392
 10
-639.6966008054151
 20
-6832.906053907819
 10
-634.7407230013675
 20
-6832.906053907819
 10
-633.2170950479385
 20
-6832.679091016936
 10
-631.8032278382352
 20
-6832.066105167789
 10
-630.5958596553361
 20
-6831.108024097805
 10
-629.6777761448943
 20
-6829.870890288905
 10
-629.3410525070109
 20
-6829.155585102737
 10
-628.1411257302825
 20
-6829.155585102737
 97
        0
 75
     0
 76
     1
 52
90.0
 41
1.0
 77
     0
 78
     1
 53
135.0
 43
-967.2679211499129
 44
-7327.866064429279
 45
-2.245064030267288
 46
-2.245064030267287
 79
     0
 47
0.5470887699545174
 98
        6
 10
-695.9444193955516
 20
-6820.990888070062
 10
-695.3969976744174
 20
-6874.605588551095
 10
-694.3021542321491
 20
-7084.140587425364
 10
-635.1806063047624
 20
-7084.687676653127
 10
-632.9909194202254
 20
-7032.714242637609
 10
-634.085762862494
 20
-6813.878734197995
  0
LINE
  5
2F1D
330
1F
100
AcDbEntity
  8
POPIS
370
    20
100
AcDbLine
 10
-475.8378865122831
 20
-6912.647015573181
 30
0.0
 11
-475.8378865122831
 21
-6984.137214370555
 31
0.0
  0
LINE
  5
2F1E
330
1F
100
AcDbEntity
  8
STAVBA OBRYS
  6
Continuous
100
AcDbLine
 10
-646.5251201581377
 20
-7055.587249368821
 30
0.0
 11
-649.0458965648468
 21
-7055.587249368821
 31
0.0
  0
LINE
  5
2F1F
330
1F
100
AcDbEntity
  8
STAVBA OBRYS
  6
Continuous
100
AcDbLine
 10
-645.6116875267507
 20
-7058.286619531557
 30
0.0
 11
-648.1399053396199
 21
-7058.286619531557
 31
0.0
  0
LWPOLYLINE
  5
2F20
330
1F
100
AcDbEntity
  8
nášlap_vrstvy
100
AcDbPolyline
 90
        4
 70
     1
 43
0.0
 10
-660.1081632364801
 20
-7125.185687062021
 10
-660.1081632364801
 20
-7123.185687062018
 10
-647.6070862295016
 20
-7123.185687062018
 10
-647.6070862295016
 20
-7125.185687062021
  0
HATCH
  5
2F21
330
1F
100
AcDbEntity
  8
nášlap_vrstvy
100
AcDbHatch
 10
0.0
 20
0.0
 30
0.0
210
0.0
220
0.0
230
1.0
  2
SOLID
 70
     1
 71
     0
 91
        3
 92
        7
 72
     0
 73
     1
 93
        4
 10
-640.9063612919742
 20
-7123.185687062022
 10
-640.9063612919742
 20
-7125.185687062018
 10
-647.6070862295016
 20
-7125.185687062021
 10
-647.6070862295016
 20
-7123.185687062022
 97
        0
 92
        7
 72
     0
 73
     1
 93
        4
 10
-660.1081632364801
 20
-7123.185687062022
 10
-660.1081632364801
 20
-7125.185687062021
 10
-672.6092402434549
 20
-7125.185687062021
 10
-672.6092402434549
 20
-7123.185687062022
 97
        0
 92
        7
 72
     0
 73
     1
 93
        4
 10
-685.1103172504297
 20
-7123.185687062018
 10
-685.1103172504297
 20
-7125.185687062025
 10
-690.9106693198771
 20
-7125.185687062021
 10
-690.9106693198771
 20
-7123.185687062018
 97
        0
 75
     0
 76
     1
 47
0.0846398039763049
 98
        3
 10
-645.7760372850641
 20
-7123.891989107062
 10
-662.4500906906212
 20
-7123.722603391413
 10
-685.641487354125
 20
-7123.976623272662
  0
LINE
  5
2F22
330
1F
100
AcDbEntity
  8
nášlap_vrstvy
100
AcDbLine
 10
-640.9063612919744
 20
-7125.185687062014
 30
0.0
 11
-690.9106693198773
 21
-7125.185687062021
 31
0.0
  0
LINE
  5
2F23
330
1F
100
AcDbEntity
  8
nášlap_vrstvy
100
AcDbLine
 10
-640.9063612919744
 20
-7123.185687062018
 30
0.0
 11
-690.9106693198773
 21
-7123.185687062018
 31
0.0
  0
POLYLINE
  5
2F24
102
{ACAD_REACTORS
330
2F73
102
}
330
1F
100
AcDbEntity
  8
izolace
100
AcDb2dPolyline
 66
     1
 10
0.0
 20
0.0
 30
0.0
  0
VERTEX
  5
2F25
330
2F24
100
AcDbEntity
  8
izolace
100
AcDbVertex
100
AcDb2dVertex
 10
-685.5853435261997
 20
-7071.467198822418
 30
0.0
  0
VERTEX
  5
2F26
330
2F24
100
AcDbEntity
  8
izolace
100
AcDbVertex
100
AcDb2dVertex
 10
-689.5465079124551
 20
-7071.467198822418
 30
0.0
 42
0.4142139852046967
  0
VERTEX
  5
2F27
330
2F24
100
AcDbEntity
  8
izolace
100
AcDbVertex
100
AcDb2dVertex
 10
-690.9106693198773
 20
-7072.83125448272
 30
0.0
  0
VERTEX
  5
2F28
330
2F24
100
AcDbEntity
  8
izolace
100
AcDbVertex
100
AcDb2dVertex
 10
-690.9106693198773
 20
-7082.170928131542
 30
0.0
 42
0.2679489850997925
  0
VERTEX
  5
2F29
330
2F24
100
AcDbEntity
  8
izolace
100
AcDbVertex
100
AcDb2dVertex
 10
-690.2286943483995
 20
-7083.352172228476
 30
0.0
 42
-0.5773500204086304
  0
VERTEX
  5
2F2A
330
2F24
100
AcDbEntity
  8
izolace
100
AcDbVertex
100
AcDb2dVertex
 10
-690.2286943483995
 20
-7085.714871872915
 30
0.0
 42
0.2679489850997925
  0
VERTEX
  5
2F2B
330
2F24
100
AcDbEntity
  8
izolace
100
AcDbVertex
100
AcDb2dVertex
 10
-690.9106693198773
 20
-7086.896115969851
 30
0.0
  0
VERTEX
  5
2F2C
330
2F24
100
AcDbEntity
  8
izolace
100
AcDbVertex
100
AcDb2dVertex
 10
-690.9106693198773
 20
-7094.938345461506
 30
0.0
 42
0.2679489850997925
  0
VERTEX
  5
2F2D
330
2F24
100
AcDbEntity
  8
izolace
100
AcDbVertex
100
AcDb2dVertex
 10
-690.2286943483995
 20
-7096.119589526683
 30
0.0
 42
-0.5773500204086304
  0
VERTEX
  5
2F2E
330
2F24
100
AcDbEntity
  8
izolace
100
AcDbVertex
100
AcDb2dVertex
 10
-690.2286943483995
 20
-7098.482183445838
 30
0.0
 42
0.2679489850997925
  0
VERTEX
  5
2F2F
330
2F24
100
AcDbEntity
  8
izolace
100
AcDbVertex
100
AcDb2dVertex
 10
-690.9106693198773
 20
-7099.663427542771
 30
0.0
  0
VERTEX
  5
2F30
330
2F24
100
AcDbEntity
  8
izolace
100
AcDbVertex
100
AcDb2dVertex
 10
-690.9106693198773
 20
-7107.705657034428
 30
0.0
 42
0.2679489850997925
  0
VERTEX
  5
2F31
330
2F24
100
AcDbEntity
  8
izolace
100
AcDbVertex
100
AcDb2dVertex
 10
-690.2286943483995
 20
-7108.886901131362
 30
0.0
 42
-0.5773500204086304
  0
VERTEX
  5
2F32
330
2F24
100
AcDbEntity
  8
izolace
100
AcDbVertex
100
AcDb2dVertex
 10
-690.2286943483995
 20
-7111.249495018758
 30
0.0
 42
0.2679489850997925
  0
VERTEX
  5
2F33
330
2F24
100
AcDbEntity
  8
izolace
100
AcDbVertex
100
AcDb2dVertex
 10
-690.9106693198773
 20
-7112.430739115691
 30
0.0
  0
VERTEX
  5
2F34
330
2F24
100
AcDbEntity
  8
izolace
100
AcDbVertex
100
AcDb2dVertex
 10
-690.9106693198773
 20
-7121.198716860141
 30
0.0
 42
0.4142139852046967
  0
VERTEX
  5
2F35
330
2F24
100
AcDbEntity
  8
izolace
100
AcDbVertex
100
AcDb2dVertex
 10
-689.5465079124551
 20
-7122.562772520443
 30
0.0
  0
VERTEX
  5
2F36
330
2F24
100
AcDbEntity
  8
izolace
100
AcDbVertex
100
AcDb2dVertex
 10
-683.4216325491833
 20
-7122.562772520443
 30
0.0
 42
0.247529000043869
  0
VERTEX
  5
2F37
330
2F24
100
AcDbEntity
  8
izolace
100
AcDbVertex
100
AcDb2dVertex
 10
-682.2962152497821
 20
-7121.969084232263
 30
0.0
 42
-0.247529000043869
  0
VERTEX
  5
2F38
330
2F24
100
AcDbEntity
  8
izolace
100
AcDbVertex
100
AcDb2dVertex
 10
-681.1703750194647
 20
-7121.375501669373
 30
0.0
  0
VERTEX
  5
2F39
330
2F24
100
AcDbEntity
  8
izolace
100
AcDbVertex
100
AcDb2dVertex
 10
-677.3517381136771
 20
-7121.375501669373
 30
0.0
 42
-0.247529000043869
  0
VERTEX
  5
2F3A
330
2F24
100
AcDbEntity
  8
izolace
100
AcDbVertex
100
AcDb2dVertex
 10
-676.2263208142758
 20
-7121.969084232263
 30
0.0
 42
0.247529000043869
  0
VERTEX
  5
2F3B
330
2F24
100
AcDbEntity
  8
izolace
100
AcDbVertex
100
AcDb2dVertex
 10
-675.1004805839547
 20
-7122.562772520443
 30
0.0
  0
VERTEX
  5
2F3C
330
2F24
100
AcDbEntity
  8
izolace
100
AcDbVertex
100
AcDb2dVertex
 10
-656.716550029876
 20
-7122.562772520443
 30
0.0
 42
0.247529000043869
  0
VERTEX
  5
2F3D
330
2F24
100
AcDbEntity
  8
izolace
100
AcDbVertex
100
AcDb2dVertex
 10
-655.590709797576
 20
-7121.969084232263
 30
0.0
 42
-0.247529000043869
  0
VERTEX
  5
2F3E
330
2F24
100
AcDbEntity
  8
izolace
100
AcDbVertex
100
AcDb2dVertex
 10
-654.465292498171
 20
-7121.375501669373
 30
0.0
  0
VERTEX
  5
2F3F
330
2F24
100
AcDbEntity
  8
izolace
100
AcDbVertex
100
AcDb2dVertex
 10
-650.6466555943697
 20
-7121.375501669373
 30
0.0
 42
-0.247529000043869
  0
VERTEX
  5
2F40
330
2F24
100
AcDbEntity
  8
izolace
100
AcDbVertex
100
AcDb2dVertex
 10
-649.5208153640524
 20
-7121.969084232263
 30
0.0
 42
0.247529000043869
  0
VERTEX
  5
2F41
330
2F24
100
AcDbEntity
  8
izolace
100
AcDbVertex
100
AcDb2dVertex
 10
-648.3953980626647
 20
-7122.562772520443
 30
0.0
  0
VERTEX
  5
2F42
330
2F24
100
AcDbEntity
  8
izolace
100
AcDbVertex
100
AcDb2dVertex
 10
-642.270522699393
 20
-7122.562772520443
 30
0.0
 42
0.4142139852046967
  0
VERTEX
  5
2F43
330
2F24
100
AcDbEntity
  8
izolace
100
AcDbVertex
100
AcDb2dVertex
 10
-640.9063612939571
 20
-7121.198716860141
 30
0.0
  0
VERTEX
  5
2F44
330
2F24
100
AcDbEntity
  8
izolace
100
AcDbVertex
100
AcDb2dVertex
 10
-640.9063612939571
 20
-7112.430739115691
 30
0.0
 42
0.2679489850997925
  0
VERTEX
  5
2F45
330
2F24
100
AcDbEntity
  8
izolace
100
AcDbVertex
100
AcDb2dVertex
 10
-641.5883362634522
 20
-7111.249495018758
 30
0.0
 42
-0.5773500204086304
  0
VERTEX
  5
2F46
330
2F24
100
AcDbEntity
  8
izolace
100
AcDbVertex
100
AcDb2dVertex
 10
-641.5883362634522
 20
-7108.886901131362
 30
0.0
 42
0.2679489850997925
  0
VERTEX
  5
2F47
330
2F24
100
AcDbEntity
  8
izolace
100
AcDbVertex
100
AcDb2dVertex
 10
-640.9063612939571
 20
-7107.705657034428
 30
0.0
  0
VERTEX
  5
2F48
330
2F24
100
AcDbEntity
  8
izolace
100
AcDbVertex
100
AcDb2dVertex
 10
-640.9063612939571
 20
-7099.663427542771
 30
0.0
 42
0.2679489850997925
  0
VERTEX
  5
2F49
330
2F24
100
AcDbEntity
  8
izolace
100
AcDbVertex
100
AcDb2dVertex
 10
-641.5883362634522
 20
-7098.482183445838
 30
0.0
 42
-0.5773500204086304
  0
VERTEX
  5
2F4A
330
2F24
100
AcDbEntity
  8
izolace
100
AcDbVertex
100
AcDb2dVertex
 10
-641.5883362634522
 20
-7096.119589526683
 30
0.0
 42
0.2679489850997925
  0
VERTEX
  5
2F4B
330
2F24
100
AcDbEntity
  8
izolace
100
AcDbVertex
100
AcDb2dVertex
 10
-640.9063612939571
 20
-7094.938345461506
 30
0.0
  0
VERTEX
  5
2F4C
330
2F24
100
AcDbEntity
  8
izolace
100
AcDbVertex
100
AcDb2dVertex
 10
-640.9063612939571
 20
-7086.896115969851
 30
0.0
 42
0.2679489850997925
  0
VERTEX
  5
2F4D
330
2F24
100
AcDbEntity
  8
izolace
100
AcDbVertex
100
AcDb2dVertex
 10
-641.5883362634522
 20
-7085.714871872915
 30
0.0
 42
-0.5773500204086304
  0
VERTEX
  5
2F4E
330
2F24
100
AcDbEntity
  8
izolace
100
AcDbVertex
100
AcDb2dVertex
 10
-641.5883362634522
 20
-7083.352172228476
 30
0.0
 42
0.2679489850997925
  0
VERTEX
  5
2F4F
330
2F24
100
AcDbEntity
  8
izolace
100
AcDbVertex
100
AcDb2dVertex
 10
-640.9063612939571
 20
-7082.170928131542
 30
0.0
  0
VERTEX
  5
2F50
330
2F24
100
AcDbEntity
  8
izolace
100
AcDbVertex
100
AcDb2dVertex
 10
-640.9063612939571
 20
-7075.013680129439
 30
0.0
 42
0.4142139852046967
  0
VERTEX
  5
2F51
330
2F24
100
AcDbEntity
  8
izolace
100
AcDbVertex
100
AcDb2dVertex
 10
-642.270522699393
 20
-7073.649730194422
 30
0.0
  0
VERTEX
  5
2F52
330
2F24
100
AcDbEntity
  8
izolace
100
AcDbVertex
100
AcDb2dVertex
 10
-646.231687085652
 20
-7073.649730194422
 30
0.0
  0
SEQEND
  5
2F53
330
2F24
100
AcDbEntity
  8
izolace
  0
POLYLINE
  5
2F54
102
{ACAD_REACTORS
330
2F73
102
}
330
1F
100
AcDbEntity
  8
izolace
100
AcDb2dPolyline
 66
     1
 10
0.0
 20
0.0
 30
0.0
  0
VERTEX
  5
2F55
330
2F54
100
AcDbEntity
  8
izolace
100
AcDbVertex
100
AcDb2dVertex
 10
-689.4106693198773
 20
-7082.093672476374
 30
0.0
 42
-0.5590620544015654
  0
VERTEX
  5
2F56
330
2F54
100
AcDbEntity
  8
izolace
100
AcDbVertex
100
AcDb2dVertex
 10
-689.4106693198773
 20
-7086.97337162502
 30
0.0
  0
VERTEX
  5
2F57
330
2F54
100
AcDbEntity
  8
izolace
100
AcDbVertex
100
AcDb2dVertex
 10
-689.4106693198773
 20
-7094.861089801972
 30
0.0
 42
-0.5590616644338536
  0
VERTEX
  5
2F58
330
2F54
100
AcDbEntity
  8
izolace
100
AcDbVertex
100
AcDb2dVertex
 10
-689.4106693198737
 20
-7099.740683170551
 30
0.0
  0
VERTEX
  5
2F59
330
2F54
100
AcDbEntity
  8
izolace
100
AcDbVertex
100
AcDb2dVertex
 10
-689.4106693198773
 20
-7107.628401406659
 30
0.0
 42
-0.559061664315726
  0
VERTEX
  5
2F5A
330
2F54
100
AcDbEntity
  8
izolace
100
AcDbVertex
100
AcDb2dVertex
 10
-689.4106693198773
 20
-7112.507994743461
 30
0.0
  0
VERTEX
  5
2F5B
330
2F54
100
AcDbEntity
  8
izolace
100
AcDbVertex
100
AcDb2dVertex
 10
-689.4106693198773
 20
-7120.062772520443
 30
0.0
 42
0.4142135623731029
  0
VERTEX
  5
2F5C
330
2F54
100
AcDbEntity
  8
izolace
100
AcDbVertex
100
AcDb2dVertex
 10
-688.4106693198773
 20
-7121.062772520443
 30
0.0
  0
VERTEX
  5
2F5D
330
2F54
100
AcDbEntity
  8
izolace
100
AcDbVertex
100
AcDb2dVertex
 10
-683.4924909185429
 20
-7121.062772520443
 30
0.0
 42
-0.2408510949208177
  0
VERTEX
  5
2F5E
330
2F54
100
AcDbEntity
  8
izolace
100
AcDbVertex
100
AcDb2dVertex
 10
-681.1703102621249
 20
-7119.875501669373
 30
0.0
  0
VERTEX
  5
2F5F
330
2F54
100
AcDbEntity
  8
izolace
100
AcDbVertex
100
AcDb2dVertex
 10
-677.3517381136771
 20
-7119.875501669373
 30
0.0
 42
-0.0000123233965856
  0
VERTEX
  5
2F60
330
2F54
100
AcDbEntity
  8
izolace
100
AcDbVertex
100
AcDb2dVertex
 10
-677.3516641732967
 20
-7119.875501671195
 30
0.0
 42
-0.2408376921551036
  0
VERTEX
  5
2F61
330
2F54
100
AcDbEntity
  8
izolace
100
AcDbVertex
100
AcDb2dVertex
 10
-675.0300387261195
 20
-7121.062772520443
 30
0.0
  0
VERTEX
  5
2F62
330
2F54
100
AcDbEntity
  8
izolace
100
AcDbVertex
100
AcDb2dVertex
 10
-656.7869918857286
 20
-7121.062772520443
 30
0.0
 42
-0.2408376921551987
  0
VERTEX
  5
2F63
330
2F54
100
AcDbEntity
  8
izolace
100
AcDbVertex
100
AcDb2dVertex
 10
-654.4653664385513
 20
-7119.875501671195
 30
0.0
 42
-0.0000123233965477
  0
VERTEX
  5
2F64
330
2F54
100
AcDbEntity
  8
izolace
100
AcDbVertex
100
AcDb2dVertex
 10
-654.4652924981747
 20
-7119.875501669373
 30
0.0
  0
VERTEX
  5
2F65
330
2F54
100
AcDbEntity
  8
izolace
100
AcDbVertex
100
AcDb2dVertex
 10
-650.64672035482
 20
-7119.875501669373
 30
0.0
 42
-0.240851095207779
  0
VERTEX
  5
2F66
330
2F54
100
AcDbEntity
  8
izolace
100
AcDbVertex
100
AcDb2dVertex
 10
-648.3245396952916
 20
-7121.062772520443
 30
0.0
  0
VERTEX
  5
2F67
330
2F54
100
AcDbEntity
  8
izolace
100
AcDbVertex
100
AcDb2dVertex
 10
-643.4063612939572
 20
-7121.062772520443
 30
0.0
 42
0.4142135623730951
  0
VERTEX
  5
2F68
330
2F54
100
AcDbEntity
  8
izolace
100
AcDbVertex
100
AcDb2dVertex
 10
-642.4063612939571
 20
-7120.062772520443
 30
0.0
  0
VERTEX
  5
2F69
330
2F54
100
AcDbEntity
  8
izolace
100
AcDbVertex
100
AcDb2dVertex
 10
-642.4063612939571
 20
-7112.507994742242
 30
0.0
 42
-0.5590616637825315
  0
VERTEX
  5
2F6A
330
2F54
100
AcDbEntity
  8
izolace
100
AcDbVertex
100
AcDb2dVertex
 10
-642.4063612939571
 20
-7107.628401407878
 30
0.0
  0
VERTEX
  5
2F6B
330
2F54
100
AcDbEntity
  8
izolace
100
AcDbVertex
100
AcDb2dVertex
 10
-642.4063612939571
 20
-7099.740683169329
 30
0.0
 42
-0.5590616638998631
  0
VERTEX
  5
2F6C
330
2F54
100
AcDbEntity
  8
izolace
100
AcDbVertex
100
AcDb2dVertex
 10
-642.4063612939571
 20
-7094.861089803192
 30
0.0
  0
VERTEX
  5
2F6D
330
2F54
100
AcDbEntity
  8
izolace
100
AcDbVertex
100
AcDb2dVertex
 10
-642.4063612939571
 20
-7086.973371623797
 30
0.0
 42
-0.5590620538659819
  0
VERTEX
  5
2F6E
330
2F54
100
AcDbEntity
  8
izolace
100
AcDbVertex
100
AcDb2dVertex
 10
-642.4063612939571
 20
-7082.093672477601
 30
0.0
  0
VERTEX
  5
2F6F
330
2F54
100
AcDbEntity
  8
izolace
100
AcDbVertex
100
AcDb2dVertex
 10
-642.4063612939571
 20
-7076.149730194422
 30
0.0
 42
0.4142135623731143
  0
VERTEX
  5
2F70
330
2F54
100
AcDbEntity
  8
izolace
100
AcDbVertex
100
AcDb2dVertex
 10
-643.4063612939572
 20
-7075.149730194422
 30
0.0
  0
VERTEX
  5
2F71
330
2F54
100
AcDbEntity
  8
izolace
100
AcDbVertex
100
AcDb2dVertex
 10
-646.231687085652
 20
-7075.149730194422
 30
0.0
  0
SEQEND
  5
2F72
330
2F54
100
AcDbEntity
  8
izolace
  0
HATCH
  5
2F73
330
1F
100
AcDbEntity
  8
izolace
100
AcDbHatch
 10
0.0
 20
0.0
 30
0.0
210
0.0
220
0.0
230
1.0
  2
SOLID
 70
     1
 71
     1
 91
        1
 92
        1
 93
       78
 72
     1
 10
-646.231687085652
 20
-7075.149730194422
 11
-646.231687085652
 21
-7073.649730194422
 72
     1
 10
-646.231687085652
 20
-7073.649730194422
 11
-642.270522699393
 21
-7073.649730194422
 72
     2
 10
-642.2704159796601
 20
-7075.013784879972
 40
1.364054689725047
 50
269.9955173422745
 51
359.9956000565877
 73
     0
 72
     1
 10
-640.9063612939571
 20
-7075.013680129439
 11
-640.9063612939571
 21
-7082.170928131542
 72
     2
 10
-642.2703370887325
 20
-7082.170942003988
 40
1.363975794845636
 50
359.999417267794
 51
419.9993729339841
 73
     0
 72
     2
 10
-640.9062830377914
 20
-7084.533522050695
 40
1.364105569629221
 50
120.0000213811523
 51
239.9999786188475
 73
     1
 72
     2
 10
-642.2703370887356
 20
-7086.896102097404
 40
1.363975794849071
 50
300.0006270660934
 51
360.0005827322823
 73
     0
 72
     1
 10
-640.9063612939571
 20
-7086.896115969851
 11
-640.9063612939571
 21
-7094.938345461506
 72
     2
 10
-642.270337061231
 20
-7094.938359318074
 40
1.36397576734404
 50
359.9994179347589
 51
419.9993736009475
 73
     0
 72
     2
 10
-640.9063135580785
 20
-7097.300886486261
 40
1.364044529094459
 50
120.0000213811549
 51
239.999978618845
 73
     1
 72
     2
 10
-642.2703370887325
 20
-7099.663413670325
 40
1.363975794845887
 50
300.0006270660158
 51
360.000582732206
 73
     0
 72
     1
 10
-640.9063612939571
 20
-7099.663427542771
 11
-640.9063612939571
 21
-7107.705657034428
 72
     2
 10
-642.2703370887325
 20
-7107.705670906874
 40
1.363975794845636
 50
359.999417267794
 51
419.9993729339841
 73
     0
 72
     2
 10
-640.9063135672468
 20
-7110.068198075059
 40
1.36404451075803
 50
120.0000213811523
 51
239.9999786188477
 73
     1
 72
     2
 10
-642.2703370887325
 20
-7112.430725243244
 40
1.363975794845887
 50
300.0006270660158
 51
360.000582732206
 73
     0
 72
     1
 10
-640.9063612939571
 20
-7112.430739115691
 11
-640.9063612939571
 21
-7121.198716860141
 72
     2
 10
-642.2704688422262
 20
-7121.198664972251
 40
1.364107549255989
 50
0.0021794155003766
 51
90.00226212981237
 73
     0
 72
     1
 10
-642.270522699393
 20
-7122.562772520443
 11
-648.3953980626647
 21
-7122.562772520443
 72
     2
 10
-648.3952305988724
 20
-7121.198919761912
 40
1.363852768812098
 50
90.00703519380103
 51
145.6187009209687
 73
     0
 72
     2
 10
-650.6465113555069
 20
-7122.739702544355
 40
1.364200882607377
 50
34.39439223556455
 51
90.0060579627264
 73
     1
 72
     1
 10
-650.6466555943697
 20
-7121.375501669373
 11
-654.465292498171
 21
-7121.375501669373
 72
     2
 10
-654.4652252715776
 20
-7122.739301563379
 40
1.363799895663673
 50
90.00282431468571
 51
145.6144900418587
 73
     1
 72
     2
 10
-656.7165060282121
 20
-7121.198518780937
 40
1.364253740215838
 50
34.3901822499172
 51
90.00184797707381
 73
     0
 72
     1
 10
-656.716550029876
 20
-7122.562772520443
 11
-675.1004805839547
 21
-7122.562772520443
 72
     2
 10
-675.1005245846291
 20
-7121.198518782813
 40
1.364253738339426
 50
89.99815206448182
 51
145.6098177916363
 73
     0
 72
     2
 10
-677.3518053402723
 20
-7122.739301563375
 40
1.363799895659943
 50
34.38550995805832
 51
89.99717568523788
 73
     1
 72
     1
 10
-677.3517381136771
 20
-7121.375501669373
 11
-681.1703750194647
 21
-7121.375501669373
 72
     2
 10
-681.1705192583275
 20
-7122.739702544355
 40
1.364200882607329
 50
89.9939420372736
 51
145.6056077644354
 73
     1
 72
     2
 10
-683.4218000139689
 20
-7121.198919763796
 40
1.363852766928582
 50
34.38129903728732
 51
89.99296476446602
 73
     0
 72
     1
 10
-683.4216325491833
 20
-7122.562772520443
 11
-689.5465079124551
 21
-7122.562772520443
 72
     2
 10
-689.546561770615
 20
-7121.198664971257
 40
1.36410755024915
 50
89.99773782847388
 51
179.9978205427857
 73
     0
 72
     1
 10
-690.9106693198773
 20
-7121.198716860141
 11
-690.9106693198773
 21
-7112.430739115691
 72
     2
 10
-689.5466935241106
 20
-7112.430725244961
 40
1.363975795837018
 50
179.9994173399247
 51
239.9993730061137
 73
     0
 72
     2
 10
-690.9107170446049
 20
-7110.068198075059
 40
1.36404451075803
 50
300.0000213811523
 51
419.9999786188477
 73
     1
 72
     2
 10
-689.5466935241106
 20
-7107.705670905158
 40
1.363975795837219
 50
120.0006269938862
 51
180.0005826600752
 73
     0
 72
     1
 10
-690.9106693198773
 20
-7107.705657034428
 11
-690.9106693198773
 21
-7099.663427542771
 72
     2
 10
-689.5466935241106
 20
-7099.663413672043
 40
1.363975795837018
 50
179.9994173399247
 51
239.9993730061137
 73
     0
 72
     2
 10
-690.9107170537732
 20
-7097.300886486261
 40
1.364044529094459
 50
300.0000213811549
 51
419.999978618845
 73
     1
 72
     2
 10
-689.546693551612
 20
-7094.938359316357
 40
1.363975768335643
 50
120.0006263269228
 51
180.0005819931103
 73
     0
 72
     1
 10
-690.9106693198773
 20
-7094.938345461506
 11
-690.9106693198773
 21
-7086.896115969851
 72
     2
 10
-689.5466935241074
 20
-7086.896102099121
 40
1.363975795840185
 50
179.9994173398483
 51
239.9993730060361
 73
     0
 72
     2
 10
-690.9107475740603
 20
-7084.533522050695
 40
1.364105569629221
 50
300.0000213811524
 51
419.9999786188476
 73
     1
 72
     2
 10
-689.5466935241106
 20
-7082.170942002271
 40
1.363975795837219
 50
120.0006269938862
 51
180.0005826600752
 73
     0
 72
     1
 10
-690.9106693198773
 20
-7082.170928131542
 11
-690.9106693198773
 21
-7072.83125448272
 72
     2
 10
-689.546561770615
 20
-7072.831306371604
 40
1.364107550249196
 50
180.0021794572142
 51
270.0022621715261
 73
     0
 72
     1
 10
-689.5465079124551
 20
-7071.467198822418
 11
-685.5853435261997
 21
-7071.467198822418
 72
     1
 10
-685.5853435261997
 20
-7071.467198822418
 11
-685.5853435261997
 21
-7072.967198822418
 72
     1
 10
-685.5853435261997
 20
-7072.967198822418
 11
-688.4106693198773
 21
-7072.967198822418
 72
     2
 10
-688.4106693198773
 20
-7073.967198822419
 40
1.0
 50
90.0
 51
180.0
 73
     1
 72
     1
 10
-689.4106693198773
 20
-7073.967198822419
 11
-689.4106693198773
 21
-7082.093672476374
 72
     2
 10
-690.910747574054
 20
-7084.533522050697
 40
2.864105569628328
 50
301.5842014864555
 51
418.4157985135444
 73
     0
 72
     1
 10
-689.4106693198773
 20
-7086.97337162502
 11
-689.4106693198773
 21
-7094.861089801972
 72
     2
 10
-690.9107170537707
 20
-7097.300886486263
 40
2.86404452909423
 50
301.584235532359
 51
418.4157644675599
 73
     0
 72
     1
 10
-689.4106693198737
 20
-7099.740683170551
 11
-689.4106693198773
 21
-7107.628401406659
 72
     2
 10
-690.9107170446088
 20
-7110.068198075059
 40
2.864044510759621
 50
301.5842355427124
 51
418.4157644572875
 73
     0
 72
     1
 10
-689.4106693198773
 20
-7112.507994743461
 11
-689.4106693198773
 21
-7120.062772520443
 72
     2
 10
-688.4106693198773
 20
-7120.062772520443
 40
1.0
 50
180.0
 51
270.0
 73
     1
 72
     1
 10
-688.4106693198773
 20
-7121.062772520443
 11
-683.4924909185429
 21
-7121.062772520443
 72
     2
 10
-681.1705192583322
 20
-7122.739702544349
 40
2.864200882602513
 50
215.8368500797323
 51
270.0041807823925
 73
     0
 72
     1
 10
-681.1703102621249
 20
-7119.875501669373
 11
-677.3517381136771
 21
-7119.875501669373
 72
     2
 10
-677.3517381184266
 20
-7121.375501687822
 40
1.500000018450009
 50
270.0000001814172
 51
270.0028244958716
 73
     0
 72
     2
 10
-677.3518053402657
 20
-7122.739301563367
 40
2.863799895650613
 50
270.0028243144872
 51
324.1672517372323
 73
     0
 72
     1
 10
-675.0300387261195
 20
-7121.062772520443
 11
-656.7869918857286
 21
-7121.062772520443
 72
     2
 10
-654.4652252715828
 20
-7122.739301563365
 40
2.863799895649676
 50
215.8327482627581
 51
269.9971756855219
 73
     0
 72
     2
 10
-654.4652924934232
 20
-7121.375501618634
 40
1.499999949261109
 50
269.9971755040631
 51
269.9999998185087
 73
     0
 72
     1
 10
-654.4652924981747
 20
-7119.875501669373
 11
-650.64672035482
 21
-7119.875501669373
 72
     2
 10
-650.646511355504
 20
-7122.739702544352
 40
2.864200882605558
 50
269.9958191554193
 51
324.1631499202433
 73
     0
 72
     1
 10
-648.3245396952916
 20
-7121.062772520443
 11
-643.4063612939572
 21
-7121.062772520443
 72
     2
 10
-643.4063612939572
 20
-7120.062772520443
 40
1.0
 50
270.0
 51
360.0
 73
     1
 72
     1
 10
-642.4063612939571
 20
-7120.062772520443
 11
-642.4063612939571
 21
-7112.507994742242
 72
     2
 10
-640.9063135672434
 20
-7110.068198075059
 40
2.864044510759629
 50
121.5842355892629
 51
238.415764410737
 73
     0
 72
     1
 10
-642.4063612939571
 20
-7107.628401407878
 11
-642.4063612939571
 21
-7099.740683169329
 72
     2
 10
-640.9063135580768
 20
-7097.300886486261
 40
2.864044529094415
 50
121.5842355790195
 51
238.4157644209804
 73
     0
 72
     1
 10
-642.4063612939571
 20
-7094.861089803192
 11
-642.4063612939571
 21
-7086.973371623797
 72
     2
 10
-640.9062830377892
 20
-7084.533522050698
 40
2.864105569628391
 50
121.5842015332153
 51
238.4157984667846
 73
     0
 72
     1
 10
-642.4063612939571
 20
-7082.093672477601
 11
-642.4063612939571
 21
-7076.149730194422
 72
     2
 10
-643.4063612939572
 20
-7076.149730194422
 40
1.0
 50
0.0
 51
90.0
 73
     1
 72
     1
 10
-643.4063612939572
 20
-7075.149730194422
 11
-646.231687085652
 21
-7075.149730194422
 97
        7
330
3170
330
2F24
330
30BC
330
30BD
330
30BE
330
30BF
330
2F54
 75
     0
 76
     1
 98
        1
 10
-2451.848513168457
 20
-28045.60473352046
  0
LINE
  5
2F74
330
1F
100
AcDbEntity
  8
STAVBA OBRYS
  6
Continuous
100
AcDbLine
 10
-647.9231743792734
 20
-7058.959136629986
 30
0.0
 11
-649.2830913928155
 21
-7054.914732270393
 31
0.0
  0
LINE
  5
2F75
330
1F
100
AcDbEntity
  8
STAVBA OBRYS
  6
Continuous
100
AcDbLine
 10
-648.5194170644208
 20
-7058.959136629986
 30
0.0
 11
-649.8793340776938
 21
-7054.914732270393
 31
0.0
  0
LINE
  5
2F76
330
1F
100
AcDbEntity
  8
STAVBA OBRYS
  6
Continuous
100
AcDbLine
 10
-648.3008257524016
 20
-7059.336788005296
 30
0.0
 11
-649.5007525288638
 21
-7054.537080899447
 31
0.0
  0
LINE
  5
2F77
330
1F
100
AcDbEntity
  8
STAVBA OBRYS
  6
Continuous
100
AcDbLine
 10
-657.5132868339533
 20
-7058.51823330477
 30
0.0
 11
-658.1467365507233
 21
-7055.402144388338
 31
0.0
  0
LINE
  5
2F78
330
1F
100
AcDbEntity
  8
STAVBA OBRYS
  6
Continuous
100
AcDbLine
 10
-657.1347052848468
 20
-7058.140581929459
 30
0.0
 11
-657.929075414675
 21
-7055.779795759284
 31
0.0
  0
LINE
  5
2F79
330
1F
100
AcDbEntity
  8
STAVBA OBRYS
  6
Continuous
100
AcDbLine
 10
-654.4985870796554
 20
-7059.082850010875
 30
0.0
 11
-655.47155096196
 21
-7054.957520358133
 31
0.0
  0
LINE
  5
2F7A
330
1F
100
AcDbEntity
  8
STAVBA OBRYS
  6
Continuous
100
AcDbLine
 10
-654.1209357065272
 20
-7058.704268462591
 30
0.0
 11
-655.2538898259117
 21
-7055.335171729078
 31
0.0
  0
LINE
  5
2F7B
330
1F
100
AcDbEntity
  8
STAVBA OBRYS
  6
Continuous
100
AcDbLine
 10
-654.7171783916819
 20
-7058.704268462591
 30
0.0
 11
-655.8501325110665
 21
-7055.335171729078
 31
0.0
  0
LINE
  5
2F7C
330
1F
100
AcDbEntity
  8
STAVBA OBRYS
  6
Continuous
100
AcDbLine
 10
-651.0429839982353
 20
-7058.959136629986
 30
0.0
 11
-652.4029010117774
 21
-7054.914732270393
 31
0.0
  0
LINE
  5
2F7D
330
1F
100
AcDbEntity
  8
STAVBA OBRYS
  6
Continuous
100
AcDbLine
 10
-651.63922668339
 20
-7058.959136629986
 30
0.0
 11
-652.9991436969321
 21
-7054.914732270393
 31
0.0
  0
LINE
  5
2F7E
330
1F
100
AcDbEntity
  8
STAVBA OBRYS
  6
Continuous
100
AcDbLine
 10
-651.4215655473417
 20
-7059.336788005296
 30
0.0
 11
-652.621492323804
 21
-7054.537080899447
 31
0.0
  0
LINE
  5
2F7F
330
1F
100
AcDbEntity
  8
STAVBA OBRYS
  6
Continuous
100
AcDbLine
 10
-660.5270564122729
 20
-7057.953616594298
 30
0.0
 11
-660.8377351280469
 21
-7055.799329452842
 31
0.0
  0
LINE
  5
2F80
330
1F
100
AcDbEntity
  8
STAVBA OBRYS
  6
Continuous
100
AcDbLine
 10
-660.5270564122729
 20
-7057.953616594298
 30
0.0
 11
-660.1494050391448
 21
-7057.575965223353
 31
0.0
  0
LINE
  5
2F81
330
1F
100
AcDbEntity
  8
STAVBA OBRYS
  6
Continuous
100
AcDbLine
 10
-660.5270564122729
 20
-7057.953616594298
 30
0.0
 11
-660.7456477242922
 21
-7057.575965223353
 31
0.0
  0
LINE
  5
2F82
330
1F
100
AcDbEntity
  8
STAVBA OBRYS
  6
Continuous
100
AcDbLine
 10
-670.9874493330353
 20
-7057.953616594298
 30
0.0
 11
-670.768858021016
 21
-7057.575965223353
 31
0.0
  0
LINE
  5
2F83
330
1F
100
AcDbEntity
  8
STAVBA OBRYS
  6
Continuous
100
AcDbLine
 10
-670.9874493330353
 20
-7057.953616594298
 30
0.0
 11
-671.3651007061635
 21
-7057.575965223353
 31
0.0
  0
LINE
  5
2F84
330
1F
100
AcDbEntity
  8
STAVBA OBRYS
  6
Continuous
100
AcDbLine
 10
-670.9874493330353
 20
-7057.953616594298
 30
0.0
 11
-670.6767706172613
 21
-7055.799329452842
 31
0.0
  0
LINE
  5
2F85
330
1F
100
AcDbEntity
  8
STAVBA OBRYS
  6
Continuous
100
AcDbLine
 10
-676.7973273536263
 20
-7058.704268462591
 30
0.0
 11
-675.6643732342418
 21
-7055.335171729078
 31
0.0
  0
LINE
  5
2F86
330
1F
100
AcDbEntity
  8
STAVBA OBRYS
  6
Continuous
100
AcDbLine
 10
-677.393570038781
 20
-7058.704268462591
 30
0.0
 11
-676.2606159193965
 21
-7055.335171729078
 31
0.0
  0
LINE
  5
2F87
330
1F
100
AcDbEntity
  8
STAVBA OBRYS
  6
Continuous
100
AcDbLine
 10
-677.0159186656528
 20
-7059.082850010875
 30
0.0
 11
-676.0429547833482
 21
-7054.957520358133
 31
0.0
  0
LINE
  5
2F88
330
1F
100
AcDbEntity
  8
STAVBA OBRYS
  6
Continuous
100
AcDbLine
 10
-673.7835577753067
 20
-7058.140581929459
 30
0.0
 11
-672.989187645755
 21
-7055.779795759284
 31
0.0
  0
LINE
  5
2F89
330
1F
100
AcDbEntity
  8
STAVBA OBRYS
  6
Continuous
100
AcDbLine
 10
-674.3798004604614
 20
-7058.140581929459
 30
0.0
 11
-673.5854303306332
 21
-7055.779795759284
 31
0.0
  0
LINE
  5
2F8A
330
1F
100
AcDbEntity
  8
STAVBA OBRYS
  6
Continuous
100
AcDbLine
 10
-674.0012189113549
 20
-7058.51823330477
 30
0.0
 11
-673.367769194585
 21
-7055.402144388338
 31
0.0
  0
LINE
  5
2F8B
330
1F
100
AcDbEntity
  8
STAVBA OBRYS
  6
Continuous
100
AcDbLine
 10
-683.2136799929067
 20
-7059.336788005296
 30
0.0
 11
-682.0137532164444
 21
-7054.537080899447
 31
0.0
  0
LINE
  5
2F8C
330
1F
100
AcDbEntity
  8
STAVBA OBRYS
  6
Continuous
100
AcDbLine
 10
-682.9950886808874
 20
-7058.959136629986
 30
0.0
 11
-681.6351716676145
 21
-7054.914732270393
 31
0.0
  0
LINE
  5
2F8D
330
1F
100
AcDbEntity
  8
STAVBA OBRYS
  6
Continuous
100
AcDbLine
 10
-683.5913313660348
 20
-7058.959136629986
 30
0.0
 11
-682.2314143524927
 21
-7054.914732270393
 31
0.0
  0
LINE
  5
2F8E
330
1F
100
AcDbEntity
  8
STAVBA OBRYS
  6
Continuous
100
AcDbLine
 10
-680.0929401979665
 20
-7059.336788005296
 30
0.0
 11
-678.8930134215043
 21
-7054.537080899447
 31
0.0
  0
LINE
  5
2F8F
330
1F
100
AcDbEntity
  8
STAVBA OBRYS
  6
Continuous
100
AcDbLine
 10
-679.8752790619182
 20
-7058.959136629986
 30
0.0
 11
-678.5153620483761
 21
-7054.914732270393
 31
0.0
  0
LINE
  5
2F90
330
1F
100
AcDbEntity
  8
STAVBA OBRYS
  6
Continuous
100
AcDbLine
 10
-680.471521747073
 20
-7058.959136629986
 30
0.0
 11
-679.1116047335308
 21
-7054.914732270393
 31
0.0
  0
LINE
  5
2F91
330
1F
100
AcDbEntity
  8
STAVBA OBRYS
  6
Continuous
100
AcDbLine
 10
-673.6384503510926
 20
-7057.69037684395
 30
0.0
 11
-671.3176617407371
 21
-7057.400161998796
 31
0.0
  0
LINE
  5
2F92
330
1F
100
AcDbEntity
  8
STAVBA OBRYS
  6
Continuous
100
AcDbLine
 10
-657.7309479700016
 20
-7058.140581929459
 30
0.0
 11
-658.5253180995533
 21
-7055.779795759284
 31
0.0
  0
LINE
  5
2F93
330
1F
100
AcDbEntity
  8
STAVBA OBRYS
  6
Continuous
100
AcDbLine
 10
-657.8760553942156
 20
-7057.69037684395
 30
0.0
 11
-660.1968440045712
 21
-7057.400161998796
 31
0.0
  0
LINE
  5
2F94
330
1F
100
AcDbEntity
  8
STAVBA OBRYS
  6
Continuous
100
AcDbLine
 10
-689.4532992311142
 20
-7059.336788005296
 30
0.0
 11
-688.2533724543755
 21
-7054.537080899447
 31
0.0
  0
LINE
  5
2F95
330
1F
100
AcDbEntity
  8
STAVBA OBRYS
  6
Continuous
100
AcDbLine
 10
-689.2347079190876
 20
-7058.959136629986
 30
0.0
 11
-687.8757210815238
 21
-7054.914732270393
 31
0.0
  0
LINE
  5
2F96
330
1F
100
AcDbEntity
  8
STAVBA OBRYS
  6
Continuous
100
AcDbLine
 10
-689.8309506042424
 20
-7058.959136629986
 30
0.0
 11
-688.471963766402
 21
-7054.914732270393
 31
0.0
  0
LINE
  5
2F97
330
1F
100
AcDbEntity
  8
STAVBA OBRYS
  6
Continuous
100
AcDbLine
 10
-686.3334896118758
 20
-7059.336788005296
 30
0.0
 11
-685.1335628354136
 21
-7054.537080899447
 31
0.0
  0
LINE
  5
2F98
330
1F
100
AcDbEntity
  8
STAVBA OBRYS
  6
Continuous
100
AcDbLine
 10
-686.1148982998493
 20
-7058.959136629986
 30
0.0
 11
-684.7549812865836
 21
-7054.914732270393
 31
0.0
  0
LINE
  5
2F99
330
1F
100
AcDbEntity
  8
STAVBA OBRYS
  6
Continuous
100
AcDbLine
 10
-686.711140985004
 20
-7058.959136629986
 30
0.0
 11
-685.3512239717311
 21
-7054.914732270393
 31
0.0
  0
LINE
  5
2F9A
330
1F
100
AcDbEntity
  8
STAVBA OBRYS
  6
Continuous
100
AcDbLine
 10
-692.5731088500761
 20
-7059.336788005296
 30
0.0
 11
-691.3731820736138
 21
-7054.537080899447
 31
0.0
  0
LINE
  5
2F9B
330
1F
100
AcDbEntity
  8
STAVBA OBRYS
  6
Continuous
100
AcDbLine
 10
-692.951690398906
 20
-7058.959136629986
 30
0.0
 11
-691.5917733856404
 21
-7054.914732270393
 31
0.0
  0
LINE
  5
2F9C
330
1F
100
AcDbEntity
  8
STAVBA OBRYS
  6
Continuous
100
AcDbLine
 10
-692.3554477140278
 20
-7058.959136629986
 30
0.0
 11
-690.9955307004857
 21
-7054.914732270393
 31
0.0
  0
LINE
  5
2F9D
330
1F
100
AcDbEntity
  8
STAVBA OBRYS
  6
Continuous
100
AcDbLine
 10
-703.3733800150294
 20
-7062.037088341006
 30
0.0
 11
-703.3733800150294
 21
-7051.836780563738
 31
0.0
  0
LINE
  5
2F9E
330
1F
100
AcDbEntity
  8
STAVBA OBRYS
  6
Continuous
100
AcDbLine
 10
-702.1734532382979
 20
-7062.037088341006
 30
0.0
 11
-702.1734532382979
 21
-7051.836780563738
 31
0.0
  0
LINE
  5
2F9F
330
1F
100
AcDbEntity
  8
SPOJOVACÍ
  6
DASHED
100
AcDbLine
 10
-732.847293982948
 20
-7003.185687062014
 30
0.0
 11
-732.847293982948
 21
-7004.36161530321
 31
0.0
  0
LINE
  5
2FA0
330
1F
100
AcDbEntity
  8
SPOJOVACÍ
  6
DASHED
100
AcDbLine
 10
-742.8435956046705
 20
-7003.185687062014
 30
0.0
 11
-742.8435956046705
 21
-7004.36161530321
 31
0.0
  0
LINE
  5
2FA1
330
1F
100
AcDbEntity
  8
SPOJOVACÍ
  6
DASHED
100
AcDbLine
 10
-749.6816315070173
 20
-7003.088997892518
 30
0.0
 11
-749.6816315070173
 21
-7005.557535626447
 31
0.0
  0
LINE
  5
2FA2
330
1F
100
AcDbEntity
  8
SPOJOVACÍ
  6
DASHED
100
AcDbLine
 10
-752.3270142664987
 20
-7002.193833913759
 30
0.0
 11
-752.3270142664987
 21
-7004.662371647689
 31
0.0
  0
LINE
  5
2FA3
330
1F
100
AcDbEntity
  8
izolace
  6
IZOLACE
 48
0.7
370
    20
100
AcDbLine
 10
-710.8733800150258
 20
-7045.185687062015
 30
0.0
 11
-710.8733800150258
 21
-6991.185687062014
 31
0.0
  0
LWPOLYLINE
  5
2FA4
330
1F
100
AcDbEntity
  8
izolace
100
AcDbPolyline
 90
        4
 70
     1
 43
0.0
 10
-703.3733800150255
 20
-6991.185687062014
 10
-718.3733800150255
 20
-6991.185687062014
 10
-718.3733800150255
 20
-7045.185687062015
 10
-703.3733800150285
 20
-7045.185687062015
  0
LINE
  5
2FA5
330
1F
100
AcDbEntity
  8
CETRIS
100
AcDbLine
 10
-718.3733800150257
 20
-7015.185687062014
 30
0.0
 11
-718.3733800150257
 21
-6991.185687062014
 31
0.0
  0
LINE
  5
2FA6
330
1F
100
AcDbEntity
  8
STAVBA OBRYS
100
AcDbLine
 10
-771.6009004610151
 20
-7029.757350531494
 30
0.0
 11
-756.3603856425279
 21
-7028.038333551951
 31
0.0
  0
LINE
  5
2FA7
330
1F
100
AcDbEntity
  8
STAVBA OBRYS
100
AcDbLine
 10
-773.5674189110995
 20
-7022.390135817737
 30
0.0
 11
-755.8687549734504
 21
-7021.653414559359
 31
0.0
  0
LINE
  5
2FA8
330
1F
100
AcDbEntity
  8
CETRIS
100
AcDbLine
 10
-815.9862335987636
 20
-7015.185687062014
 30
0.0
 11
-718.3733800150257
 21
-7015.185687062015
 31
0.0
  0
LWPOLYLINE
  5
2FA9
330
1F
100
AcDbEntity
  8
0
100
AcDbPolyline
 90
        4
 70
     1
 43
0.0
 10
-798.3733800150255
 20
-7045.185687062015
 10
-718.3733800150255
 20
-7045.185687062015
 10
-718.3733800150255
 20
-7015.185687062015
 10
-798.3733800150255
 20
-7015.185687062015
  0
LINE
  5
2FAA
330
1F
100
AcDbEntity
  8
izolace
  6
IZOLACE
100
AcDbLine
 10
-798.0958259737708
 20
-7057.685687062015
 30
0.0
 11
-703.3733800150257
 21
-7057.685687062015
 31
0.0
  0
LINE
  5
2FAB
330
1F
100
AcDbEntity
  8
STAVBA OBRYS
100
AcDbLine
 10
-766.1929757798389
 20
-7035.89669612629
 30
0.0
 11
-748.0026832862241
 21
-7035.89669612629
 31
0.0
  0
LINE
  5
2FAC
330
1F
100
AcDbEntity
  8
STAVBA OBRYS
100
AcDbLine
 10
-772.8299739640397
 20
-7033.686531286166
 30
0.0
 11
-750.9524609613517
 21
-7032.458662167208
 31
0.0
  0
LINE
  5
2FAD
330
1F
100
AcDbEntity
  8
STAVBA OBRYS
100
AcDbLine
 10
-759.8017918736196
 20
-7025.337021916238
 30
0.0
 11
-739.8907952079034
 21
-7025.828169776821
 31
0.0
  0
LINE
  5
2FAE
330
1F
100
AcDbEntity
  8
STAVBA OBRYS
100
AcDbLine
 10
-769.1427534549656
 20
-7018.706528460859
 30
0.0
 11
-742.3489443270664
 21
-7018.952102923646
 31
0.0
  0
LINE
  5
2FAF
330
1F
100
AcDbEntity
  8
STAVBA OBRYS
100
AcDbLine
 10
-758.5727183705948
 20
-7040.562598139342
 30
0.0
 11
-743.0863871610126
 21
-7041.299319397719
 31
0.0
  0
LINE
  5
2FB0
330
1F
100
AcDbEntity
  8
STAVBA OBRYS
100
AcDbLine
 10
-768.8969391769833
 20
-7041.790467258301
 30
0.0
 11
-758.5727183705948
 21
-7040.562598139342
 31
0.0
  0
LINE
  5
2FB1
330
1F
100
AcDbEntity
  8
STAVBA OBRYS
100
AcDbLine
 10
-795.1991197489187
 20
-7044.73735229181
 30
0.0
 11
-784.1374539954704
 21
-7039.825876880964
 31
0.0
  0
LWPOLYLINE
  5
2FB2
330
1F
100
AcDbEntity
  8
izolace
100
AcDbPolyline
 90
        4
 70
     1
 43
0.0
 10
-792.3445008889282
 20
-7125.185687062014
 10
-815.9862335987634
 20
-7125.185687062014
 10
-815.9862335987634
 20
-7128.185687062014
 10
-792.3445008889282
 20
-7128.185687062014
  0
HATCH
  5
2FB3
330
1F
100
AcDbEntity
  8
izolace
100
AcDbHatch
 10
0.0
 20
0.0
 30
0.0
210
0.0
220
0.0
230
1.0
  2
SOLID
 70
     1
 71
     0
 91
        1
 92
        7
 72
     0
 73
     1
 93
        4
 10
-792.3445008889282
 20
-7125.185687062014
 10
-815.9862335987597
 20
-7125.185687062014
 10
-815.9862335987634
 20
-7128.185687062014
 10
-792.3445008889245
 20
-7128.185687062014
 97
        0
 75
     0
 76
     1
 47
0.1901250437635136
 98
        3
 10
-764.1010106247411
 20
-7126.953131991403
 10
-800.4372014520811
 20
-7127.143258667064
 10
-804.4322736413084
 20
-7126.57287864008
  0
LINE
  5
2FB4
330
1F
100
AcDbEntity
  8
0
100
AcDbLine
 10
-783.3289283721897
 20
-7105.185687062015
 30
0.0
 11
-783.3289283721897
 21
-7125.185687062014
 31
0.0
  0
LWPOLYLINE
  5
2FB5
330
1F
100
AcDbEntity
  8
izolace
100
AcDbPolyline
 90
        4
 70
     1
 43
0.0
 10
-745.0610354692578
 20
-7125.185687062014
 10
-768.702768179093
 20
-7125.185687062014
 10
-768.702768179093
 20
-7128.185687062014
 10
-745.0610354692578
 20
-7128.185687062014
  0
HATCH
  5
2FB6
330
1F
100
AcDbEntity
  8
izolace
100
AcDbHatch
 10
0.0
 20
0.0
 30
0.0
210
0.0
220
0.0
230
1.0
  2
SOLID
 70
     1
 71
     0
 91
        1
 92
        7
 72
     0
 73
     1
 93
        4
 10
-745.0610354692542
 20
-7125.185687062014
 10
-768.7027681790894
 20
-7125.185687062014
 10
-768.702768179093
 20
-7128.185687062014
 10
-745.0610354692542
 20
-7128.185687062014
 97
        0
 75
     0
 76
     1
 47
0.1901250437635136
 98
        1
 10
-759.3449734207495
 20
-7126.002498613094
  0
LINE
  5
2FB7
330
1F
100
AcDbEntity
  8
STAVBA OBRYS
100
AcDbLine
 10
-780.2044170953004
 20
-7044.73735229181
 30
0.0
 11
-768.8969391769833
 21
-7041.790467258301
 31
0.0
  0
LINE
  5
2FB8
330
1F
100
AcDbEntity
  8
izolace
  6
IZOLACE
 48
2.6
370
    20
100
AcDbLine
 10
-822.1796799820513
 20
-7041.822508767452
 30
0.0
 11
-789.5223747554774
 21
-7041.822508767452
 31
0.0
  0
INSERT
  5
2FB9
330
1F
100
AcDbEntity
  8
POPIS
100
AcDbBlockReference
  2
E_PUNKT
 10
-778.9580111775694
 20
-7032.09524191642
 30
0.0
 50
270.0
  0
LINE
  5
2FBA
330
1F
100
AcDbEntity
  8
SPOJOVACÍ
  6
DASHED
100
AcDbLine
 10
-748.6524664070311
 20
-7006.003294471454
 30
0.0
 11
-749.0225647505576
 21
-7006.373392816851
 31
0.0
  0
LINE
  5
2FBB
330
1F
100
AcDbEntity
  8
SPOJOVACÍ
  6
DASHED
100
AcDbLine
 10
-748.6524664070311
 20
-7006.003294471454
 30
0.0
 11
-749.0225647505576
 21
-7005.78907498567
 31
0.0
  0
LINE
  5
2FBC
330
1F
100
AcDbEntity
  8
SPOJOVACÍ
  6
DASHED
100
AcDbLine
 10
-749.6816315070173
 20
-7009.202001601316
 30
0.0
 11
-749.6816315070173
 21
-7011.672362479891
 31
0.0
  0
LINE
  5
2FBD
330
1F
100
AcDbEntity
  8
SPOJOVACÍ
  6
DASHED
100
AcDbLine
 10
-749.6816315070173
 20
-7012.261238172545
 30
0.0
 11
-749.6816315070173
 21
-7014.729775906473
 31
0.0
  0
LINE
  5
2FBE
330
1F
100
AcDbEntity
  8
SPOJOVACÍ
  6
DASHED
100
AcDbLine
 10
-749.6816315070173
 20
-7015.321386316225
 30
0.0
 11
-749.6816315070173
 21
-7015.651375481351
 31
0.0
  0
LINE
  5
2FBF
330
1F
100
AcDbEntity
  8
SPOJOVACÍ
  6
DASHED
100
AcDbLine
 10
-749.9222865902557
 20
-7017.582997142412
 30
0.0
 11
-749.6816315070173
 21
-7015.651375481351
 31
0.0
  0
LINE
  5
2FC0
330
1F
100
AcDbEntity
  8
SPOJOVACÍ
  6
DASHED
100
AcDbLine
 10
-748.6524664070311
 20
-7009.060707898036
 30
0.0
 11
-749.0225647505576
 21
-7009.43171781589
 31
0.0
  0
LINE
  5
2FC1
330
1F
100
AcDbEntity
  8
SPOJOVACÍ
  6
DASHED
100
AcDbLine
 10
-748.6524664070311
 20
-7009.060707898036
 30
0.0
 11
-749.0225647505576
 21
-7008.847399984446
 31
0.0
  0
LINE
  5
2FC2
330
1F
100
AcDbEntity
  8
SPOJOVACÍ
  6
DASHED
100
AcDbLine
 10
-748.6524664070311
 20
-7012.118121324627
 30
0.0
 11
-749.0225647505576
 21
-7012.489131242481
 31
0.0
  0
LINE
  5
2FC3
330
1F
100
AcDbEntity
  8
SPOJOVACÍ
  6
DASHED
100
AcDbLine
 10
-748.6524664070311
 20
-7012.118121324627
 30
0.0
 11
-749.0225647505576
 21
-7011.9048134113
 31
0.0
  0
LINE
  5
2FC4
330
1F
100
AcDbEntity
  8
SPOJOVACÍ
  6
DASHED
100
AcDbLine
 10
-748.6524664070311
 20
-7015.176446323668
 30
0.0
 11
-749.0225647505576
 21
-7015.546544669334
 31
0.0
  0
LINE
  5
2FC5
330
1F
100
AcDbEntity
  8
SPOJOVACÍ
  6
DASHED
100
AcDbLine
 10
-748.6524664070311
 20
-7015.176446323668
 30
0.0
 11
-749.0225647505576
 21
-7014.962226837882
 31
0.0
  0
LINE
  5
2FC6
330
1F
100
AcDbEntity
  8
SPOJOVACÍ
  6
DASHED
100
AcDbLine
 10
-749.6816315070173
 20
-7006.141853457899
 30
0.0
 11
-749.6816315070173
 21
-7008.61950691451
 31
0.0
  0
LINE
  5
2FC7
330
1F
100
AcDbEntity
  8
SPOJOVACÍ
  6
DASHED
100
AcDbLine
 10
-753.3561793707631
 20
-7004.827366230251
 30
0.0
 11
-752.9860810229584
 21
-7005.041585716037
 31
0.0
  0
LINE
  5
2FC8
330
1F
100
AcDbEntity
  8
SPOJOVACÍ
  6
DASHED
100
AcDbLine
 10
-753.3561793707631
 20
-7004.827366230251
 30
0.0
 11
-752.9860810229584
 21
-7004.457267884586
 31
0.0
  0
LINE
  5
2FC9
330
1F
100
AcDbEntity
  8
SPOJOVACÍ
  6
DASHED
100
AcDbLine
 10
-752.3270142664987
 20
-7008.306837622557
 30
0.0
 11
-752.3270142664987
 21
-7010.784491079168
 31
0.0
  0
LINE
  5
2FCA
330
1F
100
AcDbEntity
  8
SPOJOVACÍ
  6
DASHED
100
AcDbLine
 10
-752.3270142664987
 20
-7011.377013061109
 30
0.0
 11
-752.3270142664987
 21
-7013.844639222849
 31
0.0
  0
LINE
  5
2FCB
330
1F
100
AcDbEntity
  8
SPOJOVACÍ
  6
DASHED
100
AcDbLine
 10
-752.3270142664987
 20
-7014.428957054301
 30
0.0
 11
-752.3270142664987
 21
-7015.651375481351
 31
0.0
  0
LINE
  5
2FCC
330
1F
100
AcDbEntity
  8
SPOJOVACÍ
  6
DASHED
100
AcDbLine
 10
-752.3270142664987
 20
-7015.651375481351
 30
0.0
 11
-752.1802511298301
 21
-7016.824569005722
 31
0.0
  0
LINE
  5
2FCD
330
1F
100
AcDbEntity
  8
SPOJOVACÍ
  6
DASHED
100
AcDbLine
 10
-753.1073201362305
 20
-7017.015999184403
 30
0.0
 11
-752.7363102189119
 21
-7017.23021867019
 31
0.0
  0
LINE
  5
2FCE
330
1F
100
AcDbEntity
  8
SPOJOVACÍ
  6
DASHED
100
AcDbLine
 10
-753.1073201362305
 20
-7017.015999184403
 30
0.0
 11
-752.7363102189119
 21
-7016.645900838738
 31
0.0
  0
LINE
  5
2FCF
330
1F
100
AcDbEntity
  8
SPOJOVACÍ
  6
DASHED
100
AcDbLine
 10
-753.3561793707631
 20
-7007.884779657103
 30
0.0
 11
-752.9860810229584
 21
-7008.098999142891
 31
0.0
  0
LINE
  5
2FD0
330
1F
100
AcDbEntity
  8
SPOJOVACÍ
  6
DASHED
100
AcDbLine
 10
-753.3561793707631
 20
-7007.884779657103
 30
0.0
 11
-752.9860810229584
 21
-7007.514681311438
 31
0.0
  0
LINE
  5
2FD1
330
1F
100
AcDbEntity
  8
SPOJOVACÍ
  6
DASHED
100
AcDbLine
 10
-753.3561793707631
 20
-7010.942193083694
 30
0.0
 11
-752.9860810229584
 21
-7011.156412569473
 31
0.0
  0
LINE
  5
2FD2
330
1F
100
AcDbEntity
  8
SPOJOVACÍ
  6
DASHED
100
AcDbLine
 10
-753.3561793707631
 20
-7010.942193083694
 30
0.0
 11
-752.9860810229584
 21
-7010.572094738029
 31
0.0
  0
LINE
  5
2FD3
330
1F
100
AcDbEntity
  8
SPOJOVACÍ
  6
DASHED
100
AcDbLine
 10
-753.3561793707631
 20
-7014.000518082736
 30
0.0
 11
-752.9860810229584
 21
-7014.213825996063
 31
0.0
  0
LINE
  5
2FD4
330
1F
100
AcDbEntity
  8
SPOJOVACÍ
  6
DASHED
100
AcDbLine
 10
-753.3561793707631
 20
-7014.000518082736
 30
0.0
 11
-752.9860810229584
 21
-7013.629508164611
 31
0.0
  0
LINE
  5
2FD5
330
1F
100
AcDbEntity
  8
SPOJOVACÍ
  6
DASHED
100
AcDbLine
 10
-752.3270142664987
 20
-7005.253982057176
 30
0.0
 11
-752.3270142664987
 21
-7007.724342935751
 31
0.0
  0
LINE
  5
2FD6
330
1F
100
AcDbEntity
  8
SPOJOVACÍ
  6
DASHED
100
AcDbLine
 10
-753.3561793707631
 20
-7004.827366230251
 30
0.0
 11
-748.6524664070311
 21
-7006.003294471454
 31
0.0
  0
LINE
  5
2FD7
330
1F
100
AcDbEntity
  8
SPOJOVACÍ
  6
DASHED
100
AcDbLine
 10
-752.9860810229584
 20
-7005.041585716037
 30
0.0
 11
-749.0225647505576
 21
-7006.373392816851
 31
0.0
  0
LINE
  5
2FD8
330
1F
100
AcDbEntity
  8
SPOJOVACÍ
  6
DASHED
100
AcDbLine
 10
-752.9860810229584
 20
-7004.457267884586
 30
0.0
 11
-749.0225647505576
 21
-7005.78907498567
 31
0.0
  0
LINE
  5
2FD9
330
1F
100
AcDbEntity
  8
SPOJOVACÍ
  6
DASHED
100
AcDbLine
 10
-752.7363102189119
 20
-7016.645900838738
 30
0.0
 11
-749.4345954200689
 21
-7017.756195875733
 31
0.0
  0
LINE
  5
2FDA
330
1F
100
AcDbEntity
  8
SPOJOVACÍ
  6
DASHED
100
AcDbLine
 10
-753.3561793707631
 20
-7007.884779657103
 30
0.0
 11
-748.6524664070311
 21
-7009.060707898036
 31
0.0
  0
LINE
  5
2FDB
330
1F
100
AcDbEntity
  8
SPOJOVACÍ
  6
DASHED
100
AcDbLine
 10
-752.9860810229584
 20
-7008.098999142891
 30
0.0
 11
-749.0225647505576
 21
-7009.43171781589
 31
0.0
  0
LINE
  5
2FDC
330
1F
100
AcDbEntity
  8
SPOJOVACÍ
  6
DASHED
100
AcDbLine
 10
-752.9860810229584
 20
-7007.514681311438
 30
0.0
 11
-749.0225647505576
 21
-7008.847399984446
 31
0.0
  0
LINE
  5
2FDD
330
1F
100
AcDbEntity
  8
SPOJOVACÍ
  6
DASHED
100
AcDbLine
 10
-753.3561793707631
 20
-7010.942193083694
 30
0.0
 11
-748.6524664070311
 21
-7012.118121324627
 31
0.0
  0
LINE
  5
2FDE
330
1F
100
AcDbEntity
  8
SPOJOVACÍ
  6
DASHED
100
AcDbLine
 10
-752.9860810229584
 20
-7011.156412569473
 30
0.0
 11
-749.0225647505576
 21
-7012.489131242481
 31
0.0
  0
LINE
  5
2FDF
330
1F
100
AcDbEntity
  8
SPOJOVACÍ
  6
DASHED
100
AcDbLine
 10
-752.9860810229584
 20
-7010.572094738029
 30
0.0
 11
-749.0225647505576
 21
-7011.9048134113
 31
0.0
  0
LINE
  5
2FE0
330
1F
100
AcDbEntity
  8
SPOJOVACÍ
  6
DASHED
100
AcDbLine
 10
-753.3561793707631
 20
-7014.000518082736
 30
0.0
 11
-748.6524664070311
 21
-7015.176446323668
 31
0.0
  0
LINE
  5
2FE1
330
1F
100
AcDbEntity
  8
SPOJOVACÍ
  6
DASHED
100
AcDbLine
 10
-752.9860810229584
 20
-7014.213825996063
 30
0.0
 11
-749.0225647505576
 21
-7015.546544669334
 31
0.0
  0
LINE
  5
2FE2
330
1F
100
AcDbEntity
  8
SPOJOVACÍ
  6
DASHED
100
AcDbLine
 10
-752.9860810229584
 20
-7013.629508164611
 30
0.0
 11
-749.0225647505576
 21
-7014.962226837882
 31
0.0
  0
LINE
  5
2FE3
330
1F
100
AcDbEntity
  8
SPOJOVACÍ
  6
DASHED
100
AcDbLine
 10
-749.0644970765425
 20
-7017.969503789061
 30
0.0
 11
-749.4345954200689
 21
-7018.340513707186
 31
0.0
  0
LINE
  5
2FE4
330
1F
100
AcDbEntity
  8
SPOJOVACÍ
  6
DASHED
100
AcDbLine
 10
-749.5002286261442
 20
-7020.591185666049
 30
0.0
 11
-749.8703269696707
 21
-7020.962195583902
 31
0.0
  0
LINE
  5
2FE5
330
1F
100
AcDbEntity
  8
SPOJOVACÍ
  6
DASHED
100
AcDbLine
 10
-749.5002286261442
 20
-7020.591185666049
 30
0.0
 11
-749.8703269696707
 21
-7020.377877752721
 31
0.0
  0
LINE
  5
2FE6
330
1F
100
AcDbEntity
  8
SPOJOVACÍ
  6
DASHED
100
AcDbLine
 10
-751.0043228888971
 20
-7026.235641223006
 30
0.0
 11
-750.6570138473907
 21
-7023.456257341762
 31
0.0
  0
LINE
  5
2FE7
330
1F
100
AcDbEntity
  8
SPOJOVACÍ
  6
DASHED
100
AcDbLine
 10
-751.7426964326441
 20
-7020.325918132673
 30
0.0
 11
-751.4582858843932
 21
-7022.60029097082
 31
0.0
  0
LINE
  5
2FE8
330
1F
100
AcDbEntity
  8
SPOJOVACÍ
  6
DASHED
100
AcDbLine
 10
-751.3826253837178
 20
-7023.208309681557
 30
0.0
 11
-751.0043228888971
 21
-7026.235641223006
 31
0.0
  0
LINE
  5
2FE9
330
1F
100
AcDbEntity
  8
SPOJOVACÍ
  6
DASHED
100
AcDbLine
 10
-750.5868227809115
 20
-7022.898375106437
 30
0.0
 11
-750.3242899651668
 21
-7020.796289429153
 31
0.0
  0
LINE
  5
2FEA
330
1F
100
AcDbEntity
  8
SPOJOVACÍ
  6
DASHED
100
AcDbLine
 10
-752.5539957642467
 20
-7019.970404943615
 30
0.0
 11
-752.183897416442
 21
-7020.183712856942
 31
0.0
  0
LINE
  5
2FEB
330
1F
100
AcDbEntity
  8
SPOJOVACÍ
  6
DASHED
100
AcDbLine
 10
-752.5539957642467
 20
-7019.970404943615
 30
0.0
 11
-752.183897416442
 21
-7019.59939502549
 31
0.0
  0
LINE
  5
2FEC
330
1F
100
AcDbEntity
  8
SPOJOVACÍ
  6
DASHED
100
AcDbLine
 10
-752.0006713879848
 20
-7022.923899130368
 30
0.0
 11
-751.6305730444583
 21
-7023.138118616147
 31
0.0
  0
LINE
  5
2FED
330
1F
100
AcDbEntity
  8
SPOJOVACÍ
  6
DASHED
100
AcDbLine
 10
-752.0006713879848
 20
-7022.923899130368
 30
0.0
 11
-751.6305730444583
 21
-7022.553800784702
 31
0.0
  0
LINE
  5
2FEE
330
1F
100
AcDbEntity
  8
SPOJOVACÍ
  6
DASHED
100
AcDbLine
 10
-751.6305730444583
 20
-7023.138118616147
 30
0.0
 11
-750.2595683328836
 21
-7023.59937418968
 31
0.0
  0
LINE
  5
2FEF
330
1F
100
AcDbEntity
  8
SPOJOVACÍ
  6
DASHED
100
AcDbLine
 10
-751.6305730444583
 20
-7022.553800784702
 30
0.0
 11
-750.2595683328836
 21
-7023.015056358236
 31
0.0
  0
LINE
  5
2FF0
330
1F
100
AcDbEntity
  8
SPOJOVACÍ
  6
DASHED
100
AcDbLine
 10
-750.2540989029657
 20
-7020.235672476992
 30
0.0
 11
-749.992477656735
 21
-7018.141790950195
 31
0.0
  0
LINE
  5
2FF1
330
1F
100
AcDbEntity
  8
SPOJOVACÍ
  6
DASHED
100
AcDbLine
 10
-752.183897416442
 20
-7020.183712856942
 30
0.0
 11
-749.8703269696707
 21
-7020.962195583902
 31
0.0
  0
LINE
  5
2FF2
330
1F
100
AcDbEntity
  8
SPOJOVACÍ
  6
DASHED
100
AcDbLine
 10
-752.183897416442
 20
-7019.59939502549
 30
0.0
 11
-749.8703269696707
 21
-7020.377877752721
 31
0.0
  0
LINE
  5
2FF3
330
1F
100
AcDbEntity
  8
SPOJOVACÍ
  6
DASHED
100
AcDbLine
 10
-752.5539957642467
 20
-7019.970404943615
 30
0.0
 11
-749.5002286261442
 21
-7020.591185666049
 31
0.0
  0
LINE
  5
2FF4
330
1F
100
AcDbEntity
  8
SPOJOVACÍ
  6
DASHED
100
AcDbLine
 10
-749.8894699893571
 20
-7023.228364271827
 30
0.0
 11
-750.2595683328836
 21
-7023.59937418968
 31
0.0
  0
LINE
  5
2FF5
330
1F
100
AcDbEntity
  8
SPOJOVACÍ
  6
DASHED
100
AcDbLine
 10
-749.8894699893571
 20
-7023.228364271827
 30
0.0
 11
-750.2595683328836
 21
-7023.015056358236
 31
0.0
  0
LINE
  5
2FF6
330
1F
100
AcDbEntity
  8
SPOJOVACÍ
  6
DASHED
100
AcDbLine
 10
-752.0006713879848
 20
-7022.923899130368
 30
0.0
 11
-749.8894699893571
 21
-7023.228364271827
 31
0.0
  0
LINE
  5
2FF7
330
1F
100
AcDbEntity
  8
STAVBA OBRYS
100
AcDbLine
 10
-773.8132331890819
 20
-7026.073743174617
 30
0.0
 11
-759.8017918736196
 21
-7025.337021916238
 31
0.0
  0
LINE
  5
2FF8
330
1F
100
AcDbEntity
  8
SPOJOVACÍ
  6
DASHED
100
AcDbLine
 10
-752.1045906291547
 20
-7017.432587716458
 30
0.0
 11
-751.8201800766255
 21
-7019.707872126801
 31
0.0
  0
LINE
  5
2FF9
330
1F
100
AcDbEntity
  8
SPOJOVACÍ
  6
DASHED
100
AcDbLine
 10
-749.0644970765425
 20
-7017.969503789061
 30
0.0
 11
-749.4345954200689
 21
-7017.756195875733
 31
0.0
  0
LINE
  5
2FFA
330
1F
100
AcDbEntity
  8
SPOJOVACÍ
  6
DASHED
100
AcDbLine
 10
-752.7363102189119
 20
-7017.23021867019
 30
0.0
 11
-749.4345954200689
 21
-7018.340513707186
 31
0.0
  0
LINE
  5
2FFB
330
1F
100
AcDbEntity
  8
SPOJOVACÍ
  6
DASHED
100
AcDbLine
 10
-753.1073201362305
 20
-7017.015999184403
 30
0.0
 11
-749.0644970765425
 21
-7017.969503789061
 31
0.0
  0
LINE
  5
2FFC
330
1F
100
AcDbEntity
  8
STAVBA OBRYS
100
AcDbLine
 10
-798.3947117020279
 20
-7038.352433299218
 30
0.0
 11
-772.8299739640397
 21
-7033.686531286166
 31
0.0
  0
LINE
  5
2FFD
330
1F
100
AcDbEntity
  8
STAVBA OBRYS
100
AcDbLine
 10
-798.6405259800103
 20
-7033.686531286166
 30
0.0
 11
-771.6009004610151
 21
-7029.757350531494
 31
0.0
  0
LINE
  5
2FFE
330
1F
100
AcDbEntity
  8
STAVBA OBRYS
100
AcDbLine
 10
-798.1488974240456
 20
-7027.54718569137
 30
0.0
 11
-773.8132331890819
 21
-7026.073743174617
 31
0.0
  0
LINE
  5
2FFF
330
1F
100
AcDbEntity
  8
STAVBA OBRYS
100
AcDbLine
 10
-798.1488974240456
 20
-7024.354726195074
 30
0.0
 11
-773.5674189110995
 21
-7022.390135817737
 31
0.0
  0
LINE
  5
3000
330
1F
100
AcDbEntity
  8
STAVBA OBRYS
100
AcDbLine
 10
-798.3947117020279
 20
-7019.443250784227
 30
0.0
 11
-769.1427534549656
 21
-7018.706528460859
 31
0.0
  0
LINE
  5
3001
330
1F
100
AcDbEntity
  8
STAVBA OBRYS
100
AcDbLine
 10
-784.1374539954704
 20
-7039.825876880964
 30
0.0
 11
-766.1929757798389
 21
-7035.89669612629
 31
0.0
  0
LINE
  5
3002
330
1F
100
AcDbEntity
  8
STAVBA OBRYS
100
AcDbLine
 10
-793.2326012988341
 20
-7026.073743174617
 30
0.0
 11
-780.6960477643788
 21
-7040.071450278759
 31
0.0
  0
LINE
  5
3003
330
1F
100
AcDbEntity
  8
STAVBA OBRYS
100
AcDbLine
 10
-775.7797516391665
 20
-7020.916693300982
 30
0.0
 11
-761.5224960457226
 21
-7040.562598139342
 31
0.0
  0
LINE
  5
3004
330
1F
100
AcDbEntity
  8
STAVBA OBRYS
100
AcDbLine
 10
-748.0026832862241
 20
-7035.89669612629
 30
0.0
 11
-722.6837619393318
 21
-7041.544892795513
 31
0.0
  0
LINE
  5
3005
330
1F
100
AcDbEntity
  8
STAVBA OBRYS
100
AcDbLine
 10
-703.3733800150294
 20
-7115.185687062013
 30
0.0
 11
-691.3733800150294
 21
-7115.185687062013
 31
0.0
  0
LINE
  5
3006
330
1F
100
AcDbEntity
  8
STAVBA OBRYS
100
AcDbLine
 10
-722.6837619393318
 20
-7041.544892795513
 30
0.0
 11
-718.3733800150257
 21
-7043.131371441306
 31
0.0
  0
LINE
  5
3007
330
1F
100
AcDbEntity
  8
STAVBA OBRYS
100
AcDbLine
 10
-743.0863871610126
 20
-7041.299319397719
 30
0.0
 11
-733.7454255796664
 21
-7044.491778894014
 31
0.0
  0
HATCH
  5
3008
330
1F
100
AcDbEntity
  8
izolace
100
AcDbHatch
 10
0.0
 20
0.0
 30
0.0
210
0.0
220
0.0
230
1.0
  2
SOLID
 70
     1
 71
     0
 91
        1
 92
        7
 72
     0
 73
     1
 93
        4
 10
-697.7775700495838
 20
-7125.185687062014
 10
-721.4193027594189
 20
-7125.185687062014
 10
-721.4193027594226
 20
-7128.185687062014
 10
-697.7775700495838
 20
-7128.185687062014
 97
        0
 75
     0
 76
     1
 47
0.1901250437635136
 98
        1
 10
-712.0615080010791
 20
-7126.002498613094
  0
LWPOLYLINE
  5
3009
330
1F
100
AcDbEntity
  8
izolace
100
AcDbPolyline
 90
        4
 70
     1
 43
0.0
 10
-697.7775700495874
 20
-7125.185687062014
 10
-721.4193027594226
 20
-7125.185687062014
 10
-721.4193027594226
 20
-7128.185687062014
 10
-697.7775700495874
 20
-7128.185687062014
  0
LINE
  5
300A
330
1F
100
AcDbEntity
  8
SPOJOVACÍ
100
AcDbLine
 10
-658.6510735078372
 20
-7119.37359341788
 30
0.0
 11
-658.6510735078372
 21
-7120.81518178435
 31
0.0
  0
LINE
  5
300B
330
1F
100
AcDbEntity
  8
SPOJOVACÍ
100
AcDbLine
 10
-658.6510735078372
 20
-7120.81518178435
 30
0.0
 11
-658.6510735078372
 21
-7119.938271162216
 31
0.0
  0
LINE
  5
300C
330
1F
100
AcDbEntity
  8
SPOJOVACÍ
100
AcDbLine
 10
-658.6510735078372
 20
-7119.938271162216
 30
0.0
 11
-658.6510735078372
 21
-7120.81518178435
 31
0.0
  0
LINE
  5
300D
330
1F
100
AcDbEntity
  8
SPOJOVACÍ
100
AcDbLine
 10
-672.1510735078372
 20
-7119.37359341788
 30
0.0
 11
-672.1510735078372
 21
-7120.81518178435
 31
0.0
  0
LINE
  5
300E
330
1F
100
AcDbEntity
  8
SPOJOVACÍ
100
AcDbLine
 10
-672.1510735078372
 20
-7120.81518178435
 30
0.0
 11
-672.1510735078372
 21
-7119.938271162216
 31
0.0
  0
LINE
  5
300F
330
1F
100
AcDbEntity
  8
SPOJOVACÍ
100
AcDbLine
 10
-658.6510735078372
 20
-7120.81518178435
 30
0.0
 11
-672.1510735078372
 21
-7120.81518178435
 31
0.0
  0
LINE
  5
3010
330
1F
100
AcDbEntity
  8
SPOJOVACÍ
100
AcDbLine
 10
-658.6510735078372
 20
-7119.37359341788
 30
0.0
 11
-672.1510735078372
 21
-7119.37359341788
 31
0.0
  0
LINE
  5
3011
330
1F
100
AcDbEntity
  8
SPOJOVACÍ
  6
Continuous
370
    20
100
AcDbLine
 10
-662.5549971875043
 20
-7132.194074384111
 30
0.0
 11
-663.0028681154108
 21
-7132.452206887648
 31
0.0
  0
LINE
  5
3012
330
1F
100
AcDbEntity
  8
SPOJOVACÍ
  6
Continuous
370
    20
100
AcDbLine
 10
-662.5549971875043
 20
-7132.194074384111
 30
0.0
 11
-663.0028681154108
 21
-7131.745100328223
 31
0.0
  0
LINE
  5
3013
330
1F
100
AcDbEntity
  8
SPOJOVACÍ
  6
Continuous
100
AcDbLine
 10
-662.5549971875043
 20
-7125.402094555612
 30
0.0
 11
-663.0028681154108
 21
-7124.953120499722
 31
0.0
  0
LINE
  5
3014
330
1F
100
AcDbEntity
  8
SPOJOVACÍ
  6
Continuous
100
AcDbLine
 10
-662.5549971875043
 20
-7125.402094555612
 30
0.0
 11
-663.0028681154108
 21
-7125.660227059147
 31
0.0
  0
LINE
  5
3015
330
1F
100
AcDbEntity
  8
SPOJOVACÍ
  6
Continuous
100
AcDbLine
 10
-662.5549971875043
 20
-7128.798084469861
 30
0.0
 11
-663.0028681154108
 21
-7128.349110413973
 31
0.0
  0
LINE
  5
3016
330
1F
100
AcDbEntity
  8
SPOJOVACÍ
  6
Continuous
100
AcDbLine
 10
-662.5549971875043
 20
-7128.798084469861
 30
0.0
 11
-663.0028681154108
 21
-7129.056216973397
 31
0.0
  0
LINE
  5
3017
330
1F
100
AcDbEntity
  8
SPOJOVACÍ
  6
Continuous
100
AcDbLine
 10
-668.247149833347
 20
-7126.825132717069
 30
0.0
 11
-667.7992789106174
 21
-7126.565897082968
 31
0.0
  0
LINE
  5
3018
330
1F
100
AcDbEntity
  8
SPOJOVACÍ
  6
Continuous
100
AcDbLine
 10
-668.247149833347
 20
-7126.825132717069
 30
0.0
 11
-667.7992789106174
 21
-7127.27300364239
 31
0.0
  0
LINE
  5
3019
330
1F
100
AcDbEntity
  8
SPOJOVACÍ
  6
Continuous
100
AcDbLine
 10
-668.247149833347
 20
-7130.221122631319
 30
0.0
 11
-667.7992789106174
 21
-7129.961886997218
 31
0.0
  0
LINE
  5
301A
330
1F
100
AcDbEntity
  8
SPOJOVACÍ
  6
Continuous
100
AcDbLine
 10
-668.247149833347
 20
-7130.221122631319
 30
0.0
 11
-667.7992789106174
 21
-7130.668993556639
 31
0.0
  0
LINE
  5
301B
330
1F
100
AcDbEntity
  8
SPOJOVACÍ
  6
Continuous
100
AcDbLine
 10
-663.0028681154108
 20
-7124.953120499722
 30
0.0
 11
-667.7992789106174
 21
-7126.565897082968
 31
0.0
  0
LINE
  5
301C
330
1F
100
AcDbEntity
  8
SPOJOVACÍ
  6
Continuous
100
AcDbLine
 10
-663.0028681154108
 20
-7125.660227059147
 30
0.0
 11
-667.7992789106174
 21
-7127.27300364239
 31
0.0
  0
LINE
  5
301D
330
1F
100
AcDbEntity
  8
SPOJOVACÍ
  6
Continuous
100
AcDbLine
 10
-662.5549971875043
 20
-7125.402094555612
 30
0.0
 11
-668.247149833347
 21
-7126.825132717069
 31
0.0
  0
LINE
  5
301E
330
1F
100
AcDbEntity
  8
SPOJOVACÍ
  6
Continuous
100
AcDbLine
 10
-663.0028681154108
 20
-7128.349110413973
 30
0.0
 11
-667.7992789106174
 21
-7129.961886997218
 31
0.0
  0
LINE
  5
301F
330
1F
100
AcDbEntity
  8
SPOJOVACÍ
  6
Continuous
100
AcDbLine
 10
-663.0028681154108
 20
-7129.056216973397
 30
0.0
 11
-667.7992789106174
 21
-7130.668993556639
 31
0.0
  0
LINE
  5
3020
330
1F
100
AcDbEntity
  8
SPOJOVACÍ
  6
Continuous
100
AcDbLine
 10
-662.5549971875043
 20
-7128.798084469861
 30
0.0
 11
-668.247149833347
 21
-7130.221122631319
 31
0.0
  0
LINE
  5
3021
330
1F
100
AcDbEntity
  8
SPOJOVACÍ
  6
Continuous
370
    20
100
AcDbLine
 10
-662.5549971849177
 20
-7135.822184729274
 30
0.0
 11
-663.0028681128242
 21
-7135.373210673384
 31
0.0
  0
LINE
  5
3022
330
1F
100
AcDbEntity
  8
SPOJOVACÍ
  6
Continuous
370
    20
100
AcDbLine
 10
-662.5549971849177
 20
-7135.822184729274
 30
0.0
 11
-663.0028681128242
 21
-7136.080317232809
 31
0.0
  0
LINE
  5
3023
330
1F
100
AcDbEntity
  8
SPOJOVACÍ
  6
Continuous
370
    20
100
AcDbLine
 10
-662.5549971849177
 20
-7139.218174643524
 30
0.0
 11
-663.0028681128242
 21
-7138.769200587635
 31
0.0
  0
LINE
  5
3024
330
1F
100
AcDbEntity
  8
SPOJOVACÍ
  6
Continuous
370
    20
100
AcDbLine
 10
-668.2471498307568
 20
-7137.245222890732
 30
0.0
 11
-667.7992789080271
 21
-7136.985987256631
 31
0.0
  0
LINE
  5
3025
330
1F
100
AcDbEntity
  8
SPOJOVACÍ
  6
Continuous
370
    20
100
AcDbLine
 10
-668.2471498307568
 20
-7137.245222890732
 30
0.0
 11
-667.7992789080271
 21
-7137.693093816051
 31
0.0
  0
LINE
  5
3026
330
1F
100
AcDbEntity
  8
SPOJOVACÍ
  6
Continuous
370
    20
100
AcDbLine
 10
-668.247149833347
 20
-7133.617112545569
 30
0.0
 11
-667.7992789106174
 21
-7134.06498347089
 31
0.0
  0
LINE
  5
3027
330
1F
100
AcDbEntity
  8
SPOJOVACÍ
  6
Continuous
370
    20
100
AcDbLine
 10
-668.247149833347
 20
-7133.617112545569
 30
0.0
 11
-667.7992789106174
 21
-7133.357876911468
 31
0.0
  0
LINE
  5
3028
330
1F
100
AcDbEntity
  8
SPOJOVACÍ
  6
Continuous
370
    20
100
AcDbLine
 10
-663.0028681128242
 20
-7135.373210673384
 30
0.0
 11
-667.7992789080271
 21
-7136.985987256631
 31
0.0
  0
LINE
  5
3029
330
1F
100
AcDbEntity
  8
SPOJOVACÍ
  6
Continuous
370
    20
100
AcDbLine
 10
-663.0028681128242
 20
-7136.080317232809
 30
0.0
 11
-667.7992789080271
 21
-7137.693093816051
 31
0.0
  0
LINE
  5
302A
330
1F
100
AcDbEntity
  8
SPOJOVACÍ
  6
Continuous
370
    20
100
AcDbLine
 10
-662.5549971849177
 20
-7135.822184729274
 30
0.0
 11
-668.2471498307568
 21
-7137.245222890732
 31
0.0
  0
LINE
  5
302B
330
1F
100
AcDbEntity
  8
SPOJOVACÍ
  6
Continuous
370
    20
100
AcDbLine
 10
-662.5549971875043
 20
-7132.194074384111
 30
0.0
 11
-668.247149833347
 21
-7133.617112545569
 31
0.0
  0
LINE
  5
302C
330
1F
100
AcDbEntity
  8
SPOJOVACÍ
  6
Continuous
370
    20
100
AcDbLine
 10
-663.0028681154108
 20
-7132.452206887648
 30
0.0
 11
-667.7992789106174
 21
-7134.06498347089
 31
0.0
  0
LINE
  5
302D
330
1F
100
AcDbEntity
  8
SPOJOVACÍ
  6
Continuous
370
    20
100
AcDbLine
 10
-663.0028681154108
 20
-7131.745100328223
 30
0.0
 11
-667.7992789106174
 21
-7133.357876911468
 31
0.0
  0
LINE
  5
302E
330
1F
100
AcDbEntity
  8
SPOJOVACÍ
100
AcDbLine
 10
-672.1510735078372
 20
-7120.81518178435
 30
0.0
 11
-667.1120110078373
 21
-7123.997816086928
 31
0.0
  0
LINE
  5
302F
330
1F
100
AcDbEntity
  8
SPOJOVACÍ
  6
DASHED
100
AcDbLine
 10
-658.6510735078372
 20
-7120.81518178435
 30
0.0
 11
-663.6901360078373
 21
-7123.997816086926
 31
0.0
  0
HATCH
  5
3030
330
1F
100
AcDbEntity
  8
izolace
100
AcDbHatch
 10
0.0
 20
0.0
 30
0.0
210
0.0
220
0.0
230
1.0
  2
SOLID
 70
     1
 71
     0
 91
        1
 92
        7
 72
     0
 73
     1
 93
        4
 10
-650.4941046299133
 20
-7125.185687062014
 10
-674.1358373397486
 20
-7125.185687062014
 10
-674.1358373397522
 20
-7128.185687062014
 10
-650.4941046299133
 20
-7128.185687062014
 97
        0
 75
     0
 76
     1
 47
0.1901250437635136
 98
        1
 10
-664.7780425814087
 20
-7126.002498613094
  0
LWPOLYLINE
  5
3031
330
1F
100
AcDbEntity
  8
izolace
100
AcDbPolyline
 90
        4
 70
     1
 43
0.0
 10
-650.494104629917
 20
-7125.185687062014
 10
-674.1358373397522
 20
-7125.185687062014
 10
-674.1358373397522
 20
-7128.185687062014
 10
-650.494104629917
 20
-7128.185687062014
  0
LWPOLYLINE
  5
3032
330
1F
100
AcDbEntity
  8
nášlap_vrstvy
100
AcDbPolyline
 90
        4
 70
     1
 43
0.0
 10
-685.1103172504297
 20
-7125.185687062021
 10
-685.1103172504297
 20
-7123.185687062018
 10
-672.6092402434549
 20
-7123.185687062018
 10
-672.6092402434549
 20
-7125.185687062021
  0
LINE
  5
3033
330
1F
100
AcDbEntity
  8
STAVBA OBRYS
  6
Continuous
100
AcDbLine
 10
-696.7737827439414
 20
-7058.286619531557
 30
0.0
 11
-692.7358896142614
 21
-7058.286619531557
 31
0.0
  0
LINE
  5
3034
330
1F
100
AcDbEntity
  8
STAVBA OBRYS
  6
Continuous
100
AcDbLine
 10
-697.5607114670638
 20
-7058.352662013479
 30
0.0
 11
-696.7737827439414
 21
-7058.286619531557
 31
0.0
  0
LINE
  5
3035
330
1F
100
AcDbEntity
  8
STAVBA OBRYS
  6
Continuous
100
AcDbLine
 10
-700.3605406124115
 20
-7059.576773357097
 30
0.0
 11
-699.041551334114
 21
-7058.780542877778
 31
0.0
  0
LINE
  5
3036
330
1F
100
AcDbEntity
  8
STAVBA OBRYS
  6
Continuous
100
AcDbLine
 10
-701.4293126018237
 20
-7060.687403257455
 30
0.0
 11
-700.3605406124115
 21
-7059.576773357097
 31
0.0
  0
LINE
  5
3037
330
1F
100
AcDbEntity
  8
STAVBA OBRYS
  6
Continuous
100
AcDbLine
 10
-703.3733800150294
 20
-7062.037088341006
 30
0.0
 11
-702.1734532382979
 21
-7062.037088341006
 31
0.0
  0
LINE
  5
3038
330
1F
100
AcDbEntity
  8
STAVBA OBRYS
  6
Continuous
100
AcDbLine
 10
-702.1734532382979
 20
-7062.037088341006
 30
0.0
 11
-701.4293126018237
 21
-7060.687403257455
 31
0.0
  0
LINE
  5
3039
330
1F
100
AcDbEntity
  8
STAVBA OBRYS
  6
Continuous
100
AcDbLine
 10
-699.041551334114
 20
-7058.780542877778
 30
0.0
 11
-697.5607114670638
 21
-7058.352662013479
 31
0.0
  0
LINE
  5
303A
330
1F
100
AcDbEntity
  8
STAVBA OBRYS
100
AcDbLine
 10
-725.6335396144586
 20
-7029.511776068706
 30
0.0
 11
-718.3733800150257
 21
-7031.445921761488
 31
0.0
  0
LINE
  5
303B
330
1F
100
AcDbEntity
  8
SPOJOVACÍ
  6
DASHED
100
AcDbLine
 10
-735.6996036466989
 20
-7006.77454712781
 30
0.0
 11
-734.7606841981141
 21
-7005.59132630857
 31
0.0
  0
LINE
  5
303C
330
1F
100
AcDbEntity
  8
SPOJOVACÍ
  6
DASHED
100
AcDbLine
 10
-733.5482930653925
 20
-7004.691604468337
 30
0.0
 11
-732.847293982948
 21
-7004.36161530321
 31
0.0
  0
LINE
  5
303D
330
1F
100
AcDbEntity
  8
SPOJOVACÍ
  6
DASHED
100
AcDbLine
 10
-734.7606841981141
 20
-7005.59132630857
 30
0.0
 11
-733.5482930653925
 21
-7004.691604468337
 31
0.0
  0
LINE
  5
303E
330
1F
100
AcDbEntity
  8
SPOJOVACÍ
  6
DASHED
100
AcDbLine
 10
-736.5227534119294
 20
-7009.653292387681
 30
0.0
 11
-736.3003297788637
 21
-7008.160136993319
 31
0.0
  0
LINE
  5
303F
330
1F
100
AcDbEntity
  8
SPOJOVACÍ
  6
DASHED
100
AcDbLine
 10
-736.5227534119294
 20
-7015.088997892519
 30
0.0
 11
-736.5227534119294
 21
-7017.557535626448
 31
0.0
  0
LINE
  5
3040
330
1F
100
AcDbEntity
  8
SPOJOVACÍ
  6
DASHED
100
AcDbLine
 10
-735.4935883119432
 20
-7014.945881044602
 30
0.0
 11
-735.8636866554697
 21
-7015.315979390267
 31
0.0
  0
LINE
  5
3041
330
1F
100
AcDbEntity
  8
SPOJOVACÍ
  6
DASHED
100
AcDbLine
 10
-735.4935883119432
 20
-7014.945881044602
 30
0.0
 11
-735.8636866554697
 21
-7014.731661558816
 31
0.0
  0
LINE
  5
3042
330
1F
100
AcDbEntity
  8
SPOJOVACÍ
  6
DASHED
100
AcDbLine
 10
-736.5227534119294
 20
-7009.653292387681
 30
0.0
 11
-736.5227534119294
 21
-7014.49738748303
 31
0.0
  0
LINE
  5
3043
330
1F
100
AcDbEntity
  8
SPOJOVACÍ
  6
DASHED
100
AcDbLine
 10
-736.3003297788637
 20
-7008.160136993319
 30
0.0
 11
-735.6996036466989
 21
-7006.77454712781
 31
0.0
  0
LINE
  5
3044
330
1F
100
AcDbEntity
  8
STAVBA OBRYS
100
AcDbLine
 10
-730.3040193485749
 20
-7030.985219650452
 30
0.0
 11
-736.4493889768119
 21
-7037.370138643045
 31
0.0
  0
LINE
  5
3045
330
1F
100
AcDbEntity
  8
SPOJOVACÍ
  6
DASHED
100
AcDbLine
 10
-736.5227534119294
 20
-7018.141853457899
 30
0.0
 11
-736.5227534119294
 21
-7020.619506914511
 31
0.0
  0
LINE
  5
3046
330
1F
100
AcDbEntity
  8
SPOJOVACÍ
  6
DASHED
100
AcDbLine
 10
-736.5227534119294
 20
-7027.321386316225
 30
0.0
 11
-736.5227534119294
 21
-7027.651375481352
 31
0.0
  0
LINE
  5
3047
330
1F
100
AcDbEntity
  8
SPOJOVACÍ
  6
DASHED
100
AcDbLine
 10
-735.4935883119432
 20
-7027.176446323669
 30
0.0
 11
-735.8636866554697
 21
-7027.546544669334
 31
0.0
  0
LINE
  5
3048
330
1F
100
AcDbEntity
  8
SPOJOVACÍ
  6
DASHED
100
AcDbLine
 10
-735.4935883119432
 20
-7027.176446323669
 30
0.0
 11
-735.8636866554697
 21
-7026.962226837882
 31
0.0
  0
LINE
  5
3049
330
1F
100
AcDbEntity
  8
SPOJOVACÍ
  6
DASHED
100
AcDbLine
 10
-736.5227534119294
 20
-7021.202001601316
 30
0.0
 11
-736.5227534119294
 21
-7023.672362479891
 31
0.0
  0
LINE
  5
304A
330
1F
100
AcDbEntity
  8
SPOJOVACÍ
  6
DASHED
100
AcDbLine
 10
-736.5227534119294
 20
-7024.261238172545
 30
0.0
 11
-736.5227534119294
 21
-7026.729775906473
 31
0.0
  0
LINE
  5
304B
330
1F
100
AcDbEntity
  8
SPOJOVACÍ
  6
DASHED
100
AcDbLine
 10
-735.4935883119432
 20
-7021.060707898037
 30
0.0
 11
-735.8636866554697
 21
-7021.43171781589
 31
0.0
  0
LINE
  5
304C
330
1F
100
AcDbEntity
  8
SPOJOVACÍ
  6
DASHED
100
AcDbLine
 10
-735.4935883119432
 20
-7021.060707898037
 30
0.0
 11
-735.8636866554697
 21
-7020.847399984447
 31
0.0
  0
LINE
  5
304D
330
1F
100
AcDbEntity
  8
SPOJOVACÍ
  6
DASHED
100
AcDbLine
 10
-735.4935883119432
 20
-7024.118121324628
 30
0.0
 11
-735.8636866554697
 21
-7024.489131242481
 31
0.0
  0
LINE
  5
304E
330
1F
100
AcDbEntity
  8
SPOJOVACÍ
  6
DASHED
100
AcDbLine
 10
-735.4935883119432
 20
-7024.118121324628
 30
0.0
 11
-735.8636866554697
 21
-7023.9048134113
 31
0.0
  0
LINE
  5
304F
330
1F
100
AcDbEntity
  8
SPOJOVACÍ
  6
DASHED
100
AcDbLine
 10
-735.4935883119432
 20
-7018.003294471455
 30
0.0
 11
-735.8636866554697
 21
-7018.373392816849
 31
0.0
  0
LINE
  5
3050
330
1F
100
AcDbEntity
  8
SPOJOVACÍ
  6
DASHED
100
AcDbLine
 10
-735.9056189814546
 20
-7029.969503789061
 30
0.0
 11
-736.2757173249811
 21
-7029.756195875734
 31
0.0
  0
LINE
  5
3051
330
1F
100
AcDbEntity
  8
SPOJOVACÍ
  6
DASHED
100
AcDbLine
 10
-735.9056189814546
 20
-7029.969503789061
 30
0.0
 11
-736.2757173249811
 21
-7030.340513707186
 31
0.0
  0
LINE
  5
3052
330
1F
100
AcDbEntity
  8
SPOJOVACÍ
  6
DASHED
100
AcDbLine
 10
-736.3413505310563
 20
-7032.591185666049
 30
0.0
 11
-736.7114488745828
 21
-7032.962195583903
 31
0.0
  0
LINE
  5
3053
330
1F
100
AcDbEntity
  8
SPOJOVACÍ
  6
DASHED
100
AcDbLine
 10
-736.3413505310563
 20
-7032.591185666049
 30
0.0
 11
-736.7114488745828
 21
-7032.377877752722
 31
0.0
  0
LINE
  5
3054
330
1F
100
AcDbEntity
  8
SPOJOVACÍ
  6
DASHED
100
AcDbLine
 10
-736.7634084951678
 20
-7029.582997142412
 30
0.0
 11
-736.5227534119294
 21
-7027.651375481352
 31
0.0
  0
LINE
  5
3055
330
1F
100
AcDbEntity
  8
STAVBA OBRYS
100
AcDbLine
 10
-750.9524609613517
 20
-7032.458662167208
 30
0.0
 11
-730.0582050705925
 21
-7034.668827007331
 31
0.0
  0
LINE
  5
3056
330
1F
100
AcDbEntity
  8
SPOJOVACÍ
  6
DASHED
100
AcDbLine
 10
-735.4935883119432
 20
-7018.003294471455
 30
0.0
 11
-735.8636866554697
 21
-7017.789074985668
 31
0.0
  0
LINE
  5
3057
330
1F
100
AcDbEntity
  8
STAVBA OBRYS
100
AcDbLine
 10
-730.0582050705925
 20
-7034.668827007331
 30
0.0
 11
-718.3733800150257
 21
-7036.336450530527
 31
0.0
  0
LINE
  5
3058
330
1F
100
AcDbEntity
  8
STAVBA OBRYS
100
AcDbLine
 10
-739.3991666519386
 20
-7029.26620267091
 30
0.0
 11
-725.6335396144586
 21
-7029.511776068706
 31
0.0
  0
LINE
  5
3059
330
1F
100
AcDbEntity
  8
STAVBA OBRYS
100
AcDbLine
 10
-739.8907952079034
 20
-7025.828169776821
 30
0.0
 11
-718.3733800150257
 21
-7026.560998825508
 31
0.0
  0
LINE
  5
305A
330
1F
100
AcDbEntity
  8
STAVBA OBRYS
100
AcDbLine
 10
-733.0079827457202
 20
-7022.390135817737
 30
0.0
 11
-718.2590964831979
 21
-7022.88128367832
 31
0.0
  0
LINE
  5
305B
330
1F
100
AcDbEntity
  8
STAVBA OBRYS
100
AcDbLine
 10
-742.3489443270664
 20
-7018.952102923646
 30
0.0
 11
-718.3733800150257
 21
-7019.431144373978
 31
0.0
  0
LINE
  5
305C
330
1F
100
AcDbEntity
  8
SPOJOVACÍ
  6
DASHED
100
AcDbLine
 10
-741.5209042227907
 20
-7005.090873126956
 30
0.0
 11
-740.4324869204392
 21
-7006.138269676579
 31
0.0
  0
LINE
  5
305D
330
1F
100
AcDbEntity
  8
SPOJOVACÍ
  6
DASHED
100
AcDbLine
 10
-742.8435956046705
 20
-7004.36161530321
 30
0.0
 11
-741.5209042227907
 21
-7005.090873126956
 31
0.0
  0
LINE
  5
305E
330
1F
100
AcDbEntity
  8
SPOJOVACÍ
  6
DASHED
100
AcDbLine
 10
-739.6521810507074
 20
-7007.430879169311
 30
0.0
 11
-739.232857803694
 21
-7008.88210223902
 31
0.0
  0
LINE
  5
305F
330
1F
100
AcDbEntity
  8
SPOJOVACÍ
  6
DASHED
100
AcDbLine
 10
-739.232857803694
 20
-7008.88210223902
 30
0.0
 11
-739.1681361714108
 21
-7009.653292387681
 31
0.0
  0
LINE
  5
3060
330
1F
100
AcDbEntity
  8
SPOJOVACÍ
  6
DASHED
100
AcDbLine
 10
-739.1681361714108
 20
-7014.193833913759
 30
0.0
 11
-739.1681361714108
 21
-7016.662371647687
 31
0.0
  0
LINE
  5
3061
330
1F
100
AcDbEntity
  8
SPOJOVACÍ
  6
DASHED
100
AcDbLine
 10
-740.1973012756752
 20
-7013.769952803669
 30
0.0
 11
-739.8272029278705
 21
-7013.983260716996
 31
0.0
  0
LINE
  5
3062
330
1F
100
AcDbEntity
  8
SPOJOVACÍ
  6
DASHED
100
AcDbLine
 10
-740.1973012756752
 20
-7013.769952803669
 30
0.0
 11
-739.8272029278705
 21
-7013.398942885816
 31
0.0
  0
LINE
  5
3063
330
1F
100
AcDbEntity
  8
SPOJOVACÍ
  6
DASHED
100
AcDbLine
 10
-740.1973012756752
 20
-7016.827366230251
 30
0.0
 11
-739.8272029278705
 21
-7017.041585716036
 31
0.0
  0
LINE
  5
3064
330
1F
100
AcDbEntity
  8
SPOJOVACÍ
  6
DASHED
100
AcDbLine
 10
-740.1973012756752
 20
-7016.827366230251
 30
0.0
 11
-739.8272029278705
 21
-7016.457267884586
 31
0.0
  0
LINE
  5
3065
330
1F
100
AcDbEntity
  8
SPOJOVACÍ
  6
DASHED
100
AcDbLine
 10
-739.1681361714108
 20
-7009.653292387681
 30
0.0
 11
-739.1681361714108
 21
-7013.610427654767
 31
0.0
  0
LINE
  5
3066
330
1F
100
AcDbEntity
  8
SPOJOVACÍ
  6
DASHED
100
AcDbLine
 10
-740.4324869204392
 20
-7006.138269676579
 30
0.0
 11
-739.6521810507074
 21
-7007.430879169311
 31
0.0
  0
LINE
  5
3067
330
1F
100
AcDbEntity
  8
SPOJOVACÍ
  6
DASHED
100
AcDbLine
 10
-739.1681361714108
 20
-7026.428957054301
 30
0.0
 11
-739.1681361714108
 21
-7027.651375481352
 31
0.0
  0
LINE
  5
3068
330
1F
100
AcDbEntity
  8
SPOJOVACÍ
  6
DASHED
100
AcDbLine
 10
-740.1973012756752
 20
-7026.000518082736
 30
0.0
 11
-739.8272029278705
 21
-7026.213825996063
 31
0.0
  0
LINE
  5
3069
330
1F
100
AcDbEntity
  8
SPOJOVACÍ
  6
DASHED
100
AcDbLine
 10
-740.1973012756752
 20
-7019.884779657104
 30
0.0
 11
-739.8272029278705
 21
-7020.098999142891
 31
0.0
  0
LINE
  5
306A
330
1F
100
AcDbEntity
  8
SPOJOVACÍ
  6
DASHED
100
AcDbLine
 10
-740.1973012756752
 20
-7019.884779657104
 30
0.0
 11
-739.8272029278705
 21
-7019.514681311439
 31
0.0
  0
LINE
  5
306B
330
1F
100
AcDbEntity
  8
SPOJOVACÍ
  6
DASHED
100
AcDbLine
 10
-739.1681361714108
 20
-7023.377013061109
 30
0.0
 11
-739.1681361714108
 21
-7025.844639222849
 31
0.0
  0
LINE
  5
306C
330
1F
100
AcDbEntity
  8
SPOJOVACÍ
  6
DASHED
100
AcDbLine
 10
-740.1973012756752
 20
-7022.942193083695
 30
0.0
 11
-739.8272029278705
 21
-7023.156412569473
 31
0.0
  0
LINE
  5
306D
330
1F
100
AcDbEntity
  8
SPOJOVACÍ
  6
DASHED
100
AcDbLine
 10
-740.1973012756752
 20
-7022.942193083695
 30
0.0
 11
-739.8272029278705
 21
-7022.572094738028
 31
0.0
  0
LINE
  5
306E
330
1F
100
AcDbEntity
  8
SPOJOVACÍ
  6
DASHED
100
AcDbLine
 10
-740.1973012756752
 20
-7026.000518082736
 30
0.0
 11
-739.8272029278705
 21
-7025.629508164612
 31
0.0
  0
LINE
  5
306F
330
1F
100
AcDbEntity
  8
SPOJOVACÍ
  6
DASHED
100
AcDbLine
 10
-739.1681361714108
 20
-7020.306837622557
 30
0.0
 11
-739.1681361714108
 21
-7022.784491079169
 31
0.0
  0
LINE
  5
3070
330
1F
100
AcDbEntity
  8
SPOJOVACÍ
  6
DASHED
100
AcDbLine
 10
-738.9457125340668
 20
-7029.432587716458
 30
0.0
 11
-738.6613019815377
 21
-7031.7078721268
 31
0.0
  0
LINE
  5
3071
330
1F
100
AcDbEntity
  8
SPOJOVACÍ
  6
DASHED
100
AcDbLine
 10
-737.8454447938093
 20
-7038.235641223005
 30
0.0
 11
-737.4981357523028
 21
-7035.456257341762
 31
0.0
  0
LINE
  5
3072
330
1F
100
AcDbEntity
  8
SPOJOVACÍ
  6
DASHED
100
AcDbLine
 10
-738.5838183375563
 20
-7032.325918132672
 30
0.0
 11
-738.2994077893053
 21
-7034.60029097082
 31
0.0
  0
LINE
  5
3073
330
1F
100
AcDbEntity
  8
SPOJOVACÍ
  6
DASHED
100
AcDbLine
 10
-738.2237472886299
 20
-7035.208309681557
 30
0.0
 11
-737.8454447938093
 21
-7038.235641223005
 31
0.0
  0
LINE
  5
3074
330
1F
100
AcDbEntity
  8
SPOJOVACÍ
  6
DASHED
100
AcDbLine
 10
-737.4279446858236
 20
-7034.898375106436
 30
0.0
 11
-737.165411870079
 21
-7032.796289429153
 31
0.0
  0
LINE
  5
3075
330
1F
100
AcDbEntity
  8
SPOJOVACÍ
  6
DASHED
100
AcDbLine
 10
-739.3951176691589
 20
-7031.970404943615
 30
0.0
 11
-739.0250193213542
 21
-7032.183712856943
 31
0.0
  0
LINE
  5
3076
330
1F
100
AcDbEntity
  8
SPOJOVACÍ
  6
DASHED
100
AcDbLine
 10
-739.3951176691589
 20
-7031.970404943615
 30
0.0
 11
-739.0250193213542
 21
-7031.599395025491
 31
0.0
  0
LINE
  5
3077
330
1F
100
AcDbEntity
  8
SPOJOVACÍ
  6
DASHED
100
AcDbLine
 10
-738.8417932928969
 20
-7034.923899130368
 30
0.0
 11
-738.4716949493704
 21
-7035.138118616147
 31
0.0
  0
LINE
  5
3078
330
1F
100
AcDbEntity
  8
SPOJOVACÍ
  6
DASHED
100
AcDbLine
 10
-738.8417932928969
 20
-7034.923899130368
 30
0.0
 11
-738.4716949493704
 21
-7034.553800784703
 31
0.0
  0
LINE
  5
3079
330
1F
100
AcDbEntity
  8
SPOJOVACÍ
  6
DASHED
100
AcDbLine
 10
-738.4716949493704
 20
-7035.138118616147
 30
0.0
 11
-737.1006902377957
 21
-7035.599374189679
 31
0.0
  0
LINE
  5
307A
330
1F
100
AcDbEntity
  8
SPOJOVACÍ
  6
DASHED
100
AcDbLine
 10
-738.4716949493704
 20
-7034.553800784703
 30
0.0
 11
-737.1006902377957
 21
-7035.015056358236
 31
0.0
  0
LINE
  5
307B
330
1F
100
AcDbEntity
  8
SPOJOVACÍ
  6
DASHED
100
AcDbLine
 10
-739.9484420411426
 20
-7029.015999184403
 30
0.0
 11
-739.5774321238241
 21
-7029.230218670189
 31
0.0
  0
LINE
  5
307C
330
1F
100
AcDbEntity
  8
SPOJOVACÍ
  6
DASHED
100
AcDbLine
 10
-739.9484420411426
 20
-7029.015999184403
 30
0.0
 11
-739.5774321238241
 21
-7028.645900838738
 31
0.0
  0
LINE
  5
307D
330
1F
100
AcDbEntity
  8
SPOJOVACÍ
  6
DASHED
100
AcDbLine
 10
-739.1681361714108
 20
-7027.651375481352
 30
0.0
 11
-739.0213730347422
 21
-7028.82456900572
 31
0.0
  0
LINE
  5
307E
330
1F
100
AcDbEntity
  8
SPOJOVACÍ
  6
DASHED
100
AcDbLine
 10
-739.1681361714108
 20
-7017.253982057177
 30
0.0
 11
-739.1681361714108
 21
-7019.724342935751
 31
0.0
  0
LINE
  5
307F
330
1F
100
AcDbEntity
  8
SPOJOVACÍ
  6
DASHED
100
AcDbLine
 10
-739.5774321238241
 20
-7029.230218670189
 30
0.0
 11
-736.2757173249811
 21
-7030.340513707186
 31
0.0
  0
LINE
  5
3080
330
1F
100
AcDbEntity
  8
SPOJOVACÍ
  6
DASHED
100
AcDbLine
 10
-739.9484420411426
 20
-7029.015999184403
 30
0.0
 11
-735.9056189814546
 21
-7029.969503789061
 31
0.0
  0
LINE
  5
3081
330
1F
100
AcDbEntity
  8
SPOJOVACÍ
  6
DASHED
100
AcDbLine
 10
-739.0250193213542
 20
-7032.183712856943
 30
0.0
 11
-736.7114488745828
 21
-7032.962195583903
 31
0.0
  0
LINE
  5
3082
330
1F
100
AcDbEntity
  8
SPOJOVACÍ
  6
DASHED
100
AcDbLine
 10
-739.0250193213542
 20
-7031.599395025491
 30
0.0
 11
-736.7114488745828
 21
-7032.377877752722
 31
0.0
  0
LINE
  5
3083
330
1F
100
AcDbEntity
  8
SPOJOVACÍ
  6
DASHED
100
AcDbLine
 10
-739.3951176691589
 20
-7031.970404943615
 30
0.0
 11
-736.3413505310563
 21
-7032.591185666049
 31
0.0
  0
LINE
  5
3084
330
1F
100
AcDbEntity
  8
SPOJOVACÍ
  6
DASHED
100
AcDbLine
 10
-736.7305918942693
 20
-7035.228364271826
 30
0.0
 11
-737.1006902377957
 21
-7035.599374189679
 31
0.0
  0
LINE
  5
3085
330
1F
100
AcDbEntity
  8
SPOJOVACÍ
  6
DASHED
100
AcDbLine
 10
-736.7305918942693
 20
-7035.228364271826
 30
0.0
 11
-737.1006902377957
 21
-7035.015056358236
 31
0.0
  0
LINE
  5
3086
330
1F
100
AcDbEntity
  8
SPOJOVACÍ
  6
DASHED
100
AcDbLine
 10
-738.8417932928969
 20
-7034.923899130368
 30
0.0
 11
-736.7305918942693
 21
-7035.228364271826
 31
0.0
  0
LINE
  5
3087
330
1F
100
AcDbEntity
  8
SPOJOVACÍ
  6
DASHED
100
AcDbLine
 10
-737.0952208078779
 20
-7032.235672476993
 30
0.0
 11
-736.8335995616471
 21
-7030.141790950196
 31
0.0
  0
LINE
  5
3088
330
1F
100
AcDbEntity
  8
SPOJOVACÍ
  6
DASHED
100
AcDbLine
 10
-739.5774321238241
 20
-7028.645900838738
 30
0.0
 11
-736.2757173249811
 21
-7029.756195875734
 31
0.0
  0
LINE
  5
3089
330
1F
100
AcDbEntity
  8
SPOJOVACÍ
  6
DASHED
100
AcDbLine
 10
-740.1973012756752
 20
-7026.000518082736
 30
0.0
 11
-735.4935883119432
 21
-7027.176446323669
 31
0.0
  0
LINE
  5
308A
330
1F
100
AcDbEntity
  8
SPOJOVACÍ
  6
DASHED
100
AcDbLine
 10
-739.8272029278705
 20
-7026.213825996063
 30
0.0
 11
-735.8636866554697
 21
-7027.546544669334
 31
0.0
  0
LINE
  5
308B
330
1F
100
AcDbEntity
  8
SPOJOVACÍ
  6
DASHED
100
AcDbLine
 10
-740.1973012756752
 20
-7013.769952803669
 30
0.0
 11
-735.4935883119432
 21
-7014.945881044602
 31
0.0
  0
LINE
  5
308C
330
1F
100
AcDbEntity
  8
SPOJOVACÍ
  6
DASHED
100
AcDbLine
 10
-739.8272029278705
 20
-7013.983260716996
 30
0.0
 11
-735.8636866554697
 21
-7015.315979390267
 31
0.0
  0
LINE
  5
308D
330
1F
100
AcDbEntity
  8
SPOJOVACÍ
  6
DASHED
100
AcDbLine
 10
-739.8272029278705
 20
-7013.398942885816
 30
0.0
 11
-735.8636866554697
 21
-7014.731661558816
 31
0.0
  0
LINE
  5
308E
330
1F
100
AcDbEntity
  8
SPOJOVACÍ
  6
DASHED
100
AcDbLine
 10
-740.1973012756752
 20
-7016.827366230251
 30
0.0
 11
-735.4935883119432
 21
-7018.003294471455
 31
0.0
  0
LINE
  5
308F
330
1F
100
AcDbEntity
  8
SPOJOVACÍ
  6
DASHED
100
AcDbLine
 10
-739.8272029278705
 20
-7017.041585716036
 30
0.0
 11
-735.8636866554697
 21
-7018.373392816849
 31
0.0
  0
LINE
  5
3090
330
1F
100
AcDbEntity
  8
SPOJOVACÍ
  6
DASHED
100
AcDbLine
 10
-739.8272029278705
 20
-7016.457267884586
 30
0.0
 11
-735.8636866554697
 21
-7017.789074985668
 31
0.0
  0
LINE
  5
3091
330
1F
100
AcDbEntity
  8
SPOJOVACÍ
  6
DASHED
100
AcDbLine
 10
-740.1973012756752
 20
-7019.884779657104
 30
0.0
 11
-735.4935883119432
 21
-7021.060707898037
 31
0.0
  0
LINE
  5
3092
330
1F
100
AcDbEntity
  8
SPOJOVACÍ
  6
DASHED
100
AcDbLine
 10
-739.8272029278705
 20
-7020.098999142891
 30
0.0
 11
-735.8636866554697
 21
-7021.43171781589
 31
0.0
  0
LINE
  5
3093
330
1F
100
AcDbEntity
  8
SPOJOVACÍ
  6
DASHED
100
AcDbLine
 10
-739.8272029278705
 20
-7019.514681311439
 30
0.0
 11
-735.8636866554697
 21
-7020.847399984447
 31
0.0
  0
LINE
  5
3094
330
1F
100
AcDbEntity
  8
SPOJOVACÍ
  6
DASHED
100
AcDbLine
 10
-740.1973012756752
 20
-7022.942193083695
 30
0.0
 11
-735.4935883119432
 21
-7024.118121324628
 31
0.0
  0
LINE
  5
3095
330
1F
100
AcDbEntity
  8
SPOJOVACÍ
  6
DASHED
100
AcDbLine
 10
-739.8272029278705
 20
-7023.156412569473
 30
0.0
 11
-735.8636866554697
 21
-7024.489131242481
 31
0.0
  0
LINE
  5
3096
330
1F
100
AcDbEntity
  8
SPOJOVACÍ
  6
DASHED
100
AcDbLine
 10
-739.8272029278705
 20
-7022.572094738028
 30
0.0
 11
-735.8636866554697
 21
-7023.9048134113
 31
0.0
  0
LINE
  5
3097
330
1F
100
AcDbEntity
  8
SPOJOVACÍ
  6
DASHED
100
AcDbLine
 10
-739.8272029278705
 20
-7025.629508164612
 30
0.0
 11
-735.8636866554697
 21
-7026.962226837882
 31
0.0
  0
LINE
  5
3098
330
1F
100
AcDbEntity
  8
SPOJOVACÍ
  6
DASHED
100
AcDbLine
 10
-742.8435956046705
 20
-7004.36161530321
 30
0.0
 11
-732.847293982948
 21
-7004.36161530321
 31
0.0
  0
LINE
  5
3099
330
1F
100
AcDbEntity
  8
STAVBA OBRYS
100
AcDbLine
 10
-756.3603856425279
 20
-7028.038333551951
 30
0.0
 11
-739.3991666519386
 21
-7029.26620267091
 31
0.0
  0
LINE
  5
309A
330
1F
100
AcDbEntity
  8
STAVBA OBRYS
100
AcDbLine
 10
-755.8687549734504
 20
-7021.653414559359
 30
0.0
 11
-733.0079827457202
 21
-7022.390135817737
 31
0.0
  0
LINE
  5
309B
330
1F
100
AcDbEntity
  8
STAVBA OBRYS
100
AcDbLine
 10
-739.8907952079034
 20
-7020.4255454404
 30
0.0
 11
-752.6731630203412
 21
-7040.808171537136
 31
0.0
  0
LINE
  5
309C
330
1F
100
AcDbEntity
  8
STAVBA OBRYS
  6
Continuous
100
AcDbLine
 10
-651.4215655473417
 20
-7059.336788005296
 30
0.0
 11
-651.0429839982353
 21
-7058.959136629986
 31
0.0
  0
LINE
  5
309D
330
1F
100
AcDbEntity
  8
STAVBA OBRYS
  6
Continuous
100
AcDbLine
 10
-651.4215655473417
 20
-7059.336788005296
 30
0.0
 11
-651.63922668339
 21
-7058.959136629986
 31
0.0
  0
LINE
  5
309E
330
1F
100
AcDbEntity
  8
STAVBA OBRYS
  6
Continuous
100
AcDbLine
 10
-648.3008257524016
 20
-7059.336788005296
 30
0.0
 11
-647.9231743792734
 21
-7058.959136629986
 31
0.0
  0
LINE
  5
309F
330
1F
100
AcDbEntity
  8
STAVBA OBRYS
  6
Continuous
100
AcDbLine
 10
-648.3008257524016
 20
-7059.336788005296
 30
0.0
 11
-648.5194170644208
 21
-7058.959136629986
 31
0.0
  0
LINE
  5
30A0
330
1F
100
AcDbEntity
  8
STAVBA OBRYS
  6
Continuous
100
AcDbLine
 10
-648.7445196069057
 20
-7058.286619531557
 30
0.0
 11
-651.2625054862328
 21
-7058.286619531557
 31
0.0
  0
LINE
  5
30A1
330
1F
100
AcDbEntity
  8
STAVBA OBRYS
  6
Continuous
100
AcDbLine
 10
-657.5132868339533
 20
-7058.51823330477
 30
0.0
 11
-657.1347052848468
 21
-7058.140581929459
 31
0.0
  0
LINE
  5
30A2
330
1F
100
AcDbEntity
  8
STAVBA OBRYS
  6
Continuous
100
AcDbLine
 10
-657.5132868339533
 20
-7058.51823330477
 30
0.0
 11
-657.7309479700016
 21
-7058.140581929459
 31
0.0
  0
LINE
  5
30A3
330
1F
100
AcDbEntity
  8
STAVBA OBRYS
  6
Continuous
100
AcDbLine
 10
-654.4985870796554
 20
-7059.082850010875
 30
0.0
 11
-654.1209357065272
 21
-7058.704268462591
 31
0.0
  0
LINE
  5
30A4
330
1F
100
AcDbEntity
  8
STAVBA OBRYS
  6
Continuous
100
AcDbLine
 10
-654.4985870796554
 20
-7059.082850010875
 30
0.0
 11
-654.7171783916819
 21
-7058.704268462591
 31
0.0
  0
LINE
  5
30A5
330
1F
100
AcDbEntity
  8
STAVBA OBRYS
  6
Continuous
100
AcDbLine
 10
-654.9236774184865
 20
-7058.059656636308
 30
0.0
 11
-657.2453962045511
 21
-7057.769441786788
 31
0.0
  0
LINE
  5
30A6
330
1F
100
AcDbEntity
  8
STAVBA OBRYS
  6
Continuous
100
AcDbLine
 10
-653.1061139132762
 20
-7058.286619531557
 30
0.0
 11
-654.303250162633
 21
-7058.136861228835
 31
0.0
  0
LINE
  5
30A7
330
1F
100
AcDbEntity
  8
STAVBA OBRYS
  6
Continuous
100
AcDbLine
 10
-651.8587481713876
 20
-7058.286619531557
 30
0.0
 11
-653.1061139132762
 21
-7058.286619531557
 31
0.0
  0
LINE
  5
30A8
330
1F
100
AcDbEntity
  8
STAVBA OBRYS
  6
Continuous
100
AcDbLine
 10
-676.5908283268218
 20
-7058.059656636308
 30
0.0
 11
-674.2691095407572
 21
-7057.769441786788
 31
0.0
  0
LINE
  5
30A9
330
1F
100
AcDbEntity
  8
STAVBA OBRYS
  6
Continuous
100
AcDbLine
 10
-677.0159186656528
 20
-7059.082850010875
 30
0.0
 11
-676.7973273536263
 21
-7058.704268462591
 31
0.0
  0
LINE
  5
30AA
330
1F
100
AcDbEntity
  8
STAVBA OBRYS
  6
Continuous
100
AcDbLine
 10
-677.0159186656528
 20
-7059.082850010875
 30
0.0
 11
-677.393570038781
 21
-7058.704268462591
 31
0.0
  0
LINE
  5
30AB
330
1F
100
AcDbEntity
  8
STAVBA OBRYS
  6
Continuous
100
AcDbLine
 10
-674.0012189113549
 20
-7058.51823330477
 30
0.0
 11
-673.7835577753067
 21
-7058.140581929459
 31
0.0
  0
LINE
  5
30AC
330
1F
100
AcDbEntity
  8
STAVBA OBRYS
  6
Continuous
100
AcDbLine
 10
-674.0012189113549
 20
-7058.51823330477
 30
0.0
 11
-674.3798004604614
 21
-7058.140581929459
 31
0.0
  0
LINE
  5
30AD
330
1F
100
AcDbEntity
  8
STAVBA OBRYS
  6
Continuous
100
AcDbLine
 10
-682.7699861384026
 20
-7058.286619531557
 30
0.0
 11
-680.2520002590754
 21
-7058.286619531557
 31
0.0
  0
LINE
  5
30AE
330
1F
100
AcDbEntity
  8
STAVBA OBRYS
  6
Continuous
100
AcDbLine
 10
-679.6557575739207
 20
-7058.286619531557
 30
0.0
 11
-678.408391832032
 21
-7058.286619531557
 31
0.0
  0
LINE
  5
30AF
330
1F
100
AcDbEntity
  8
STAVBA OBRYS
  6
Continuous
100
AcDbLine
 10
-683.2136799929067
 20
-7059.336788005296
 30
0.0
 11
-682.9950886808874
 21
-7058.959136629986
 31
0.0
  0
LINE
  5
30B0
330
1F
100
AcDbEntity
  8
STAVBA OBRYS
  6
Continuous
100
AcDbLine
 10
-683.2136799929067
 20
-7059.336788005296
 30
0.0
 11
-683.5913313660348
 21
-7058.959136629986
 31
0.0
  0
LINE
  5
30B1
330
1F
100
AcDbEntity
  8
STAVBA OBRYS
  6
Continuous
100
AcDbLine
 10
-680.0929401979665
 20
-7059.336788005296
 30
0.0
 11
-679.8752790619182
 21
-7058.959136629986
 31
0.0
  0
LINE
  5
30B2
330
1F
100
AcDbEntity
  8
STAVBA OBRYS
  6
Continuous
100
AcDbLine
 10
-680.0929401979665
 20
-7059.336788005296
 30
0.0
 11
-680.471521747073
 21
-7058.959136629986
 31
0.0
  0
LINE
  5
30B3
330
1F
100
AcDbEntity
  8
STAVBA OBRYS
  6
Continuous
100
AcDbLine
 10
-678.408391832032
 20
-7058.286619531557
 30
0.0
 11
-677.2112555826752
 21
-7058.136861228835
 31
0.0
  0
LINE
  5
30B4
330
1F
100
AcDbEntity
  8
STAVBA OBRYS
  6
Continuous
100
AcDbLine
 10
-689.0179769587412
 20
-7058.286619531557
 30
0.0
 11
-686.4972005520321
 21
-7058.286619531557
 31
0.0
  0
LINE
  5
30B5
330
1F
100
AcDbEntity
  8
STAVBA OBRYS
  6
Continuous
100
AcDbLine
 10
-689.4532992311142
 20
-7059.336788005296
 30
0.0
 11
-689.2347079190876
 21
-7058.959136629986
 31
0.0
  0
LINE
  5
30B6
330
1F
100
AcDbEntity
  8
STAVBA OBRYS
  6
Continuous
100
AcDbLine
 10
-689.4532992311142
 20
-7059.336788005296
 30
0.0
 11
-689.8309506042424
 21
-7058.959136629986
 31
0.0
  0
LINE
  5
30B7
330
1F
100
AcDbEntity
  8
STAVBA OBRYS
  6
Continuous
100
AcDbLine
 10
-686.3334896118758
 20
-7059.336788005296
 30
0.0
 11
-686.1148982998493
 21
-7058.959136629986
 31
0.0
  0
LINE
  5
30B8
330
1F
100
AcDbEntity
  8
STAVBA OBRYS
  6
Continuous
100
AcDbLine
 10
-686.3334896118758
 20
-7059.336788005296
 30
0.0
 11
-686.711140985004
 21
-7058.959136629986
 31
0.0
  0
LINE
  5
30B9
330
1F
100
AcDbEntity
  8
STAVBA OBRYS
  6
Continuous
100
AcDbLine
 10
-692.5731088500761
 20
-7059.336788005296
 30
0.0
 11
-692.3554477140278
 21
-7058.959136629986
 31
0.0
  0
LINE
  5
30BA
330
1F
100
AcDbEntity
  8
STAVBA OBRYS
  6
Continuous
100
AcDbLine
 10
-692.5731088500761
 20
-7059.336788005296
 30
0.0
 11
-692.951690398906
 21
-7058.959136629986
 31
0.0
  0
LINE
  5
30BB
330
1F
100
AcDbEntity
  8
STAVBA OBRYS
  6
Continuous
100
AcDbLine
 10
-692.1405771050849
 20
-7058.286619531557
 30
0.0
 11
-689.621661050056
 21
-7058.286619531557
 31
0.0
  0
LINE
  5
30BC
102
{ACAD_REACTORS
330
2F73
102
}
330
1F
100
AcDbEntity
  8
STAVBA OBRYS
100
AcDbLine
 10
-685.5853435261997
 20
-7071.467198822418
 30
0.0
 11
-685.5853435261997
 21
-7072.967198822418
 31
0.0
  0
LINE
  5
30BD
102
{ACAD_REACTORS
330
2F73
102
}
330
1F
100
AcDbEntity
  8
STAVBA OBRYS
100
AcDbLine
 10
-685.5853435261997
 20
-7072.967198822418
 30
0.0
 11
-688.4106693198773
 21
-7072.967198822418
 31
0.0
  0
ARC
  5
30BE
102
{ACAD_REACTORS
330
2F73
102
}
330
1F
100
AcDbEntity
  8
STAVBA OBRYS
100
AcDbCircle
 10
-688.4106693198773
 20
-7073.967198822419
 30
0.0
 40
1.0
100
AcDbArc
 50
90.0
 51
180.0
  0
LINE
  5
30BF
102
{ACAD_REACTORS
330
2F73
102
}
330
1F
100
AcDbEntity
  8
STAVBA OBRYS
100
AcDbLine
 10
-689.4106693198773
 20
-7082.093672476374
 30
0.0
 11
-689.4106693198773
 21
-7073.967198822419
 31
0.0
  0
LINE
  5
30C0
330
1F
100
AcDbEntity
  8
STAVBA OBRYS
  6
Continuous
100
AcDbLine
 10
-685.9028182185575
 20
-7058.286619531557
 30
0.0
 11
-683.3746004056884
 21
-7058.286619531557
 31
0.0
  0
HATCH
  5
30C1
330
1F
100
AcDbEntity
  8
nášlap_vrstvy
100
AcDbHatch
 10
0.0
 20
0.0
 30
0.0
210
0.0
220
0.0
230
1.0
  2
AR-SAND
 70
     0
 71
     0
 91
        3
 92
        7
 72
     0
 73
     1
 93
        9
 10
-703.3733800150182
 20
-6949.862863034995
 10
-706.3029689294851
 20
-6949.862863034995
 10
-706.3029689294851
 20
-6981.860487286279
 10
-706.2426158249943
 20
-6984.137214370351
 10
-706.2426158249943
 20
-6989.137214370555
 10
-815.9862335987597
 20
-6989.137214370555
 10
-815.9862335987597
 20
-6991.185687062014
 10
-703.908254001413
 20
-6991.185687062014
 10
-703.3733800150255
 20
-6991.185687062014
 97
        0
 92
       22
 72
     0
 73
     1
 93
        4
 10
-706.3029689294851
 20
-6981.860487286354
 10
-711.3480934546458
 20
-6981.860487286354
 10
-711.3480934546458
 20
-6984.137214370555
 10
-706.2426158249906
 20
-6984.137214370555
 97
        0
 92
       23
 72
     0
 73
     1
 93
        4
 10
-806.2426158249943
 20
-6984.137214370555
 10
-809.9561544220339
 20
-6984.137214370555
 10
-809.9561544220374
 20
-6989.137214370555
 10
-806.2426158249943
 20
-6989.137214370555
 97
        0
 75
     0
 76
     1
 52
90.0
 41
0.05
 77
     0
 78
     4
 53
127.5
 43
-26799.80537858884
 44
-9196.573348291389
 45
-2.447066186646711
 46
-0.0800015647992021
 79
     6
 49
0.0
 49
-1.9304
 49
0.0
 49
-2.159
 49
0.0
 49
-2.06375
 53
97.49999999999985
 43
-26799.80537858884
 44
-9196.573348291389
 45
-3.584125502841771
 46
2.247616415690013
 79
     6
 49
0.0
 49
-1.041399999999999
 49
0.0
 49
-1.7399
 49
0.0
 49
-0.66675
 53
57.5
 43
-26799.80537858884
 44
-9198.135448291388
 45
-0.0071859233927282
 46
3.95496185120729
 79
     6
 49
0.0
 49
-0.635
 49
0.0
 49
-2.286
 49
0.0
 49
-2.9845
 53
47.5
 43
-26799.80537858884
 44
-9198.135448291388
 45
-1.11464661628608
 46
3.817782262361486
 79
     6
 49
0.0
 49
-0.3175
 49
0.0
 49
-1.498599999999999
 49
0.0
 49
-1.7145
 47
0.2229474623524009
 98
        3
 10
-704.5590274395324
 20
-6987.891301381639
 10
-708.128368366182
 20
-6982.986469016708
 10
-807.8470904574786
 20
-6986.999517609271
  0
LINE
  5
30C2
330
1F
100
AcDbEntity
  8
nášlap_vrstvy
100
AcDbLine
 10
-815.9862335987636
 20
-6989.137214370555
 30
0.0
 11
-706.2426158249945
 21
-6989.137214370555
 31
0.0
  0
LWPOLYLINE
  5
30C3
330
1F
100
AcDbEntity
  8
nášlap_vrstvy
100
AcDbPolyline
 90
        4
 70
     1
 43
0.0
 10
-706.2426158249943
 20
-6989.137214370555
 10
-806.2426158249943
 20
-6989.137214370555
 10
-806.2426158249943
 20
-6984.137214370555
 10
-706.2426158249943
 20
-6984.137214370555
  0
LINE
  5
30C4
330
1F
100
AcDbEntity
  8
CETRIS
100
AcDbLine
 10
-815.9862335987636
 20
-6991.185687062014
 30
0.0
 11
-718.3733800150257
 21
-6991.185687062014
 31
0.0
  0
LINE
  5
30C5
330
1F
100
AcDbEntity
  8
CETRIS
100
AcDbLine
 10
-815.9862335987636
 20
-7003.185687062014
 30
0.0
 11
-718.3733800150257
 21
-7003.185687062014
 31
0.0
  0
LINE
  5
30C6
330
1F
100
AcDbEntity
  8
nášlap_vrstvy
100
AcDbLine
 10
-809.9561544220341
 20
-6984.137214370555
 30
0.0
 11
-806.2426158249945
 21
-6984.137214370555
 31
0.0
  0
LWPOLYLINE
  5
30C7
330
1F
100
AcDbEntity
  8
nášlap_vrstvy
100
AcDbPolyline
 90
        4
 70
     0
 43
0.0
 10
-815.9862335987634
 20
-6984.137214370555
 10
-809.9561544220339
 20
-6984.137214370555
 10
-809.9561544220339
 20
-6989.137214370555
 10
-815.9862335987634
 20
-6989.137214370555
  0
LINE
  5
30C8
330
1F
100
AcDbEntity
  8
SPOJOVACÍ
  6
DASHED
100
AcDbLine
 10
-748.8584817417867
 20
-6994.774547127811
 30
0.0
 11
-747.919562293202
 21
-6993.591326308569
 31
0.0
  0
LINE
  5
30C9
330
1F
100
AcDbEntity
  8
SPOJOVACÍ
  6
DASHED
100
AcDbLine
 10
-746.0061720780359
 20
-6991.185687062014
 30
0.0
 11
-746.0061720780359
 21
-6992.361615303211
 31
0.0
  0
LINE
  5
30CA
330
1F
100
AcDbEntity
  8
SPOJOVACÍ
  6
DASHED
100
AcDbLine
 10
-746.7071711604803
 20
-6992.691604468337
 30
0.0
 11
-746.0061720780359
 21
-6992.361615303211
 31
0.0
  0
LINE
  5
30CB
330
1F
100
AcDbEntity
  8
SPOJOVACÍ
  6
DASHED
100
AcDbLine
 10
-747.919562293202
 20
-6993.591326308569
 30
0.0
 11
-746.7071711604803
 21
-6992.691604468337
 31
0.0
  0
LINE
  5
30CC
330
1F
100
AcDbEntity
  8
SPOJOVACÍ
  6
DASHED
100
AcDbLine
 10
-756.0024736997584
 20
-6991.185687062014
 30
0.0
 11
-756.0024736997584
 21
-6992.361615303211
 31
0.0
  0
LINE
  5
30CD
330
1F
100
AcDbEntity
  8
SPOJOVACÍ
  6
DASHED
100
AcDbLine
 10
-753.5913650155271
 20
-6994.13826967658
 30
0.0
 11
-752.8110591457952
 21
-6995.430879169311
 31
0.0
  0
LINE
  5
30CE
330
1F
100
AcDbEntity
  8
SPOJOVACÍ
  6
DASHED
100
AcDbLine
 10
-754.6797823178785
 20
-6993.090873126956
 30
0.0
 11
-753.5913650155271
 21
-6994.13826967658
 31
0.0
  0
LINE
  5
30CF
330
1F
100
AcDbEntity
  8
SPOJOVACÍ
  6
DASHED
100
AcDbLine
 10
-756.0024736997584
 20
-6992.361615303211
 30
0.0
 11
-754.6797823178785
 21
-6993.090873126956
 31
0.0
  0
LINE
  5
30D0
330
1F
100
AcDbEntity
  8
SPOJOVACÍ
  6
DASHED
100
AcDbLine
 10
-756.0024736997584
 20
-6991.185687062014
 30
0.0
 11
-746.0061720780359
 21
-6991.185687062014
 31
0.0
  0
LINE
  5
30D1
330
1F
100
AcDbEntity
  8
SPOJOVACÍ
  6
DASHED
100
AcDbLine
 10
-756.0024736997584
 20
-6992.361615303211
 30
0.0
 11
-746.0061720780359
 21
-6992.361615303211
 31
0.0
  0
LINE
  5
30D2
330
1F
100
AcDbEntity
  8
SPOJOVACÍ
  6
DASHED
100
AcDbLine
 10
-749.6816315070173
 20
-6997.65329238768
 30
0.0
 11
-749.4592078739515
 21
-6996.160136993319
 31
0.0
  0
LINE
  5
30D3
330
1F
100
AcDbEntity
  8
SPOJOVACÍ
  6
DASHED
100
AcDbLine
 10
-749.6816315070173
 20
-6997.65329238768
 30
0.0
 11
-749.6816315070173
 21
-7002.497387483031
 31
0.0
  0
LINE
  5
30D4
330
1F
100
AcDbEntity
  8
SPOJOVACÍ
  6
DASHED
100
AcDbLine
 10
-748.6524664070311
 20
-7002.945881044602
 30
0.0
 11
-749.0225647505576
 21
-7003.315979390267
 31
0.0
  0
LINE
  5
30D5
330
1F
100
AcDbEntity
  8
SPOJOVACÍ
  6
DASHED
100
AcDbLine
 10
-748.6524664070311
 20
-7002.945881044602
 30
0.0
 11
-749.0225647505576
 21
-7002.731661558815
 31
0.0
  0
LINE
  5
30D6
330
1F
100
AcDbEntity
  8
SPOJOVACÍ
  6
DASHED
100
AcDbLine
 10
-752.3917358987818
 20
-6996.88210223902
 30
0.0
 11
-752.3270142664987
 21
-6997.65329238768
 31
0.0
  0
LINE
  5
30D7
330
1F
100
AcDbEntity
  8
SPOJOVACÍ
  6
DASHED
100
AcDbLine
 10
-752.3270142664987
 20
-6997.65329238768
 30
0.0
 11
-752.3270142664987
 21
-7001.610427654767
 31
0.0
  0
LINE
  5
30D8
330
1F
100
AcDbEntity
  8
SPOJOVACÍ
  6
DASHED
100
AcDbLine
 10
-753.3561793707631
 20
-7001.769952803669
 30
0.0
 11
-752.9860810229584
 21
-7001.983260716996
 31
0.0
  0
LINE
  5
30D9
330
1F
100
AcDbEntity
  8
SPOJOVACÍ
  6
DASHED
100
AcDbLine
 10
-753.3561793707631
 20
-7001.769952803669
 30
0.0
 11
-752.9860810229584
 21
-7001.398942885815
 31
0.0
  0
LINE
  5
30DA
330
1F
100
AcDbEntity
  8
SPOJOVACÍ
  6
DASHED
100
AcDbLine
 10
-753.3561793707631
 20
-7001.769952803669
 30
0.0
 11
-748.6524664070311
 21
-7002.945881044602
 31
0.0
  0
LINE
  5
30DB
330
1F
100
AcDbEntity
  8
SPOJOVACÍ
  6
DASHED
100
AcDbLine
 10
-752.9860810229584
 20
-7001.983260716996
 30
0.0
 11
-749.0225647505576
 21
-7003.315979390267
 31
0.0
  0
LINE
  5
30DC
330
1F
100
AcDbEntity
  8
SPOJOVACÍ
  6
DASHED
100
AcDbLine
 10
-752.9860810229584
 20
-7001.398942885815
 30
0.0
 11
-749.0225647505576
 21
-7002.731661558815
 31
0.0
  0
LINE
  5
30DD
330
1F
100
AcDbEntity
  8
SPOJOVACÍ
  6
DASHED
100
AcDbLine
 10
-749.4592078739515
 20
-6996.160136993319
 30
0.0
 11
-748.8584817417867
 21
-6994.774547127811
 31
0.0
  0
LINE
  5
30DE
330
1F
100
AcDbEntity
  8
SPOJOVACÍ
  6
DASHED
100
AcDbLine
 10
-752.8110591457952
 20
-6995.430879169311
 30
0.0
 11
-752.3917358987818
 21
-6996.88210223902
 31
0.0
  0
LWPOLYLINE
  5
30DF
330
1F
100
AcDbEntity
  8
nášlap_vrstvy
100
AcDbPolyline
 90
        4
 70
     1
 43
0.0
 10
-706.3029689294851
 20
-6981.860487286354
 10
-711.3480934546458
 20
-6981.860487286354
 10
-711.3480934546458
 20
-6949.862863034995
 10
-706.3029689294851
 20
-6949.862863034995
  0
LINE
  5
30E0
330
1F
100
AcDbEntity
  8
STAVBA OBRYS
  6
Continuous
100
AcDbLine
 10
-696.7737827439414
 20
-7055.587249368821
 30
0.0
 11
-691.8308285650128
 21
-7055.587249368821
 31
0.0
  0
LINE
  5
30E1
330
1F
100
AcDbEntity
  8
nášlap_vrstvy
100
AcDbLine
 10
-706.3029689294853
 20
-6981.860487286354
 30
0.0
 11
-706.2426158249945
 21
-6984.137214370555
 31
0.0
  0
LINE
  5
30E2
330
1F
100
AcDbEntity
  8
nášlap_vrstvy
100
AcDbLine
 10
-711.3480934546459
 20
-6981.860487286354
 30
0.0
 11
-711.3480934546459
 21
-6984.137214370555
 31
0.0
  0
LINE
  5
30E3
330
1F
100
AcDbEntity
  8
STAVBA OBRYS
  6
Continuous
100
AcDbLine
 10
-699.7112779070739
 20
-7054.74730062879
 30
0.0
 11
-700.9186460899727
 21
-7053.789219558805
 31
0.0
  0
LINE
  5
30E4
330
1F
100
AcDbEntity
  8
STAVBA OBRYS
  6
Continuous
100
AcDbLine
 10
-698.2974106973706
 20
-7055.360286477938
 30
0.0
 11
-699.7112779070739
 21
-7054.74730062879
 31
0.0
  0
LINE
  5
30E5
330
1F
100
AcDbEntity
  8
STAVBA OBRYS
  6
Continuous
100
AcDbLine
 10
-703.3733800150294
 20
-7051.836780563738
 30
0.0
 11
-702.1734532382979
 21
-7051.836780563738
 31
0.0
  0
LINE
  5
30E6
330
1F
100
AcDbEntity
  8
STAVBA OBRYS
  6
Continuous
100
AcDbLine
 10
-701.8367296004144
 20
-7052.552085749906
 30
0.0
 11
-702.1734532382979
 21
-7051.836780563738
 31
0.0
  0
LINE
  5
30E7
330
1F
100
AcDbEntity
  8
STAVBA OBRYS
  6
Continuous
100
AcDbLine
 10
-700.9186460899727
 20
-7053.789219558805
 30
0.0
 11
-701.8367296004144
 21
-7052.552085749906
 31
0.0
  0
LINE
  5
30E8
330
1F
100
AcDbEntity
  8
STAVBA OBRYS
  6
Continuous
100
AcDbLine
 10
-696.7737827439414
 20
-7055.587249368821
 30
0.0
 11
-698.2974106973706
 21
-7055.360286477938
 31
0.0
  0
LINE
  5
30E9
330
1F
100
AcDbEntity
  8
SPOJOVACÍ
  6
DASHED
100
AcDbLine
 10
-742.8435956046705
 20
-7003.185687062014
 30
0.0
 11
-732.847293982948
 21
-7003.185687062014
 31
0.0
  0
LINE
  5
30EA
330
1F
100
AcDbEntity
  8
STAVBA OBRYS
  6
Continuous
100
AcDbLine
 10
-649.5007525288638
 20
-7054.537080899447
 30
0.0
 11
-649.2830913928155
 21
-7054.914732270393
 31
0.0
  0
LINE
  5
30EB
330
1F
100
AcDbEntity
  8
STAVBA OBRYS
  6
Continuous
100
AcDbLine
 10
-649.5007525288638
 20
-7054.537080899447
 30
0.0
 11
-649.8793340776938
 21
-7054.914732270393
 31
0.0
  0
LINE
  5
30EC
330
1F
100
AcDbEntity
  8
STAVBA OBRYS
  6
Continuous
100
AcDbLine
 10
-652.621492323804
 20
-7054.537080899447
 30
0.0
 11
-652.4029010117774
 21
-7054.914732270393
 31
0.0
  0
LINE
  5
30ED
330
1F
100
AcDbEntity
  8
STAVBA OBRYS
  6
Continuous
100
AcDbLine
 10
-652.621492323804
 20
-7054.537080899447
 30
0.0
 11
-652.9991436969321
 21
-7054.914732270393
 31
0.0
  0
LINE
  5
30EE
330
1F
100
AcDbEntity
  8
STAVBA OBRYS
  6
Continuous
100
AcDbLine
 10
-658.1467365507233
 20
-7055.402144388338
 30
0.0
 11
-657.929075414675
 21
-7055.779795759284
 31
0.0
  0
LINE
  5
30EF
330
1F
100
AcDbEntity
  8
STAVBA OBRYS
  6
Continuous
100
AcDbLine
 10
-655.47155096196
 20
-7054.957520358133
 30
0.0
 11
-655.2538898259117
 21
-7055.335171729078
 31
0.0
  0
LINE
  5
30F0
330
1F
100
AcDbEntity
  8
STAVBA OBRYS
  6
Continuous
100
AcDbLine
 10
-655.47155096196
 20
-7054.957520358133
 30
0.0
 11
-655.8501325110665
 21
-7055.335171729078
 31
0.0
  0
LINE
  5
30F1
330
1F
100
AcDbEntity
  8
STAVBA OBRYS
  6
Continuous
100
AcDbLine
 10
-655.0771564245624
 20
-7055.832815780289
 30
0.0
 11
-653.1061139132762
 21
-7055.587249368821
 31
0.0
  0
LINE
  5
30F2
330
1F
100
AcDbEntity
  8
STAVBA OBRYS
  6
Continuous
100
AcDbLine
 10
-657.7839679904609
 20
-7056.17139977285
 30
0.0
 11
-655.6473541876076
 21
-7055.904439317512
 31
0.0
  0
LINE
  5
30F3
330
1F
100
AcDbEntity
  8
STAVBA OBRYS
  6
Continuous
100
AcDbLine
 10
-652.7693902753926
 20
-7055.587249368821
 30
0.0
 11
-653.1061139132762
 21
-7055.587249368821
 31
0.0
  0
LINE
  5
30F4
330
1F
100
AcDbEntity
  8
STAVBA OBRYS
  6
Continuous
100
AcDbLine
 10
-649.6467901287797
 20
-7055.587249368821
 30
0.0
 11
-652.1657061838086
 21
-7055.587249368821
 31
0.0
  0
LINE
  5
30F5
330
1F
100
AcDbEntity
  8
STAVBA OBRYS
  6
Continuous
100
AcDbLine
 10
-660.1494050391448
 20
-7057.575965223353
 30
0.0
 11
-660.6200739917294
 21
-7056.176980823787
 31
0.0
  0
LINE
  5
30F6
330
1F
100
AcDbEntity
  8
STAVBA OBRYS
  6
Continuous
100
AcDbLine
 10
-660.7456477242922
 20
-7057.575965223353
 30
0.0
 11
-661.2163166768769
 21
-7056.176980823787
 31
0.0
  0
LINE
  5
30F7
330
1F
100
AcDbEntity
  8
STAVBA OBRYS
  6
Continuous
100
AcDbLine
 10
-660.8377351280469
 20
-7055.799329452842
 30
0.0
 11
-660.6200739917294
 21
-7056.176980823787
 31
0.0
  0
LINE
  5
30F8
330
1F
100
AcDbEntity
  8
STAVBA OBRYS
  6
Continuous
100
AcDbLine
 10
-660.8377351280469
 20
-7055.799329452842
 30
0.0
 11
-661.2163166768769
 21
-7056.176980823787
 31
0.0
  0
LINE
  5
30F9
330
1F
100
AcDbEntity
  8
STAVBA OBRYS
  6
Continuous
100
AcDbLine
 10
-660.8172712604246
 20
-7057.32295740627
 30
0.0
 11
-663.9063850782295
 21
-7056.936934452372
 31
0.0
  0
LINE
  5
30FA
330
1F
100
AcDbEntity
  8
STAVBA OBRYS
  6
Continuous
100
AcDbLine
 10
-663.9063850782295
 20
-7056.936934452372
 30
0.0
 11
-661.070279076961
 21
-7056.582537471243
 31
0.0
  0
LINE
  5
30FB
330
1F
100
AcDbEntity
  8
STAVBA OBRYS
  6
Continuous
100
AcDbLine
 10
-667.6081206670787
 20
-7056.936934452372
 30
0.0
 11
-670.4442266683472
 21
-7056.582537471243
 31
0.0
  0
LINE
  5
30FC
330
1F
100
AcDbEntity
  8
STAVBA OBRYS
  6
Continuous
100
AcDbLine
 10
-670.6972344848836
 20
-7057.32295740627
 30
0.0
 11
-667.6081206670787
 21
-7056.936934452372
 31
0.0
  0
LINE
  5
30FD
330
1F
100
AcDbEntity
  8
STAVBA OBRYS
  6
Continuous
100
AcDbLine
 10
-670.6767706172613
 20
-7055.799329452842
 30
0.0
 11
-670.2981890684314
 21
-7056.176980823787
 31
0.0
  0
LINE
  5
30FE
330
1F
100
AcDbEntity
  8
STAVBA OBRYS
  6
Continuous
100
AcDbLine
 10
-670.6767706172613
 20
-7055.799329452842
 30
0.0
 11
-670.8944317535788
 21
-7056.176980823787
 31
0.0
  0
LINE
  5
30FF
330
1F
100
AcDbEntity
  8
STAVBA OBRYS
  6
Continuous
100
AcDbLine
 10
-670.768858021016
 20
-7057.575965223353
 30
0.0
 11
-670.2981890684314
 21
-7056.176980823787
 31
0.0
  0
LINE
  5
3100
330
1F
100
AcDbEntity
  8
STAVBA OBRYS
  6
Continuous
100
AcDbLine
 10
-671.3651007061635
 20
-7057.575965223353
 30
0.0
 11
-670.8944317535788
 21
-7056.176980823787
 31
0.0
  0
LINE
  5
3101
330
1F
100
AcDbEntity
  8
STAVBA OBRYS
  6
Continuous
100
AcDbLine
 10
-673.7305377548473
 20
-7056.17139977285
 30
0.0
 11
-675.8671515577007
 21
-7055.904439317512
 31
0.0
  0
LINE
  5
3102
330
1F
100
AcDbEntity
  8
STAVBA OBRYS
  6
Continuous
100
AcDbLine
 10
-676.0429547833482
 20
-7054.957520358133
 30
0.0
 11
-675.6643732342418
 21
-7055.335171729078
 31
0.0
  0
LINE
  5
3103
330
1F
100
AcDbEntity
  8
STAVBA OBRYS
  6
Continuous
100
AcDbLine
 10
-676.0429547833482
 20
-7054.957520358133
 30
0.0
 11
-676.2606159193965
 21
-7055.335171729078
 31
0.0
  0
LINE
  5
3104
330
1F
100
AcDbEntity
  8
STAVBA OBRYS
  6
Continuous
100
AcDbLine
 10
-673.367769194585
 20
-7055.402144388338
 30
0.0
 11
-672.989187645755
 21
-7055.779795759284
 31
0.0
  0
LINE
  5
3105
330
1F
100
AcDbEntity
  8
STAVBA OBRYS
  6
Continuous
100
AcDbLine
 10
-673.367769194585
 20
-7055.402144388338
 30
0.0
 11
-673.5854303306332
 21
-7055.779795759284
 31
0.0
  0
LINE
  5
3106
330
1F
100
AcDbEntity
  8
STAVBA OBRYS
  6
Continuous
100
AcDbLine
 10
-681.8677156165286
 20
-7055.587249368821
 30
0.0
 11
-679.3487995614996
 21
-7055.587249368821
 31
0.0
  0
LINE
  5
3107
330
1F
100
AcDbEntity
  8
STAVBA OBRYS
  6
Continuous
100
AcDbLine
 10
-678.7451154699156
 20
-7055.587249368821
 30
0.0
 11
-678.408391832032
 21
-7055.587249368821
 31
0.0
  0
LINE
  5
3108
330
1F
100
AcDbEntity
  8
STAVBA OBRYS
  6
Continuous
100
AcDbLine
 10
-682.0137532164444
 20
-7054.537080899447
 30
0.0
 11
-681.6351716676145
 21
-7054.914732270393
 31
0.0
  0
LINE
  5
3109
330
1F
100
AcDbEntity
  8
STAVBA OBRYS
  6
Continuous
100
AcDbLine
 10
-682.0137532164444
 20
-7054.537080899447
 30
0.0
 11
-682.2314143524927
 21
-7054.914732270393
 31
0.0
  0
LINE
  5
310A
330
1F
100
AcDbEntity
  8
STAVBA OBRYS
  6
Continuous
100
AcDbLine
 10
-678.8930134215043
 20
-7054.537080899447
 30
0.0
 11
-678.5153620483761
 21
-7054.914732270393
 31
0.0
  0
LINE
  5
310B
330
1F
100
AcDbEntity
  8
STAVBA OBRYS
  6
Continuous
100
AcDbLine
 10
-678.8930134215043
 20
-7054.537080899447
 30
0.0
 11
-679.1116047335308
 21
-7054.914732270393
 31
0.0
  0
LINE
  5
310C
330
1F
100
AcDbEntity
  8
STAVBA OBRYS
  6
Continuous
100
AcDbLine
 10
-676.4373493207458
 20
-7055.832815780289
 30
0.0
 11
-678.408391832032
 21
-7055.587249368821
 31
0.0
  0
LINE
  5
310D
330
1F
100
AcDbEntity
  8
STAVBA OBRYS
  6
Continuous
100
AcDbLine
 10
-671.0134942554141
 20
-7056.510913934019
 30
0.0
 11
-673.1584796403986
 21
-7056.243023305708
 31
0.0
  0
LINE
  5
310E
330
1F
100
AcDbEntity
  8
STAVBA OBRYS
  6
Continuous
100
AcDbLine
 10
-658.1467365507233
 20
-7055.402144388338
 30
0.0
 11
-658.5253180995533
 21
-7055.779795759284
 31
0.0
  0
LINE
  5
310F
330
1F
100
AcDbEntity
  8
STAVBA OBRYS
  6
Continuous
100
AcDbLine
 10
-660.5010114898941
 20
-7056.510913934019
 30
0.0
 11
-658.3560261049097
 21
-7056.243023305708
 31
0.0
  0
LINE
  5
3110
330
1F
100
AcDbEntity
  8
STAVBA OBRYS
  6
Continuous
100
AcDbLine
 10
-688.1119857335143
 20
-7055.587249368821
 30
0.0
 11
-685.5837679206452
 21
-7055.587249368821
 31
0.0
  0
LINE
  5
3111
330
1F
100
AcDbEntity
  8
STAVBA OBRYS
  6
Continuous
100
AcDbLine
 10
-688.2533724543755
 20
-7054.537080899447
 30
0.0
 11
-687.8757210815238
 21
-7054.914732270393
 31
0.0
  0
LINE
  5
3112
330
1F
100
AcDbEntity
  8
STAVBA OBRYS
  6
Continuous
100
AcDbLine
 10
-688.2533724543755
 20
-7054.537080899447
 30
0.0
 11
-688.471963766402
 21
-7054.914732270393
 31
0.0
  0
LINE
  5
3113
330
1F
100
AcDbEntity
  8
STAVBA OBRYS
  6
Continuous
100
AcDbLine
 10
-685.1335628354136
 20
-7054.537080899447
 30
0.0
 11
-684.7549812865836
 21
-7054.914732270393
 31
0.0
  0
LINE
  5
3114
330
1F
100
AcDbEntity
  8
STAVBA OBRYS
  6
Continuous
100
AcDbLine
 10
-685.1335628354136
 20
-7054.537080899447
 30
0.0
 11
-685.3512239717311
 21
-7054.914732270393
 31
0.0
  0
LINE
  5
3115
330
1F
100
AcDbEntity
  8
STAVBA OBRYS
  6
Continuous
100
AcDbLine
 10
-691.3731820736138
 20
-7054.537080899447
 30
0.0
 11
-691.5917733856404
 21
-7054.914732270393
 31
0.0
  0
LINE
  5
3116
330
1F
100
AcDbEntity
  8
STAVBA OBRYS
  6
Continuous
100
AcDbLine
 10
-691.227144473698
 20
-7055.587249368821
 30
0.0
 11
-688.708228418669
 21
-7055.587249368821
 31
0.0
  0
LINE
  5
3117
330
1F
100
AcDbEntity
  8
STAVBA OBRYS
  6
Continuous
100
AcDbLine
 10
-691.3731820736138
 20
-7054.537080899447
 30
0.0
 11
-690.9955307004857
 21
-7054.914732270393
 31
0.0
  0
LINE
  5
3118
330
1F
100
AcDbEntity
  8
STAVBA OBRYS
  6
Continuous
100
AcDbLine
 10
-684.9893855871705
 20
-7055.587249368821
 30
0.0
 11
-682.4686091804615
 21
-7055.587249368821
 31
0.0
  0
LINE
  5
3119
330
1F
100
AcDbEntity
  8
nášlap_vrstvy
100
AcDbLine
 10
-706.3029689294853
 20
-6949.862863034995
 30
0.0
 11
-703.3733800150257
 21
-6949.862863034995
 31
0.0
  0
LINE
  5
311A
330
1F
100
AcDbEntity
  8
STAVBA OBRYS
100
AcDbLine
 10
-703.9082540014133
 20
-6957.185687062014
 30
0.0
 11
-703.3733800150257
 21
-6957.185687062014
 31
0.0
  0
LINE
  5
311B
330
1F
100
AcDbEntity
  8
SPOJOVACÍ
  6
DASHED
100
AcDbLine
 10
-552.4747466957196
 20
-7003.088997892518
 30
0.0
 11
-552.4747466957196
 21
-7005.557535626447
 31
0.0
  0
HATCH
  5
311C
330
1F
100
AcDbEntity
  8
CETRIS
370
    20
100
AcDbHatch
 10
0.0
 20
0.0
 30
0.0
210
0.0
220
0.0
230
1.0
  2
ANSI31
 70
     0
 71
     0
 91
        1
 92
        7
 72
     0
 73
     1
 93
       25
 10
-543.3701126436826
 20
-7003.185687062014
 10
-551.6853876117602
 20
-7003.185687062014
 10
-551.81567993926
 20
-7003.315979390267
 10
-552.2031703928383
 20
-7003.185687062014
 10
-552.4747466957194
 20
-7003.185687062014
 10
-552.4747466957189
 20
-7005.56761764173
 10
-551.8156799392591
 20
-7005.78907498567
 10
-551.4455815957332
 20
-7006.003294471454
 10
-551.81567993926
 20
-7006.373392816851
 10
-552.4747466957194
 20
-7006.151935472956
 10
-552.4747466957192
 20
-7008.625791061277
 10
-551.8156799392613
 20
-7008.847399984448
 10
-551.4455815957332
 20
-7009.060707898036
 10
-551.8156799392595
 20
-7009.43171781589
 10
-552.4747466957196
 20
-7009.210108892723
 10
-552.4747466957196
 20
-7011.683204488086
 10
-551.8156799392591
 20
-7011.9048134113
 10
-551.4455815957332
 20
-7012.118121324629
 10
-551.8156799392595
 20
-7012.489131242481
 10
-552.4747466957192
 20
-7012.267522319311
 10
-552.4747466957196
 20
-7014.74061791467
 10
-555.7791962116603
 20
-7013.629508164611
 10
-556.1492945594655
 20
-7014.000518082737
 10
-551.408618642351
 20
-7015.185687062014
 10
-543.3701126436826
 20
-7015.185687062014
 97
        0
 75
     0
 76
     1
 52
0.0
 41
1.0
 77
     0
 78
     1
 53
45.0
 43
-967.267921149912
 44
-7253.466469899914
 45
-2.245064030267287
 46
2.245064030267288
 79
     0
 47
0.2420148754633407
 98
        1
 10
-547.7424441245618
 20
-7009.179773725097
  0
LINE
  5
311D
330
1F
100
AcDbEntity
  8
SPOJOVACÍ
  6
DASHED
100
AcDbLine
 10
-555.1201294552011
 20
-7002.193833913759
 30
0.0
 11
-555.1201294552011
 21
-7004.662371647689
 31
0.0
  0
LINE
  5
311E
330
1F
100
AcDbEntity
  8
SPOJOVACÍ
  6
DASHED
100
AcDbLine
 10
-587.958551411004
 20
-7003.185687062014
 30
0.0
 11
-587.958551411004
 21
-7004.36161530321
 31
0.0
  0
LINE
  5
311F
330
1F
100
AcDbEntity
  8
SPOJOVACÍ
  6
DASHED
100
AcDbLine
 10
-597.9548530327265
 20
-7003.185687062014
 30
0.0
 11
-597.9548530327265
 21
-7004.36161530321
 31
0.0
  0
LINE
  5
3120
330
1F
100
AcDbEntity
  8
STAVBA OBRYS
  6
Continuous
100
AcDbLine
 10
-629.3410525070103
 20
-7062.037088341006
 30
0.0
 11
-629.3410525070103
 21
-7051.836780563738
 31
0.0
  0
LINE
  5
3121
330
1F
100
AcDbEntity
  8
STAVBA OBRYS
  6
Continuous
100
AcDbLine
 10
-628.1411257302789
 20
-7062.037088341006
 30
0.0
 11
-628.1411257302789
 21
-7051.836780563738
 31
0.0
  0
LINE
  5
3122
330
1F
100
AcDbEntity
  8
CETRIS
100
AcDbLine
 10
-613.1411257302788
 20
-7015.185687062016
 30
0.0
 11
-613.1411257302788
 21
-6991.185687062014
 31
0.0
  0
LWPOLYLINE
  5
3123
330
1F
100
AcDbEntity
  8
izolace
100
AcDbPolyline
 90
        4
 70
     1
 43
0.0
 10
-628.141125730279
 20
-6991.185687062014
 10
-613.1411257302791
 20
-6991.185687062014
 10
-613.1201762391897
 20
-7045.185687062015
 10
-628.1201690301318
 20
-7045.185687062015
  0
LINE
  5
3124
330
1F
100
AcDbEntity
  8
izolace
  6
IZOLACE
 48
0.7
370
    20
100
AcDbLine
 10
-620.6201726346607
 20
-7045.185687062015
 30
0.0
 11
-620.6411257302788
 21
-6991.185687062014
 31
0.0
  0
LINE
  5
3125
330
1F
100
AcDbEntity
  8
STAVBA OBRYS
  6
Continuous
100
AcDbLine
 10
-641.6835551410659
 20
-7058.959136629986
 30
0.0
 11
-643.0425419789062
 21
-7054.914732270393
 31
0.0
  0
LINE
  5
3126
330
1F
100
AcDbEntity
  8
STAVBA OBRYS
  6
Continuous
100
AcDbLine
 10
-642.2797978262206
 20
-7058.959136629986
 30
0.0
 11
-643.6387846637845
 21
-7054.914732270393
 31
0.0
  0
LINE
  5
3127
330
1F
100
AcDbEntity
  8
STAVBA OBRYS
  6
Continuous
100
AcDbLine
 10
-642.061206514194
 20
-7059.336788005296
 30
0.0
 11
-643.2611332909328
 21
-7054.537080899447
 31
0.0
  0
LINE
  5
3128
330
1F
100
AcDbEntity
  8
STAVBA OBRYS
  6
Continuous
100
AcDbLine
 10
-639.1590580312804
 20
-7058.959136629986
 30
0.0
 11
-640.5189750448226
 21
-7054.914732270393
 31
0.0
  0
LINE
  5
3129
330
1F
100
AcDbEntity
  8
STAVBA OBRYS
  6
Continuous
100
AcDbLine
 10
-638.9413968952322
 20
-7059.336788005296
 30
0.0
 11
-640.1413236716944
 21
-7054.537080899447
 31
0.0
  0
LINE
  5
312A
330
1F
100
AcDbEntity
  8
STAVBA OBRYS
  6
Continuous
100
AcDbLine
 10
-638.5628153464022
 20
-7058.959136629986
 30
0.0
 11
-639.9227323596679
 21
-7054.914732270393
 31
0.0
  0
LINE
  5
312B
330
1F
100
AcDbEntity
  8
STAVBA OBRYS
  6
Continuous
100
AcDbLine
 10
-645.399607445459
 20
-7058.959136629986
 30
0.0
 11
-646.7595244587246
 21
-7054.914732270393
 31
0.0
  0
LINE
  5
312C
330
1F
100
AcDbEntity
  8
STAVBA OBRYS
  6
Continuous
100
AcDbLine
 10
-644.8033647603042
 20
-7058.959136629986
 30
0.0
 11
-646.1632817735772
 21
-7054.914732270393
 31
0.0
  0
LINE
  5
312D
330
1F
100
AcDbEntity
  8
STAVBA OBRYS
  6
Continuous
100
AcDbLine
 10
-645.1810161334324
 20
-7059.336788005296
 30
0.0
 11
-646.3809429098946
 21
-7054.537080899447
 31
0.0
  0
LINE
  5
312E
330
1F
100
AcDbEntity
  8
SPOJOVACÍ
  6
DASHED
100
AcDbLine
 10
-552.2933438148466
 20
-7020.591185666049
 30
0.0
 11
-552.6634421583731
 21
-7020.377877752721
 31
0.0
  0
LINE
  5
312F
330
1F
100
AcDbEntity
  8
SPOJOVACÍ
  6
DASHED
100
AcDbLine
 10
-552.2933438148466
 20
-7020.591185666049
 30
0.0
 11
-552.6634421583731
 21
-7020.962195583902
 31
0.0
  0
LINE
  5
3130
330
1F
100
AcDbEntity
  8
SPOJOVACÍ
  6
DASHED
100
AcDbLine
 10
-555.7791962116607
 20
-7013.629508164611
 30
0.0
 11
-551.81567993926
 21
-7014.962226837882
 31
0.0
  0
LINE
  5
3131
330
1F
100
AcDbEntity
  8
SPOJOVACÍ
  6
DASHED
100
AcDbLine
 10
-555.7791962116607
 20
-7014.213825996063
 30
0.0
 11
-551.81567993926
 21
-7015.546544669334
 31
0.0
  0
LINE
  5
3132
330
1F
100
AcDbEntity
  8
SPOJOVACÍ
  6
DASHED
100
AcDbLine
 10
-556.1492945594655
 20
-7014.000518082736
 30
0.0
 11
-551.4455815957335
 21
-7015.176446323668
 31
0.0
  0
LINE
  5
3133
330
1F
100
AcDbEntity
  8
SPOJOVACÍ
  6
DASHED
100
AcDbLine
 10
-555.7791962116607
 20
-7010.572094738029
 30
0.0
 11
-551.81567993926
 21
-7011.9048134113
 31
0.0
  0
LINE
  5
3134
330
1F
100
AcDbEntity
  8
SPOJOVACÍ
  6
DASHED
100
AcDbLine
 10
-555.7791962116607
 20
-7011.156412569473
 30
0.0
 11
-551.81567993926
 21
-7012.489131242481
 31
0.0
  0
LINE
  5
3135
330
1F
100
AcDbEntity
  8
SPOJOVACÍ
  6
DASHED
100
AcDbLine
 10
-556.1492945594655
 20
-7010.942193083694
 30
0.0
 11
-551.4455815957335
 21
-7012.118121324627
 31
0.0
  0
LINE
  5
3136
330
1F
100
AcDbEntity
  8
SPOJOVACÍ
  6
DASHED
100
AcDbLine
 10
-555.7791962116607
 20
-7007.514681311438
 30
0.0
 11
-551.81567993926
 21
-7008.847399984446
 31
0.0
  0
LINE
  5
3137
330
1F
100
AcDbEntity
  8
SPOJOVACÍ
  6
DASHED
100
AcDbLine
 10
-555.7791962116607
 20
-7008.098999142891
 30
0.0
 11
-551.81567993926
 21
-7009.43171781589
 31
0.0
  0
LINE
  5
3138
330
1F
100
AcDbEntity
  8
SPOJOVACÍ
  6
DASHED
100
AcDbLine
 10
-556.1492945594655
 20
-7007.884779657103
 30
0.0
 11
-551.4455815957335
 21
-7009.060707898036
 31
0.0
  0
LINE
  5
3139
330
1F
100
AcDbEntity
  8
SPOJOVACÍ
  6
DASHED
100
AcDbLine
 10
-555.3471109529491
 20
-7019.970404943615
 30
0.0
 11
-552.2933438148466
 21
-7020.591185666049
 31
0.0
  0
LINE
  5
313A
330
1F
100
AcDbEntity
  8
SPOJOVACÍ
  6
DASHED
100
AcDbLine
 10
-555.9004353249329
 20
-7017.015999184403
 30
0.0
 11
-551.8576122652448
 21
-7017.969503789061
 31
0.0
  0
LINE
  5
313B
330
1F
100
AcDbEntity
  8
SPOJOVACÍ
  6
DASHED
100
AcDbLine
 10
-555.5294254076143
 20
-7016.645900838738
 30
0.0
 11
-552.2277106087712
 21
-7017.756195875733
 31
0.0
  0
LINE
  5
313C
330
1F
100
AcDbEntity
  8
SPOJOVACÍ
  6
DASHED
100
AcDbLine
 10
-555.5294254076143
 20
-7017.23021867019
 30
0.0
 11
-552.2277106087712
 21
-7018.340513707186
 31
0.0
  0
LINE
  5
313D
330
1F
100
AcDbEntity
  8
SPOJOVACÍ
  6
DASHED
100
AcDbLine
 10
-555.7791962116607
 20
-7004.457267884586
 30
0.0
 11
-551.81567993926
 21
-7005.78907498567
 31
0.0
  0
LINE
  5
313E
330
1F
100
AcDbEntity
  8
SPOJOVACÍ
  6
DASHED
100
AcDbLine
 10
-555.7791962116607
 20
-7005.041585716037
 30
0.0
 11
-551.81567993926
 21
-7006.373392816851
 31
0.0
  0
LINE
  5
313F
330
1F
100
AcDbEntity
  8
SPOJOVACÍ
  6
DASHED
100
AcDbLine
 10
-556.1492945594655
 20
-7004.827366230251
 30
0.0
 11
-551.4455815957335
 21
-7006.003294471454
 31
0.0
  0
LINE
  5
3140
330
1F
100
AcDbEntity
  8
STAVBA OBRYS
100
AcDbLine
 10
-533.098844552187
 20
-7019.443250784227
 30
0.0
 11
-562.3508027992492
 21
-7018.706528460859
 31
0.0
  0
LINE
  5
3141
330
1F
100
AcDbEntity
  8
STAVBA OBRYS
100
AcDbLine
 10
-533.3446588301694
 20
-7024.354726195074
 30
0.0
 11
-557.9261373431154
 21
-7022.390135817737
 31
0.0
  0
LINE
  5
3142
330
1F
100
AcDbEntity
  8
STAVBA OBRYS
100
AcDbLine
 10
-533.3446588301694
 20
-7027.54718569137
 30
0.0
 11
-557.680323065133
 21
-7026.073743174617
 31
0.0
  0
LINE
  5
3143
330
1F
100
AcDbEntity
  8
STAVBA OBRYS
100
AcDbLine
 10
-532.8530302742047
 20
-7033.686531286166
 30
0.0
 11
-559.8926557932009
 21
-7029.757350531494
 31
0.0
  0
LINE
  5
3144
330
1F
100
AcDbEntity
  8
STAVBA OBRYS
100
AcDbLine
 10
-533.098844552187
 20
-7038.352433299218
 30
0.0
 11
-558.6635822901753
 21
-7033.686531286166
 31
0.0
  0
LINE
  5
3145
330
1F
100
AcDbEntity
  8
STAVBA OBRYS
100
AcDbLine
 10
-536.2944365052962
 20
-7044.73735229181
 30
0.0
 11
-547.3561022587455
 21
-7039.825876880964
 31
0.0
  0
LINE
  5
3146
330
1F
100
AcDbEntity
  8
izolace
  6
IZOLACE
100
AcDbLine
 10
-522.08311952469
 20
-7057.685687062015
 30
0.0
 11
-628.0966740874427
 21
-7057.685687062015
 31
0.0
  0
LWPOLYLINE
  5
3147
330
1F
100
AcDbEntity
  8
0
100
AcDbPolyline
 90
        4
 70
     1
 43
0.0
 10
-533.1201762391897
 20
-7045.185687062015
 10
-613.1201762391897
 20
-7045.185687062015
 10
-613.1201762391897
 20
-7015.185687062015
 10
-533.1201762391897
 20
-7015.185687062015
  0
LINE
  5
3148
330
1F
100
AcDbEntity
  8
STAVBA OBRYS
100
AcDbLine
 10
-572.9208378836201
 20
-7040.562598139342
 30
0.0
 11
-588.4071690932032
 21
-7041.299319397719
 31
0.0
  0
LINE
  5
3149
330
1F
100
AcDbEntity
  8
STAVBA OBRYS
100
AcDbLine
 10
-583.4908729679909
 20
-7035.89669612629
 30
0.0
 11
-608.8097943148841
 21
-7041.544892795513
 31
0.0
  0
LINE
  5
314A
330
1F
100
AcDbEntity
  8
STAVBA OBRYS
100
AcDbLine
 10
-562.5966170772317
 20
-7041.790467258301
 30
0.0
 11
-572.9208378836201
 21
-7040.562598139342
 31
0.0
  0
HATCH
  5
314B
330
1F
100
AcDbEntity
  8
izolace
100
AcDbHatch
 10
0.0
 20
0.0
 30
0.0
210
0.0
220
0.0
230
1.0
  2
SOLID
 70
     1
 71
     0
 91
        1
 92
        7
 72
     0
 73
     1
 93
        4
 10
-603.210639210243
 20
-7125.185687062014
 10
-626.8523719200782
 20
-7125.185687062014
 10
-626.8523719200818
 20
-7128.185687062014
 10
-603.210639210243
 20
-7128.185687062014
 97
        0
 75
     0
 76
     1
 47
0.1901250437635136
 98
        1
 10
-617.4945771617383
 20
-7126.002498613094
  0
LWPOLYLINE
  5
314C
330
1F
100
AcDbEntity
  8
izolace
100
AcDbPolyline
 90
        4
 70
     1
 43
0.0
 10
-603.2106392102466
 20
-7125.185687062014
 10
-626.8523719200818
 20
-7125.185687062014
 10
-626.8523719200818
 20
-7128.185687062014
 10
-603.2106392102466
 20
-7128.185687062014
  0
LINE
  5
314D
330
1F
100
AcDbEntity
  8
STAVBA OBRYS
100
AcDbLine
 10
-588.4071690932032
 20
-7041.299319397719
 30
0.0
 11
-597.7481306745485
 21
-7044.491778894014
 31
0.0
  0
INSERT
  5
314E
330
1F
100
AcDbEntity
  8
POPIS
100
AcDbBlockReference
  2
E_PUNKT
 10
-644.0751243158738
 20
-7123.916797397047
 30
0.0
 50
270.0
  0
LINE
  5
314F
330
1F
100
AcDbEntity
  8
STAVBA OBRYS
100
AcDbLine
 10
-640.1411257302697
 20
-7115.185687062013
 30
0.0
 11
-628.1411257302789
 21
-7115.185687062013
 31
0.0
  0
INSERT
  5
3150
330
1F
100
AcDbEntity
  8
POPIS
100
AcDbBlockReference
  2
E_PUNKT
 10
-589.6016769899452
 20
-7056.125859303638
 30
0.0
 50
270.0
  0
LINE
  5
3151
330
1F
100
AcDbEntity
  8
STAVBA OBRYS
100
AcDbLine
 10
-551.2891391589146
 20
-7044.73735229181
 30
0.0
 11
-562.5966170772317
 21
-7041.790467258301
 31
0.0
  0
HATCH
  5
3152
330
1F
100
AcDbEntity
  8
izolace
100
AcDbHatch
 10
0.0
 20
0.0
 30
0.0
210
0.0
220
0.0
230
1.0
  2
SOLID
 70
     1
 71
     0
 91
        1
 92
        7
 72
     0
 73
     1
 93
        4
 10
-555.9271737905726
 20
-7125.185687062014
 10
-579.5689065004077
 20
-7125.185687062014
 10
-579.5689065004114
 20
-7128.185687062014
 10
-555.9271737905726
 20
-7128.185687062014
 97
        0
 75
     0
 76
     1
 47
0.1901250437635136
 98
        1
 10
-570.2111117420679
 20
-7126.002498613094
  0
LWPOLYLINE
  5
3153
330
1F
100
AcDbEntity
  8
izolace
100
AcDbPolyline
 90
        4
 70
     1
 43
0.0
 10
-555.9271737905763
 20
-7125.185687062014
 10
-579.5689065004114
 20
-7125.185687062014
 10
-579.5689065004114
 20
-7128.185687062014
 10
-555.9271737905763
 20
-7128.185687062014
  0
LINE
  5
3154
330
1F
100
AcDbEntity
  8
STAVBA OBRYS
100
AcDbLine
 10
-575.6248012807645
 20
-7021.653414559359
 30
0.0
 11
-598.4855735084948
 21
-7022.390135817737
 31
0.0
  0
LINE
  5
3155
330
1F
100
AcDbEntity
  8
STAVBA OBRYS
100
AcDbLine
 10
-571.6917643805954
 20
-7025.337021916238
 30
0.0
 11
-591.6027610463116
 21
-7025.828169776821
 31
0.0
  0
LINE
  5
3156
330
1F
100
AcDbEntity
  8
STAVBA OBRYS
100
AcDbLine
 10
-575.1331706116871
 20
-7028.038333551951
 30
0.0
 11
-592.0943896022763
 21
-7029.26620267091
 31
0.0
  0
LINE
  5
3157
330
1F
100
AcDbEntity
  8
STAVBA OBRYS
100
AcDbLine
 10
-580.5410952928632
 20
-7032.458662167208
 30
0.0
 11
-601.4353511836225
 21
-7034.668827007331
 31
0.0
  0
LINE
  5
3158
330
1F
100
AcDbEntity
  8
STAVBA OBRYS
100
AcDbLine
 10
-591.6027610463116
 20
-7020.4255454404
 30
0.0
 11
-578.8203932338746
 21
-7040.808171537136
 31
0.0
  0
LINE
  5
3159
330
1F
100
AcDbEntity
  8
STAVBA OBRYS
100
AcDbLine
 10
-562.3508027992492
 20
-7018.706528460859
 30
0.0
 11
-589.1446119271495
 21
-7018.952102923646
 31
0.0
  0
LINE
  5
315A
330
1F
100
AcDbEntity
  8
STAVBA OBRYS
  6
Continuous
100
AcDbLine
 10
-630.0851931434845
 20
-7060.687403257455
 30
0.0
 11
-631.1539651328967
 21
-7059.576773357097
 31
0.0
  0
LINE
  5
315B
330
1F
100
AcDbEntity
  8
STAVBA OBRYS
  6
Continuous
100
AcDbLine
 10
-628.1411257302789
 20
-7062.037088341006
 30
0.0
 11
-629.3410525070103
 21
-7062.037088341006
 31
0.0
  0
LINE
  5
315C
330
1F
100
AcDbEntity
  8
STAVBA OBRYS
  6
Continuous
100
AcDbLine
 10
-629.3410525070103
 20
-7062.037088341006
 30
0.0
 11
-630.0851931434845
 21
-7060.687403257455
 31
0.0
  0
LINE
  5
315D
330
1F
100
AcDbEntity
  8
CETRIS
100
AcDbLine
 10
-598.7880833259842
 20
-7035.185687062015
 30
0.0
 11
-597.9709658783677
 21
-7035.185687062015
 31
0.0
  0
LINE
  5
315E
330
1F
100
AcDbEntity
  8
STAVBA OBRYS
100
AcDbLine
 10
-601.1895369056401
 20
-7030.985219650452
 30
0.0
 11
-595.0441672774031
 21
-7037.370138643045
 31
0.0
  0
LINE
  5
315F
330
1F
100
AcDbEntity
  8
STAVBA OBRYS
100
AcDbLine
 10
-605.8600166397564
 20
-7029.511776068706
 30
0.0
 11
-613.1201762391902
 21
-7031.445921761488
 31
0.0
  0
LINE
  5
3160
330
1F
100
AcDbEntity
  8
STAVBA OBRYS
100
AcDbLine
 10
-598.4855735084948
 20
-7022.390135817737
 30
0.0
 11
-613.1201762391902
 21
-7022.877477959626
 31
0.0
  0
LINE
  5
3161
330
1F
100
AcDbEntity
  8
STAVBA OBRYS
100
AcDbLine
 10
-591.6027610463116
 20
-7025.828169776821
 30
0.0
 11
-613.1201762391902
 21
-7026.560998825508
 31
0.0
  0
LINE
  5
3162
330
1F
100
AcDbEntity
  8
STAVBA OBRYS
100
AcDbLine
 10
-592.0943896022763
 20
-7029.26620267091
 30
0.0
 11
-605.8600166397564
 21
-7029.511776068706
 31
0.0
  0
LINE
  5
3163
330
1F
100
AcDbEntity
  8
STAVBA OBRYS
100
AcDbLine
 10
-601.4353511836225
 20
-7034.668827007331
 30
0.0
 11
-613.1201762391902
 21
-7036.336450530527
 31
0.0
  0
LINE
  5
3164
330
1F
100
AcDbEntity
  8
STAVBA OBRYS
100
AcDbLine
 10
-589.1446119271495
 20
-7018.952102923646
 30
0.0
 11
-613.1201762391902
 21
-7019.431144373978
 31
0.0
  0
LINE
  5
3166
330
1F
100
AcDbEntity
  8
STAVBA OBRYS
  6
Continuous
100
AcDbLine
 10
-634.7407230013669
 20
-7058.286619531557
 30
0.0
 11
-638.7786161310469
 21
-7058.286619531557
 31
0.0
  0
LINE
  5
3167
330
1F
100
AcDbEntity
  8
STAVBA OBRYS
  6
Continuous
100
AcDbLine
 10
-632.4729544111942
 20
-7058.780542877778
 30
0.0
 11
-633.9537942782444
 21
-7058.352662013479
 31
0.0
  0
LINE
  5
3168
330
1F
100
AcDbEntity
  8
STAVBA OBRYS
  6
Continuous
100
AcDbLine
 10
-633.9537942782444
 20
-7058.352662013479
 30
0.0
 11
-634.7407230013669
 21
-7058.286619531557
 31
0.0
  0
LINE
  5
3169
330
1F
100
AcDbEntity
  8
STAVBA OBRYS
  6
Continuous
100
AcDbLine
 10
-645.1810161334324
 20
-7059.336788005296
 30
0.0
 11
-644.8033647603042
 21
-7058.959136629986
 31
0.0
  0
LINE
  5
316A
330
1F
100
AcDbEntity
  8
STAVBA OBRYS
  6
Continuous
100
AcDbLine
 10
-642.061206514194
 20
-7059.336788005296
 30
0.0
 11
-641.6835551410659
 21
-7058.959136629986
 31
0.0
  0
LINE
  5
316B
330
1F
100
AcDbEntity
  8
STAVBA OBRYS
  6
Continuous
100
AcDbLine
 10
-642.061206514194
 20
-7059.336788005296
 30
0.0
 11
-642.2797978262206
 21
-7058.959136629986
 31
0.0
  0
LINE
  5
316C
330
1F
100
AcDbEntity
  8
STAVBA OBRYS
  6
Continuous
100
AcDbLine
 10
-638.9413968952322
 20
-7059.336788005296
 30
0.0
 11
-639.1590580312804
 21
-7058.959136629986
 31
0.0
  0
LINE
  5
316D
330
1F
100
AcDbEntity
  8
STAVBA OBRYS
  6
Continuous
100
AcDbLine
 10
-642.4965287865671
 20
-7058.286619531557
 30
0.0
 11
-645.0173051932761
 21
-7058.286619531557
 31
0.0
  0
LINE
  5
316E
330
1F
100
AcDbEntity
  8
STAVBA OBRYS
  6
Continuous
100
AcDbLine
 10
-639.3739286402233
 20
-7058.286619531557
 30
0.0
 11
-641.8928446952523
 21
-7058.286619531557
 31
0.0
  0
LINE
  5
316F
330
1F
100
AcDbEntity
  8
STAVBA OBRYS
  6
Continuous
100
AcDbLine
 10
-638.9413968952322
 20
-7059.336788005296
 30
0.0
 11
-638.5628153464022
 21
-7058.959136629986
 31
0.0
  0
LINE
  5
3170
102
{ACAD_REACTORS
330
2F73
102
}
330
1F
100
AcDbEntity
  8
STAVBA OBRYS
100
AcDbLine
 10
-646.231687085652
 20
-7075.149730194422
 30
0.0
 11
-646.231687085652
 21
-7073.649730194422
 31
0.0
  0
LINE
  5
3171
330
1F
100
AcDbEntity
  8
STAVBA OBRYS
  6
Continuous
100
AcDbLine
 10
-645.1810161334324
 20
-7059.336788005296
 30
0.0
 11
-645.399607445459
 21
-7058.959136629986
 31
0.0
  0
LINE
  5
3172
330
1F
100
AcDbEntity
  8
STAVBA OBRYS
  6
Continuous
100
AcDbLine
 10
-631.1539651328967
 20
-7059.576773357097
 30
0.0
 11
-632.4729544111942
 21
-7058.780542877778
 31
0.0
  0
LINE
  5
3173
330
1F
100
AcDbEntity
  8
SPOJOVACÍ
  6
DASHED
100
AcDbLine
 10
-552.715401778958
 20
-7017.582997142412
 30
0.0
 11
-552.4747466957196
 21
-7015.651375481351
 31
0.0
  0
LINE
  5
3174
330
1F
100
AcDbEntity
  8
SPOJOVACÍ
  6
DASHED
100
AcDbLine
 10
-552.4747466957196
 20
-7015.321386316225
 30
0.0
 11
-552.4747466957196
 21
-7015.651375481351
 31
0.0
  0
LINE
  5
3175
330
1F
100
AcDbEntity
  8
SPOJOVACÍ
  6
DASHED
100
AcDbLine
 10
-552.4747466957196
 20
-7012.261238172545
 30
0.0
 11
-552.4747466957196
 21
-7014.729775906473
 31
0.0
  0
LINE
  5
3176
330
1F
100
AcDbEntity
  8
SPOJOVACÍ
  6
DASHED
100
AcDbLine
 10
-552.4747466957196
 20
-7009.202001601316
 30
0.0
 11
-552.4747466957196
 21
-7011.672362479891
 31
0.0
  0
LINE
  5
3177
330
1F
100
AcDbEntity
  8
SPOJOVACÍ
  6
DASHED
100
AcDbLine
 10
-552.4747466957196
 20
-7006.141853457899
 30
0.0
 11
-552.4747466957196
 21
-7008.61950691451
 31
0.0
  0
LINE
  5
3178
330
1F
100
AcDbEntity
  8
SPOJOVACÍ
  6
DASHED
100
AcDbLine
 10
-552.6825851780595
 20
-7023.228364271827
 30
0.0
 11
-553.052683521586
 21
-7023.015056358236
 31
0.0
  0
LINE
  5
3179
330
1F
100
AcDbEntity
  8
SPOJOVACÍ
  6
DASHED
100
AcDbLine
 10
-552.6825851780595
 20
-7023.228364271827
 30
0.0
 11
-553.052683521586
 21
-7023.59937418968
 31
0.0
  0
LINE
  5
317A
330
1F
100
AcDbEntity
  8
SPOJOVACÍ
  6
DASHED
100
AcDbLine
 10
-553.0472140916681
 20
-7020.235672476992
 30
0.0
 11
-552.7855928454373
 21
-7018.141790950195
 31
0.0
  0
LINE
  5
317B
330
1F
100
AcDbEntity
  8
SPOJOVACÍ
  6
DASHED
100
AcDbLine
 10
-553.3799379696138
 20
-7022.898375106437
 30
0.0
 11
-553.1174051538691
 21
-7020.796289429153
 31
0.0
  0
LINE
  5
317C
330
1F
100
AcDbEntity
  8
SPOJOVACÍ
  6
DASHED
100
AcDbLine
 10
-556.1492945594655
 20
-7004.827366230251
 30
0.0
 11
-555.7791962116607
 21
-7004.457267884586
 31
0.0
  0
LINE
  5
317D
330
1F
100
AcDbEntity
  8
SPOJOVACÍ
  6
DASHED
100
AcDbLine
 10
-556.1492945594655
 20
-7004.827366230251
 30
0.0
 11
-555.7791962116607
 21
-7005.041585716037
 31
0.0
  0
LINE
  5
317E
330
1F
100
AcDbEntity
  8
SPOJOVACÍ
  6
DASHED
100
AcDbLine
 10
-556.1492945594655
 20
-7014.000518082736
 30
0.0
 11
-555.7791962116607
 21
-7013.629508164611
 31
0.0
  0
LINE
  5
317F
330
1F
100
AcDbEntity
  8
SPOJOVACÍ
  6
DASHED
100
AcDbLine
 10
-556.1492945594655
 20
-7014.000518082736
 30
0.0
 11
-555.7791962116607
 21
-7014.213825996063
 31
0.0
  0
LINE
  5
3180
330
1F
100
AcDbEntity
  8
SPOJOVACÍ
  6
DASHED
100
AcDbLine
 10
-556.1492945594655
 20
-7010.942193083694
 30
0.0
 11
-555.7791962116607
 21
-7010.572094738029
 31
0.0
  0
LINE
  5
3181
330
1F
100
AcDbEntity
  8
SPOJOVACÍ
  6
DASHED
100
AcDbLine
 10
-556.1492945594655
 20
-7010.942193083694
 30
0.0
 11
-555.7791962116607
 21
-7011.156412569473
 31
0.0
  0
LINE
  5
3182
330
1F
100
AcDbEntity
  8
SPOJOVACÍ
  6
DASHED
100
AcDbLine
 10
-556.1492945594655
 20
-7007.884779657103
 30
0.0
 11
-555.7791962116607
 21
-7007.514681311438
 31
0.0
  0
LINE
  5
3183
330
1F
100
AcDbEntity
  8
SPOJOVACÍ
  6
DASHED
100
AcDbLine
 10
-556.1492945594655
 20
-7007.884779657103
 30
0.0
 11
-555.7791962116607
 21
-7008.098999142891
 31
0.0
  0
LINE
  5
3184
330
1F
100
AcDbEntity
  8
SPOJOVACÍ
  6
DASHED
100
AcDbLine
 10
-555.9004353249329
 20
-7017.015999184403
 30
0.0
 11
-555.5294254076143
 21
-7016.645900838738
 31
0.0
  0
LINE
  5
3185
330
1F
100
AcDbEntity
  8
SPOJOVACÍ
  6
DASHED
100
AcDbLine
 10
-555.9004353249329
 20
-7017.015999184403
 30
0.0
 11
-555.5294254076143
 21
-7017.23021867019
 31
0.0
  0
LINE
  5
3186
330
1F
100
AcDbEntity
  8
SPOJOVACÍ
  6
DASHED
100
AcDbLine
 10
-555.1201294552011
 20
-7015.651375481351
 30
0.0
 11
-554.9733663185325
 21
-7016.824569005722
 31
0.0
  0
LINE
  5
3187
330
1F
100
AcDbEntity
  8
SPOJOVACÍ
  6
DASHED
100
AcDbLine
 10
-555.1201294552011
 20
-7014.428957054301
 30
0.0
 11
-555.1201294552011
 21
-7015.651375481351
 31
0.0
  0
LINE
  5
3188
330
1F
100
AcDbEntity
  8
SPOJOVACÍ
  6
DASHED
100
AcDbLine
 10
-555.1201294552011
 20
-7011.377013061109
 30
0.0
 11
-555.1201294552011
 21
-7013.844639222849
 31
0.0
  0
LINE
  5
3189
330
1F
100
AcDbEntity
  8
SPOJOVACÍ
  6
DASHED
100
AcDbLine
 10
-555.1201294552011
 20
-7008.306837622557
 30
0.0
 11
-555.1201294552011
 21
-7010.784491079168
 31
0.0
  0
LINE
  5
318A
330
1F
100
AcDbEntity
  8
SPOJOVACÍ
  6
DASHED
100
AcDbLine
 10
-555.1201294552011
 20
-7005.253982057176
 30
0.0
 11
-555.1201294552011
 21
-7007.724342935751
 31
0.0
  0
LINE
  5
318B
330
1F
100
AcDbEntity
  8
SPOJOVACÍ
  6
DASHED
100
AcDbLine
 10
-554.7937865766871
 20
-7022.923899130368
 30
0.0
 11
-554.4236882331606
 21
-7022.553800784702
 31
0.0
  0
LINE
  5
318C
330
1F
100
AcDbEntity
  8
SPOJOVACÍ
  6
DASHED
100
AcDbLine
 10
-554.7937865766871
 20
-7022.923899130368
 30
0.0
 11
-554.4236882331606
 21
-7023.138118616147
 31
0.0
  0
LINE
  5
318D
330
1F
100
AcDbEntity
  8
SPOJOVACÍ
  6
DASHED
100
AcDbLine
 10
-555.3471109529491
 20
-7019.970404943615
 30
0.0
 11
-554.9770126051444
 21
-7019.59939502549
 31
0.0
  0
LINE
  5
318E
330
1F
100
AcDbEntity
  8
SPOJOVACÍ
  6
DASHED
100
AcDbLine
 10
-555.3471109529491
 20
-7019.970404943615
 30
0.0
 11
-554.9770126051444
 21
-7020.183712856942
 31
0.0
  0
LINE
  5
318F
330
1F
100
AcDbEntity
  8
SPOJOVACÍ
  6
DASHED
100
AcDbLine
 10
-554.1757405724202
 20
-7023.208309681557
 30
0.0
 11
-553.7974380775994
 21
-7026.235641223006
 31
0.0
  0
LINE
  5
3190
330
1F
100
AcDbEntity
  8
SPOJOVACÍ
  6
DASHED
100
AcDbLine
 10
-554.5358116213464
 20
-7020.325918132673
 30
0.0
 11
-554.2514010730956
 21
-7022.60029097082
 31
0.0
  0
LINE
  5
3191
330
1F
100
AcDbEntity
  8
SPOJOVACÍ
  6
DASHED
100
AcDbLine
 10
-554.8977058178571
 20
-7017.432587716458
 30
0.0
 11
-554.6132952653278
 21
-7019.707872126801
 31
0.0
  0
LINE
  5
3192
330
1F
100
AcDbEntity
  8
SPOJOVACÍ
  6
DASHED
100
AcDbLine
 10
-554.7937865766871
 20
-7022.923899130368
 30
0.0
 11
-552.6825851780595
 21
-7023.228364271827
 31
0.0
  0
LINE
  5
3193
330
1F
100
AcDbEntity
  8
SPOJOVACÍ
  6
DASHED
100
AcDbLine
 10
-554.4236882331606
 20
-7022.553800784702
 30
0.0
 11
-553.052683521586
 21
-7023.015056358236
 31
0.0
  0
LINE
  5
3194
330
1F
100
AcDbEntity
  8
SPOJOVACÍ
  6
DASHED
100
AcDbLine
 10
-554.4236882331606
 20
-7023.138118616147
 30
0.0
 11
-553.052683521586
 21
-7023.59937418968
 31
0.0
  0
LINE
  5
3195
330
1F
100
AcDbEntity
  8
SPOJOVACÍ
  6
DASHED
100
AcDbLine
 10
-554.9770126051444
 20
-7019.59939502549
 30
0.0
 11
-552.6634421583731
 21
-7020.377877752721
 31
0.0
  0
LINE
  5
3196
330
1F
100
AcDbEntity
  8
SPOJOVACÍ
  6
DASHED
100
AcDbLine
 10
-554.9770126051444
 20
-7020.183712856942
 30
0.0
 11
-552.6634421583731
 21
-7020.962195583902
 31
0.0
  0
LINE
  5
3197
330
1F
100
AcDbEntity
  8
SPOJOVACÍ
  6
DASHED
100
AcDbLine
 10
-553.7974380775994
 20
-7026.235641223006
 30
0.0
 11
-553.4501290360931
 21
-7023.456257341762
 31
0.0
  0
LINE
  5
3198
330
1F
100
AcDbEntity
  8
STAVBA OBRYS
100
AcDbLine
 10
-538.2609549553817
 20
-7026.073743174617
 30
0.0
 11
-550.7975084898371
 21
-7040.071450278759
 31
0.0
  0
LINE
  5
3199
330
1F
100
AcDbEntity
  8
SPOJOVACÍ
  6
DASHED
100
AcDbLine
 10
-587.958551411004
 20
-7004.36161530321
 30
0.0
 11
-589.2812427928838
 21
-7005.090873126956
 31
0.0
  0
LINE
  5
319A
330
1F
100
AcDbEntity
  8
SPOJOVACÍ
  6
DASHED
100
AcDbLine
 10
-589.2812427928838
 20
-7005.090873126956
 30
0.0
 11
-590.3696600952352
 21
-7006.138269676579
 31
0.0
  0
LINE
  5
319B
330
1F
100
AcDbEntity
  8
SPOJOVACÍ
  6
DASHED
100
AcDbLine
 10
-591.6340108442637
 20
-7009.653292387681
 30
0.0
 11
-591.6340108442637
 21
-7013.610427654767
 31
0.0
  0
LINE
  5
319C
330
1F
100
AcDbEntity
  8
SPOJOVACÍ
  6
DASHED
100
AcDbLine
 10
-590.6048457399992
 20
-7016.827366230251
 30
0.0
 11
-590.974944087804
 21
-7016.457267884586
 31
0.0
  0
LINE
  5
319D
330
1F
100
AcDbEntity
  8
SPOJOVACÍ
  6
DASHED
100
AcDbLine
 10
-590.6048457399992
 20
-7016.827366230251
 30
0.0
 11
-590.974944087804
 21
-7017.041585716036
 31
0.0
  0
LINE
  5
319E
330
1F
100
AcDbEntity
  8
SPOJOVACÍ
  6
DASHED
100
AcDbLine
 10
-590.6048457399992
 20
-7013.769952803669
 30
0.0
 11
-590.974944087804
 21
-7013.398942885816
 31
0.0
  0
LINE
  5
319F
330
1F
100
AcDbEntity
  8
SPOJOVACÍ
  6
DASHED
100
AcDbLine
 10
-590.6048457399992
 20
-7013.769952803669
 30
0.0
 11
-590.974944087804
 21
-7013.983260716996
 31
0.0
  0
LINE
  5
31A0
330
1F
100
AcDbEntity
  8
SPOJOVACÍ
  6
DASHED
100
AcDbLine
 10
-591.6340108442637
 20
-7014.193833913759
 30
0.0
 11
-591.6340108442637
 21
-7016.662371647687
 31
0.0
  0
LINE
  5
31A1
330
1F
100
AcDbEntity
  8
SPOJOVACÍ
  6
DASHED
100
AcDbLine
 10
-591.5692892119805
 20
-7008.88210223902
 30
0.0
 11
-591.6340108442637
 21
-7009.653292387681
 31
0.0
  0
LINE
  5
31A2
330
1F
100
AcDbEntity
  8
SPOJOVACÍ
  6
DASHED
100
AcDbLine
 10
-591.149965964967
 20
-7007.430879169311
 30
0.0
 11
-591.5692892119805
 21
-7008.88210223902
 31
0.0
  0
LINE
  5
31A3
330
1F
100
AcDbEntity
  8
SPOJOVACÍ
  6
DASHED
100
AcDbLine
 10
-590.3696600952352
 20
-7006.138269676579
 30
0.0
 11
-591.149965964967
 21
-7007.430879169311
 31
0.0
  0
LINE
  5
31A4
330
1F
100
AcDbEntity
  8
SPOJOVACÍ
  6
DASHED
100
AcDbLine
 10
-596.0414628175604
 20
-7005.59132630857
 30
0.0
 11
-597.253853950282
 21
-7004.691604468337
 31
0.0
  0
LINE
  5
31A5
330
1F
100
AcDbEntity
  8
SPOJOVACÍ
  6
DASHED
100
AcDbLine
 10
-597.253853950282
 20
-7004.691604468337
 30
0.0
 11
-597.9548530327265
 21
-7004.36161530321
 31
0.0
  0
LINE
  5
31A6
330
1F
100
AcDbEntity
  8
SPOJOVACÍ
  6
DASHED
100
AcDbLine
 10
-595.1025433689756
 20
-7006.77454712781
 30
0.0
 11
-596.0414628175604
 21
-7005.59132630857
 31
0.0
  0
LINE
  5
31A7
330
1F
100
AcDbEntity
  8
SPOJOVACÍ
  6
DASHED
100
AcDbLine
 10
-594.2793936037451
 20
-7009.653292387681
 30
0.0
 11
-594.2793936037451
 21
-7014.49738748303
 31
0.0
  0
LINE
  5
31A8
330
1F
100
AcDbEntity
  8
SPOJOVACÍ
  6
DASHED
100
AcDbLine
 10
-595.3085587037312
 20
-7014.945881044602
 30
0.0
 11
-594.9384603602047
 21
-7014.731661558816
 31
0.0
  0
LINE
  5
31A9
330
1F
100
AcDbEntity
  8
SPOJOVACÍ
  6
DASHED
100
AcDbLine
 10
-595.3085587037312
 20
-7014.945881044602
 30
0.0
 11
-594.9384603602047
 21
-7015.315979390267
 31
0.0
  0
LINE
  5
31AA
330
1F
100
AcDbEntity
  8
SPOJOVACÍ
  6
DASHED
100
AcDbLine
 10
-594.2793936037451
 20
-7015.088997892519
 30
0.0
 11
-594.2793936037451
 21
-7017.557535626448
 31
0.0
  0
LINE
  5
31AB
330
1F
100
AcDbEntity
  8
SPOJOVACÍ
  6
DASHED
100
AcDbLine
 10
-594.2793936037451
 20
-7009.653292387681
 30
0.0
 11
-594.5018172368109
 21
-7008.160136993319
 31
0.0
  0
LINE
  5
31AC
330
1F
100
AcDbEntity
  8
SPOJOVACÍ
  6
DASHED
100
AcDbLine
 10
-594.5018172368109
 20
-7008.160136993319
 30
0.0
 11
-595.1025433689756
 21
-7006.77454712781
 31
0.0
  0
LINE
  5
31AD
330
1F
100
AcDbEntity
  8
SPOJOVACÍ
  6
DASHED
100
AcDbLine
 10
-587.958551411004
 20
-7004.36161530321
 30
0.0
 11
-597.9548530327265
 21
-7004.36161530321
 31
0.0
  0
LINE
  5
31AE
330
1F
100
AcDbEntity
  8
SPOJOVACÍ
  6
DASHED
100
AcDbLine
 10
-590.974944087804
 20
-7016.457267884586
 30
0.0
 11
-594.9384603602047
 21
-7017.789074985668
 31
0.0
  0
LINE
  5
31AF
330
1F
100
AcDbEntity
  8
SPOJOVACÍ
  6
DASHED
100
AcDbLine
 10
-590.974944087804
 20
-7013.398942885816
 30
0.0
 11
-594.9384603602047
 21
-7014.731661558816
 31
0.0
  0
LINE
  5
31B0
330
1F
100
AcDbEntity
  8
SPOJOVACÍ
  6
DASHED
100
AcDbLine
 10
-590.974944087804
 20
-7013.983260716996
 30
0.0
 11
-594.9384603602047
 21
-7015.315979390267
 31
0.0
  0
LINE
  5
31B1
330
1F
100
AcDbEntity
  8
SPOJOVACÍ
  6
DASHED
100
AcDbLine
 10
-590.6048457399992
 20
-7013.769952803669
 30
0.0
 11
-595.3085587037312
 21
-7014.945881044602
 31
0.0
  0
LINE
  5
31B2
330
1F
100
AcDbEntity
  8
SPOJOVACÍ
  6
DASHED
100
AcDbLine
 10
-591.6340108442637
 20
-7020.306837622557
 30
0.0
 11
-591.6340108442637
 21
-7022.784491079169
 31
0.0
  0
LINE
  5
31B3
330
1F
100
AcDbEntity
  8
SPOJOVACÍ
  6
DASHED
100
AcDbLine
 10
-590.6048457399992
 20
-7026.000518082736
 30
0.0
 11
-590.974944087804
 21
-7025.629508164612
 31
0.0
  0
LINE
  5
31B4
330
1F
100
AcDbEntity
  8
SPOJOVACÍ
  6
DASHED
100
AcDbLine
 10
-590.6048457399992
 20
-7022.942193083695
 30
0.0
 11
-590.974944087804
 21
-7022.572094738028
 31
0.0
  0
LINE
  5
31B5
330
1F
100
AcDbEntity
  8
SPOJOVACÍ
  6
DASHED
100
AcDbLine
 10
-590.6048457399992
 20
-7022.942193083695
 30
0.0
 11
-590.974944087804
 21
-7023.156412569473
 31
0.0
  0
LINE
  5
31B6
330
1F
100
AcDbEntity
  8
SPOJOVACÍ
  6
DASHED
100
AcDbLine
 10
-591.6340108442637
 20
-7023.377013061109
 30
0.0
 11
-591.6340108442637
 21
-7025.844639222849
 31
0.0
  0
LINE
  5
31B7
330
1F
100
AcDbEntity
  8
SPOJOVACÍ
  6
DASHED
100
AcDbLine
 10
-590.6048457399992
 20
-7019.884779657104
 30
0.0
 11
-590.974944087804
 21
-7019.514681311439
 31
0.0
  0
LINE
  5
31B8
330
1F
100
AcDbEntity
  8
SPOJOVACÍ
  6
DASHED
100
AcDbLine
 10
-590.6048457399992
 20
-7019.884779657104
 30
0.0
 11
-590.974944087804
 21
-7020.098999142891
 31
0.0
  0
LINE
  5
31B9
330
1F
100
AcDbEntity
  8
SPOJOVACÍ
  6
DASHED
100
AcDbLine
 10
-590.6048457399992
 20
-7026.000518082736
 30
0.0
 11
-590.974944087804
 21
-7026.213825996063
 31
0.0
  0
LINE
  5
31BA
330
1F
100
AcDbEntity
  8
SPOJOVACÍ
  6
DASHED
100
AcDbLine
 10
-591.6340108442637
 20
-7026.428957054301
 30
0.0
 11
-591.6340108442637
 21
-7027.651375481352
 31
0.0
  0
LINE
  5
31BB
330
1F
100
AcDbEntity
  8
SPOJOVACÍ
  6
DASHED
100
AcDbLine
 10
-590.8537049745318
 20
-7029.015999184403
 30
0.0
 11
-591.2247148918504
 21
-7028.645900838738
 31
0.0
  0
LINE
  5
31BC
330
1F
100
AcDbEntity
  8
SPOJOVACÍ
  6
DASHED
100
AcDbLine
 10
-590.8537049745318
 20
-7029.015999184403
 30
0.0
 11
-591.2247148918504
 21
-7029.230218670189
 31
0.0
  0
LINE
  5
31BD
330
1F
100
AcDbEntity
  8
SPOJOVACÍ
  6
DASHED
100
AcDbLine
 10
-591.9603537227776
 20
-7034.923899130368
 30
0.0
 11
-592.3304520663041
 21
-7034.553800784703
 31
0.0
  0
LINE
  5
31BE
330
1F
100
AcDbEntity
  8
SPOJOVACÍ
  6
DASHED
100
AcDbLine
 10
-591.9603537227776
 20
-7034.923899130368
 30
0.0
 11
-592.3304520663041
 21
-7035.138118616147
 31
0.0
  0
LINE
  5
31BF
330
1F
100
AcDbEntity
  8
SPOJOVACÍ
  6
DASHED
100
AcDbLine
 10
-591.4070293465156
 20
-7031.970404943615
 30
0.0
 11
-591.7771276943203
 21
-7031.599395025491
 31
0.0
  0
LINE
  5
31C0
330
1F
100
AcDbEntity
  8
SPOJOVACÍ
  6
DASHED
100
AcDbLine
 10
-591.4070293465156
 20
-7031.970404943615
 30
0.0
 11
-591.7771276943203
 21
-7032.183712856943
 31
0.0
  0
LINE
  5
31C1
330
1F
100
AcDbEntity
  8
SPOJOVACÍ
  6
DASHED
100
AcDbLine
 10
-592.5783997270445
 20
-7035.208309681557
 30
0.0
 11
-592.9567022218653
 21
-7038.235641223005
 31
0.0
  0
LINE
  5
31C2
330
1F
100
AcDbEntity
  8
SPOJOVACÍ
  6
DASHED
100
AcDbLine
 10
-592.2183286781183
 20
-7032.325918132672
 30
0.0
 11
-592.5027392263691
 21
-7034.60029097082
 31
0.0
  0
LINE
  5
31C3
330
1F
100
AcDbEntity
  8
SPOJOVACÍ
  6
DASHED
100
AcDbLine
 10
-591.8564344816076
 20
-7029.432587716458
 30
0.0
 11
-592.1408450341369
 21
-7031.7078721268
 31
0.0
  0
LINE
  5
31C4
330
1F
100
AcDbEntity
  8
SPOJOVACÍ
  6
DASHED
100
AcDbLine
 10
-591.6340108442637
 20
-7027.651375481352
 30
0.0
 11
-591.7807739809322
 21
-7028.82456900572
 31
0.0
  0
LINE
  5
31C5
330
1F
100
AcDbEntity
  8
SPOJOVACÍ
  6
DASHED
100
AcDbLine
 10
-595.3085587037312
 20
-7018.003294471455
 30
0.0
 11
-594.9384603602047
 21
-7018.373392816849
 31
0.0
  0
LINE
  5
31C6
330
1F
100
AcDbEntity
  8
SPOJOVACÍ
  6
DASHED
100
AcDbLine
 10
-595.3085587037312
 20
-7024.118121324628
 30
0.0
 11
-594.9384603602047
 21
-7023.9048134113
 31
0.0
  0
LINE
  5
31C7
330
1F
100
AcDbEntity
  8
SPOJOVACÍ
  6
DASHED
100
AcDbLine
 10
-595.3085587037312
 20
-7024.118121324628
 30
0.0
 11
-594.9384603602047
 21
-7024.489131242481
 31
0.0
  0
LINE
  5
31C8
330
1F
100
AcDbEntity
  8
SPOJOVACÍ
  6
DASHED
100
AcDbLine
 10
-595.3085587037312
 20
-7021.060707898037
 30
0.0
 11
-594.9384603602047
 21
-7020.847399984447
 31
0.0
  0
LINE
  5
31C9
330
1F
100
AcDbEntity
  8
SPOJOVACÍ
  6
DASHED
100
AcDbLine
 10
-595.3085587037312
 20
-7021.060707898037
 30
0.0
 11
-594.9384603602047
 21
-7021.43171781589
 31
0.0
  0
LINE
  5
31CA
330
1F
100
AcDbEntity
  8
SPOJOVACÍ
  6
DASHED
100
AcDbLine
 10
-594.2793936037451
 20
-7024.261238172545
 30
0.0
 11
-594.2793936037451
 21
-7026.729775906473
 31
0.0
  0
LINE
  5
31CB
330
1F
100
AcDbEntity
  8
SPOJOVACÍ
  6
DASHED
100
AcDbLine
 10
-594.2793936037451
 20
-7021.202001601316
 30
0.0
 11
-594.2793936037451
 21
-7023.672362479891
 31
0.0
  0
LINE
  5
31CC
330
1F
100
AcDbEntity
  8
SPOJOVACÍ
  6
DASHED
100
AcDbLine
 10
-595.3085587037312
 20
-7027.176446323669
 30
0.0
 11
-594.9384603602047
 21
-7026.962226837882
 31
0.0
  0
LINE
  5
31CD
330
1F
100
AcDbEntity
  8
SPOJOVACÍ
  6
DASHED
100
AcDbLine
 10
-595.3085587037312
 20
-7027.176446323669
 30
0.0
 11
-594.9384603602047
 21
-7027.546544669334
 31
0.0
  0
LINE
  5
31CE
330
1F
100
AcDbEntity
  8
SPOJOVACÍ
  6
DASHED
100
AcDbLine
 10
-594.2793936037451
 20
-7027.321386316225
 30
0.0
 11
-594.2793936037451
 21
-7027.651375481352
 31
0.0
  0
LINE
  5
31CF
330
1F
100
AcDbEntity
  8
SPOJOVACÍ
  6
DASHED
100
AcDbLine
 10
-594.2793936037451
 20
-7018.141853457899
 30
0.0
 11
-594.2793936037451
 21
-7020.619506914511
 31
0.0
  0
LINE
  5
31D0
330
1F
100
AcDbEntity
  8
SPOJOVACÍ
  6
DASHED
100
AcDbLine
 10
-593.7069262077966
 20
-7032.235672476993
 30
0.0
 11
-593.9685474540274
 21
-7030.141790950196
 31
0.0
  0
LINE
  5
31D1
330
1F
100
AcDbEntity
  8
SPOJOVACÍ
  6
DASHED
100
AcDbLine
 10
-594.0715551214053
 20
-7035.228364271826
 30
0.0
 11
-593.7014567778787
 21
-7035.015056358236
 31
0.0
  0
LINE
  5
31D2
330
1F
100
AcDbEntity
  8
SPOJOVACÍ
  6
DASHED
100
AcDbLine
 10
-594.0715551214053
 20
-7035.228364271826
 30
0.0
 11
-593.7014567778787
 21
-7035.599374189679
 31
0.0
  0
LINE
  5
31D3
330
1F
100
AcDbEntity
  8
SPOJOVACÍ
  6
DASHED
100
AcDbLine
 10
-593.3742023298509
 20
-7034.898375106436
 30
0.0
 11
-593.6367351455955
 21
-7032.796289429153
 31
0.0
  0
LINE
  5
31D4
330
1F
100
AcDbEntity
  8
SPOJOVACÍ
  6
DASHED
100
AcDbLine
 10
-594.4607964846182
 20
-7032.591185666049
 30
0.0
 11
-594.0906981410916
 21
-7032.377877752722
 31
0.0
  0
LINE
  5
31D5
330
1F
100
AcDbEntity
  8
SPOJOVACÍ
  6
DASHED
100
AcDbLine
 10
-594.4607964846182
 20
-7032.591185666049
 30
0.0
 11
-594.0906981410916
 21
-7032.962195583903
 31
0.0
  0
LINE
  5
31D6
330
1F
100
AcDbEntity
  8
SPOJOVACÍ
  6
DASHED
100
AcDbLine
 10
-594.8965280342199
 20
-7029.969503789061
 30
0.0
 11
-594.5264296906934
 21
-7030.340513707186
 31
0.0
  0
LINE
  5
31D7
330
1F
100
AcDbEntity
  8
SPOJOVACÍ
  6
DASHED
100
AcDbLine
 10
-594.8965280342199
 20
-7029.969503789061
 30
0.0
 11
-594.5264296906934
 21
-7029.756195875734
 31
0.0
  0
LINE
  5
31D8
330
1F
100
AcDbEntity
  8
SPOJOVACÍ
  6
DASHED
100
AcDbLine
 10
-594.0387385205067
 20
-7029.582997142412
 30
0.0
 11
-594.2793936037451
 21
-7027.651375481352
 31
0.0
  0
LINE
  5
31D9
330
1F
100
AcDbEntity
  8
STAVBA OBRYS
100
AcDbLine
 10
-565.300580474377
 20
-7035.89669612629
 30
0.0
 11
-583.4908729679909
 21
-7035.89669612629
 31
0.0
  0
LINE
  5
31DA
330
1F
100
AcDbEntity
  8
SPOJOVACÍ
  6
DASHED
100
AcDbLine
 10
-590.974944087804
 20
-7025.629508164612
 30
0.0
 11
-594.9384603602047
 21
-7026.962226837882
 31
0.0
  0
LINE
  5
31DB
330
1F
100
AcDbEntity
  8
SPOJOVACÍ
  6
DASHED
100
AcDbLine
 10
-590.974944087804
 20
-7022.572094738028
 30
0.0
 11
-594.9384603602047
 21
-7023.9048134113
 31
0.0
  0
LINE
  5
31DC
330
1F
100
AcDbEntity
  8
SPOJOVACÍ
  6
DASHED
100
AcDbLine
 10
-590.974944087804
 20
-7023.156412569473
 30
0.0
 11
-594.9384603602047
 21
-7024.489131242481
 31
0.0
  0
LINE
  5
31DD
330
1F
100
AcDbEntity
  8
SPOJOVACÍ
  6
DASHED
100
AcDbLine
 10
-590.6048457399992
 20
-7022.942193083695
 30
0.0
 11
-595.3085587037312
 21
-7024.118121324628
 31
0.0
  0
LINE
  5
31DE
330
1F
100
AcDbEntity
  8
SPOJOVACÍ
  6
DASHED
100
AcDbLine
 10
-590.974944087804
 20
-7019.514681311439
 30
0.0
 11
-594.9384603602047
 21
-7020.847399984447
 31
0.0
  0
LINE
  5
31DF
330
1F
100
AcDbEntity
  8
SPOJOVACÍ
  6
DASHED
100
AcDbLine
 10
-590.974944087804
 20
-7020.098999142891
 30
0.0
 11
-594.9384603602047
 21
-7021.43171781589
 31
0.0
  0
LINE
  5
31E0
330
1F
100
AcDbEntity
  8
SPOJOVACÍ
  6
DASHED
100
AcDbLine
 10
-590.6048457399992
 20
-7019.884779657104
 30
0.0
 11
-595.3085587037312
 21
-7021.060707898037
 31
0.0
  0
LINE
  5
31E1
330
1F
100
AcDbEntity
  8
SPOJOVACÍ
  6
DASHED
100
AcDbLine
 10
-590.974944087804
 20
-7026.213825996063
 30
0.0
 11
-594.9384603602047
 21
-7027.546544669334
 31
0.0
  0
LINE
  5
31E2
330
1F
100
AcDbEntity
  8
SPOJOVACÍ
  6
DASHED
100
AcDbLine
 10
-590.6048457399992
 20
-7026.000518082736
 30
0.0
 11
-595.3085587037312
 21
-7027.176446323669
 31
0.0
  0
LINE
  5
31E3
330
1F
100
AcDbEntity
  8
SPOJOVACÍ
  6
DASHED
100
AcDbLine
 10
-591.2247148918504
 20
-7028.645900838738
 30
0.0
 11
-594.5264296906934
 21
-7029.756195875734
 31
0.0
  0
LINE
  5
31E4
330
1F
100
AcDbEntity
  8
SPOJOVACÍ
  6
DASHED
100
AcDbLine
 10
-591.9603537227776
 20
-7034.923899130368
 30
0.0
 11
-594.0715551214053
 21
-7035.228364271826
 31
0.0
  0
LINE
  5
31E5
330
1F
100
AcDbEntity
  8
SPOJOVACÍ
  6
DASHED
100
AcDbLine
 10
-591.4070293465156
 20
-7031.970404943615
 30
0.0
 11
-594.4607964846182
 21
-7032.591185666049
 31
0.0
  0
LINE
  5
31E6
330
1F
100
AcDbEntity
  8
SPOJOVACÍ
  6
DASHED
100
AcDbLine
 10
-591.7771276943203
 20
-7031.599395025491
 30
0.0
 11
-594.0906981410916
 21
-7032.377877752722
 31
0.0
  0
LINE
  5
31E7
330
1F
100
AcDbEntity
  8
SPOJOVACÍ
  6
DASHED
100
AcDbLine
 10
-591.7771276943203
 20
-7032.183712856943
 30
0.0
 11
-594.0906981410916
 21
-7032.962195583903
 31
0.0
  0
LINE
  5
31E8
330
1F
100
AcDbEntity
  8
SPOJOVACÍ
  6
DASHED
100
AcDbLine
 10
-590.8537049745318
 20
-7029.015999184403
 30
0.0
 11
-594.8965280342199
 21
-7029.969503789061
 31
0.0
  0
LINE
  5
31E9
330
1F
100
AcDbEntity
  8
SPOJOVACÍ
  6
DASHED
100
AcDbLine
 10
-591.2247148918504
 20
-7029.230218670189
 30
0.0
 11
-594.5264296906934
 21
-7030.340513707186
 31
0.0
  0
LINE
  5
31EA
330
1F
100
AcDbEntity
  8
SPOJOVACÍ
  6
DASHED
100
AcDbLine
 10
-592.3304520663041
 20
-7034.553800784703
 30
0.0
 11
-593.7014567778787
 21
-7035.015056358236
 31
0.0
  0
LINE
  5
31EB
330
1F
100
AcDbEntity
  8
SPOJOVACÍ
  6
DASHED
100
AcDbLine
 10
-592.3304520663041
 20
-7035.138118616147
 30
0.0
 11
-593.7014567778787
 21
-7035.599374189679
 31
0.0
  0
LINE
  5
31EC
330
1F
100
AcDbEntity
  8
SPOJOVACÍ
  6
DASHED
100
AcDbLine
 10
-592.9567022218653
 20
-7038.235641223005
 30
0.0
 11
-593.3040112633716
 21
-7035.456257341762
 31
0.0
  0
LINE
  5
31ED
330
1F
100
AcDbEntity
  8
SPOJOVACÍ
  6
DASHED
100
AcDbLine
 10
-590.974944087804
 20
-7017.041585716036
 30
0.0
 11
-594.9384603602047
 21
-7018.373392816849
 31
0.0
  0
LINE
  5
31EE
330
1F
100
AcDbEntity
  8
SPOJOVACÍ
  6
DASHED
100
AcDbLine
 10
-590.6048457399992
 20
-7016.827366230251
 30
0.0
 11
-595.3085587037312
 21
-7018.003294471455
 31
0.0
  0
LINE
  5
31EF
330
1F
100
AcDbEntity
  8
SPOJOVACÍ
  6
DASHED
100
AcDbLine
 10
-591.6340108442637
 20
-7017.253982057177
 30
0.0
 11
-591.6340108442637
 21
-7019.724342935751
 31
0.0
  0
LINE
  5
31F0
330
1F
100
AcDbEntity
  8
SPOJOVACÍ
  6
DASHED
100
AcDbLine
 10
-595.3085587037312
 20
-7018.003294471455
 30
0.0
 11
-594.9384603602047
 21
-7017.789074985668
 31
0.0
  0
LINE
  5
31F1
330
1F
100
AcDbEntity
  8
STAVBA OBRYS
100
AcDbLine
 10
-558.6635822901753
 20
-7033.686531286166
 30
0.0
 11
-580.5410952928632
 21
-7032.458662167208
 31
0.0
  0
LINE
  5
31F2
330
1F
100
AcDbEntity
  8
STAVBA OBRYS
100
AcDbLine
 10
-555.7138046150485
 20
-7020.916693300982
 30
0.0
 11
-569.9710602084924
 21
-7040.562598139342
 31
0.0
  0
LINE
  5
31F3
330
1F
100
AcDbEntity
  8
STAVBA OBRYS
100
AcDbLine
 10
-547.3561022587455
 20
-7039.825876880964
 30
0.0
 11
-565.300580474377
 21
-7035.89669612629
 31
0.0
  0
LINE
  5
31F4
330
1F
100
AcDbEntity
  8
STAVBA OBRYS
100
AcDbLine
 10
-557.9261373431154
 20
-7022.390135817737
 30
0.0
 11
-575.6248012807645
 21
-7021.653414559359
 31
0.0
  0
LINE
  5
31F5
330
1F
100
AcDbEntity
  8
STAVBA OBRYS
100
AcDbLine
 10
-557.680323065133
 20
-7026.073743174617
 30
0.0
 11
-571.6917643805954
 21
-7025.337021916238
 31
0.0
  0
LINE
  5
31F6
330
1F
100
AcDbEntity
  8
STAVBA OBRYS
100
AcDbLine
 10
-559.8926557932009
 20
-7029.757350531494
 30
0.0
 11
-575.1331706116871
 21
-7028.038333551951
 31
0.0
  0
HATCH
  5
31F8
330
1F
100
AcDbEntity
  8
izolace
100
AcDbHatch
 10
0.0
 20
0.0
 30
0.0
210
0.0
220
0.0
230
1.0
  2
SOLID
 70
     1
 71
     0
 91
        1
 92
        7
 72
     0
 73
     1
 93
        4
 10
-508.6437083709022
 20
-7125.185687062014
 10
-532.2854410807374
 20
-7125.185687062014
 10
-532.285441080741
 20
-7128.185687062014
 10
-508.6437083709022
 20
-7128.185687062014
 97
        0
 75
     0
 76
     1
 47
0.1901250437635136
 98
        1
 10
-522.9276463223975
 20
-7126.002498613094
  0
LWPOLYLINE
  5
31F9
330
1F
100
AcDbEntity
  8
izolace
100
AcDbPolyline
 90
        4
 70
     1
 43
0.0
 10
-508.6437083709058
 20
-7125.185687062014
 10
-532.285441080741
 20
-7125.185687062014
 10
-532.285441080741
 20
-7128.185687062014
 10
-508.6437083709058
 20
-7128.185687062014
  0
HATCH
  5
31FA
330
1F
100
AcDbEntity
  8
izolace
100
AcDbHatch
 10
0.0
 20
0.0
 30
0.0
210
0.0
220
0.0
230
1.0
  2
SOLID
 70
     1
 71
     0
 91
        1
 92
        7
 72
     0
 73
     1
 93
        4
 10
-461.3602429512318
 20
-7125.185687062014
 10
-485.001975661067
 20
-7125.185687062014
 10
-485.0019756610707
 20
-7128.185687062014
 10
-461.3602429512318
 20
-7128.185687062014
 97
        0
 75
     0
 76
     1
 47
0.1901250437635136
 98
        1
 10
-475.6441809027271
 20
-7126.002498613094
  0
LWPOLYLINE
  5
31FB
330
1F
100
AcDbEntity
  8
izolace
100
AcDbPolyline
 90
        4
 70
     1
 43
0.0
 10
-461.3602429512354
 20
-7125.185687062014
 10
-485.0019756610707
 20
-7125.185687062014
 10
-485.0019756610707
 20
-7128.185687062014
 10
-461.3602429512354
 20
-7128.185687062014
  0
LINE
  5
31FC
330
1F
100
AcDbEntity
  8
SPOJOVACÍ
  6
DASHED
100
AcDbLine
 10
-551.4455815957335
 20
-7006.003294471454
 30
0.0
 11
-551.81567993926
 21
-7005.78907498567
 31
0.0
  0
LINE
  5
31FD
330
1F
100
AcDbEntity
  8
SPOJOVACÍ
  6
DASHED
100
AcDbLine
 10
-551.4455815957335
 20
-7006.003294471454
 30
0.0
 11
-551.81567993926
 21
-7006.373392816851
 31
0.0
  0
LINE
  5
31FE
330
1F
100
AcDbEntity
  8
SPOJOVACÍ
  6
DASHED
100
AcDbLine
 10
-551.4455815957335
 20
-7015.176446323668
 30
0.0
 11
-551.81567993926
 21
-7014.962226837882
 31
0.0
  0
LINE
  5
31FF
330
1F
100
AcDbEntity
  8
SPOJOVACÍ
  6
DASHED
100
AcDbLine
 10
-551.4455815957335
 20
-7015.176446323668
 30
0.0
 11
-551.81567993926
 21
-7015.546544669334
 31
0.0
  0
LINE
  5
3200
330
1F
100
AcDbEntity
  8
SPOJOVACÍ
  6
DASHED
100
AcDbLine
 10
-551.4455815957335
 20
-7012.118121324627
 30
0.0
 11
-551.81567993926
 21
-7011.9048134113
 31
0.0
  0
LINE
  5
3201
330
1F
100
AcDbEntity
  8
SPOJOVACÍ
  6
DASHED
100
AcDbLine
 10
-551.4455815957335
 20
-7012.118121324627
 30
0.0
 11
-551.81567993926
 21
-7012.489131242481
 31
0.0
  0
LINE
  5
3202
330
1F
100
AcDbEntity
  8
SPOJOVACÍ
  6
DASHED
100
AcDbLine
 10
-551.4455815957335
 20
-7009.060707898036
 30
0.0
 11
-551.81567993926
 21
-7008.847399984446
 31
0.0
  0
LINE
  5
3203
330
1F
100
AcDbEntity
  8
SPOJOVACÍ
  6
DASHED
100
AcDbLine
 10
-551.4455815957335
 20
-7009.060707898036
 30
0.0
 11
-551.81567993926
 21
-7009.43171781589
 31
0.0
  0
LINE
  5
3204
330
1F
100
AcDbEntity
  8
SPOJOVACÍ
  6
DASHED
100
AcDbLine
 10
-551.8576122652448
 20
-7017.969503789061
 30
0.0
 11
-552.2277106087712
 21
-7018.340513707186
 31
0.0
  0
LINE
  5
3205
330
1F
100
AcDbEntity
  8
SPOJOVACÍ
  6
DASHED
100
AcDbLine
 10
-551.8576122652448
 20
-7017.969503789061
 30
0.0
 11
-552.2277106087712
 21
-7017.756195875733
 31
0.0
  0
INSERT
  5
3206
330
1F
100
AcDbEntity
  8
POPIS
100
AcDbBlockReference
  2
E_PUNKT
 10
-489.712160884821
 20
-7008.611255859381
 30
0.0
 50
270.0
  0
LINE
  5
3207
330
1F
100
AcDbEntity
  8
SPOJOVACÍ
  6
DASHED
100
AcDbLine
 10
-558.7955888884607
 20
-6992.361615303211
 30
0.0
 11
-548.7992872667383
 21
-6992.361615303211
 31
0.0
  0
LINE
  5
3208
330
1F
100
AcDbEntity
  8
SPOJOVACÍ
  6
DASHED
100
AcDbLine
 10
-558.7955888884607
 20
-6991.185687062014
 30
0.0
 11
-548.7992872667383
 21
-6991.185687062014
 31
0.0
  0
LWPOLYLINE
  5
3209
330
1F
100
AcDbEntity
  8
nášlap_vrstvy
100
AcDbPolyline
 90
        4
 70
     1
 43
0.0
 10
-625.2718899203098
 20
-6989.137214370555
 10
-525.2718899203098
 20
-6989.137214370555
 10
-525.2718899203098
 20
-6984.137214370555
 10
-625.2718899203098
 20
-6984.137214370555
  0
LINE
  5
320A
330
1F
100
AcDbEntity
  8
SPOJOVACÍ
  6
DASHED
100
AcDbLine
 10
-552.4747466957196
 20
-6997.65329238768
 30
0.0
 11
-552.2523230626538
 21
-6996.160136993319
 31
0.0
  0
LINE
  5
320B
330
1F
100
AcDbEntity
  8
SPOJOVACÍ
  6
DASHED
100
AcDbLine
 10
-555.7791962116607
 20
-7001.398942885815
 30
0.0
 11
-551.81567993926
 21
-7002.731661558815
 31
0.0
  0
LINE
  5
320C
330
1F
100
AcDbEntity
  8
SPOJOVACÍ
  6
DASHED
100
AcDbLine
 10
-555.7791962116607
 20
-7001.983260716996
 30
0.0
 11
-551.81567993926
 21
-7003.315979390267
 31
0.0
  0
LINE
  5
320D
330
1F
100
AcDbEntity
  8
SPOJOVACÍ
  6
DASHED
100
AcDbLine
 10
-556.1492945594655
 20
-7001.769952803669
 30
0.0
 11
-551.4455815957335
 21
-7002.945881044602
 31
0.0
  0
LWPOLYLINE
  5
320E
330
1F
100
AcDbEntity
  8
nášlap_vrstvy
100
AcDbPolyline
 90
        4
 70
     1
 43
0.0
 10
-625.211536815819
 20
-6981.860487286354
 10
-620.1664122906584
 20
-6981.860487286354
 10
-620.1664122906584
 20
-6949.862863034995
 10
-625.211536815819
 20
-6949.862863034995
  0
LINE
  5
320F
330
1F
100
AcDbEntity
  8
nášlap_vrstvy
100
AcDbLine
 10
-625.2115368158192
 20
-6981.860487286354
 30
0.0
 11
-625.2718899203101
 21
-6984.137214370555
 31
0.0
  0
LINE
  5
3210
330
1F
100
AcDbEntity
  8
nášlap_vrstvy
100
AcDbLine
 10
-620.1664122906586
 20
-6981.860487286354
 30
0.0
 11
-620.1664122906586
 21
-6984.137214370555
 31
0.0
  0
LINE
  5
3211
330
1F
100
AcDbEntity
  8
CETRIS
100
AcDbLine
 10
-613.1411257302788
 20
-7003.185687062014
 30
0.0
 11
-612.3240082826632
 21
-7003.185687062014
 31
0.0
  0
LINE
  5
3212
330
1F
100
AcDbEntity
  8
STAVBA OBRYS
  6
Continuous
100
AcDbLine
 10
-630.5958596553355
 20
-7053.789219558805
 30
0.0
 11
-629.6777761448939
 21
-7052.552085749906
 31
0.0
  0
LINE
  5
3213
330
1F
100
AcDbEntity
  8
STAVBA OBRYS
  6
Continuous
100
AcDbLine
 10
-629.6777761448939
 20
-7052.552085749906
 30
0.0
 11
-629.3410525070103
 21
-7051.836780563738
 31
0.0
  0
LINE
  5
3214
330
1F
100
AcDbEntity
  8
STAVBA OBRYS
  6
Continuous
100
AcDbLine
 10
-628.1411257302789
 20
-7051.836780563738
 30
0.0
 11
-629.3410525070103
 21
-7051.836780563738
 31
0.0
  0
LINE
  5
3215
330
1F
100
AcDbEntity
  8
STAVBA OBRYS
  6
Continuous
100
AcDbLine
 10
-631.8032278382343
 20
-7054.74730062879
 30
0.0
 11
-630.5958596553355
 21
-7053.789219558805
 31
0.0
  0
LINE
  5
3216
330
1F
100
AcDbEntity
  8
STAVBA OBRYS
  6
Continuous
100
AcDbLine
 10
-634.7407230013669
 20
-7055.587249368821
 30
0.0
 11
-633.2170950479376
 21
-7055.360286477938
 31
0.0
  0
LINE
  5
3217
330
1F
100
AcDbEntity
  8
STAVBA OBRYS
  6
Continuous
100
AcDbLine
 10
-643.2611332909328
 20
-7054.537080899447
 30
0.0
 11
-643.0425419789062
 21
-7054.914732270393
 31
0.0
  0
LINE
  5
3218
330
1F
100
AcDbEntity
  8
STAVBA OBRYS
  6
Continuous
100
AcDbLine
 10
-643.2611332909328
 20
-7054.537080899447
 30
0.0
 11
-643.6387846637845
 21
-7054.914732270393
 31
0.0
  0
LINE
  5
3219
330
1F
100
AcDbEntity
  8
STAVBA OBRYS
  6
Continuous
100
AcDbLine
 10
-640.1413236716944
 20
-7054.537080899447
 30
0.0
 11
-639.9227323596679
 21
-7054.914732270393
 31
0.0
  0
LINE
  5
321A
330
1F
100
AcDbEntity
  8
STAVBA OBRYS
  6
Continuous
100
AcDbLine
 10
-640.1413236716944
 20
-7054.537080899447
 30
0.0
 11
-640.5189750448226
 21
-7054.914732270393
 31
0.0
  0
LINE
  5
321B
330
1F
100
AcDbEntity
  8
STAVBA OBRYS
  6
Continuous
100
AcDbLine
 10
-640.2873612716103
 20
-7055.587249368821
 30
0.0
 11
-642.8062773266392
 21
-7055.587249368821
 31
0.0
  0
LINE
  5
321C
330
1F
100
AcDbEntity
  8
STAVBA OBRYS
  6
Continuous
100
AcDbLine
 10
-634.7407230013669
 20
-7055.587249368821
 30
0.0
 11
-639.6836771802955
 21
-7055.587249368821
 31
0.0
  0
LINE
  5
321D
330
1F
100
AcDbEntity
  8
STAVBA OBRYS
  6
Continuous
100
AcDbLine
 10
-646.3809429098946
 20
-7054.537080899447
 30
0.0
 11
-646.1632817735772
 21
-7054.914732270393
 31
0.0
  0
LINE
  5
321E
330
1F
100
AcDbEntity
  8
STAVBA OBRYS
  6
Continuous
100
AcDbLine
 10
-646.3809429098946
 20
-7054.537080899447
 30
0.0
 11
-646.7595244587246
 21
-7054.914732270393
 31
0.0
  0
LINE
  5
321F
330
1F
100
AcDbEntity
  8
STAVBA OBRYS
  6
Continuous
100
AcDbLine
 10
-643.402520011794
 20
-7055.587249368821
 30
0.0
 11
-645.9307378246631
 21
-7055.587249368821
 31
0.0
  0
LINE
  5
3220
330
1F
100
AcDbEntity
  8
STAVBA OBRYS
  6
Continuous
100
AcDbLine
 10
-633.2170950479376
 20
-7055.360286477938
 30
0.0
 11
-631.8032278382343
 21
-7054.74730062879
 31
0.0
  0
LINE
  5
3221
330
1F
100
AcDbEntity
  8
SPOJOVACÍ
  6
DASHED
100
AcDbLine
 10
-558.7955888884607
 20
-6992.361615303211
 30
0.0
 11
-557.4728975065808
 21
-6993.090873126956
 31
0.0
  0
LINE
  5
3222
330
1F
100
AcDbEntity
  8
SPOJOVACÍ
  6
DASHED
100
AcDbLine
 10
-557.4728975065808
 20
-6993.090873126956
 30
0.0
 11
-556.3844802042295
 21
-6994.13826967658
 31
0.0
  0
LINE
  5
3223
330
1F
100
AcDbEntity
  8
SPOJOVACÍ
  6
DASHED
100
AcDbLine
 10
-556.3844802042295
 20
-6994.13826967658
 30
0.0
 11
-555.6041743344976
 21
-6995.430879169311
 31
0.0
  0
LINE
  5
3224
330
1F
100
AcDbEntity
  8
SPOJOVACÍ
  6
DASHED
100
AcDbLine
 10
-558.7955888884607
 20
-6991.185687062014
 30
0.0
 11
-558.7955888884607
 21
-6992.361615303211
 31
0.0
  0
LINE
  5
3225
330
1F
100
AcDbEntity
  8
SPOJOVACÍ
  6
DASHED
100
AcDbLine
 10
-552.4747466957196
 20
-6997.65329238768
 30
0.0
 11
-552.4747466957196
 21
-7002.497387483031
 31
0.0
  0
LINE
  5
3226
330
1F
100
AcDbEntity
  8
SPOJOVACÍ
  6
DASHED
100
AcDbLine
 10
-556.1492945594655
 20
-7001.769952803669
 30
0.0
 11
-555.7791962116607
 21
-7001.398942885815
 31
0.0
  0
LINE
  5
3227
330
1F
100
AcDbEntity
  8
SPOJOVACÍ
  6
DASHED
100
AcDbLine
 10
-556.1492945594655
 20
-7001.769952803669
 30
0.0
 11
-555.7791962116607
 21
-7001.983260716996
 31
0.0
  0
LINE
  5
3228
330
1F
100
AcDbEntity
  8
SPOJOVACÍ
  6
DASHED
100
AcDbLine
 10
-555.1201294552011
 20
-6997.65329238768
 30
0.0
 11
-555.1201294552011
 21
-7001.610427654767
 31
0.0
  0
LINE
  5
3229
330
1F
100
AcDbEntity
  8
SPOJOVACÍ
  6
DASHED
100
AcDbLine
 10
-555.1848510874842
 20
-6996.88210223902
 30
0.0
 11
-555.1201294552011
 21
-6997.65329238768
 31
0.0
  0
LINE
  5
322A
330
1F
100
AcDbEntity
  8
SPOJOVACÍ
  6
DASHED
100
AcDbLine
 10
-587.958551411004
 20
-7003.185687062014
 30
0.0
 11
-597.9548530327265
 21
-7003.185687062014
 31
0.0
  0
LINE
  5
322B
330
1F
100
AcDbEntity
  8
SPOJOVACÍ
  6
DASHED
100
AcDbLine
 10
-555.6041743344976
 20
-6995.430879169311
 30
0.0
 11
-555.1848510874842
 21
-6996.88210223902
 31
0.0
  0
LINE
  5
322C
330
1F
100
AcDbEntity
  8
nášlap_vrstvy
100
AcDbLine
 10
-625.2115368158192
 20
-6949.862863034995
 30
0.0
 11
-628.1411257302789
 21
-6949.862863034995
 31
0.0
  0
LINE
  5
322D
330
1F
100
AcDbEntity
  8
nášlap_vrstvy
100
AcDbLine
 10
-521.5583513232704
 20
-6984.137214370555
 30
0.0
 11
-525.2718899203101
 21
-6984.137214370555
 31
0.0
  0
LINE
  5
322E
330
1F
100
AcDbEntity
  8
SPOJOVACÍ
  6
DASHED
100
AcDbLine
 10
-550.7126774819044
 20
-6993.591326308569
 30
0.0
 11
-549.5002863491826
 21
-6992.691604468337
 31
0.0
  0
LINE
  5
322F
330
1F
100
AcDbEntity
  8
SPOJOVACÍ
  6
DASHED
100
AcDbLine
 10
-549.5002863491826
 20
-6992.691604468337
 30
0.0
 11
-548.7992872667383
 21
-6992.361615303211
 31
0.0
  0
LINE
  5
3230
330
1F
100
AcDbEntity
  8
SPOJOVACÍ
  6
DASHED
100
AcDbLine
 10
-548.7992872667383
 20
-6991.185687062014
 30
0.0
 11
-548.7992872667383
 21
-6992.361615303211
 31
0.0
  0
LINE
  5
3231
330
1F
100
AcDbEntity
  8
SPOJOVACÍ
  6
DASHED
100
AcDbLine
 10
-551.6515969304891
 20
-6994.774547127811
 30
0.0
 11
-550.7126774819044
 21
-6993.591326308569
 31
0.0
  0
LINE
  5
3232
330
1F
100
AcDbEntity
  8
SPOJOVACÍ
  6
DASHED
100
AcDbLine
 10
-551.4455815957335
 20
-7002.945881044602
 30
0.0
 11
-551.81567993926
 21
-7002.731661558815
 31
0.0
  0
LINE
  5
3233
330
1F
100
AcDbEntity
  8
SPOJOVACÍ
  6
DASHED
100
AcDbLine
 10
-551.4455815957335
 20
-7002.945881044602
 30
0.0
 11
-551.81567993926
 21
-7003.315979390267
 31
0.0
  0
LINE
  5
3234
330
1F
100
AcDbEntity
  8
CETRIS
100
AcDbLine
 10
-504.7712806105819
 20
-6991.185687062014
 30
0.0
 11
-504.7712806105819
 21
-7003.185687062014
 31
0.0
  0
LINE
  5
3235
330
1F
100
AcDbEntity
  8
SPOJOVACÍ
  6
DASHED
100
AcDbLine
 10
-552.2523230626538
 20
-6996.160136993319
 30
0.0
 11
-551.6515969304891
 21
-6994.774547127811
 31
0.0
  0
INSERT
  5
3236
330
1F
100
AcDbEntity
  8
POPIS
100
AcDbBlockReference
  2
E_PUNKT
 10
-532.2993106540861
 20
-6997.5367134173
 30
0.0
 50
270.0
  0
LINE
  5
3237
330
1F
100
AcDbEntity
  8
SPOJOVACÍ
  6
DASHED
100
AcDbLine
 10
-458.7955888884607
 20
-6991.185687062014
 30
0.0
 11
-458.7955888884607
 21
-6992.361615303211
 31
0.0
  0
LINE
  5
3238
330
1F
100
AcDbEntity
  8
SPOJOVACÍ
  6
DASHED
100
AcDbLine
 10
-458.7955888884607
 20
-6992.361615303211
 30
0.0
 11
-457.4728975065808
 21
-6993.090873126956
 31
0.0
  0
INSERT
  5
3239
330
1F
100
AcDbEntity
  8
POPIS
100
AcDbBlockReference
  2
E_PUNKT
 10
-475.6913198410184
 20
-6983.375966582499
 30
0.0
 50
270.0
  0
LINE
  5
323A
330
1F
100
AcDbEntity
  8
SPOJOVACÍ
  6
Continuous
100
AcDbLine
 10
-645.6116875267516
 20
-6835.605424070556
 30
0.0
 11
-648.1399053396208
 21
-6835.605424070556
 31
0.0
  0
LINE
  5
323B
330
1F
100
AcDbEntity
  8
SPOJOVACÍ
  6
Continuous
100
AcDbLine
 10
-696.7737827439423
 20
-6835.605424070556
 30
0.0
 11
-692.7358896142623
 21
-6835.605424070556
 31
0.0
  0
LINE
  5
323C
330
1F
100
AcDbEntity
  8
SPOJOVACÍ
  6
Continuous
100
AcDbLine
 10
-697.5607114670647
 20
-6835.671466552478
 30
0.0
 11
-696.7737827439423
 21
-6835.605424070556
 31
0.0
  0
LINE
  5
323D
330
1F
100
AcDbEntity
  8
SPOJOVACÍ
  6
Continuous
100
AcDbLine
 10
-702.1734532382988
 20
-6839.355892880004
 30
0.0
 11
-701.4293126018246
 21
-6838.006207796453
 31
0.0
  0
LINE
  5
323E
330
1F
100
AcDbEntity
  8
SPOJOVACÍ
  6
Continuous
100
AcDbLine
 10
-701.4293126018246
 20
-6838.006207796453
 30
0.0
 11
-700.3605406124124
 21
-6836.895577896095
 31
0.0
  0
LINE
  5
323F
330
1F
100
AcDbEntity
  8
SPOJOVACÍ
  6
Continuous
100
AcDbLine
 10
-700.3605406124124
 20
-6836.895577896095
 30
0.0
 11
-699.0415513341149
 21
-6836.099347416777
 31
0.0
  0
LINE
  5
3240
330
1F
100
AcDbEntity
  8
SPOJOVACÍ
  6
Continuous
100
AcDbLine
 10
-703.3733800150303
 20
-6839.355892880004
 30
0.0
 11
-702.1734532382988
 21
-6839.355892880004
 31
0.0
  0
LINE
  5
3241
330
1F
100
AcDbEntity
  8
SPOJOVACÍ
  6
Continuous
100
AcDbLine
 10
-699.0415513341149
 20
-6836.099347416777
 30
0.0
 11
-697.5607114670647
 21
-6835.671466552478
 31
0.0
  0
LINE
  5
3242
330
1F
100
AcDbEntity
  8
SPOJOVACÍ
  6
Continuous
100
AcDbLine
 10
-657.7839679904618
 20
-6833.490204311849
 30
0.0
 11
-655.6473541876084
 21
-6833.223243856512
 31
0.0
  0
LINE
  5
3243
330
1F
100
AcDbEntity
  8
SPOJOVACÍ
  6
Continuous
100
AcDbLine
 10
-673.7305377548482
 20
-6833.490204311849
 30
0.0
 11
-675.8671515577016
 21
-6833.223243856512
 31
0.0
  0
LINE
  5
3244
330
1F
100
AcDbEntity
  8
SPOJOVACÍ
  6
Continuous
100
AcDbLine
 10
-671.013494255415
 20
-6833.829718473018
 30
0.0
 11
-673.1584796403994
 21
-6833.561827844707
 31
0.0
  0
LINE
  5
3245
330
1F
100
AcDbEntity
  8
SPOJOVACÍ
  6
Continuous
100
AcDbLine
 10
-660.501011489895
 20
-6833.829718473018
 30
0.0
 11
-658.3560261049106
 21
-6833.561827844707
 31
0.0
  0
LINE
  5
3246
330
1F
100
AcDbEntity
  8
SPOJOVACÍ
  6
Continuous
100
AcDbLine
 10
-648.7445196069066
 20
-6835.605424070556
 30
0.0
 11
-651.2625054862337
 21
-6835.605424070556
 31
0.0
  0
LINE
  5
3247
330
1F
100
AcDbEntity
  8
SPOJOVACÍ
  6
Continuous
100
AcDbLine
 10
-648.3008257524025
 20
-6836.655592544295
 30
0.0
 11
-648.5194170644217
 21
-6836.277941168984
 31
0.0
  0
LINE
  5
3248
330
1F
100
AcDbEntity
  8
SPOJOVACÍ
  6
Continuous
100
AcDbLine
 10
-648.3008257524025
 20
-6836.655592544295
 30
0.0
 11
-647.9231743792743
 21
-6836.277941168984
 31
0.0
  0
LINE
  5
3249
330
1F
100
AcDbEntity
  8
SPOJOVACÍ
  6
Continuous
100
AcDbLine
 10
-651.4215655473426
 20
-6836.655592544295
 30
0.0
 11
-651.6392266833909
 21
-6836.277941168984
 31
0.0
  0
LINE
  5
324A
330
1F
100
AcDbEntity
  8
SPOJOVACÍ
  6
Continuous
100
AcDbLine
 10
-651.4215655473426
 20
-6836.655592544295
 30
0.0
 11
-651.0429839982362
 21
-6836.277941168984
 31
0.0
  0
LINE
  5
324B
330
1F
100
AcDbEntity
  8
SPOJOVACÍ
  6
Continuous
100
AcDbLine
 10
-653.1061139132771
 20
-6835.605424070556
 30
0.0
 11
-654.3032501626339
 21
-6835.455665767833
 31
0.0
  0
LINE
  5
324C
330
1F
100
AcDbEntity
  8
SPOJOVACÍ
  6
Continuous
100
AcDbLine
 10
-654.9236774184874
 20
-6835.378461175307
 30
0.0
 11
-657.245396204552
 21
-6835.088246325788
 31
0.0
  0
LINE
  5
324D
330
1F
100
AcDbEntity
  8
SPOJOVACÍ
  6
Continuous
100
AcDbLine
 10
-654.4985870796563
 20
-6836.401654549874
 30
0.0
 11
-654.7171783916828
 21
-6836.02307300159
 31
0.0
  0
LINE
  5
324E
330
1F
100
AcDbEntity
  8
SPOJOVACÍ
  6
Continuous
100
AcDbLine
 10
-654.4985870796563
 20
-6836.401654549874
 30
0.0
 11
-654.1209357065281
 21
-6836.02307300159
 31
0.0
  0
LINE
  5
324F
330
1F
100
AcDbEntity
  8
SPOJOVACÍ
  6
Continuous
100
AcDbLine
 10
-657.5132868339542
 20
-6835.837037843768
 30
0.0
 11
-657.7309479700025
 21
-6835.459386468457
 31
0.0
  0
LINE
  5
3250
330
1F
100
AcDbEntity
  8
SPOJOVACÍ
  6
Continuous
100
AcDbLine
 10
-657.5132868339542
 20
-6835.837037843768
 30
0.0
 11
-657.1347052848477
 21
-6835.459386468457
 31
0.0
  0
LINE
  5
3251
330
1F
100
AcDbEntity
  8
SPOJOVACÍ
  6
Continuous
100
AcDbLine
 10
-651.8587481713884
 20
-6835.605424070556
 30
0.0
 11
-653.1061139132771
 21
-6835.605424070556
 31
0.0
  0
LINE
  5
3252
330
1F
100
AcDbEntity
  8
SPOJOVACÍ
  6
Continuous
100
AcDbLine
 10
-663.9063850782304
 20
-6834.25573899137
 30
0.0
 11
-661.0702790769619
 21
-6833.901342010242
 31
0.0
  0
LINE
  5
3253
330
1F
100
AcDbEntity
  8
SPOJOVACÍ
  6
Continuous
100
AcDbLine
 10
-660.8172712604255
 20
-6834.641761945269
 30
0.0
 11
-663.9063850782304
 21
-6834.25573899137
 31
0.0
  0
LINE
  5
3254
330
1F
100
AcDbEntity
  8
SPOJOVACÍ
  6
Continuous
100
AcDbLine
 10
-660.5270564122738
 20
-6835.272421133296
 30
0.0
 11
-660.7456477242931
 21
-6834.894769762351
 31
0.0
  0
LINE
  5
3255
330
1F
100
AcDbEntity
  8
SPOJOVACÍ
  6
Continuous
100
AcDbLine
 10
-660.5270564122738
 20
-6835.272421133296
 30
0.0
 11
-660.1494050391456
 21
-6834.894769762351
 31
0.0
  0
LINE
  5
3256
330
1F
100
AcDbEntity
  8
SPOJOVACÍ
  6
Continuous
100
AcDbLine
 10
-670.9874493330362
 20
-6835.272421133296
 30
0.0
 11
-671.3651007061644
 21
-6834.894769762351
 31
0.0
  0
LINE
  5
3257
330
1F
100
AcDbEntity
  8
SPOJOVACÍ
  6
Continuous
100
AcDbLine
 10
-670.9874493330362
 20
-6835.272421133296
 30
0.0
 11
-670.7688580210169
 21
-6834.894769762351
 31
0.0
  0
LINE
  5
3258
330
1F
100
AcDbEntity
  8
SPOJOVACÍ
  6
Continuous
100
AcDbLine
 10
-670.6972344848845
 20
-6834.641761945269
 30
0.0
 11
-667.6081206670796
 21
-6834.25573899137
 31
0.0
  0
LINE
  5
3259
330
1F
100
AcDbEntity
  8
SPOJOVACÍ
  6
Continuous
100
AcDbLine
 10
-667.6081206670796
 20
-6834.25573899137
 30
0.0
 11
-670.4442266683481
 21
-6833.901342010242
 31
0.0
  0
LINE
  5
325A
330
1F
100
AcDbEntity
  8
SPOJOVACÍ
  6
Continuous
100
AcDbLine
 10
-674.0012189113558
 20
-6835.837037843768
 30
0.0
 11
-674.3798004604623
 21
-6835.459386468457
 31
0.0
  0
LINE
  5
325B
330
1F
100
AcDbEntity
  8
SPOJOVACÍ
  6
Continuous
100
AcDbLine
 10
-674.0012189113558
 20
-6835.837037843768
 30
0.0
 11
-673.7835577753076
 21
-6835.459386468457
 31
0.0
  0
LINE
  5
325C
330
1F
100
AcDbEntity
  8
SPOJOVACÍ
  6
Continuous
100
AcDbLine
 10
-677.0159186656537
 20
-6836.401654549874
 30
0.0
 11
-677.3935700387819
 21
-6836.02307300159
 31
0.0
  0
LINE
  5
325D
330
1F
100
AcDbEntity
  8
SPOJOVACÍ
  6
Continuous
100
AcDbLine
 10
-677.0159186656537
 20
-6836.401654549874
 30
0.0
 11
-676.7973273536272
 21
-6836.02307300159
 31
0.0
  0
LINE
  5
325E
330
1F
100
AcDbEntity
  8
SPOJOVACÍ
  6
Continuous
100
AcDbLine
 10
-676.5908283268227
 20
-6835.378461175307
 30
0.0
 11
-674.2691095407581
 21
-6835.088246325788
 31
0.0
  0
LINE
  5
325F
330
1F
100
AcDbEntity
  8
SPOJOVACÍ
  6
Continuous
100
AcDbLine
 10
-680.0929401979674
 20
-6836.655592544295
 30
0.0
 11
-680.4715217470739
 21
-6836.277941168984
 31
0.0
  0
LINE
  5
3260
330
1F
100
AcDbEntity
  8
SPOJOVACÍ
  6
Continuous
100
AcDbLine
 10
-680.0929401979674
 20
-6836.655592544295
 30
0.0
 11
-679.8752790619191
 21
-6836.277941168984
 31
0.0
  0
LINE
  5
3261
330
1F
100
AcDbEntity
  8
SPOJOVACÍ
  6
Continuous
100
AcDbLine
 10
-683.2136799929076
 20
-6836.655592544295
 30
0.0
 11
-683.5913313660357
 21
-6836.277941168984
 31
0.0
  0
LINE
  5
3262
330
1F
100
AcDbEntity
  8
SPOJOVACÍ
  6
Continuous
100
AcDbLine
 10
-683.2136799929076
 20
-6836.655592544295
 30
0.0
 11
-682.9950886808883
 21
-6836.277941168984
 31
0.0
  0
LINE
  5
3263
330
1F
100
AcDbEntity
  8
SPOJOVACÍ
  6
Continuous
100
AcDbLine
 10
-679.6557575739216
 20
-6835.605424070556
 30
0.0
 11
-678.4083918320329
 21
-6835.605424070556
 31
0.0
  0
LINE
  5
3264
330
1F
100
AcDbEntity
  8
SPOJOVACÍ
  6
Continuous
100
AcDbLine
 10
-682.7699861384035
 20
-6835.605424070556
 30
0.0
 11
-680.2520002590763
 21
-6835.605424070556
 31
0.0
  0
LINE
  5
3265
330
1F
100
AcDbEntity
  8
SPOJOVACÍ
  6
Continuous
100
AcDbLine
 10
-678.4083918320329
 20
-6835.605424070556
 30
0.0
 11
-677.2112555826761
 21
-6835.455665767833
 31
0.0
  0
LINE
  5
3266
330
1F
100
AcDbEntity
  8
SPOJOVACÍ
  6
Continuous
100
AcDbLine
 10
-673.6384503510935
 20
-6835.009181382949
 30
0.0
 11
-671.317661740738
 21
-6834.718966537796
 31
0.0
  0
LINE
  5
3267
330
1F
100
AcDbEntity
  8
SPOJOVACÍ
  6
Continuous
100
AcDbLine
 10
-657.8760553942165
 20
-6835.009181382949
 30
0.0
 11
-660.1968440045721
 21
-6834.718966537796
 31
0.0
  0
LINE
  5
3268
330
1F
100
AcDbEntity
  8
SPOJOVACÍ
  6
Continuous
100
AcDbLine
 10
-660.7456477242931
 20
-6834.894769762351
 30
0.0
 11
-661.2163166768778
 21
-6833.495785362785
 31
0.0
  0
LINE
  5
3269
330
1F
100
AcDbEntity
  8
SPOJOVACÍ
  6
Continuous
100
AcDbLine
 10
-660.1494050391456
 20
-6834.894769762351
 30
0.0
 11
-660.6200739917303
 21
-6833.495785362785
 31
0.0
  0
LINE
  5
326A
330
1F
100
AcDbEntity
  8
SPOJOVACÍ
  6
Continuous
100
AcDbLine
 10
-671.3651007061644
 20
-6834.894769762351
 30
0.0
 11
-670.8944317535797
 21
-6833.495785362785
 31
0.0
  0
LINE
  5
326B
330
1F
100
AcDbEntity
  8
SPOJOVACÍ
  6
Continuous
100
AcDbLine
 10
-670.7688580210169
 20
-6834.894769762351
 30
0.0
 11
-670.2981890684323
 21
-6833.495785362785
 31
0.0
  0
LINE
  5
326C
330
1F
100
AcDbEntity
  8
SPOJOVACÍ
  6
Continuous
100
AcDbLine
 10
-686.3334896118767
 20
-6836.655592544295
 30
0.0
 11
-686.7111409850049
 21
-6836.277941168984
 31
0.0
  0
LINE
  5
326D
330
1F
100
AcDbEntity
  8
SPOJOVACÍ
  6
Continuous
100
AcDbLine
 10
-686.3334896118767
 20
-6836.655592544295
 30
0.0
 11
-686.1148982998502
 21
-6836.277941168984
 31
0.0
  0
LINE
  5
326E
330
1F
100
AcDbEntity
  8
SPOJOVACÍ
  6
Continuous
100
AcDbLine
 10
-689.4532992311151
 20
-6836.655592544295
 30
0.0
 11
-689.8309506042433
 21
-6836.277941168984
 31
0.0
  0
LINE
  5
326F
330
1F
100
AcDbEntity
  8
SPOJOVACÍ
  6
Continuous
100
AcDbLine
 10
-689.4532992311151
 20
-6836.655592544295
 30
0.0
 11
-689.2347079190885
 21
-6836.277941168984
 31
0.0
  0
LINE
  5
3270
330
1F
100
AcDbEntity
  8
SPOJOVACÍ
  6
Continuous
100
AcDbLine
 10
-689.0179769587421
 20
-6835.605424070556
 30
0.0
 11
-686.497200552033
 21
-6835.605424070556
 31
0.0
  0
LINE
  5
3271
330
1F
100
AcDbEntity
  8
SPOJOVACÍ
  6
Continuous
100
AcDbLine
 10
-692.573108850077
 20
-6836.655592544295
 30
0.0
 11
-692.9516903989069
 21
-6836.277941168984
 31
0.0
  0
LINE
  5
3272
330
1F
100
AcDbEntity
  8
SPOJOVACÍ
  6
Continuous
100
AcDbLine
 10
-692.573108850077
 20
-6836.655592544295
 30
0.0
 11
-692.3554477140287
 21
-6836.277941168984
 31
0.0
  0
LINE
  5
3273
330
1F
100
AcDbEntity
  8
SPOJOVACÍ
  6
Continuous
100
AcDbLine
 10
-692.1405771050858
 20
-6835.605424070556
 30
0.0
 11
-689.6216610500569
 21
-6835.605424070556
 31
0.0
  0
LINE
  5
3274
330
1F
100
AcDbEntity
  8
SPOJOVACÍ
  6
Continuous
100
AcDbLine
 10
-685.9028182185584
 20
-6835.605424070556
 30
0.0
 11
-683.3746004056893
 21
-6835.605424070556
 31
0.0
  0
TEXT
  5
3275
330
1F
100
AcDbEntity
  8
POPIS
100
AcDbText
 10
-493.1719935858664
 20
-6903.409360085984
 30
0.0
 40
25.0
  1
01
 41
0.85
  7
SIMPLEX7
100
AcDbText
  0
LINE
  5
3276
330
1F
100
AcDbEntity
  8
SPOJOVACÍ
  6
Continuous
100
AcDbLine
 10
-628.1411257302798
 20
-6839.355892880004
 30
0.0
 11
-629.3410525070112
 21
-6839.355892880004
 31
0.0
  0
LINE
  5
3277
330
1F
100
AcDbEntity
  8
SPOJOVACÍ
  6
Continuous
100
AcDbLine
 10
-630.0851931434854
 20
-6838.006207796453
 30
0.0
 11
-631.1539651328976
 21
-6836.895577896095
 31
0.0
  0
LINE
  5
3278
330
1F
100
AcDbEntity
  8
SPOJOVACÍ
  6
Continuous
100
AcDbLine
 10
-629.3410525070112
 20
-6839.355892880004
 30
0.0
 11
-630.0851931434854
 21
-6838.006207796453
 31
0.0
  0
LINE
  5
3279
330
1F
100
AcDbEntity
  8
SPOJOVACÍ
  6
Continuous
100
AcDbLine
 10
-633.9537942782453
 20
-6835.671466552478
 30
0.0
 11
-634.7407230013677
 21
-6835.605424070556
 31
0.0
  0
LINE
  5
327A
330
1F
100
AcDbEntity
  8
SPOJOVACÍ
  6
Continuous
100
AcDbLine
 10
-632.4729544111951
 20
-6836.099347416777
 30
0.0
 11
-633.9537942782453
 21
-6835.671466552478
 31
0.0
  0
LINE
  5
327B
330
1F
100
AcDbEntity
  8
SPOJOVACÍ
  6
Continuous
100
AcDbLine
 10
-634.7407230013677
 20
-6835.605424070556
 30
0.0
 11
-638.7786161310478
 21
-6835.605424070556
 31
0.0
  0
LINE
  5
327C
330
1F
100
AcDbEntity
  8
SPOJOVACÍ
  6
Continuous
100
AcDbLine
 10
-639.3739286402242
 20
-6835.605424070556
 30
0.0
 11
-641.8928446952532
 21
-6835.605424070556
 31
0.0
  0
LINE
  5
327D
330
1F
100
AcDbEntity
  8
SPOJOVACÍ
  6
Continuous
100
AcDbLine
 10
-642.4965287865679
 20
-6835.605424070556
 30
0.0
 11
-645.017305193277
 21
-6835.605424070556
 31
0.0
  0
LINE
  5
327E
330
1F
100
AcDbEntity
  8
SPOJOVACÍ
  6
Continuous
100
AcDbLine
 10
-638.9413968952331
 20
-6836.655592544295
 30
0.0
 11
-639.1590580312813
 21
-6836.277941168984
 31
0.0
  0
LINE
  5
327F
330
1F
100
AcDbEntity
  8
SPOJOVACÍ
  6
Continuous
100
AcDbLine
 10
-642.0612065141949
 20
-6836.655592544295
 30
0.0
 11
-642.2797978262215
 21
-6836.277941168984
 31
0.0
  0
LINE
  5
3280
330
1F
100
AcDbEntity
  8
SPOJOVACÍ
  6
Continuous
100
AcDbLine
 10
-642.0612065141949
 20
-6836.655592544295
 30
0.0
 11
-641.6835551410668
 21
-6836.277941168984
 31
0.0
  0
LINE
  5
3281
330
1F
100
AcDbEntity
  8
SPOJOVACÍ
  6
Continuous
100
AcDbLine
 10
-645.1810161334333
 20
-6836.655592544295
 30
0.0
 11
-644.8033647603051
 21
-6836.277941168984
 31
0.0
  0
LINE
  5
3282
330
1F
100
AcDbEntity
  8
SPOJOVACÍ
  6
Continuous
100
AcDbLine
 10
-638.9413968952331
 20
-6836.655592544295
 30
0.0
 11
-638.5628153464031
 21
-6836.277941168984
 31
0.0
  0
LINE
  5
3283
330
1F
100
AcDbEntity
  8
SPOJOVACÍ
  6
Continuous
100
AcDbLine
 10
-645.1810161334333
 20
-6836.655592544295
 30
0.0
 11
-645.3996074454598
 21
-6836.277941168984
 31
0.0
  0
LINE
  5
3284
330
1F
100
AcDbEntity
  8
SPOJOVACÍ
  6
Continuous
100
AcDbLine
 10
-631.1539651328976
 20
-6836.895577896095
 30
0.0
 11
-632.4729544111951
 21
-6836.099347416777
 31
0.0
  0
LINE
  5
3285
330
1F
100
AcDbEntity
  8
SPOJOVACÍ
  6
Continuous
100
AcDbLine
 10
-646.5251201581386
 20
-6832.906053907819
 30
0.0
 11
-649.0458965648477
 21
-6832.906053907819
 31
0.0
  0
LINE
  5
3286
330
1F
100
AcDbEntity
  8
SPOJOVACÍ
  6
Continuous
100
AcDbLine
 10
-696.7737827439423
 20
-6832.906053907819
 30
0.0
 11
-691.8308285650137
 21
-6832.906053907819
 31
0.0
  0
LINE
  5
3287
330
1F
100
AcDbEntity
  8
SPOJOVACÍ
  6
Continuous
100
AcDbLine
 10
-700.9186460899736
 20
-6831.108024097805
 30
0.0
 11
-701.8367296004153
 21
-6829.870890288905
 31
0.0
  0
LINE
  5
3288
330
1F
100
AcDbEntity
  8
SPOJOVACÍ
  6
Continuous
100
AcDbLine
 10
-701.8367296004153
 20
-6829.870890288905
 30
0.0
 11
-702.1734532382988
 21
-6829.155585102737
 31
0.0
  0
LINE
  5
3289
330
1F
100
AcDbEntity
  8
SPOJOVACÍ
  6
Continuous
100
AcDbLine
 10
-703.3733800150303
 20
-6829.155585102737
 30
0.0
 11
-702.1734532382988
 21
-6829.155585102737
 31
0.0
  0
LINE
  5
328A
330
1F
100
AcDbEntity
  8
SPOJOVACÍ
  6
Continuous
100
AcDbLine
 10
-698.2974106973715
 20
-6832.679091016936
 30
0.0
 11
-699.7112779070748
 21
-6832.066105167789
 31
0.0
  0
LINE
  5
328B
330
1F
100
AcDbEntity
  8
SPOJOVACÍ
  6
Continuous
100
AcDbLine
 10
-699.7112779070748
 20
-6832.066105167789
 30
0.0
 11
-700.9186460899736
 21
-6831.108024097805
 31
0.0
  0
LINE
  5
328C
330
1F
100
AcDbEntity
  8
SPOJOVACÍ
  6
Continuous
100
AcDbLine
 10
-696.7737827439423
 20
-6832.906053907819
 30
0.0
 11
-698.2974106973715
 21
-6832.679091016936
 31
0.0
  0
LINE
  5
328D
330
1F
100
AcDbEntity
  8
SPOJOVACÍ
  6
Continuous
100
AcDbLine
 10
-649.5007525288647
 20
-6831.855885438447
 30
0.0
 11
-649.8793340776947
 21
-6832.233536809392
 31
0.0
  0
LINE
  5
328E
330
1F
100
AcDbEntity
  8
SPOJOVACÍ
  6
Continuous
100
AcDbLine
 10
-649.5007525288647
 20
-6831.855885438447
 30
0.0
 11
-649.2830913928164
 21
-6832.233536809392
 31
0.0
  0
LINE
  5
328F
330
1F
100
AcDbEntity
  8
SPOJOVACÍ
  6
Continuous
100
AcDbLine
 10
-652.7693902753935
 20
-6832.906053907819
 30
0.0
 11
-653.1061139132771
 21
-6832.906053907819
 31
0.0
  0
LINE
  5
3290
330
1F
100
AcDbEntity
  8
SPOJOVACÍ
  6
Continuous
100
AcDbLine
 10
-655.0771564245633
 20
-6833.151620319288
 30
0.0
 11
-653.1061139132771
 21
-6832.906053907819
 31
0.0
  0
LINE
  5
3291
330
1F
100
AcDbEntity
  8
SPOJOVACÍ
  6
Continuous
100
AcDbLine
 10
-655.4715509619609
 20
-6832.276324897131
 30
0.0
 11
-655.8501325110674
 21
-6832.653976268076
 31
0.0
  0
LINE
  5
3292
330
1F
100
AcDbEntity
  8
SPOJOVACÍ
  6
Continuous
100
AcDbLine
 10
-655.4715509619609
 20
-6832.276324897131
 30
0.0
 11
-655.2538898259126
 21
-6832.653976268076
 31
0.0
  0
LINE
  5
3293
330
1F
100
AcDbEntity
  8
SPOJOVACÍ
  6
Continuous
100
AcDbLine
 10
-658.1467365507242
 20
-6832.720948927337
 30
0.0
 11
-657.9290754146759
 21
-6833.098600298282
 31
0.0
  0
LINE
  5
3294
330
1F
100
AcDbEntity
  8
SPOJOVACÍ
  6
Continuous
100
AcDbLine
 10
-652.6214923238049
 20
-6831.855885438447
 30
0.0
 11
-652.999143696933
 21
-6832.233536809392
 31
0.0
  0
LINE
  5
3295
330
1F
100
AcDbEntity
  8
SPOJOVACÍ
  6
Continuous
100
AcDbLine
 10
-652.6214923238049
 20
-6831.855885438447
 30
0.0
 11
-652.4029010117783
 21
-6832.233536809392
 31
0.0
  0
LINE
  5
3296
330
1F
100
AcDbEntity
  8
SPOJOVACÍ
  6
Continuous
100
AcDbLine
 10
-649.6467901287806
 20
-6832.906053907819
 30
0.0
 11
-652.1657061838095
 21
-6832.906053907819
 31
0.0
  0
LINE
  5
3297
330
1F
100
AcDbEntity
  8
SPOJOVACÍ
  6
Continuous
100
AcDbLine
 10
-673.3677691945858
 20
-6832.720948927337
 30
0.0
 11
-673.5854303306341
 21
-6833.098600298282
 31
0.0
  0
LINE
  5
3298
330
1F
100
AcDbEntity
  8
SPOJOVACÍ
  6
Continuous
100
AcDbLine
 10
-673.3677691945858
 20
-6832.720948927337
 30
0.0
 11
-672.9891876457559
 21
-6833.098600298282
 31
0.0
  0
LINE
  5
3299
330
1F
100
AcDbEntity
  8
SPOJOVACÍ
  6
Continuous
100
AcDbLine
 10
-676.0429547833491
 20
-6832.276324897131
 30
0.0
 11
-676.2606159193974
 21
-6832.653976268076
 31
0.0
  0
LINE
  5
329A
330
1F
100
AcDbEntity
  8
SPOJOVACÍ
  6
Continuous
100
AcDbLine
 10
-676.0429547833491
 20
-6832.276324897131
 30
0.0
 11
-675.6643732342427
 21
-6832.653976268076
 31
0.0
  0
LINE
  5
329B
330
1F
100
AcDbEntity
  8
SPOJOVACÍ
  6
Continuous
100
AcDbLine
 10
-678.8930134215052
 20
-6831.855885438447
 30
0.0
 11
-679.1116047335317
 21
-6832.233536809392
 31
0.0
  0
LINE
  5
329C
330
1F
100
AcDbEntity
  8
SPOJOVACÍ
  6
Continuous
100
AcDbLine
 10
-678.8930134215052
 20
-6831.855885438447
 30
0.0
 11
-678.515362048377
 21
-6832.233536809392
 31
0.0
  0
LINE
  5
329D
330
1F
100
AcDbEntity
  8
SPOJOVACÍ
  6
Continuous
100
AcDbLine
 10
-682.0137532164453
 20
-6831.855885438447
 30
0.0
 11
-682.2314143524936
 21
-6832.233536809392
 31
0.0
  0
LINE
  5
329E
330
1F
100
AcDbEntity
  8
SPOJOVACÍ
  6
Continuous
100
AcDbLine
 10
-682.0137532164453
 20
-6831.855885438447
 30
0.0
 11
-681.6351716676154
 21
-6832.233536809392
 31
0.0
  0
LINE
  5
329F
330
1F
100
AcDbEntity
  8
SPOJOVACÍ
  6
Continuous
100
AcDbLine
 10
-678.7451154699165
 20
-6832.906053907819
 30
0.0
 11
-678.4083918320329
 21
-6832.906053907819
 31
0.0
  0
LINE
  5
32A0
330
1F
100
AcDbEntity
  8
SPOJOVACÍ
  6
Continuous
100
AcDbLine
 10
-681.8677156165295
 20
-6832.906053907819
 30
0.0
 11
-679.3487995615005
 21
-6832.906053907819
 31
0.0
  0
LINE
  5
32A1
330
1F
100
AcDbEntity
  8
SPOJOVACÍ
  6
Continuous
100
AcDbLine
 10
-676.4373493207467
 20
-6833.151620319288
 30
0.0
 11
-678.4083918320329
 21
-6832.906053907819
 31
0.0
  0
LINE
  5
32A2
330
1F
100
AcDbEntity
  8
SPOJOVACÍ
  6
Continuous
100
AcDbLine
 10
-658.1467365507242
 20
-6832.720948927337
 30
0.0
 11
-658.5253180995541
 21
-6833.098600298282
 31
0.0
  0
LINE
  5
32A3
330
1F
100
AcDbEntity
  8
SPOJOVACÍ
  6
Continuous
100
AcDbLine
 10
-685.1335628354145
 20
-6831.855885438447
 30
0.0
 11
-685.351223971732
 21
-6832.233536809392
 31
0.0
  0
LINE
  5
32A4
330
1F
100
AcDbEntity
  8
SPOJOVACÍ
  6
Continuous
100
AcDbLine
 10
-685.1335628354145
 20
-6831.855885438447
 30
0.0
 11
-684.7549812865845
 21
-6832.233536809392
 31
0.0
  0
LINE
  5
32A5
330
1F
100
AcDbEntity
  8
SPOJOVACÍ
  6
Continuous
100
AcDbLine
 10
-688.2533724543764
 20
-6831.855885438447
 30
0.0
 11
-688.4719637664029
 21
-6832.233536809392
 31
0.0
  0
LINE
  5
32A6
330
1F
100
AcDbEntity
  8
SPOJOVACÍ
  6
Continuous
100
AcDbLine
 10
-688.2533724543764
 20
-6831.855885438447
 30
0.0
 11
-687.8757210815247
 21
-6832.233536809392
 31
0.0
  0
LINE
  5
32A7
330
1F
100
AcDbEntity
  8
SPOJOVACÍ
  6
Continuous
100
AcDbLine
 10
-688.1119857335152
 20
-6832.906053907819
 30
0.0
 11
-685.5837679206461
 21
-6832.906053907819
 31
0.0
  0
LINE
  5
32A8
330
1F
100
AcDbEntity
  8
SPOJOVACÍ
  6
Continuous
100
AcDbLine
 10
-691.3731820736147
 20
-6831.855885438447
 30
0.0
 11
-691.5917733856413
 21
-6832.233536809392
 31
0.0
  0
LINE
  5
32A9
330
1F
100
AcDbEntity
  8
SPOJOVACÍ
  6
Continuous
100
AcDbLine
 10
-691.3731820736147
 20
-6831.855885438447
 30
0.0
 11
-690.9955307004866
 21
-6832.233536809392
 31
0.0
  0
LINE
  5
32AA
330
1F
100
AcDbEntity
  8
SPOJOVACÍ
  6
Continuous
100
AcDbLine
 10
-691.2271444736989
 20
-6832.906053907819
 30
0.0
 11
-688.7082284186699
 21
-6832.906053907819
 31
0.0
  0
LINE
  5
32AB
330
1F
100
AcDbEntity
  8
SPOJOVACÍ
  6
Continuous
100
AcDbLine
 10
-684.9893855871714
 20
-6832.906053907819
 30
0.0
 11
-682.4686091804624
 21
-6832.906053907819
 31
0.0
  0
LINE
  5
32AC
330
1F
100
AcDbEntity
  8
SPOJOVACÍ
  6
Continuous
100
AcDbLine
 10
-631.8032278382352
 20
-6832.066105167789
 30
0.0
 11
-630.5958596553364
 21
-6831.108024097805
 31
0.0
  0
LINE
  5
32AD
330
1F
100
AcDbEntity
  8
SPOJOVACÍ
  6
Continuous
100
AcDbLine
 10
-628.1411257302798
 20
-6829.155585102737
 30
0.0
 11
-629.3410525070112
 21
-6829.155585102737
 31
0.0
  0
LINE
  5
32AE
330
1F
100
AcDbEntity
  8
SPOJOVACÍ
  6
Continuous
100
AcDbLine
 10
-629.6777761448947
 20
-6829.870890288905
 30
0.0
 11
-629.3410525070112
 21
-6829.155585102737
 31
0.0
  0
LINE
  5
32AF
330
1F
100
AcDbEntity
  8
SPOJOVACÍ
  6
Continuous
100
AcDbLine
 10
-630.5958596553364
 20
-6831.108024097805
 30
0.0
 11
-629.6777761448947
 21
-6829.870890288905
 31
0.0
  0
LINE
  5
32B0
330
1F
100
AcDbEntity
  8
SPOJOVACÍ
  6
Continuous
100
AcDbLine
 10
-634.7407230013677
 20
-6832.906053907819
 30
0.0
 11
-633.2170950479385
 21
-6832.679091016936
 31
0.0
  0
LINE
  5
32B1
330
1F
100
AcDbEntity
  8
SPOJOVACÍ
  6
Continuous
100
AcDbLine
 10
-640.2873612716112
 20
-6832.906053907819
 30
0.0
 11
-642.8062773266401
 21
-6832.906053907819
 31
0.0
  0
LINE
  5
32B2
330
1F
100
AcDbEntity
  8
SPOJOVACÍ
  6
Continuous
100
AcDbLine
 10
-640.1413236716953
 20
-6831.855885438447
 30
0.0
 11
-640.5189750448235
 21
-6832.233536809392
 31
0.0
  0
LINE
  5
32B3
330
1F
100
AcDbEntity
  8
SPOJOVACÍ
  6
Continuous
100
AcDbLine
 10
-640.1413236716953
 20
-6831.855885438447
 30
0.0
 11
-639.9227323596687
 21
-6832.233536809392
 31
0.0
  0
LINE
  5
32B4
330
1F
100
AcDbEntity
  8
SPOJOVACÍ
  6
Continuous
100
AcDbLine
 10
-643.2611332909337
 20
-6831.855885438447
 30
0.0
 11
-643.6387846637853
 21
-6832.233536809392
 31
0.0
  0
LINE
  5
32B5
330
1F
100
AcDbEntity
  8
SPOJOVACÍ
  6
Continuous
100
AcDbLine
 10
-643.2611332909337
 20
-6831.855885438447
 30
0.0
 11
-643.0425419789071
 21
-6832.233536809392
 31
0.0
  0
LINE
  5
32B6
330
1F
100
AcDbEntity
  8
SPOJOVACÍ
  6
Continuous
100
AcDbLine
 10
-634.7407230013677
 20
-6832.906053907819
 30
0.0
 11
-639.6836771802964
 21
-6832.906053907819
 31
0.0
  0
LINE
  5
32B7
330
1F
100
AcDbEntity
  8
SPOJOVACÍ
  6
Continuous
100
AcDbLine
 10
-646.3809429098955
 20
-6831.855885438447
 30
0.0
 11
-646.7595244587255
 21
-6832.233536809392
 31
0.0
  0
LINE
  5
32B8
330
1F
100
AcDbEntity
  8
SPOJOVACÍ
  6
Continuous
100
AcDbLine
 10
-646.3809429098955
 20
-6831.855885438447
 30
0.0
 11
-646.1632817735781
 21
-6832.233536809392
 31
0.0
  0
LINE
  5
32B9
330
1F
100
AcDbEntity
  8
SPOJOVACÍ
  6
Continuous
100
AcDbLine
 10
-643.4025200117948
 20
-6832.906053907819
 30
0.0
 11
-645.930737824664
 21
-6832.906053907819
 31
0.0
  0
LINE
  5
32BA
330
1F
100
AcDbEntity
  8
SPOJOVACÍ
  6
Continuous
100
AcDbLine
 10
-633.2170950479385
 20
-6832.679091016936
 30
0.0
 11
-631.8032278382352
 21
-6832.066105167789
 31
0.0
  0
LINE
  5
32BB
330
1F
100
AcDbEntity
  8
SPOJOVACÍ
  6
DASHED
100
AcDbLine
 10
-455.1201294552011
 20
-7002.193833913759
 30
0.0
 11
-455.1201294552011
 21
-7004.662371647689
 31
0.0
  0
LINE
  5
32BC
330
1F
100
AcDbEntity
  8
SPOJOVACÍ
  6
DASHED
100
AcDbLine
 10
-452.4747466957196
 20
-7003.088997892518
 30
0.0
 11
-452.4747466957196
 21
-7005.557535626447
 31
0.0
  0
HATCH
  5
32BD
330
1F
100
AcDbEntity
  8
izolace
100
AcDbHatch
 10
0.0
 20
0.0
 30
0.0
210
0.0
220
0.0
230
1.0
  2
SOLID
 70
     1
 71
     0
 91
        1
 92
        7
 72
     0
 73
     1
 93
        4
 10
-414.0767775315614
 20
-7125.185687062014
 10
-437.7185102413966
 20
-7125.185687062014
 10
-437.7185102414002
 20
-7128.185687062014
 10
-414.0767775315614
 20
-7128.185687062014
 97
        0
 75
     0
 76
     1
 47
0.1901250437635136
 98
        1
 10
-428.3607154830567
 20
-7126.002498613094
  0
LWPOLYLINE
  5
32BE
330
1F
100
AcDbEntity
  8
izolace
100
AcDbPolyline
 90
        4
 70
     1
 43
0.0
 10
-414.0767775315651
 20
-7125.185687062014
 10
-437.7185102414002
 20
-7125.185687062014
 10
-437.7185102414002
 20
-7128.185687062014
 10
-414.0767775315651
 20
-7128.185687062014
  0
INSERT
  5
32BF
330
1F
100
AcDbEntity
  8
POPIS
100
AcDbBlockReference
  2
E_PUNKT
 10
-401.6143042339344
 20
-7047.549267939361
 30
0.0
 50
270.0
  0
HATCH
  5
32C0
330
1F
100
AcDbEntity
  8
izolace
100
AcDbHatch
 10
0.0
 20
0.0
 30
0.0
210
0.0
220
0.0
230
1.0
  2
SOLID
 70
     1
 71
     0
 91
        1
 92
        7
 72
     0
 73
     1
 93
        4
 10
-366.793312111891
 20
-7125.185687062014
 10
-390.4350448217262
 20
-7125.185687062014
 10
-390.4350448217298
 20
-7128.185687062014
 10
-366.793312111891
 20
-7128.185687062014
 97
        0
 75
     0
 76
     1
 47
0.1901250437635136
 98
        1
 10
-381.0772500633863
 20
-7126.002498613094
  0
LINE
  5
32C1
330
1F
100
AcDbEntity
  8
SPOJOVACÍ
  6
DASHED
100
AcDbLine
 10
-451.4455815957335
 20
-7006.003294471454
 30
0.0
 11
-451.81567993926
 21
-7006.373392816851
 31
0.0
  0
LINE
  5
32C2
330
1F
100
AcDbEntity
  8
SPOJOVACÍ
  6
DASHED
100
AcDbLine
 10
-451.4455815957335
 20
-7006.003294471454
 30
0.0
 11
-451.81567993926
 21
-7005.78907498567
 31
0.0
  0
LINE
  5
32C3
330
1F
100
AcDbEntity
  8
SPOJOVACÍ
  6
DASHED
100
AcDbLine
 10
-456.1492945594655
 20
-7004.827366230251
 30
0.0
 11
-455.7791962116607
 21
-7005.041585716037
 31
0.0
  0
LINE
  5
32C4
330
1F
100
AcDbEntity
  8
SPOJOVACÍ
  6
DASHED
100
AcDbLine
 10
-456.1492945594655
 20
-7004.827366230251
 30
0.0
 11
-455.7791962116607
 21
-7004.457267884586
 31
0.0
  0
LINE
  5
32C5
330
1F
100
AcDbEntity
  8
SPOJOVACÍ
  6
DASHED
100
AcDbLine
 10
-456.1492945594655
 20
-7004.827366230251
 30
0.0
 11
-451.4455815957335
 21
-7006.003294471454
 31
0.0
  0
LINE
  5
32C6
330
1F
100
AcDbEntity
  8
SPOJOVACÍ
  6
DASHED
100
AcDbLine
 10
-455.7791962116607
 20
-7005.041585716037
 30
0.0
 11
-451.81567993926
 21
-7006.373392816851
 31
0.0
  0
LINE
  5
32C7
330
1F
100
AcDbEntity
  8
SPOJOVACÍ
  6
DASHED
100
AcDbLine
 10
-455.7791962116607
 20
-7004.457267884586
 30
0.0
 11
-451.81567993926
 21
-7005.78907498567
 31
0.0
  0
LINE
  5
32C8
330
1F
100
AcDbEntity
  8
SPOJOVACÍ
  6
DASHED
100
AcDbLine
 10
-455.1201294552011
 20
-7008.306837622557
 30
0.0
 11
-455.1201294552011
 21
-7010.784491079168
 31
0.0
  0
LINE
  5
32C9
330
1F
100
AcDbEntity
  8
SPOJOVACÍ
  6
DASHED
100
AcDbLine
 10
-452.4747466957196
 20
-7009.202001601316
 30
0.0
 11
-452.4747466957196
 21
-7011.672362479891
 31
0.0
  0
LINE
  5
32CA
330
1F
100
AcDbEntity
  8
SPOJOVACÍ
  6
DASHED
100
AcDbLine
 10
-455.1201294552011
 20
-7011.377013061109
 30
0.0
 11
-455.1201294552011
 21
-7013.844639222849
 31
0.0
  0
LINE
  5
32CB
330
1F
100
AcDbEntity
  8
SPOJOVACÍ
  6
DASHED
100
AcDbLine
 10
-455.1201294552011
 20
-7014.428957054301
 30
0.0
 11
-455.1201294552011
 21
-7015.651375481351
 31
0.0
  0
LINE
  5
32CC
330
1F
100
AcDbEntity
  8
SPOJOVACÍ
  6
DASHED
100
AcDbLine
 10
-452.4747466957196
 20
-7012.261238172545
 30
0.0
 11
-452.4747466957196
 21
-7014.729775906473
 31
0.0
  0
LINE
  5
32CD
330
1F
100
AcDbEntity
  8
SPOJOVACÍ
  6
DASHED
100
AcDbLine
 10
-452.4747466957196
 20
-7015.321386316225
 30
0.0
 11
-452.4747466957196
 21
-7015.651375481351
 31
0.0
  0
LINE
  5
32CE
330
1F
100
AcDbEntity
  8
SPOJOVACÍ
  6
DASHED
100
AcDbLine
 10
-455.1201294552011
 20
-7015.651375481351
 30
0.0
 11
-454.9733663185325
 21
-7016.824569005722
 31
0.0
  0
LINE
  5
32CF
330
1F
100
AcDbEntity
  8
SPOJOVACÍ
  6
DASHED
100
AcDbLine
 10
-452.715401778958
 20
-7017.582997142412
 30
0.0
 11
-452.4747466957196
 21
-7015.651375481351
 31
0.0
  0
LINE
  5
32D0
330
1F
100
AcDbEntity
  8
SPOJOVACÍ
  6
DASHED
100
AcDbLine
 10
-455.5294254076143
 20
-7016.645900838738
 30
0.0
 11
-452.2277106087712
 21
-7017.756195875733
 31
0.0
  0
LINE
  5
32D1
330
1F
100
AcDbEntity
  8
SPOJOVACÍ
  6
DASHED
100
AcDbLine
 10
-451.4455815957335
 20
-7009.060707898036
 30
0.0
 11
-451.81567993926
 21
-7009.43171781589
 31
0.0
  0
LINE
  5
32D2
330
1F
100
AcDbEntity
  8
SPOJOVACÍ
  6
DASHED
100
AcDbLine
 10
-451.4455815957335
 20
-7009.060707898036
 30
0.0
 11
-451.81567993926
 21
-7008.847399984446
 31
0.0
  0
LINE
  5
32D3
330
1F
100
AcDbEntity
  8
SPOJOVACÍ
  6
DASHED
100
AcDbLine
 10
-451.4455815957335
 20
-7012.118121324627
 30
0.0
 11
-451.81567993926
 21
-7012.489131242481
 31
0.0
  0
LINE
  5
32D4
330
1F
100
AcDbEntity
  8
SPOJOVACÍ
  6
DASHED
100
AcDbLine
 10
-451.4455815957335
 20
-7012.118121324627
 30
0.0
 11
-451.81567993926
 21
-7011.9048134113
 31
0.0
  0
LINE
  5
32D5
330
1F
100
AcDbEntity
  8
SPOJOVACÍ
  6
DASHED
100
AcDbLine
 10
-451.4455815957335
 20
-7015.176446323668
 30
0.0
 11
-451.81567993926
 21
-7015.546544669334
 31
0.0
  0
LINE
  5
32D6
330
1F
100
AcDbEntity
  8
SPOJOVACÍ
  6
DASHED
100
AcDbLine
 10
-451.4455815957335
 20
-7015.176446323668
 30
0.0
 11
-451.81567993926
 21
-7014.962226837882
 31
0.0
  0
LINE
  5
32D7
330
1F
100
AcDbEntity
  8
SPOJOVACÍ
  6
DASHED
100
AcDbLine
 10
-456.1492945594655
 20
-7007.884779657103
 30
0.0
 11
-455.7791962116607
 21
-7008.098999142891
 31
0.0
  0
LINE
  5
32D8
330
1F
100
AcDbEntity
  8
SPOJOVACÍ
  6
DASHED
100
AcDbLine
 10
-456.1492945594655
 20
-7007.884779657103
 30
0.0
 11
-455.7791962116607
 21
-7007.514681311438
 31
0.0
  0
LINE
  5
32D9
330
1F
100
AcDbEntity
  8
SPOJOVACÍ
  6
DASHED
100
AcDbLine
 10
-456.1492945594655
 20
-7010.942193083694
 30
0.0
 11
-455.7791962116607
 21
-7011.156412569473
 31
0.0
  0
LINE
  5
32DA
330
1F
100
AcDbEntity
  8
SPOJOVACÍ
  6
DASHED
100
AcDbLine
 10
-456.1492945594655
 20
-7010.942193083694
 30
0.0
 11
-455.7791962116607
 21
-7010.572094738029
 31
0.0
  0
LINE
  5
32DB
330
1F
100
AcDbEntity
  8
SPOJOVACÍ
  6
DASHED
100
AcDbLine
 10
-456.1492945594655
 20
-7014.000518082736
 30
0.0
 11
-455.7791962116607
 21
-7014.213825996063
 31
0.0
  0
LINE
  5
32DC
330
1F
100
AcDbEntity
  8
SPOJOVACÍ
  6
DASHED
100
AcDbLine
 10
-456.1492945594655
 20
-7014.000518082736
 30
0.0
 11
-455.7791962116607
 21
-7013.629508164611
 31
0.0
  0
LINE
  5
32DD
330
1F
100
AcDbEntity
  8
SPOJOVACÍ
  6
DASHED
100
AcDbLine
 10
-455.9004353249329
 20
-7017.015999184403
 30
0.0
 11
-455.5294254076143
 21
-7017.23021867019
 31
0.0
  0
LINE
  5
32DE
330
1F
100
AcDbEntity
  8
SPOJOVACÍ
  6
DASHED
100
AcDbLine
 10
-455.9004353249329
 20
-7017.015999184403
 30
0.0
 11
-455.5294254076143
 21
-7016.645900838738
 31
0.0
  0
LINE
  5
32DF
330
1F
100
AcDbEntity
  8
SPOJOVACÍ
  6
DASHED
100
AcDbLine
 10
-456.1492945594655
 20
-7007.884779657103
 30
0.0
 11
-451.4455815957335
 21
-7009.060707898036
 31
0.0
  0
LINE
  5
32E0
330
1F
100
AcDbEntity
  8
SPOJOVACÍ
  6
DASHED
100
AcDbLine
 10
-455.7791962116607
 20
-7008.098999142891
 30
0.0
 11
-451.81567993926
 21
-7009.43171781589
 31
0.0
  0
LINE
  5
32E1
330
1F
100
AcDbEntity
  8
SPOJOVACÍ
  6
DASHED
100
AcDbLine
 10
-455.7791962116607
 20
-7007.514681311438
 30
0.0
 11
-451.81567993926
 21
-7008.847399984446
 31
0.0
  0
LINE
  5
32E2
330
1F
100
AcDbEntity
  8
SPOJOVACÍ
  6
DASHED
100
AcDbLine
 10
-456.1492945594655
 20
-7010.942193083694
 30
0.0
 11
-451.4455815957335
 21
-7012.118121324627
 31
0.0
  0
LINE
  5
32E3
330
1F
100
AcDbEntity
  8
SPOJOVACÍ
  6
DASHED
100
AcDbLine
 10
-455.7791962116607
 20
-7011.156412569473
 30
0.0
 11
-451.81567993926
 21
-7012.489131242481
 31
0.0
  0
LINE
  5
32E4
330
1F
100
AcDbEntity
  8
SPOJOVACÍ
  6
DASHED
100
AcDbLine
 10
-455.7791962116607
 20
-7010.572094738029
 30
0.0
 11
-451.81567993926
 21
-7011.9048134113
 31
0.0
  0
LINE
  5
32E5
330
1F
100
AcDbEntity
  8
SPOJOVACÍ
  6
DASHED
100
AcDbLine
 10
-456.1492945594655
 20
-7014.000518082736
 30
0.0
 11
-451.4455815957335
 21
-7015.176446323668
 31
0.0
  0
LINE
  5
32E6
330
1F
100
AcDbEntity
  8
SPOJOVACÍ
  6
DASHED
100
AcDbLine
 10
-455.7791962116607
 20
-7014.213825996063
 30
0.0
 11
-451.81567993926
 21
-7015.546544669334
 31
0.0
  0
LINE
  5
32E7
330
1F
100
AcDbEntity
  8
SPOJOVACÍ
  6
DASHED
100
AcDbLine
 10
-455.7791962116607
 20
-7013.629508164611
 30
0.0
 11
-451.81567993926
 21
-7014.962226837882
 31
0.0
  0
LINE
  5
32E8
330
1F
100
AcDbEntity
  8
SPOJOVACÍ
  6
DASHED
100
AcDbLine
 10
-455.1201294552011
 20
-7005.253982057176
 30
0.0
 11
-455.1201294552011
 21
-7007.724342935751
 31
0.0
  0
LINE
  5
32E9
330
1F
100
AcDbEntity
  8
SPOJOVACÍ
  6
DASHED
100
AcDbLine
 10
-452.4747466957196
 20
-7006.141853457899
 30
0.0
 11
-452.4747466957196
 21
-7008.61950691451
 31
0.0
  0
LINE
  5
32EA
330
1F
100
AcDbEntity
  8
SPOJOVACÍ
  6
DASHED
100
AcDbLine
 10
-453.7974380775994
 20
-7026.235641223006
 30
0.0
 11
-453.4501290360931
 21
-7023.456257341762
 31
0.0
  0
LINE
  5
32EB
330
1F
100
AcDbEntity
  8
SPOJOVACÍ
  6
DASHED
100
AcDbLine
 10
-454.5358116213464
 20
-7020.325918132673
 30
0.0
 11
-454.2514010730956
 21
-7022.60029097082
 31
0.0
  0
LINE
  5
32EC
330
1F
100
AcDbEntity
  8
SPOJOVACÍ
  6
DASHED
100
AcDbLine
 10
-454.1757405724202
 20
-7023.208309681557
 30
0.0
 11
-453.7974380775994
 21
-7026.235641223006
 31
0.0
  0
LINE
  5
32ED
330
1F
100
AcDbEntity
  8
SPOJOVACÍ
  6
DASHED
100
AcDbLine
 10
-453.3799379696138
 20
-7022.898375106437
 30
0.0
 11
-453.1174051538691
 21
-7020.796289429153
 31
0.0
  0
LINE
  5
32EE
330
1F
100
AcDbEntity
  8
SPOJOVACÍ
  6
DASHED
100
AcDbLine
 10
-453.0472140916681
 20
-7020.235672476992
 30
0.0
 11
-452.7855928454373
 21
-7018.141790950195
 31
0.0
  0
LINE
  5
32EF
330
1F
100
AcDbEntity
  8
SPOJOVACÍ
  6
DASHED
100
AcDbLine
 10
-451.8576122652448
 20
-7017.969503789061
 30
0.0
 11
-452.2277106087712
 21
-7018.340513707186
 31
0.0
  0
LINE
  5
32F0
330
1F
100
AcDbEntity
  8
SPOJOVACÍ
  6
DASHED
100
AcDbLine
 10
-455.3471109529491
 20
-7019.970404943615
 30
0.0
 11
-454.9770126051444
 21
-7020.183712856942
 31
0.0
  0
LINE
  5
32F1
330
1F
100
AcDbEntity
  8
SPOJOVACÍ
  6
DASHED
100
AcDbLine
 10
-455.3471109529491
 20
-7019.970404943615
 30
0.0
 11
-454.9770126051444
 21
-7019.59939502549
 31
0.0
  0
LINE
  5
32F2
330
1F
100
AcDbEntity
  8
SPOJOVACÍ
  6
DASHED
100
AcDbLine
 10
-452.2933438148466
 20
-7020.591185666049
 30
0.0
 11
-452.6634421583731
 21
-7020.962195583902
 31
0.0
  0
LINE
  5
32F3
330
1F
100
AcDbEntity
  8
SPOJOVACÍ
  6
DASHED
100
AcDbLine
 10
-452.2933438148466
 20
-7020.591185666049
 30
0.0
 11
-452.6634421583731
 21
-7020.377877752721
 31
0.0
  0
LINE
  5
32F4
330
1F
100
AcDbEntity
  8
SPOJOVACÍ
  6
DASHED
100
AcDbLine
 10
-454.9770126051444
 20
-7020.183712856942
 30
0.0
 11
-452.6634421583731
 21
-7020.962195583902
 31
0.0
  0
LINE
  5
32F5
330
1F
100
AcDbEntity
  8
SPOJOVACÍ
  6
DASHED
100
AcDbLine
 10
-454.9770126051444
 20
-7019.59939502549
 30
0.0
 11
-452.6634421583731
 21
-7020.377877752721
 31
0.0
  0
LINE
  5
32F6
330
1F
100
AcDbEntity
  8
SPOJOVACÍ
  6
DASHED
100
AcDbLine
 10
-455.3471109529491
 20
-7019.970404943615
 30
0.0
 11
-452.2933438148466
 21
-7020.591185666049
 31
0.0
  0
LINE
  5
32F7
330
1F
100
AcDbEntity
  8
SPOJOVACÍ
  6
DASHED
100
AcDbLine
 10
-454.7937865766871
 20
-7022.923899130368
 30
0.0
 11
-454.4236882331606
 21
-7023.138118616147
 31
0.0
  0
LINE
  5
32F8
330
1F
100
AcDbEntity
  8
SPOJOVACÍ
  6
DASHED
100
AcDbLine
 10
-454.7937865766871
 20
-7022.923899130368
 30
0.0
 11
-454.4236882331606
 21
-7022.553800784702
 31
0.0
  0
LINE
  5
32F9
330
1F
100
AcDbEntity
  8
SPOJOVACÍ
  6
DASHED
100
AcDbLine
 10
-452.6825851780595
 20
-7023.228364271827
 30
0.0
 11
-453.052683521586
 21
-7023.59937418968
 31
0.0
  0
LINE
  5
32FA
330
1F
100
AcDbEntity
  8
SPOJOVACÍ
  6
DASHED
100
AcDbLine
 10
-452.6825851780595
 20
-7023.228364271827
 30
0.0
 11
-453.052683521586
 21
-7023.015056358236
 31
0.0
  0
LINE
  5
32FB
330
1F
100
AcDbEntity
  8
SPOJOVACÍ
  6
DASHED
100
AcDbLine
 10
-454.4236882331606
 20
-7023.138118616147
 30
0.0
 11
-453.052683521586
 21
-7023.59937418968
 31
0.0
  0
LINE
  5
32FC
330
1F
100
AcDbEntity
  8
SPOJOVACÍ
  6
DASHED
100
AcDbLine
 10
-454.4236882331606
 20
-7022.553800784702
 30
0.0
 11
-453.052683521586
 21
-7023.015056358236
 31
0.0
  0
LINE
  5
32FD
330
1F
100
AcDbEntity
  8
SPOJOVACÍ
  6
DASHED
100
AcDbLine
 10
-454.7937865766871
 20
-7022.923899130368
 30
0.0
 11
-452.6825851780595
 21
-7023.228364271827
 31
0.0
  0
INSERT
  5
32FE
330
1F
100
AcDbEntity
  8
POPIS
100
AcDbBlockReference
  2
E_PUNKT
 10
-453.4660282365839
 20
-7024.818338906758
 30
0.0
 50
270.0
  0
LINE
  5
32FF
330
1F
100
AcDbEntity
  8
SPOJOVACÍ
  6
DASHED
100
AcDbLine
 10
-454.8977058178571
 20
-7017.432587716458
 30
0.0
 11
-454.6132952653278
 21
-7019.707872126801
 31
0.0
  0
LINE
  5
3300
330
1F
100
AcDbEntity
  8
SPOJOVACÍ
  6
DASHED
100
AcDbLine
 10
-451.8576122652448
 20
-7017.969503789061
 30
0.0
 11
-452.2277106087712
 21
-7017.756195875733
 31
0.0
  0
LINE
  5
3301
330
1F
100
AcDbEntity
  8
SPOJOVACÍ
  6
DASHED
100
AcDbLine
 10
-455.5294254076143
 20
-7017.23021867019
 30
0.0
 11
-452.2277106087712
 21
-7018.340513707186
 31
0.0
  0
LINE
  5
3302
330
1F
100
AcDbEntity
  8
SPOJOVACÍ
  6
DASHED
100
AcDbLine
 10
-455.9004353249329
 20
-7017.015999184403
 30
0.0
 11
-451.8576122652448
 21
-7017.969503789061
 31
0.0
  0
HATCH
  5
3303
330
1F
100
AcDbEntity
  8
izolace
100
AcDbHatch
 10
0.0
 20
0.0
 30
0.0
210
0.0
220
0.0
230
1.0
  2
SOLID
 70
     1
 71
     0
 91
        1
 92
        7
 72
     0
 73
     1
 93
        4
 10
-319.5098466922206
 20
-7125.185687062014
 10
-343.1515794020558
 20
-7125.185687062014
 10
-343.1515794020595
 20
-7128.185687062014
 10
-319.5098466922206
 20
-7128.185687062014
 97
        0
 75
     0
 76
     1
 47
0.1901250437635136
 98
        1
 10
-333.793784643716
 20
-7126.002498613094
  0
INSERT
  5
3304
330
1F
100
AcDbEntity
  8
POPIS
100
AcDbBlockReference
  2
E_PUNKT
 10
-351.409073330361
 20
-7126.528800952872
 30
0.0
 50
270.0
  0
HATCH
  5
3305
330
1F
100
AcDbEntity
  8
nášlap_vrstvy
100
AcDbHatch
 10
0.0
 20
0.0
 30
0.0
210
0.0
220
0.0
230
1.0
  2
AR-SAND
 70
     0
 71
     0
 91
        2
 92
        7
 72
     0
 73
     1
 93
        4
 10
-297.2551970844826
 20
-6989.137214370555
 10
-417.5803871618807
 20
-6989.137214370557
 10
-417.5803871618807
 20
-6991.185687062014
 10
-297.2551970844836
 20
-6991.185687062014
 97
        0
 92
        7
 72
     0
 73
     1
 93
        4
 10
-317.5803871618807
 20
-6984.137214370555
 10
-321.7037689922797
 20
-6984.137214370555
 10
-321.7037689922761
 20
-6989.137214370555
 10
-317.5803871618766
 20
-6989.137214370555
 97
        0
 75
     0
 76
     1
 52
90.0
 41
0.05
 77
     0
 78
     4
 53
127.5
 43
-2558.467792771493
 44
-9030.603086962463
 45
-2.447066186646711
 46
-0.0800015647992021
 79
     6
 49
0.0
 49
-1.9304
 49
0.0
 49
-2.159
 49
0.0
 49
-2.06375
 53
97.49999999999985
 43
-2558.467792771493
 44
-9030.603086962463
 45
-3.584125502841771
 46
2.247616415690013
 79
     6
 49
0.0
 49
-1.041399999999999
 49
0.0
 49
-1.7399
 49
0.0
 49
-0.66675
 53
57.5
 43
-2558.467792771493
 44
-9032.165186962462
 45
-0.0071859233927282
 46
3.95496185120729
 79
     6
 49
0.0
 49
-0.635
 49
0.0
 49
-2.286
 49
0.0
 49
-2.9845
 53
47.5
 43
-2558.467792771493
 44
-9032.165186962462
 45
-1.11464661628608
 46
3.817782262361486
 79
     6
 49
0.0
 49
-0.3175
 49
0.0
 49
-1.498599999999999
 49
0.0
 49
-1.7145
 47
0.247503409296348
 98
        2
 10
-376.5796598507965
 20
-6989.84212679461
 10
-319.1275407312657
 20
-6986.37709093652
  0
LINE
  5
3306
330
1F
100
AcDbEntity
  8
nášlap_vrstvy
100
AcDbLine
 10
-421.5583513232704
 20
-6984.137214370555
 30
0.0
 11
-297.2551970844833
 21
-6984.137214370555
 31
0.0
  0
LINE
  5
3307
330
1F
100
AcDbEntity
  8
nášlap_vrstvy
100
AcDbLine
 10
-417.5803871618809
 20
-6984.137214370555
 30
0.0
 11
-417.5803871618772
 21
-6989.137214370555
 31
0.0
  0
LINE
  5
3308
330
1F
100
AcDbEntity
  8
SPOJOVACÍ
  6
DASHED
100
AcDbLine
 10
-448.7992872667383
 20
-6991.185687062014
 30
0.0
 11
-448.7992872667383
 21
-6992.361615303211
 31
0.0
  0
LINE
  5
3309
330
1F
100
AcDbEntity
  8
SPOJOVACÍ
  6
DASHED
100
AcDbLine
 10
-451.6515969304891
 20
-6994.774547127811
 30
0.0
 11
-450.7126774819044
 21
-6993.591326308569
 31
0.0
  0
LINE
  5
330A
330
1F
100
AcDbEntity
  8
SPOJOVACÍ
  6
DASHED
100
AcDbLine
 10
-450.7126774819044
 20
-6993.591326308569
 30
0.0
 11
-449.5002863491826
 21
-6992.691604468337
 31
0.0
  0
LINE
  5
330B
330
1F
100
AcDbEntity
  8
SPOJOVACÍ
  6
DASHED
100
AcDbLine
 10
-456.3844802042295
 20
-6994.13826967658
 30
0.0
 11
-455.6041743344976
 21
-6995.430879169311
 31
0.0
  0
LINE
  5
330C
330
1F
100
AcDbEntity
  8
SPOJOVACÍ
  6
DASHED
100
AcDbLine
 10
-449.5002863491826
 20
-6992.691604468337
 30
0.0
 11
-448.7992872667383
 21
-6992.361615303211
 31
0.0
  0
LINE
  5
330D
330
1F
100
AcDbEntity
  8
SPOJOVACÍ
  6
DASHED
100
AcDbLine
 10
-452.4747466957196
 20
-6997.65329238768
 30
0.0
 11
-452.2523230626538
 21
-6996.160136993319
 31
0.0
  0
LINE
  5
330E
330
1F
100
AcDbEntity
  8
SPOJOVACÍ
  6
DASHED
100
AcDbLine
 10
-455.1848510874842
 20
-6996.88210223902
 30
0.0
 11
-455.1201294552011
 21
-6997.65329238768
 31
0.0
  0
LINE
  5
330F
330
1F
100
AcDbEntity
  8
SPOJOVACÍ
  6
DASHED
100
AcDbLine
 10
-452.4747466957196
 20
-6997.65329238768
 30
0.0
 11
-452.4747466957196
 21
-7002.497387483031
 31
0.0
  0
LINE
  5
3310
330
1F
100
AcDbEntity
  8
SPOJOVACÍ
  6
DASHED
100
AcDbLine
 10
-455.1201294552011
 20
-6997.65329238768
 30
0.0
 11
-455.1201294552011
 21
-7001.610427654767
 31
0.0
  0
LINE
  5
3311
330
1F
100
AcDbEntity
  8
SPOJOVACÍ
  6
DASHED
100
AcDbLine
 10
-451.4455815957335
 20
-7002.945881044602
 30
0.0
 11
-451.81567993926
 21
-7003.315979390267
 31
0.0
  0
LINE
  5
3312
330
1F
100
AcDbEntity
  8
SPOJOVACÍ
  6
DASHED
100
AcDbLine
 10
-451.4455815957335
 20
-7002.945881044602
 30
0.0
 11
-451.81567993926
 21
-7002.731661558815
 31
0.0
  0
LINE
  5
3313
330
1F
100
AcDbEntity
  8
SPOJOVACÍ
  6
DASHED
100
AcDbLine
 10
-456.1492945594655
 20
-7001.769952803669
 30
0.0
 11
-455.7791962116607
 21
-7001.983260716996
 31
0.0
  0
LINE
  5
3314
330
1F
100
AcDbEntity
  8
SPOJOVACÍ
  6
DASHED
100
AcDbLine
 10
-456.1492945594655
 20
-7001.769952803669
 30
0.0
 11
-455.7791962116607
 21
-7001.398942885815
 31
0.0
  0
LINE
  5
3315
330
1F
100
AcDbEntity
  8
SPOJOVACÍ
  6
DASHED
100
AcDbLine
 10
-456.1492945594655
 20
-7001.769952803669
 30
0.0
 11
-451.4455815957335
 21
-7002.945881044602
 31
0.0
  0
LINE
  5
3316
330
1F
100
AcDbEntity
  8
SPOJOVACÍ
  6
DASHED
100
AcDbLine
 10
-455.7791962116607
 20
-7001.983260716996
 30
0.0
 11
-451.81567993926
 21
-7003.315979390267
 31
0.0
  0
LINE
  5
3317
330
1F
100
AcDbEntity
  8
SPOJOVACÍ
  6
DASHED
100
AcDbLine
 10
-455.7791962116607
 20
-7001.398942885815
 30
0.0
 11
-451.81567993926
 21
-7002.731661558815
 31
0.0
  0
LINE
  5
3318
330
1F
100
AcDbEntity
  8
SPOJOVACÍ
  6
DASHED
100
AcDbLine
 10
-452.2523230626538
 20
-6996.160136993319
 30
0.0
 11
-451.6515969304891
 21
-6994.774547127811
 31
0.0
  0
LINE
  5
3319
330
1F
100
AcDbEntity
  8
SPOJOVACÍ
  6
DASHED
100
AcDbLine
 10
-455.6041743344976
 20
-6995.430879169311
 30
0.0
 11
-455.1848510874842
 21
-6996.88210223902
 31
0.0
  0
LINE
  5
331A
330
1F
100
AcDbEntity
  8
nášlap_vrstvy
100
AcDbLine
 10
-317.5803871618809
 20
-6984.137214370555
 30
0.0
 11
-317.5803871618772
 21
-6989.137214370555
 31
0.0
  0
LINE
  5
331B
330
1F
100
AcDbEntity
  8
nášlap_vrstvy
100
AcDbLine
 10
-321.7037689922799
 20
-6984.137214370555
 30
0.0
 11
-321.7037689922763
 21
-6989.137214370555
 31
0.0
  0
LINE
  5
331D
330
1F
100
AcDbEntity
  8
izolace
  6
IZOLACE
 48
2.7
370
    20
100
AcDbLine
 10
-815.9862335987636
 20
-7096.385244620288
 30
0.0
 11
-703.3733800150294
 21
-7096.385244620288
 31
0.0
  0
LINE
  5
331F
330
1F
100
AcDbEntity
  8
izolace
  6
IZOLACE
 48
2.7
370
    20
100
AcDbLine
 10
-628.1411257302789
 20
-7096.385244620288
 30
0.0
 11
-297.2551970844833
 21
-7096.385244620288
 31
0.0
  0
LINE
  5
4E91
330
1F
100
AcDbEntity
  8
CETRIS
100
AcDbLine
 10
-628.1414723582802
 20
-7015.630965613836
 30
0.0
 11
-628.1411257302789
 21
-7015.630965854137
 31
0.0
  0
LINE
  5
4E92
330
1F
100
AcDbEntity
  8
CETRIS
100
AcDbLine
 10
-628.1418189862815
 20
-7016.130965493686
 30
0.0
 11
-628.1411257302789
 21
-7016.13096597429
 31
0.0
  0
LINE
  5
4E93
330
1F
100
AcDbEntity
  8
CETRIS
100
AcDbLine
 10
-628.1421656142829
 20
-7016.630965373534
 30
0.0
 11
-628.1411257302789
 21
-7016.630966094441
 31
0.0
  0
LINE
  5
4E94
330
1F
100
AcDbEntity
  8
CETRIS
100
AcDbLine
 10
-533.1201762391901
 20
-7015.685687182166
 30
0.0
 11
-297.2558903404861
 21
-7015.849201553489
 31
0.0
  0
LINE
  5
4E95
330
1F
100
AcDbEntity
  8
CETRIS
100
AcDbLine
 10
-548.1411257302788
 20
-7015.175273696112
 30
0.0
 11
-297.2555437124847
 21
-7015.34920167364
 31
0.0
  0
LINE
  5
4E96
330
1F
100
AcDbEntity
  8
CETRIS
100
AcDbLine
 10
-533.1201762391901
 20
-7016.185687302317
 30
0.0
 11
-297.2562369684874
 21
-7016.349201433339
 31
0.0
  0
LINE
  5
4E97
330
1F
100
AcDbEntity
  8
CETRIS
100
AcDbLine
 10
-815.9862335987636
 20
-7015.685687062014
 30
0.0
 11
-783.3289283721897
 21
-7015.685687062014
 31
0.0
  0
LINE
  5
4E98
330
1F
100
AcDbEntity
  8
CETRIS
100
AcDbLine
 10
-815.9862335987636
 20
-7016.185687062014
 30
0.0
 11
-783.3289283721897
 21
-7016.185687062016
 31
0.0
  0
LINE
  5
4E99
330
1F
100
AcDbEntity
  8
CETRIS
100
AcDbLine
 10
-815.9862335987636
 20
-7016.685687062014
 30
0.0
 11
-783.3289283721897
 21
-7016.685687062015
 31
0.0
  0
TEXT
  5
4E9A
330
1F
100
AcDbEntity
  8
POPIS
100
AcDbText
 10
-380.8713976226235
 20
-6903.409360085984
 30
0.0
 40
25.0
  1
08
 41
0.85
  7
SIMPLEX7
100
AcDbText
  0
LINE
  5
4E9B
330
1F
100
AcDbEntity
  8
POPIS
370
    20
100
AcDbLine
 10
-363.5372905490403
 20
-6912.647015573181
 30
0.0
 11
-363.5372905490403
 21
-7018.150296387259
 31
0.0
  0
INSERT
  5
4E9C
330
1F
100
AcDbEntity
  8
POPIS
100
AcDbBlockReference
  2
E_PUNKT
 10
-363.3907238777756
 20
-7016.356181321374
 30
0.0
 50
270.0
  0
TEXT
  5
6055
330
1F
100
AcDbEntity
  8
POPIS
100
AcDbText
 10
-133.9374826649782
 20
-7130.000358791356
 30
0.0
 40
25.0
  1
Parozábrana
 41
0.7
  7
SIMPLEX7
100
AcDbText
  0
TEXT
  5
6056
330
1F
100
AcDbEntity
  8
POPIS
100
AcDbText
 10
-188.2811858247205
 20
-6988.74375539654
 30
0.0
 40
25.0
  1
07
 41
0.85
  7
SIMPLEX7
100
AcDbText
  0
TEXT
  5
6057
330
1F
100
AcDbEntity
  8
POPIS
100
AcDbText
 10
-188.2811858247205
 20
-6844.975225985876
 30
0.0
 40
25.0
  1
03
 41
0.85
  7
SIMPLEX7
100
AcDbText
  0
TEXT
  5
6058
330
1F
100
AcDbEntity
  8
POPIS
100
AcDbText
 10
-133.9374826649782
 20
-6919.288805809343
 30
0.0
 40
25.0
  1
Izolace EPS
 41
0.7
  7
SIMPLEX7
100
AcDbText
  0
TEXT
  5
6059
330
1F
100
AcDbEntity
  8
POPIS
100
AcDbText
 10
-188.2811858247205
 20
-6881.570237601504
 30
0.0
 40
25.0
  1
04
 41
0.85
  7
SIMPLEX7
100
AcDbText
  0
TEXT
  5
605A
330
1F
100
AcDbEntity
  8
POPIS
100
AcDbText
 10
-133.9374826649782
 20
-6955.88381742497
 30
0.0
 40
25.0
  1
Deska CETRIS    tl. 12 mm, horní vrtaná
 41
0.7
  7
SIMPLEX7
100
AcDbText
  0
TEXT
  5
605B
330
1F
100
AcDbEntity
  8
POPIS
100
AcDbText
 10
-188.2811858247205
 20
-6919.45432263909
 30
0.0
 40
25.0
  1
05
 41
0.85
  7
SIMPLEX7
100
AcDbText
  0
TEXT
  5
605C
330
1F
100
AcDbEntity
  8
POPIS
100
AcDbText
 10
-133.9374826649782
 20
-6989.834005669692
 30
0.0
 40
25.0
  1
Deska CETRIS    tl. 12 mm, spodní
 41
0.7
  7
SIMPLEX7
100
AcDbText
  0
TEXT
  5
605D
330
1F
100
AcDbEntity
  8
POPIS
100
AcDbText
 10
-188.2811858247205
 20
-6954.858483857254
 30
0.0
 40
25.0
  1
06
 41
0.85
  7
SIMPLEX7
100
AcDbText
  0
TEXT
  5
605F
330
1F
100
AcDbEntity
  8
POPIS
100
AcDbText
 10
-133.9374826649782
 20
-7166.835898794248
 30
0.0
 40
25.0
  1
Stropní konstrukce
 41
0.7
  7
SIMPLEX7
100
AcDbText
  0
TEXT
  5
6060
330
1F
100
AcDbEntity
  8
POPIS
100
AcDbText
 10
-188.2811858247205
 20
-7025.579295399431
 30
0.0
 40
25.0
  1
08
 41
0.85
  7
SIMPLEX7
100
AcDbText
  0
TEXT
  5
6061
330
1F
100
AcDbEntity
  8
POPIS
100
AcDbText
 10
-188.2811858247205
 20
-7061.104936300734
 30
0.0
 40
25.0
  1
09
 41
0.85
  7
SIMPLEX7
100
AcDbText
  0
TEXT
  5
6062
330
1F
100
AcDbEntity
  8
POPIS
100
AcDbText
 10
-188.2811858247205
 20
-7096.390562493432
 30
0.0
 40
25.0
  1
10
 41
0.85
  7
SIMPLEX7
100
AcDbText
  0
TEXT
  5
6063
330
1F
100
AcDbEntity
  8
POPIS
100
AcDbText
 10
-133.9374826649782
 20
-6845.792303688073
 30
0.0
 40
25.0
  1
Těsnící podložka
 41
0.7
  7
SIMPLEX7
100
AcDbText
  0
TEXT
  5
6064
330
1F
100
AcDbEntity
  8
POPIS
100
AcDbText
 10
-133.9374826649782
 20
-6809.197292072446
 30
0.0
 40
25.0
  1
Hmoždinka
 41
0.7
  7
SIMPLEX7
100
AcDbText
  0
CIRCLE
  5
6065
330
1F
100
AcDbEntity
  8
POPIS
100
AcDbCircle
 10
39.37103741028295
 20
-6968.367608236237
 30
0.0
 40
7.795592338044182
  0
TEXT
  5
6066
330
1F
100
AcDbEntity
  8
POPIS
100
AcDbText
 10
36.0397170716551
 20
-6972.249350257728
 30
0.0
 40
8.399999999999998
  1
R
 41
0.85
  7
SIMPLEX7
100
AcDbText
  0
CIRCLE
  5
6067
330
1F
100
AcDbEntity
  8
POPIS
100
AcDbCircle
 10
39.75645311868902
 20
-6927.298855698537
 30
0.0
 40
7.795592338044182
  0
TEXT
  5
6068
330
1F
100
AcDbEntity
  8
POPIS
100
AcDbText
 10
36.42513278006117
 20
-6931.180597720029
 30
0.0
 40
8.399999999999998
  1
R
 41
0.85
  7
SIMPLEX7
100
AcDbText
  0
TEXT
  5
6069
330
1F
100
AcDbEntity
  8
POPIS
100
AcDbText
 10
-133.9374826649782
 20
-6775.231076723954
 30
0.0
 40
25.0
  1
Nášlapná vrstva
 41
0.7
  7
SIMPLEX7
100
AcDbText
  0
TEXT
  5
606A
330
1F
100
AcDbEntity
  8
POPIS
100
AcDbText
 10
-133.9374826649782
 20
-6881.149322202857
 30
0.0
 40
25.0
  1
Podkladní dřevěná lišta
 41
0.7
  7
SIMPLEX7
100
AcDbText
  0
TEXT
  5
606B
330
1F
100
AcDbEntity
  8
POPIS
100
AcDbText
 10
-188.2811858247205
 20
-6774.261188956311
 30
0.0
 40
25.0
  1
01
 41
0.85
  7
SIMPLEX7
100
AcDbText
  0
TEXT
  5
606C
330
1F
100
AcDbEntity
  8
POPIS
100
AcDbText
 10
-188.2811858247205
 20
-6810.856200571937
 30
0.0
 40
25.0
  1
02
 41
0.85
  7
SIMPLEX7
100
AcDbText
  0
TEXT
  5
606D
330
1F
100
AcDbEntity
  8
POPIS
100
AcDbText
 10
-837.4105630980976
 20
-6654.112398350654
 30
0.0
 40
50.0
  1
Návaznost podlahy s příčkou
 41
0.85
  7
SIMPLEX7
100
AcDbText
  0
TEXT
  5
606E
330
1F
100
AcDbEntity
  8
POPIS
100
AcDbText
 10
-188.2811858247205
 20
-7166.530843255883
 30
0.0
 40
25.0
  1
12
 41
0.85
  7
SIMPLEX7
100
AcDbText
  0
TEXT
  5
606F
330
1F
100
AcDbEntity
  8
POPIS
100
AcDbText
 10
-188.2811858247205
 20
-7131.245217063185
 30
0.0
 40
25.0
  1
11
 41
0.85
  7
SIMPLEX7
100
AcDbText
  0
TEXT
  5
6070
330
1F
100
AcDbEntity
  8
POPIS
100
AcDbText
 10
-135.9798347209198
 20
-7026.08738325383
 30
0.0
 40
25.0
  1
Separační fólie-pěnová fólie tl. 2 mm
 41
0.7
  7
SIMPLEX7
100
AcDbText
  0
TEXT
  5
6071
330
1F
100
AcDbEntity
  8
POPIS
100
AcDbText
 10
-135.9798347209198
 20
-7060.571875301869
 30
0.0
 40
25.0
  1
Vrut 4,2x35 mm
 41
0.7
  7
SIMPLEX7
100
AcDbText
  0
TEXT
  5
6072
330
1F
100
AcDbEntity
  8
POPIS
100
AcDbText
 10
-135.9798347209198
 20
-7096.578376201515
 30
0.0
 40
25.0
  1
Izolace EPS
 41
0.7
  7
SIMPLEX7
100
AcDbText
  0
ENDSEC
  0
SECTION
  2
OBJECTS
  0
DICTIONARY
  5
C
330
0
100
AcDbDictionary
281
     1
  3
ACAD_GROUP
350
D
  3
ACAD_LAYOUT
350
1A
  3
ACAD_MLINESTYLE
350
17
  3
ACAD_PLOTSETTINGS
350
19
  3
ACAD_PLOTSTYLENAME
350
E
  3
AcDbVariableDictionary
350
8A0
  0
DICTIONARY
  5
D
102
{ACAD_REACTORS
330
C
102
}
330
C
100
AcDbDictionary
281
     1
  0
DICTIONARY
  5
1A
102
{ACAD_REACTORS
330
C
102
}
330
C
100
AcDbDictionary
281
     1
  3
Model
350
22
  3
Rozvržení1
350
1E
  3
Rozvržení2
350
26
  0
DICTIONARY
  5
17
102
{ACAD_REACTORS
330
C
102
}
330
C
100
AcDbDictionary
281
     1
  3
Standard
350
18
  0
DICTIONARY
  5
19
102
{ACAD_REACTORS
330
C
102
}
330
C
100
AcDbDictionary
281
     1
  0
ACDBDICTIONARYWDFLT
  5
E
102
{ACAD_REACTORS
330
C
102
}
330
C
100
AcDbDictionary
281
     1
  3
Normal
350
F
100
AcDbDictionaryWithDefault
340
F
  0
DICTIONARY
  5
8A0
102
{ACAD_REACTORS
330
C
102
}
330
C
100
AcDbDictionary
281
     1
  3
DIMASSOC
350
8A1
  0
LAYOUT
  5
22
102
{ACAD_REACTORS
330
1A
102
}
330
1A
100
AcDbPlotSettings
  1

  2
HP DeskJet 690C
  4

  6

 40
0.0
 41
0.0
 42
0.0
 43
0.0
 44
0.0
 45
0.0
 46
0.0
 47
0.0
 48
0.0
 49
0.0
140
0.0
141
0.0
142
1.0
143
1.0
 70
  1712
 72
     0
 73
     0
 74
     0
  7
monochrome.ctb
 75
     0
147
1.0
148
0.0
149
0.0
100
AcDbLayout
  1
Model
 70
     1
 71
     0
 10
0.0
 20
0.0
 11
12.0
 21
9.0
 12
0.0
 22
0.0
 32
0.0
 14
0.0
 24
0.0
 34
0.0
 15
0.0
 25
0.0
 35
0.0
146
0.0
 13
0.0
 23
0.0
 33
0.0
 16
1.0
 26
0.0
 36
0.0
 17
0.0
 27
1.0
 37
0.0
 76
     0
330
1F
  0
LAYOUT
  5
1E
102
{ACAD_REACTORS
330
1A
102
}
330
1A
100
AcDbPlotSettings
  1

  2
HP DeskJet 690C
  4

  6

 40
0.0
 41
0.0
 42
0.0
 43
0.0
 44
0.0
 45
0.0
 46
0.0
 47
0.0
 48
0.0
 49
0.0
140
0.0
141
0.0
142
1.0
143
1.0
 70
   688
 72
     0
 73
     0
 74
     5
  7
monochrome.ctb
 75
    16
147
1.0
148
0.0
149
0.0
100
AcDbLayout
  1
Rozvržení1
 70
     1
 71
     1
 10
0.0
 20
0.0
 11
420.0
 21
297.0
 12
0.0
 22
0.0
 32
0.0
 14
1.000000000000000E+20
 24
1.000000000000000E+20
 34
1.000000000000000E+20
 15
-1.000000000000000E+20
 25
-1.000000000000000E+20
 35
-1.000000000000000E+20
146
0.0
 13
0.0
 23
0.0
 33
0.0
 16
1.0
 26
0.0
 36
0.0
 17
0.0
 27
1.0
 37
0.0
 76
     0
330
1B
  0
LAYOUT
  5
26
102
{ACAD_REACTORS
330
1A
102
}
330
1A
100
AcDbPlotSettings
  1

  2
HP DeskJet 690C
  4

  6

 40
0.0
 41
0.0
 42
0.0
 43
0.0
 44
0.0
 45
0.0
 46
0.0
 47
0.0
 48
0.0
 49
0.0
140
0.0
141
0.0
142
1.0
143
1.0
 70
   688
 72
     0
 73
     0
 74
     5
  7
monochrome.ctb
 75
    16
147
1.0
148
0.0
149
0.0
100
AcDbLayout
  1
Rozvržení2
 70
     1
 71
     2
 10
0.0
 20
0.0
 11
12.0
 21
9.0
 12
0.0
 22
0.0
 32
0.0
 14
0.0
 24
0.0
 34
0.0
 15
0.0
 25
0.0
 35
0.0
146
0.0
 13
0.0
 23
0.0
 33
0.0
 16
1.0
 26
0.0
 36
0.0
 17
0.0
 27
1.0
 37
0.0
 76
     0
330
23
  0
MLINESTYLE
  5
18
102
{ACAD_REACTORS
330
17
102
}
330
17
100
AcDbMlineStyle
  2
STANDARD
 70
     0
  3

 62
   256
 51
90.0
 52
90.0
 71
     2
 49
0.5
 62
   256
  6
BYLAYER
 49
-0.5
 62
   256
  6
BYLAYER
  0
ACDBPLACEHOLDER
  5
F
102
{ACAD_REACTORS
330
E
102
}
330
E
  0
DICTIONARYVAR
  5
8A1
102
{ACAD_REACTORS
330
8A0
102
}
330
8A0
100
DictionaryVariables
280
     0
  1
1
  0
ENDSEC
  0
EOF
