  0
SECTION
  2
HEADER
  9
$ACADVER
  1
AC1015
  9
$ACADMAINTVER
 70
    14
  9
$DWGCODEPAGE
  3
ANSI_1250
  9
$INSBASE
 10
0.0
 20
0.0
 30
0.0
  9
$EXTMIN
 10
-4987.24076476059
 20
-7263.206625694121
 30
-0.0015258207003583
  9
$EXTMAX
 10
-3679.719847215132
 20
-6666.101445261855
 30
0.0000000349246037
  9
$LIMMIN
 10
0.0
 20
0.0
  9
$LIMMAX
 10
420.0
 20
297.0
  9
$ORTHOMODE
 70
     1
  9
$REGENMODE
 70
     1
  9
$FILLMODE
 70
     1
  9
$QTEXTMODE
 70
     0
  9
$MIRRTEXT
 70
     1
  9
$LTSCALE
 40
1.0
  9
$ATTMODE
 70
     1
  9
$TEXTSIZE
 40
102.0
  9
$TRACEWID
 40
1.0
  9
$TEXTSTYLE
  7
SIMPLEX7
  9
$CLAYER
  8
STAVBA OBRYS
  9
$CELTYPE
  6
ByLayer
  9
$CECOLOR
 62
   256
  9
$CELTSCALE
 40
1.0
  9
$DISPSILH
 70
     0
  9
$DIMSCALE
 40
1.0
  9
$DIMASZ
 40
2.5
  9
$DIMEXO
 40
0.625
  9
$DIMDLI
 40
3.75
  9
$DIMRND
 40
0.0
  9
$DIMDLE
 40
0.0
  9
$DIMEXE
 40
1.25
  9
$DIMTP
 40
0.0
  9
$DIMTM
 40
0.0
  9
$DIMTXT
 40
2.5
  9
$DIMCEN
 40
2.5
  9
$DIMTSZ
 40
0.0
  9
$DIMTOL
 70
     0
  9
$DIMLIM
 70
     0
  9
$DIMTIH
 70
     0
  9
$DIMTOH
 70
     0
  9
$DIMSE1
 70
     0
  9
$DIMSE2
 70
     0
  9
$DIMTAD
 70
     1
  9
$DIMZIN
 70
     8
  9
$DIMBLK
  1

  9
$DIMASO
 70
     1
  9
$DIMSHO
 70
     1
  9
$DIMPOST
  1

  9
$DIMAPOST
  1

  9
$DIMALT
 70
     0
  9
$DIMALTD
 70
     3
  9
$DIMALTF
 40
0.03937007874016
  9
$DIMLFAC
 40
1.0
  9
$DIMTOFL
 70
     1
  9
$DIMTVP
 40
0.0
  9
$DIMTIX
 70
     0
  9
$DIMSOXD
 70
     0
  9
$DIMSAH
 70
     0
  9
$DIMBLK1
  1

  9
$DIMBLK2
  1

  9
$DIMSTYLE
  2
ISO-25
  9
$DIMCLRD
 70
     0
  9
$DIMCLRE
 70
     0
  9
$DIMCLRT
 70
     0
  9
$DIMTFAC
 40
1.0
  9
$DIMGAP
 40
0.625
  9
$DIMJUST
 70
     0
  9
$DIMSD1
 70
     0
  9
$DIMSD2
 70
     0
  9
$DIMTOLJ
 70
     0
  9
$DIMTZIN
 70
     8
  9
$DIMALTZ
 70
     0
  9
$DIMALTTZ
 70
     0
  9
$DIMUPT
 70
     0
  9
$DIMDEC
 70
     2
  9
$DIMTDEC
 70
     2
  9
$DIMALTU
 70
     2
  9
$DIMALTTD
 70
     3
  9
$DIMTXSTY
  7
Standard
  9
$DIMAUNIT
 70
     0
  9
$DIMADEC
 70
     0
  9
$DIMALTRND
 40
0.0
  9
$DIMAZIN
 70
     0
  9
$DIMDSEP
 70
    44
  9
$DIMATFIT
 70
     3
  9
$DIMFRAC
 70
     0
  9
$DIMLDRBLK
  1

  9
$DIMLUNIT
 70
     2
  9
$DIMLWD
 70
    -2
  9
$DIMLWE
 70
    -2
  9
$DIMTMOVE
 70
     0
  9
$LUNITS
 70
     2
  9
$LUPREC
 70
     4
  9
$SKETCHINC
 40
1.0
  9
$FILLETRAD
 40
0.0
  9
$AUNITS
 70
     0
  9
$AUPREC
 70
     0
  9
$MENU
  1
.
  9
$ELEVATION
 40
0.0
  9
$PELEVATION
 40
0.0
  9
$THICKNESS
 40
0.0
  9
$LIMCHECK
 70
     0
  9
$CHAMFERA
 40
10.0
  9
$CHAMFERB
 40
10.0
  9
$CHAMFERC
 40
20.0
  9
$CHAMFERD
 40
0.0
  9
$SKPOLY
 70
     0
  9
$TDCREATE
 40
2452681.284131944
  9
$TDUCREATE
 40
2452681.242465277
  9
$TDUPDATE
 40
2455601.579666990
  9
$TDUUPDATE
 40
2455601.538000324
  9
$TDINDWG
 40
0.6496600347
  9
$TDUSRTIMER
 40
0.6496600347
  9
$USRTIMER
 70
     1
  9
$ANGBASE
 50
0.0
  9
$ANGDIR
 70
     0
  9
$PDMODE
 70
     0
  9
$PDSIZE
 40
0.0
  9
$PLINEWID
 40
0.0
  9
$SPLFRAME
 70
     0
  9
$SPLINETYPE
 70
     6
  9
$SPLINESEGS
 70
     8
  9
$HANDSEED
  5
6118
  9
$SURFTAB1
 70
     6
  9
$SURFTAB2
 70
     6
  9
$SURFTYPE
 70
     6
  9
$SURFU
 70
     6
  9
$SURFV
 70
     6
  9
$UCSBASE
  2

  9
$UCSNAME
  2

  9
$UCSORG
 10
0.0
 20
0.0
 30
0.0
  9
$UCSXDIR
 10
1.0
 20
0.0
 30
0.0
  9
$UCSYDIR
 10
0.0
 20
1.0
 30
0.0
  9
$UCSORTHOREF
  2

  9
$UCSORTHOVIEW
 70
     0
  9
$UCSORGTOP
 10
0.0
 20
0.0
 30
0.0
  9
$UCSORGBOTTOM
 10
0.0
 20
0.0
 30
0.0
  9
$UCSORGLEFT
 10
0.0
 20
0.0
 30
0.0
  9
$UCSORGRIGHT
 10
0.0
 20
0.0
 30
0.0
  9
$UCSORGFRONT
 10
0.0
 20
0.0
 30
0.0
  9
$UCSORGBACK
 10
0.0
 20
0.0
 30
0.0
  9
$PUCSBASE
  2

  9
$PUCSNAME
  2

  9
$PUCSORG
 10
0.0
 20
0.0
 30
0.0
  9
$PUCSXDIR
 10
1.0
 20
0.0
 30
0.0
  9
$PUCSYDIR
 10
0.0
 20
1.0
 30
0.0
  9
$PUCSORTHOREF
  2

  9
$PUCSORTHOVIEW
 70
     0
  9
$PUCSORGTOP
 10
0.0
 20
0.0
 30
0.0
  9
$PUCSORGBOTTOM
 10
0.0
 20
0.0
 30
0.0
  9
$PUCSORGLEFT
 10
0.0
 20
0.0
 30
0.0
  9
$PUCSORGRIGHT
 10
0.0
 20
0.0
 30
0.0
  9
$PUCSORGFRONT
 10
0.0
 20
0.0
 30
0.0
  9
$PUCSORGBACK
 10
0.0
 20
0.0
 30
0.0
  9
$USERI1
 70
     0
  9
$USERI2
 70
     0
  9
$USERI3
 70
     0
  9
$USERI4
 70
     0
  9
$USERI5
 70
     0
  9
$USERR1
 40
0.0
  9
$USERR2
 40
0.0
  9
$USERR3
 40
0.0
  9
$USERR4
 40
0.0
  9
$USERR5
 40
0.0
  9
$WORLDVIEW
 70
     1
  9
$SHADEDGE
 70
     3
  9
$SHADEDIF
 70
    70
  9
$TILEMODE
 70
     1
  9
$MAXACTVP
 70
    64
  9
$PINSBASE
 10
0.0
 20
0.0
 30
0.0
  9
$PLIMCHECK
 70
     0
  9
$PEXTMIN
 10
1.000000000000000E+20
 20
1.000000000000000E+20
 30
1.000000000000000E+20
  9
$PEXTMAX
 10
-1.000000000000000E+20
 20
-1.000000000000000E+20
 30
-1.000000000000000E+20
  9
$PLIMMIN
 10
0.0
 20
0.0
  9
$PLIMMAX
 10
420.0
 20
297.0
  9
$UNITMODE
 70
     0
  9
$VISRETAIN
 70
     1
  9
$PLINEGEN
 70
     0
  9
$PSLTSCALE
 70
     1
  9
$TREEDEPTH
 70
  3020
  9
$CMLSTYLE
  2
Standard
  9
$CMLJUST
 70
     0
  9
$CMLSCALE
 40
20.0
  9
$PROXYGRAPHICS
 70
     1
  9
$MEASUREMENT
 70
     1
  9
$CELWEIGHT
370
    -1
  9
$ENDCAPS
280
     0
  9
$JOINSTYLE
280
     0
  9
$LWDISPLAY
290
     1
  9
$INSUNITS
 70
     4
  9
$HYPERLINKBASE
  1

  9
$STYLESHEET
  1

  9
$XEDIT
290
     1
  9
$CEPSNTYPE
380
     0
  9
$PSTYLEMODE
290
     1
  9
$FINGERPRINTGUID
  2
{CED30962-9BF9-4233-B154-46CCBBBAD92E}
  9
$VERSIONGUID
  2
{FB6D1D37-AE9E-4319-B799-933CBD3C2788}
  9
$EXTNAMES
290
     1
  9
$PSVPSCALE
 40
0.0
  9
$OLESTARTUP
290
     0
  0
ENDSEC
  0
SECTION
  2
CLASSES
  0
CLASS
  1
ACDBDICTIONARYWDFLT
  2
AcDbDictionaryWithDefault
  3
AutoCAD 2000
 90
        0
280
     0
281
     0
  0
CLASS
  1
ACDBPLACEHOLDER
  2
AcDbPlaceHolder
  3
AutoCAD 2000
 90
        0
280
     0
281
     0
  0
CLASS
  1
LAYOUT
  2
AcDbLayout
  3
AutoCAD 2000
 90
        0
280
     0
281
     0
  0
CLASS
  1
DICTIONARYVAR
  2
AcDbDictionaryVar
  3
AutoCAD 2000
 90
        0
280
     0
281
     0
  0
ENDSEC
  0
SECTION
  2
TABLES
  0
TABLE
  2
VPORT
  5
8
330
0
100
AcDbSymbolTable
 70
     2
  0
VPORT
  5
6117
330
8
100
AcDbSymbolTableRecord
100
AcDbViewportTableRecord
  2
*Active
 70
     0
 10
0.0
 20
0.0
 11
1.0
 21
1.0
 12
-4333.480305987861
 22
-6964.654035477988
 13
0.0
 23
0.0
 14
10.0
 24
10.0
 15
10.0
 25
10.0
 16
0.0
 26
0.0
 36
1.0
 17
0.0
 27
0.0
 37
0.0
 40
645.8343749943964
 41
2.031862745098039
 42
50.0
 43
0.0
 44
0.0
 50
0.0
 51
0.0
 71
     0
 72
   100
 73
     1
 74
     3
 75
     0
 76
     0
 77
     0
 78
     0
281
     0
 65
     1
110
0.0
120
0.0
130
0.0
111
1.0
121
0.0
131
0.0
112
0.0
122
1.0
132
0.0
 79
     0
146
0.0
  0
ENDTAB
  0
TABLE
  2
LTYPE
  5
5
330
0
100
AcDbSymbolTable
 70
     5
  0
LTYPE
  5
14
330
5
100
AcDbSymbolTableRecord
100
AcDbLinetypeTableRecord
  2
ByBlock
 70
     0
  3

 72
    65
 73
     0
 40
0.0
  0
LTYPE
  5
15
330
5
100
AcDbSymbolTableRecord
100
AcDbLinetypeTableRecord
  2
ByLayer
 70
     0
  3

 72
    65
 73
     0
 40
0.0
  0
LTYPE
  5
16
330
5
100
AcDbSymbolTableRecord
100
AcDbLinetypeTableRecord
  2
Continuous
 70
     0
  3
Solid line
 72
    65
 73
     0
 40
0.0
  0
LTYPE
  5
2F
330
5
100
AcDbSymbolTableRecord
100
AcDbLinetypeTableRecord
  2
DASHED
 70
     0
  3
Dashed __ __ __ __ __ __ __ __ __ __ __ __ __ _
 72
    65
 73
     2
 40
19.04999999999999
 49
12.7
 74
     0
 49
-6.349999999999999
 74
     0
  0
LTYPE
  5
30
330
5
100
AcDbSymbolTableRecord
100
AcDbLinetypeTableRecord
  2
IZOLACE
 70
     0
  3
Izolace SSSSSSSSSSSSSSSSSSSSSSSSSSSSSSSSSSSSSSS
 72
    65
 73
     4
 40
10.16253999999999
 49
0.00254
 74
     0
 49
-2.54
 74
     4
 75
   134
340
38
 46
2.54
 50
0.0
 44
-2.54
 45
0.0
 49
-5.08
 74
     4
 75
   134
340
38
 46
2.54
 50
180.0
 44
2.54
 45
0.0
 49
-2.54
 74
     0
  0
LTYPE
  5
11D2
330
5
100
AcDbSymbolTableRecord
100
AcDbLinetypeTableRecord
  2
DASHDOT2
 70
     0
  3
Dash dot (.5x) _._._._._._._._._._._._._._._.
 72
    65
 73
     4
 40
12.7
 49
6.349999999999999
 74
     0
 49
-3.174999999999999
 74
     0
 49
0.0
 74
     0
 49
-3.174999999999999
 74
     0
  0
LTYPE
  5
11D3
330
5
100
AcDbSymbolTableRecord
100
AcDbLinetypeTableRecord
  2
CIKCAK
 70
     0
  3
Cik-cak /\/\/\/\/\/\/\/\/\/\/\/\/\/\/\/\/\/\/\/
 72
    65
 73
     4
 40
20.32254
 49
0.00254
 74
     0
 49
-5.08
 74
     4
 75
   131
340
38
 46
5.08
 50
0.0
 44
-5.08
 45
0.0
 49
-10.16
 74
     4
 75
   131
340
38
 46
5.08
 50
180.0
 44
5.08
 45
0.0
 49
-5.08
 74
     0
  0
ENDTAB
  0
TABLE
  2
LAYER
  5
2
330
0
100
AcDbSymbolTable
 70
     8
  0
LAYER
  5
10
330
2
100
AcDbSymbolTableRecord
100
AcDbLayerTableRecord
  2
0
 70
     0
 62
     7
  6
Continuous
370
    -3
390
F
  0
LAYER
  5
31
330
2
100
AcDbSymbolTableRecord
100
AcDbLayerTableRecord
  2
POPIS
 70
     0
 62
    30
  6
Continuous
370
    -3
390
F
  0
LAYER
  5
32
330
2
100
AcDbSymbolTableRecord
100
AcDbLayerTableRecord
  2
SPOJOVACÍ
 70
     0
 62
     5
  6
Continuous
370
    -3
390
F
  0
LAYER
  5
33
330
2
100
AcDbSymbolTableRecord
100
AcDbLayerTableRecord
  2
CETRIS
 70
     0
 62
     1
  6
Continuous
370
    -3
390
F
  0
LAYER
  5
34
330
2
100
AcDbSymbolTableRecord
100
AcDbLayerTableRecord
  2
izolace
 70
     0
 62
     3
  6
Continuous
370
    -3
390
F
  0
LAYER
  5
35
330
2
100
AcDbSymbolTableRecord
100
AcDbLayerTableRecord
  2
nášlap_vrstvy
 70
     0
 62
     6
  6
Continuous
370
    -3
390
F
  0
LAYER
  5
36
330
2
100
AcDbSymbolTableRecord
100
AcDbLayerTableRecord
  2
STAVBA OBRYS
 70
     0
 62
    40
  6
Continuous
370
    -3
390
F
  0
LAYER
  5
8B0
330
2
100
AcDbSymbolTableRecord
100
AcDbLayerTableRecord
  2
Defpoints
 70
     0
 62
     7
  6
Continuous
290
     0
370
    -3
390
F
  0
ENDTAB
  0
TABLE
  2
STYLE
  5
3
330
0
100
AcDbSymbolTable
 70
     3
  0
STYLE
  5
11
330
3
100
AcDbSymbolTableRecord
100
AcDbTextStyleTableRecord
  2
Standard
 70
     0
 40
0.0
 41
1.0
 50
0.0
 71
     0
 42
2.5
  3
verdana.TTF
  4

1001
ACAD
1000
Verdana
1071
       34
  0
STYLE
  5
37
330
3
100
AcDbSymbolTableRecord
100
AcDbTextStyleTableRecord
  2
SIMPLEX7
 70
     0
 40
0.0
 41
0.85
 50
0.0
 71
     0
 42
102.0
  3
ARIAL.TTF
  4

1001
ACAD
1000
Arial CE
1071
    60962
  0
STYLE
  5
38
330
3
100
AcDbSymbolTableRecord
100
AcDbTextStyleTableRecord
  2

 70
     1
 40
0.0
 41
1.0
 50
0.0
 71
     0
 42
2.5
  3
ltypeshp.shx
  4

  0
ENDTAB
  0
TABLE
  2
VIEW
  5
6
330
0
100
AcDbSymbolTable
 70
     0
  0
ENDTAB
  0
TABLE
  2
UCS
  5
7
330
0
100
AcDbSymbolTable
 70
     0
  0
ENDTAB
  0
TABLE
  2
APPID
  5
9
330
0
100
AcDbSymbolTable
 70
     1
  0
APPID
  5
12
330
9
100
AcDbSymbolTableRecord
100
AcDbRegAppTableRecord
  2
ACAD
 70
     0
  0
ENDTAB
  0
TABLE
  2
DIMSTYLE
  5
A
330
0
100
AcDbSymbolTable
 70
     2
100
AcDbDimStyleTable
 71
     1
340
27
  0
DIMSTYLE
105
27
330
A
100
AcDbSymbolTableRecord
100
AcDbDimStyleTableRecord
  2
ISO-25
 70
     0
 41
2.5
 42
0.625
 43
3.75
 44
1.25
 73
     0
 74
     0
 77
     1
 78
     8
140
2.5
141
2.5
143
0.03937007874016
147
0.625
171
     3
172
     1
271
     2
272
     2
274
     3
278
    44
283
     0
284
     8
340
11
  0
DIMSTYLE
105
5925
330
A
100
AcDbSymbolTableRecord
100
AcDbDimStyleTableRecord
  2
STANDARD
 70
     0
340
11
  0
ENDTAB
  0
TABLE
  2
BLOCK_RECORD
  5
1
330
0
100
AcDbSymbolTable
 70
     3
  0
BLOCK_RECORD
  5
1F
330
1
100
AcDbSymbolTableRecord
100
AcDbBlockTableRecord
  2
*Model_Space
340
22
  0
BLOCK_RECORD
  5
1B
330
1
100
AcDbSymbolTableRecord
100
AcDbBlockTableRecord
  2
*Paper_Space
340
1E
  0
BLOCK_RECORD
  5
23
330
1
100
AcDbSymbolTableRecord
100
AcDbBlockTableRecord
  2
*Paper_Space0
340
26
  0
BLOCK_RECORD
  5
2B
330
1
100
AcDbSymbolTableRecord
100
AcDbBlockTableRecord
  2
E_PUNKT
340
0
102
{BLKREFS
331
6B5
331
6B1
331
842
331
83F
331
75F
331
79A
331
73F
331
766
331
649
331
60D
331
60C
331
197D
331
1A72
331
1A77
331
1AC8
331
1AC9
331
1ACB
331
1AE2
331
181B
331
183F
331
1FA2
331
1FB8
331
1FBA
331
1FC4
331
1FCC
331
2008
331
224F
331
2272
331
227D
331
22F0
331
2313
331
2314
331
2355
331
23A6
331
23B1
331
24C9
331
2A02
331
2A12
331
2AC1
331
2BCD
331
2BE5
331
2C54
331
2CD0
331
2CC6
331
2CCF
331
2BE0
331
2BEB
331
2DA0
331
2DA5
331
2DE7
331
2DED
331
2DEE
331
2DEF
331
2DF2
331
2DF3
331
2DF6
331
2E8E
331
314E
331
3236
331
3206
331
32FE
331
32BF
331
3304
331
2ECD
331
3239
331
2FB9
331
3150
331
4E7F
331
4E9C
331
4EA7
331
4EAE
331
4EB8
331
5B4F
331
5B54
102
}
  0
ENDTAB
  0
ENDSEC
  0
SECTION
  2
BLOCKS
  0
BLOCK
  5
20
330
1F
100
AcDbEntity
  8
0
100
AcDbBlockBegin
  2
*Model_Space
 70
     0
 10
0.0
 20
0.0
 30
0.0
  3
*Model_Space
  1

  0
ENDBLK
  5
21
330
1F
100
AcDbEntity
  8
0
100
AcDbBlockEnd
  0
BLOCK
  5
1C
330
1B
100
AcDbEntity
 67
     1
  8
0
100
AcDbBlockBegin
  2
*Paper_Space
 70
     0
 10
0.0
 20
0.0
 30
0.0
  3
*Paper_Space
  1

  0
ENDBLK
  5
1D
330
1B
100
AcDbEntity
 67
     1
  8
0
100
AcDbBlockEnd
  0
BLOCK
  5
24
330
23
100
AcDbEntity
  8
0
100
AcDbBlockBegin
  2
*Paper_Space0
 70
     0
 10
0.0
 20
0.0
 30
0.0
  3
*Paper_Space0
  1

  0
ENDBLK
  5
25
330
23
100
AcDbEntity
  8
0
100
AcDbBlockEnd
  0
BLOCK
  5
2D
330
2B
100
AcDbEntity
  8
0
100
AcDbBlockBegin
  2
E_PUNKT
 70
     0
 10
0.0
 20
0.0
 30
0.0
  3
E_PUNKT
  1

  0
LWPOLYLINE
  5
2C
330
2B
100
AcDbEntity
  8
POPIS
100
AcDbPolyline
 90
        2
 70
     1
 43
2.5
 10
1.27761037562675
 20
0.0290683308725193
 42
-1.0
 10
-1.222389624373249
 20
0.0290683308725193
 42
-1.0
  0
ENDBLK
  5
2E
330
2B
100
AcDbEntity
  8
0
100
AcDbBlockEnd
  0
ENDSEC
  0
SECTION
  2
ENTITIES
  0
TEXT
  5
29CF
330
1F
100
AcDbEntity
  8
POPIS
100
AcDbText
 10
-4515.443408345795
 20
-6882.555258795736
 30
0.0
 40
25.0
  1
02
  7
SIMPLEX7
100
AcDbText
  0
TEXT
  5
29D0
330
1F
100
AcDbEntity
  8
POPIS
100
AcDbText
 10
-4567.584060579991
 20
-6882.555258795736
 30
0.0
 40
25.0
  1
01
  7
SIMPLEX7
100
AcDbText
  0
LINE
  5
29D1
330
1F
100
AcDbEntity
  8
STAVBA OBRYS
100
AcDbLine
 10
-4581.992498152898
 20
-6956.737829233181
 30
0.0
 11
-4581.992498152898
 21
-6738.055988274762
 31
0.0
  0
LINE
  5
29D2
330
1F
100
AcDbEntity
  8
STAVBA OBRYS
100
AcDbLine
 10
-4696.996571149705
 20
-6954.433233296192
 30
0.0
 11
-4696.996571149705
 21
-6754.928096776791
 31
0.0
  0
LINE
  5
29D3
330
1F
100
AcDbEntity
  8
STAVBA OBRYS
  6
DASHED
100
AcDbLine
 10
-4681.996571149702
 20
-6954.433233296192
 30
0.0
 11
-4681.996571149698
 21
-6752.556326679741
 31
0.0
  0
LINE
  5
29D4
330
1F
100
AcDbEntity
  8
STAVBA OBRYS
100
AcDbLine
 10
-4667.848673770763
 20
-6954.433233296192
 30
0.0
 11
-4667.848673770774
 21
-6750.319289350436
 31
0.0
  0
HATCH
  5
29D5
330
1F
100
AcDbEntity
  8
STAVBA OBRYS
370
    20
100
AcDbHatch
 10
0.0
 20
0.0
 30
0.0
210
0.0
220
0.0
230
1.0
  2
ANSI31
 70
     0
 71
     0
 91
        2
 92
        7
 72
     0
 73
     1
 93
        4
 10
-4681.996571149702
 20
-6752.556326679737
 10
-4696.996571149705
 20
-6754.928096776791
 10
-4696.996571149709
 20
-6954.433233296192
 10
-4681.996571149706
 20
-6954.433233296192
 97
        0
 92
        7
 72
     0
 73
     1
 93
        4
 10
-4667.848673770774
 20
-6750.319289350436
 10
-4681.996571149694
 20
-6752.556326679736
 10
-4681.996571149698
 20
-6954.433233296192
 10
-4667.848673770763
 20
-6954.433233296192
 97
        0
 75
     0
 76
     1
 52
90.0
 41
2.5
 77
     0
 78
     1
 53
135.0
 43
-34145.82817803759
 44
-3123.107951617705
 45
-5.612660075668221
 46
-5.61266007566822
 79
     0
 47
0.7945165653271508
 98
        2
 10
-4691.201385320677
 20
-6847.24001719239
 10
-4674.506294554022
 20
-6849.62356246465
  0
TEXT
  5
29D6
330
1F
100
AcDbEntity
  8
POPIS
100
AcDbText
 10
-4825.76449587948
 20
-6882.555258795736
 30
0.0
 40
25.0
  1
07
  7
SIMPLEX7
100
AcDbText
  0
TEXT
  5
29D7
330
1F
100
AcDbEntity
  8
POPIS
100
AcDbText
 10
-4921.735326157932
 20
-6882.555258795736
 30
0.0
 40
25.0
  1
05
  7
SIMPLEX7
100
AcDbText
  0
TEXT
  5
29D8
330
1F
100
AcDbEntity
  8
POPIS
100
AcDbText
 10
-4975.787875148689
 20
-6882.555258795736
 30
0.0
 40
25.0
  1
04
  7
SIMPLEX7
100
AcDbText
  0
TEXT
  5
29D9
330
1F
100
AcDbEntity
  8
POPIS
100
AcDbText
 10
-4874.853011343765
 20
-6882.555258795736
 30
0.0
 40
25.0
  1
06
  7
SIMPLEX7
100
AcDbText
  0
LINE
  5
29DA
330
1F
100
AcDbEntity
  8
izolace
  6
IZOLACE
 48
3.0
100
AcDbLine
 10
-4973.294373384575
 20
-7077.698078621647
 30
0.0
 11
-4314.204819805355
 21
-7077.698078621647
 31
0.0
  0
LINE
  5
29DB
330
1F
100
AcDbEntity
  8
izolace
100
AcDbLine
 10
-4972.150482316428
 20
-7047.698078621646
 30
0.0
 11
-4656.720439172982
 21
-7047.698078621646
 31
0.0
  0
LINE
  5
29DC
330
1F
100
AcDbEntity
  8
STAVBA OBRYS
100
AcDbLine
 10
-4698.148851031575
 20
-6997.849413475869
 30
0.0
 11
-4678.23785436586
 21
-6998.340561336451
 31
0.0
  0
LINE
  5
29DD
330
1F
100
AcDbEntity
  8
STAVBA OBRYS
100
AcDbLine
 10
-4694.707444800484
 20
-7000.550725111583
 30
0.0
 11
-4677.746225809895
 21
-7001.778594230542
 31
0.0
  0
LINE
  5
29DE
330
1F
100
AcDbEntity
  8
STAVBA OBRYS
100
AcDbLine
 10
-4696.919777528552
 20
-7013.074989698973
 30
0.0
 11
-4681.433446318968
 21
-7013.81171095735
 31
0.0
  0
LINE
  5
29DF
330
1F
100
AcDbEntity
  8
STAVBA OBRYS
100
AcDbLine
 10
-4678.23785436586
 20
-6992.937937000032
 30
0.0
 11
-4691.020222178297
 21
-7013.320563096766
 31
0.0
  0
LINE
  5
29E0
330
1F
100
AcDbEntity
  8
STAVBA OBRYS
100
AcDbLine
 10
-4694.215814131406
 20
-6994.165806118991
 30
0.0
 11
-4671.355041903676
 21
-6994.902527377369
 31
0.0
  0
LINE
  5
29E1
330
1F
100
AcDbEntity
  8
STAVBA OBRYS
100
AcDbLine
 10
-4686.349742444181
 20
-7008.409087685922
 30
0.0
 11
-4661.030821097288
 21
-7014.057284355145
 31
0.0
  0
LINE
  5
29E2
330
1F
100
AcDbEntity
  8
STAVBA OBRYS
100
AcDbLine
 10
-4689.299520119308
 20
-7004.971053726838
 30
0.0
 11
-4668.405264228549
 21
-7007.181218566962
 31
0.0
  0
LINE
  5
29E3
330
1F
100
AcDbEntity
  8
STAVBA OBRYS
100
AcDbLine
 10
-4667.848673770763
 20
-6954.433233296192
 30
0.0
 11
-4696.996571149702
 21
-6954.433233296192
 31
0.0
  0
LINE
  5
29E4
330
1F
100
AcDbEntity
  8
STAVBA OBRYS
100
AcDbLine
 10
-4707.489812612922
 20
-6991.21892002049
 30
0.0
 11
-4680.696003485022
 21
-6991.464494483278
 31
0.0
  0
LINE
  5
29E5
330
1F
100
AcDbEntity
  8
izolace
  6
IZOLACE
 48
1.45
100
AcDbLine
 10
-4736.720439172982
 20
-7032.698078621645
 30
0.0
 11
-4656.764890815818
 21
-7032.698078621645
 31
0.0
  0
LWPOLYLINE
  5
29E6
330
1F
100
AcDbEntity
  8
0
100
AcDbPolyline
 90
        4
 70
     1
 43
0.0
 10
-4736.720439172982
 20
-7017.698078621646
 10
-4656.720439172982
 20
-7017.698078621646
 10
-4656.720439172982
 20
-6987.698078621646
 10
-4736.720439172982
 20
-6987.698078621646
  0
LINE
  5
29E7
330
1F
100
AcDbEntity
  8
POPIS
370
    20
100
AcDbLine
 10
-4691.885135051035
 20
-7157.612083229908
 30
0.0
 11
-4649.380143132427
 21
-6992.508300186353
 31
0.0
  0
TEXT
  5
29E8
330
1F
100
AcDbEntity
  8
POPIS
100
AcDbText
 10
-4709.597014012185
 20
-7187.945511248959
 30
0.0
 40
25.0
  1
12
  7
SIMPLEX7
100
AcDbText
  0
HATCH
  5
29E9
330
1F
100
AcDbEntity
  8
CETRIS
370
    20
100
AcDbHatch
 10
0.0
 20
0.0
 30
0.0
210
0.0
220
0.0
230
1.0
  2
ANSI31
 70
     0
 71
     0
 91
        1
 92
        7
 72
     0
 73
     1
 93
       44
 10
-4675.450385649927
 20
-6980.832999625691
 10
-4676.109452406383
 20
-6980.611390702524
 10
-4676.4795507542
 20
-6980.397171216735
 10
-4676.109452406387
 20
-6980.027072871071
 10
-4675.45038564992
 20
-6980.248681794241
 10
-4675.45038564992
 20
-6977.775434619563
 10
-4676.109452406376
 20
-6977.553977275673
 10
-4676.479550754196
 20
-6977.339757789882
 10
-4676.109452406387
 20
-6976.969659444215
 10
-4675.450385649927
 20
-6977.191116788154
 10
-4675.450385649931
 20
-6975.698078621646
 10
-4802.794152264075
 20
-6975.698078621646
 10
-4802.924444591575
 20
-6975.8283709499
 10
-4803.311935045151
 20
-6975.698078621646
 10
-4803.583511348038
 20
-6975.698078621646
 10
-4803.583511348027
 20
-6978.080009201363
 10
-4802.924444591564
 20
-6978.301466545301
 10
-4802.554346248041
 20
-6978.515686031089
 10
-4802.924444591571
 20
-6978.885784376481
 10
-4803.583511348031
 20
-6978.664327032589
 10
-4803.583511348034
 20
-6981.138182620909
 10
-4802.924444591567
 20
-6981.359791544079
 10
-4802.554346248048
 20
-6981.573099457667
 10
-4802.924444591567
 20
-6981.944109375523
 10
-4803.583511348027
 20
-6981.722500452353
 10
-4803.583511348027
 20
-6984.195596047719
 10
-4802.92444459156
 20
-6984.417204970934
 10
-4802.554346248048
 20
-6984.630512884257
 10
-4802.924444591571
 20
-6985.001522802114
 10
-4803.583511348031
 20
-6984.779913878944
 10
-4803.583511348031
 20
-6987.242167466106
 10
-4803.583511348038
 20
-6987.431546608303
 10
-4802.517383294667
 20
-6987.698078621645
 10
-4675.450385649927
 20
-6987.698078621646
 10
-4675.450385649931
 20
-6986.947826478909
 10
-4676.109452406398
 20
-6986.726217555691
 10
-4676.479550754188
 20
-6986.512909642368
 10
-4676.109452406383
 20
-6986.141899724244
 10
-4675.450385649927
 20
-6986.363508647457
 10
-4675.450385649927
 20
-6983.890413052273
 10
-4676.109452406395
 20
-6983.668804129104
 10
-4676.479550754192
 20
-6983.454584643327
 10
-4676.109452406387
 20
-6983.08448629766
 10
-4675.450385649924
 20
-6983.306095220877
 97
        0
 75
     0
 76
     1
 52
90.0
 41
1.0
 77
     0
 78
     1
 53
135.0
 43
-32482.53127089704
 44
-3123.107951617705
 45
-2.245064030267288
 46
-2.245064030267287
 79
     0
 47
0.1764240455755443
 98
        1
 10
-4764.347103333223
 20
-6982.972001238913
  0
HATCH
  5
29EA
330
1F
100
AcDbEntity
  8
CETRIS
370
    20
100
AcDbHatch
 10
0.0
 20
0.0
 30
0.0
210
0.0
220
0.0
230
1.0
  2
ANSI31
 70
     0
 71
     0
 91
        2
 92
        7
 72
     1
 73
     1
 93
       29
 10
-4806.228894107515
 20
-6977.775434619562
 42
0.0
 10
-4806.887960863961
 20
-6977.553977275673
 42
0.0
 10
-4807.25805921178
 20
-6977.339757789883
 42
0.0
 10
-4806.887960863968
 20
-6976.969659444218
 42
0.0
 10
-4806.228894107512
 20
-6977.191116788154
 42
0.0
 10
-4806.228894107512
 20
-6975.698078621646
 42
0.0
 10
-4853.991337771137
 20
-6975.698078621646
 42
0.0
 10
-4853.991337771134
 20
-6981.143376057338
 42
-1.0
 10
-4853.991337771134
 20
-6983.643376057338
 42
-1.0
 10
-4853.991337771134
 20
-6981.143376057338
 42
0.0
 10
-4853.991337771134
 20
-6975.698078621646
 42
0.0
 10
-4972.150482316428
 20
-6975.698078621646
 42
0.0
 10
-4972.150482316428
 20
-6987.698078621646
 42
0.0
 10
-4806.228894107512
 20
-6987.698078621646
 42
0.0
 10
-4806.228894107512
 20
-6986.94782647891
 42
0.0
 10
-4806.887960863979
 20
-6986.726217555696
 42
0.0
 10
-4807.25805921178
 20
-6986.512909642368
 42
0.0
 10
-4806.887960863975
 20
-6986.141899724244
 42
0.0
 10
-4806.228894107508
 20
-6986.363508647459
 42
0.0
 10
-4806.228894107519
 20
-6983.890413052273
 42
0.0
 10
-4806.887960863975
 20
-6983.668804129104
 42
0.0
 10
-4807.258059211783
 20
-6983.454584643324
 42
0.0
 10
-4806.887960863975
 20
-6983.08448629766
 42
0.0
 10
-4806.228894107512
 20
-6983.306095220877
 42
0.0
 10
-4806.228894107512
 20
-6980.832999625691
 42
0.0
 10
-4806.887960863957
 20
-6980.611390702527
 42
0.0
 10
-4807.25805921178
 20
-6980.397171216736
 42
0.0
 10
-4806.887960863975
 20
-6980.027072871071
 42
0.0
 10
-4806.228894107512
 20
-6980.248681794241
 42
0.0
 97
        0
 92
        7
 72
     0
 73
     1
 93
       23
 10
-4656.720439172982
 20
-6975.698078621646
 10
-4672.01564380649
 20
-6975.698078621646
 10
-4672.14593613399
 20
-6975.8283709499
 10
-4672.533426587571
 20
-6975.698078621646
 10
-4672.805002890449
 20
-6975.698078621646
 10
-4672.805002890442
 20
-6978.080009201363
 10
-4672.14593613399
 20
-6978.3014665453
 10
-4671.775837790456
 20
-6978.515686031087
 10
-4672.145936133986
 20
-6978.885784376481
 10
-4672.805002890442
 20
-6978.664327032589
 10
-4672.805002890439
 20
-6981.138182620911
 10
-4672.145936133979
 20
-6981.359791544081
 10
-4671.77583779046
 20
-6981.573099457668
 10
-4672.145936133986
 20
-6981.944109375522
 10
-4672.805002890446
 20
-6981.722500452353
 10
-4672.805002890449
 20
-6984.195596047718
 10
-4672.145936133983
 20
-6984.41720497093
 10
-4671.775837790463
 20
-6984.63051288426
 10
-4672.14593613399
 20
-6985.001522802114
 10
-4672.805002890446
 20
-6984.779913878944
 10
-4672.805002890446
 20
-6987.431546608305
 10
-4671.738874837082
 20
-6987.698078621646
 10
-4656.720439172982
 20
-6987.698078621646
 97
        0
 75
     0
 76
     1
 52
90.0
 41
1.0
 77
     0
 78
     1
 53
135.0
 43
-32482.53127089704
 44
-3123.107951617705
 45
-2.245064030267288
 46
-2.245064030267287
 79
     0
 47
0.4519862576681119
 98
        3
 10
-4711.468862516851
 20
-6981.659507591159
 10
-4839.0072555016
 20
-6978.947583810462
 10
-4659.00623919707
 20
-6980.30354570081
  0
HATCH
  5
29EB
330
1F
100
AcDbEntity
  8
CETRIS
370
    20
100
AcDbHatch
 10
0.0
 20
0.0
 30
0.0
210
0.0
220
0.0
230
1.0
  2
ANSI31
 70
     0
 71
     0
 91
        6
 92
        7
 72
     0
 73
     1
 93
       15
 10
-4314.204819805355
 20
-6963.698078621646
 10
-4574.315033262776
 20
-6963.698078621646
 10
-4574.315033262776
 20
-6964.874006862846
 10
-4575.63772464466
 20
-6965.603264686589
 10
-4576.726141947
 20
-6966.650661236201
 10
-4577.506447816732
 20
-6967.943270728937
 10
-4577.925771063752
 20
-6969.394493798642
 10
-4577.990492696036
 20
-6970.165683947316
 10
-4577.990492696036
 20
-6974.132943368617
 10
-4577.331425939576
 20
-6973.911334445448
 10
-4576.961327591775
 20
-6974.282344363301
 10
-4577.331425939576
 20
-6974.495652276629
 10
-4577.990492696033
 20
-6974.717261199841
 10
-4577.990492696036
 20
-6975.698078621646
 10
-4314.204819805355
 20
-6975.698078621646
 97
        0
 92
        7
 72
     0
 73
     1
 93
       13
 10
-4580.635875455514
 20
-6970.165683947334
 10
-4580.858299088579
 20
-6968.67252855295
 10
-4581.459025220744
 20
-6967.286938687455
 10
-4582.397944669329
 20
-6966.103717868202
 10
-4583.610335802044
 20
-6965.203996027971
 10
-4584.311334884499
 20
-6964.874006862842
 10
-4584.311334884502
 20
-6963.698078621646
 10
-4596.720439172982
 20
-6963.698078621646
 10
-4596.720439172986
 20
-6975.698078621646
 10
-4581.425234539473
 20
-6975.698078621646
 10
-4581.665040555503
 20
-6975.458272604232
 10
-4581.294942211985
 20
-6975.244053118449
 10
-4580.635875455517
 20
-6975.022444195281
 97
        0
 92
        7
 72
     0
 73
     1
 93
       13
 10
-4656.720439172982
 20
-6963.698078621646
 10
-4669.129543461461
 20
-6963.698078621646
 10
-4669.129543461461
 20
-6964.874006862841
 10
-4669.830542543909
 20
-6965.203996027963
 10
-4671.042933676638
 20
-6966.103717868204
 10
-4671.981853125205
 20
-6967.286938687445
 10
-4672.582579257369
 20
-6968.672528552928
 10
-4672.805002890446
 20
-6970.165683947299
 10
-4672.805002890449
 20
-6975.022444195279
 10
-4672.145936133983
 20
-6975.244053118449
 10
-4671.775837790463
 20
-6975.458272604234
 10
-4672.015643806487
 20
-6975.698078621646
 10
-4656.720439172977
 20
-6975.698078621646
 97
        0
 92
        7
 72
     0
 73
     1
 93
       24
 10
-4675.515107282222
 20
-6969.39449379864
 10
-4675.934430529228
 20
-6967.943270728951
 10
-4676.714736398944
 20
-6966.650661236214
 10
-4677.803153701307
 20
-6965.603264686588
 10
-4679.125845083187
 20
-6964.874006862842
 10
-4679.125845083187
 20
-6963.698078621646
 10
-4799.908051919049
 20
-6963.698078621646
 10
-4799.908051919049
 20
-6964.874006862842
 10
-4800.609051001487
 20
-6965.20399602797
 10
-4801.821442134208
 20
-6966.103717868207
 10
-4802.760361582801
 20
-6967.286938687447
 10
-4803.361087714961
 20
-6968.67252855294
 10
-4803.583511348027
 20
-6970.165683947294
 10
-4803.583511348027
 20
-6975.022444195279
 10
-4802.924444591578
 20
-6975.244053118446
 10
-4802.554346248048
 20
-6975.458272604234
 10
-4802.794152264072
 20
-6975.698078621646
 10
-4675.450385649934
 20
-6975.698078621646
 10
-4675.450385649924
 20
-6974.717261199844
 10
-4676.109452406387
 20
-6974.495652276626
 10
-4676.479550754188
 20
-6974.282344363299
 10
-4676.109452406383
 20
-6973.911334445448
 10
-4675.450385649927
 20
-6974.132943368613
 10
-4675.450385649927
 20
-6970.165683947299
 97
        0
 92
        7
 72
     0
 73
     1
 93
       15
 10
-4806.712938986809
 20
-6967.943270728937
 10
-4807.493244856537
 20
-6966.650661236221
 10
-4808.581662158881
 20
-6965.603264686594
 10
-4809.904353540772
 20
-6964.874006862841
 10
-4809.904353540772
 20
-6963.698078621646
 10
-4853.991337771137
 20
-6963.698078621646
 10
-4853.991337771137
 20
-6975.698078621646
 10
-4806.228894107512
 20
-6975.698078621646
 10
-4806.228894107515
 20
-6974.717261199841
 10
-4806.887960863964
 20
-6974.495652276626
 10
-4807.258059211773
 20
-6974.282344363301
 10
-4806.887960863972
 20
-6973.911334445448
 10
-4806.228894107512
 20
-6974.132943368615
 10
-4806.228894107512
 20
-6970.165683947278
 10
-4806.293615739796
 20
-6969.394493798654
 97
        0
 92
        7
 72
     1
 73
     1
 93
        9
 10
-4853.991337771134
 20
-6963.698078621646
 42
0.0
 10
-4900.873652585301
 20
-6963.698078621646
 42
0.0
 10
-4900.873652585301
 20
-6969.502263951717
 42
-1.0
 10
-4900.873652585301
 20
-6972.002263951718
 42
-1.0
 10
-4900.873652585301
 20
-6969.502263951717
 42
0.0
 10
-4900.873652585297
 20
-6963.698078621646
 42
0.0
 10
-4972.150482316425
 20
-6963.698078621646
 42
0.0
 10
-4972.150482316425
 20
-6975.698078621646
 42
0.0
 10
-4853.991337771137
 20
-6975.698078621646
 42
0.0
 97
        0
 75
     0
 76
     1
 52
0.0
 41
1.0
 77
     0
 78
     1
 53
45.0
 43
-32482.53127089704
 44
-3123.107951617705
 45
-2.245064030267287
 46
2.245064030267288
 79
     0
 47
0.6180772498725088
 98
        6
 10
-4468.161301442992
 20
-6969.400171218383
 10
-4591.234209633639
 20
-6971.872484820663
 10
-4664.212126186098
 20
-6970.636328019523
 10
-4682.765815503647
 20
-6970.018256564981
 10
-4818.207857721582
 20
-6968.782099763842
 10
-4877.579729188703
 20
-6970.636328019523
  0
HATCH
  5
29EC
330
1F
100
AcDbEntity
  8
STAVBA OBRYS
370
    20
100
AcDbHatch
 10
0.0
 20
0.0
 30
0.0
210
0.0
220
0.0
230
1.0
  2
ANSI35
 70
     0
 71
     0
 91
        7
 92
        7
 72
     0
 73
     1
 93
        4
 10
-4314.204819805355
 20
-7110.698078621647
 10
-4972.150482316428
 20
-7110.698078621647
 10
-4972.150482316428
 20
-7230.521006722543
 10
-4314.204819805355
 20
-7230.521006722543
 97
        0
 92
       24
 93
        4
 72
     1
 10
-4396.02156801286
 20
-7194.221091057963
 11
-4355.40330402923
 21
-7194.221091057963
 72
     1
 10
-4355.40330402923
 20
-7194.221091057963
 11
-4355.40330402923
 21
-7156.567612203939
 72
     1
 10
-4355.40330402923
 20
-7156.567612203939
 11
-4396.02156801286
 21
-7156.567612203939
 72
     1
 10
-4396.02156801286
 20
-7156.567612203939
 11
-4396.02156801286
 21
-7194.221091057963
 97
        0
 92
       24
 93
        4
 72
     1
 10
-4453.197455130724
 20
-7194.754003745548
 11
-4412.366026072056
 21
-7194.754003745548
 72
     1
 10
-4412.366026072056
 20
-7194.754003745548
 11
-4412.366026072056
 21
-7156.461029666421
 72
     1
 10
-4412.366026072056
 20
-7156.461029666421
 11
-4453.197455130724
 21
-7156.461029666421
 72
     1
 10
-4453.197455130724
 20
-7156.461029666421
 11
-4453.197455130724
 21
-7194.754003745548
 97
        0
 92
       24
 93
        4
 72
     1
 10
-4507.838283653771
 20
-7194.754003745548
 11
-4467.006854595102
 21
-7194.754003745548
 72
     1
 10
-4467.006854595102
 20
-7194.754003745548
 11
-4467.006854595102
 21
-7156.461029666421
 72
     1
 10
-4467.006854595102
 20
-7156.461029666421
 11
-4507.838283653771
 21
-7156.461029666421
 72
     1
 10
-4507.838283653771
 20
-7156.461029666421
 11
-4507.838283653771
 21
-7194.754003745548
 97
        0
 92
       24
 93
        4
 72
     1
 10
-4711.908591180362
 20
-7194.221091057963
 11
-4671.290327196732
 21
-7194.221091057963
 72
     1
 10
-4671.290327196732
 20
-7194.221091057963
 11
-4671.290327196732
 21
-7156.567612203939
 72
     1
 10
-4671.290327196732
 20
-7156.567612203939
 11
-4711.908591180362
 21
-7156.567612203939
 72
     1
 10
-4711.908591180362
 20
-7156.567612203939
 11
-4711.908591180362
 21
-7194.221091057963
 97
        0
 92
       24
 93
        4
 72
     1
 10
-4587.353371514272
 20
-7194.754003745548
 11
-4546.521942455604
 21
-7194.754003745548
 72
     1
 10
-4546.521942455604
 20
-7194.754003745548
 11
-4546.521942455604
 21
-7156.461029666421
 72
     1
 10
-4546.521942455604
 20
-7156.461029666421
 11
-4587.353371514272
 21
-7156.461029666421
 72
     1
 10
-4587.353371514272
 20
-7156.461029666421
 11
-4587.353371514272
 21
-7194.754003745548
 97
        0
 92
       24
 93
        4
 72
     1
 10
-4652.337153725718
 20
-7194.775320253052
 11
-4611.49719806405
 21
-7194.775320253052
 72
     1
 10
-4611.49719806405
 20
-7194.775320253052
 11
-4611.49719806405
 21
-7156.456766364922
 72
     1
 10
-4611.49719806405
 20
-7156.456766364922
 11
-4652.337153725718
 21
-7156.456766364922
 72
     1
 10
-4652.337153725718
 20
-7156.456766364922
 11
-4652.337153725718
 21
-7194.775320253054
 97
        0
 75
     0
 76
     1
 52
0.0
 41
3.0
 77
     0
 78
     2
 53
45.0
 43
-32482.53127089704
 44
-3223.107951617705
 45
-13.47038418160372
 46
13.47038418160373
 79
     0
 53
45.0
 43
-32469.06088089704
 44
-3223.107951617705
 45
-13.47038418160372
 46
13.47038418160373
 79
     4
 49
23.8125
 49
-4.762499999999999
 49
0.0
 49
-4.762499999999999
 47
1.485722625104592
 98
        1
 10
-4788.566423963005
 20
-7161.558930238689
  0
LWPOLYLINE
  5
29ED
330
1F
100
AcDbEntity
  8
nášlap_vrstvy
100
AcDbPolyline
 90
        2
 70
     0
 43
0.0
 10
-4632.039198829456
 20
-6956.737829233181
 10
-4972.150482316428
 20
-6956.737829233181
  0
LINE
  5
29EE
330
1F
100
AcDbEntity
  8
STAVBA OBRYS
100
AcDbLine
 10
-4972.150482316428
 20
-7240.521006722544
 30
0.0
 11
-4314.204819805355
 21
-7240.521006722544
 31
0.0
  0
LINE
  5
29EF
330
1F
100
AcDbEntity
  8
STAVBA OBRYS
100
AcDbLine
 10
-4972.150482316425
 20
-7230.521006722543
 30
0.0
 11
-4314.204819805355
 21
-7230.521006722543
 31
0.0
  0
LWPOLYLINE
  5
29F0
330
1F
100
AcDbEntity
  8
izolace
100
AcDbPolyline
 90
        4
 70
     0
 43
0.0
 10
-4972.150482316428
 20
-7107.698078621647
 10
-4314.204819805359
 20
-7107.698078621647
 10
-4314.204819805359
 20
-7110.698078621647
 10
-4972.150482316428
 20
-7110.698078621647
  0
LWPOLYLINE
  5
29F1
330
1F
100
AcDbEntity
  8
nášlap_vrstvy
100
AcDbPolyline
 90
        2
 70
     0
 43
0.0
 10
-4972.150482316428
 20
-6961.07631825913
 10
-4632.039198829456
 20
-6961.07631825913
  0
LINE
  5
29F2
330
1F
100
AcDbEntity
  8
CETRIS
100
AcDbLine
 10
-4972.150482316428
 20
-6975.698078621646
 30
0.0
 11
-4656.720439172982
 21
-6975.698078621646
 31
0.0
  0
LINE
  5
29F3
330
1F
100
AcDbEntity
  8
CETRIS
100
AcDbLine
 10
-4972.150482316428
 20
-6987.698078621646
 30
0.0
 11
-4656.720439172982
 21
-6987.698078621646
 31
0.0
  0
LINE
  5
29F4
330
1F
100
AcDbEntity
  8
CETRIS
100
AcDbLine
 10
-4972.150482316428
 20
-6963.698078621646
 30
0.0
 11
-4314.204819805355
 21
-6963.698078621644
 31
0.0
  0
HATCH
  5
29F5
330
1F
100
AcDbEntity
  8
STAVBA OBRYS
370
    20
100
AcDbHatch
 10
0.0
 20
0.0
 30
0.0
210
0.0
220
0.0
230
1.0
  2
AR-CONC
 70
     0
 71
     0
 91
        1
 92
        7
 72
     0
 73
     1
 93
        4
 10
-4314.204819805359
 20
-7230.521006722542
 10
-4972.150482316428
 20
-7230.521006722543
 10
-4972.150482316428
 20
-7240.521006722544
 10
-4314.204819805355
 20
-7240.521006722544
 97
        0
 75
     0
 76
     1
 52
90.0
 41
0.1
 77
     0
 78
    13
 53
140.0
 43
-34145.82817803759
 44
-3223.107951617705
 45
1.593908553890309
 46
18.2184668996004
 79
     2
 49
1.905
 49
-20.955
 53
85.00000000000001
 43
-34145.82817803759
 44
-3223.107951617705
 45
-19.10566428821799
 46
-3.524282597566697
 79
     2
 49
1.524
 49
-16.764
 53
190.4509999999999
 43
-34145.69535303759
 44
-3221.589751617704
 45
-17.51166878202918
 46
14.69425016659592
 79
     2
 49
1.619
 49
-17.809
 53
136.1841999999999
 43
-34150.90817803759
 44
-3223.107951617705
 45
4.204232793272717
 46
27.10790408921299
 79
     2
 49
2.857499999999999
 49
-31.4325
 53
186.6355999999999
 43
-34150.55782803759
 44
-3220.848961617704
 45
-24.74255558900492
 46
23.74042344662371
 79
     2
 49
2.4285
 49
-26.7135
 53
81.18400000000004
 43
-34150.90817803759
 44
-3223.107951617705
 45
-24.74251178605976
 46
23.74046058139339
 79
     2
 49
2.286
 49
-25.146
 53
111.0
 43
-34149.63817803759
 44
-3220.567951617704
 45
10.22655185167625
 46
15.16148798353833
 79
     2
 49
1.905
 49
-20.955
 53
56.00000000000004
 43
-34149.63817803759
 44
-3220.567951617704
 45
-18.41879661223192
 46
6.180202834764708
 79
     2
 49
1.524
 49
-16.764
 53
161.4514
 43
-34148.78596803759
 44
-3219.304501617703
 45
-8.192285771605742
 46
21.34164907701245
 79
     2
 49
1.618999999999997
 49
-17.80899999999995
 53
127.5
 43
-34145.82817803759
 44
-3223.107951617705
 45
-8.455503887315311
 46
0.3088603250591822
 79
     6
 49
0.0
 49
-16.5608
 49
0.0
 49
-17.018
 49
0.0
 49
-16.8275
 53
97.49999999999985
 43
-34145.82817803759
 44
-3223.107951617705
 45
-10.01805748181195
 46
6.681966251030575
 79
     6
 49
0.0
 49
-9.702799999999998
 49
0.0
 49
-16.17979999999999
 49
0.0
 49
-6.413499999999999
 53
57.5
 43
-34145.82817803759
 44
-3228.772151617704
 45
0.5728743992673473
 46
13.55905951668713
 79
     6
 49
0.0
 49
-6.35
 49
0.0
 49
-19.812
 49
0.0
 49
-26.289
 53
47.5
 43
-34145.82817803759
 44
-3231.312151617705
 45
-2.5426491033333
 46
14.8129181386018
 79
     6
 49
0.0
 49
-8.255
 49
0.0
 49
-13.1572
 49
0.0
 49
-18.669
 47
1.084445008349079
 98
        1
 10
-4606.005946684763
 20
-7236.922287528499
  0
LINE
  5
29F6
330
1F
100
AcDbEntity
  8
izolace
  6
IZOLACE
 48
3.0
100
AcDbLine
 10
-4972.150482316428
 20
-7017.698078621646
 30
0.0
 11
-4729.983364952291
 21
-7017.698078621646
 31
0.0
  0
LWPOLYLINE
  5
29F7
330
1F
100
AcDbEntity
  8
izolace
100
AcDbPolyline
 90
        4
 70
     1
 43
0.0
 10
-4836.527901340293
 20
-7107.698078621647
 10
-4860.169634050128
 20
-7107.698078621647
 10
-4860.169634050128
 20
-7110.698078621647
 10
-4836.527901340293
 20
-7110.698078621647
  0
HATCH
  5
29F8
330
1F
100
AcDbEntity
  8
izolace
100
AcDbHatch
 10
0.0
 20
0.0
 30
0.0
210
0.0
220
0.0
230
1.0
  2
SOLID
 70
     1
 71
     0
 91
        1
 92
        7
 72
     0
 73
     1
 93
        4
 10
-4860.169634050128
 20
-7107.698078621647
 10
-4860.169634050128
 20
-7110.698078621647
 10
-4836.527901340289
 20
-7110.698078621647
 10
-4836.527901340289
 20
-7107.698078621647
 97
        0
 75
     0
 76
     1
 47
0.1901250437635136
 98
        1
 10
-4850.811839291785
 20
-7108.514890172727
  0
LWPOLYLINE
  5
29F9
330
1F
100
AcDbEntity
  8
izolace
100
AcDbPolyline
 90
        4
 70
     1
 43
0.0
 10
-4931.094832179634
 20
-7107.698078621647
 10
-4954.736564889469
 20
-7107.698078621647
 10
-4954.736564889469
 20
-7110.698078621647
 10
-4931.094832179634
 20
-7110.698078621647
  0
HATCH
  5
29FA
330
1F
100
AcDbEntity
  8
izolace
100
AcDbHatch
 10
0.0
 20
0.0
 30
0.0
210
0.0
220
0.0
230
1.0
  2
SOLID
 70
     1
 71
     0
 91
        1
 92
        7
 72
     0
 73
     1
 93
        4
 10
-4954.736564889469
 20
-7107.698078621647
 10
-4954.736564889465
 20
-7110.698078621647
 10
-4931.09483217963
 20
-7110.698078621647
 10
-4931.09483217963
 20
-7107.698078621647
 97
        0
 75
     0
 76
     1
 47
0.1901250437635136
 98
        1
 10
-4945.378770131125
 20
-7108.514890172727
  0
LINE
  5
29FB
330
1F
100
AcDbEntity
  8
izolace
100
AcDbLine
 10
-4972.150482316428
 20
-7110.698078621647
 30
0.0
 11
-4933.25986412393
 21
-7110.698078621647
 31
0.0
  0
LWPOLYLINE
  5
29FC
330
1F
100
AcDbEntity
  8
izolace
100
AcDbPolyline
 90
        4
 70
     1
 43
0.0
 10
-4883.811366759964
 20
-7107.698078621647
 10
-4907.453099469798
 20
-7107.698078621647
 10
-4907.453099469798
 20
-7110.698078621647
 10
-4883.811366759964
 20
-7110.698078621647
  0
HATCH
  5
29FD
330
1F
100
AcDbEntity
  8
izolace
100
AcDbHatch
 10
0.0
 20
0.0
 30
0.0
210
0.0
220
0.0
230
1.0
  2
SOLID
 70
     1
 71
     0
 91
        1
 92
        7
 72
     0
 73
     1
 93
        4
 10
-4907.453099469795
 20
-7107.698078621647
 10
-4907.453099469798
 20
-7110.698078621647
 10
-4883.81136675996
 20
-7110.698078621647
 10
-4883.81136675996
 20
-7107.698078621647
 97
        0
 75
     0
 76
     1
 47
0.1901250437635136
 98
        1
 10
-4898.095304711455
 20
-7108.514890172727
  0
LINE
  5
29FE
330
1F
100
AcDbEntity
  8
POPIS
370
    20
100
AcDbLine
 10
-4953.028279096149
 20
-6891.404619868459
 30
0.0
 11
-4953.028279096149
 21
-6956.816675669839
 31
0.0
  0
LINE
  5
2A00
330
1F
100
AcDbEntity
  8
POPIS
370
    20
100
AcDbLine
 10
-4853.991337771134
 20
-6891.404619868459
 30
0.0
 11
-4853.991337771134
 21
-6981.143376057338
 31
0.0
  0
LINE
  5
2A01
330
1F
100
AcDbEntity
  8
POPIS
370
    20
100
AcDbLine
 10
-4900.873652585301
 20
-6891.404619868459
 30
0.0
 11
-4900.873652585301
 21
-6970.752263951718
 31
0.0
  0
INSERT
  5
2A02
330
1F
100
AcDbEntity
  8
POPIS
100
AcDbBlockReference
  2
E_PUNKT
 10
-4900.902720916175
 20
-6970.72465357609
 30
0.0
 50
270.0
  0
LINE
  5
2A03
330
1F
100
AcDbEntity
  8
SPOJOVACÍ
  6
DASHED
100
AcDbLine
 10
-4860.913011136257
 20
-6970.165683947313
 30
0.0
 11
-4860.913011136257
 21
-6975.009779042662
 31
0.0
  0
LINE
  5
2A04
330
1F
100
AcDbEntity
  8
SPOJOVACÍ
  6
DASHED
100
AcDbLine
 10
-4863.558393895738
 20
-6974.706225473392
 30
0.0
 11
-4863.558393895738
 21
-6977.17476320732
 31
0.0
  0
LINE
  5
2A05
330
1F
100
AcDbEntity
  8
SPOJOVACÍ
  6
DASHED
100
AcDbLine
 10
-4864.587559000002
 20
-6974.282344363301
 30
0.0
 11
-4859.883846036271
 21
-6975.458272604234
 31
0.0
  0
LINE
  5
2A06
330
1F
100
AcDbEntity
  8
SPOJOVACÍ
  6
DASHED
100
AcDbLine
 10
-4864.217460652198
 20
-6974.495652276629
 30
0.0
 11
-4860.253944379797
 21
-6975.8283709499
 31
0.0
  0
LINE
  5
2A07
330
1F
100
AcDbEntity
  8
SPOJOVACÍ
  6
DASHED
100
AcDbLine
 10
-4864.217460652198
 20
-6973.911334445448
 30
0.0
 11
-4860.253944379797
 21
-6975.244053118448
 31
0.0
  0
LINE
  5
2A08
330
1F
100
AcDbEntity
  8
SPOJOVACÍ
  6
DASHED
100
AcDbLine
 10
-4859.883846036271
 20
-6975.458272604234
 30
0.0
 11
-4860.253944379797
 21
-6975.8283709499
 31
0.0
  0
LINE
  5
2A09
330
1F
100
AcDbEntity
  8
SPOJOVACÍ
  6
DASHED
100
AcDbLine
 10
-4859.883846036271
 20
-6975.458272604234
 30
0.0
 11
-4860.253944379797
 21
-6975.244053118448
 31
0.0
  0
LINE
  5
2A0A
330
1F
100
AcDbEntity
  8
SPOJOVACÍ
  6
DASHED
100
AcDbLine
 10
-4859.883846036271
 20
-6978.515686031087
 30
0.0
 11
-4860.253944379797
 21
-6978.885784376481
 31
0.0
  0
LINE
  5
2A0B
330
1F
100
AcDbEntity
  8
SPOJOVACÍ
  6
DASHED
100
AcDbLine
 10
-4859.883846036271
 20
-6978.515686031087
 30
0.0
 11
-4860.253944379797
 21
-6978.301466545301
 31
0.0
  0
LINE
  5
2A0C
330
1F
100
AcDbEntity
  8
SPOJOVACÍ
  6
DASHED
100
AcDbLine
 10
-4859.883846036271
 20
-6981.573099457669
 30
0.0
 11
-4860.253944379797
 21
-6981.944109375523
 31
0.0
  0
LINE
  5
2A0D
330
1F
100
AcDbEntity
  8
SPOJOVACÍ
  6
DASHED
100
AcDbLine
 10
-4859.883846036271
 20
-6981.573099457669
 30
0.0
 11
-4860.253944379797
 21
-6981.359791544079
 31
0.0
  0
LINE
  5
2A0E
330
1F
100
AcDbEntity
  8
SPOJOVACÍ
  6
DASHED
100
AcDbLine
 10
-4859.883846036271
 20
-6984.63051288426
 30
0.0
 11
-4860.253944379797
 21
-6985.001522802114
 31
0.0
  0
LINE
  5
2A0F
330
1F
100
AcDbEntity
  8
SPOJOVACÍ
  6
DASHED
100
AcDbLine
 10
-4859.883846036271
 20
-6984.63051288426
 30
0.0
 11
-4860.253944379797
 21
-6984.417204970933
 31
0.0
  0
LINE
  5
2A10
330
1F
100
AcDbEntity
  8
SPOJOVACÍ
  6
DASHED
100
AcDbLine
 10
-4859.883846036271
 20
-6987.688837883301
 30
0.0
 11
-4860.253944379797
 21
-6988.058936228966
 31
0.0
  0
LINE
  5
2A11
330
1F
100
AcDbEntity
  8
SPOJOVACÍ
  6
DASHED
100
AcDbLine
 10
-4859.883846036271
 20
-6987.688837883301
 30
0.0
 11
-4860.253944379797
 21
-6987.474618397515
 31
0.0
  0
INSERT
  5
2A12
330
1F
100
AcDbEntity
  8
POPIS
100
AcDbBlockReference
  2
E_PUNKT
 10
-4854.020406102008
 20
-6982.36576568171
 30
0.0
 50
270.0
  0
LINE
  5
2A13
330
1F
100
AcDbEntity
  8
SPOJOVACÍ
  6
DASHED
100
AcDbLine
 10
-4860.913011136257
 20
-6975.601389452151
 30
0.0
 11
-4860.913011136257
 21
-6978.06992718608
 31
0.0
  0
LINE
  5
2A14
330
1F
100
AcDbEntity
  8
SPOJOVACÍ
  6
DASHED
100
AcDbLine
 10
-4864.587559000002
 20
-6977.339757789883
 30
0.0
 11
-4864.217460652198
 21
-6977.553977275668
 31
0.0
  0
LINE
  5
2A15
330
1F
100
AcDbEntity
  8
SPOJOVACÍ
  6
DASHED
100
AcDbLine
 10
-4864.587559000002
 20
-6977.339757789883
 30
0.0
 11
-4864.217460652198
 21
-6976.969659444218
 31
0.0
  0
LINE
  5
2A16
330
1F
100
AcDbEntity
  8
SPOJOVACÍ
  6
DASHED
100
AcDbLine
 10
-4863.558393895738
 20
-6980.819229182189
 30
0.0
 11
-4863.558393895738
 21
-6983.296882638801
 31
0.0
  0
LINE
  5
2A17
330
1F
100
AcDbEntity
  8
SPOJOVACÍ
  6
DASHED
100
AcDbLine
 10
-4860.913011136257
 20
-6981.714393160948
 30
0.0
 11
-4860.913011136257
 21
-6984.184754039524
 31
0.0
  0
LINE
  5
2A18
330
1F
100
AcDbEntity
  8
SPOJOVACÍ
  6
DASHED
100
AcDbLine
 10
-4863.558393895738
 20
-6983.889404620741
 30
0.0
 11
-4863.558393895738
 21
-6986.357030782482
 31
0.0
  0
LINE
  5
2A19
330
1F
100
AcDbEntity
  8
SPOJOVACÍ
  6
DASHED
100
AcDbLine
 10
-4863.558393895738
 20
-6986.941348613934
 30
0.0
 11
-4863.558393895738
 21
-6988.163767040984
 31
0.0
  0
LINE
  5
2A1A
330
1F
100
AcDbEntity
  8
SPOJOVACÍ
  6
DASHED
100
AcDbLine
 10
-4860.913011136257
 20
-6984.773629732178
 30
0.0
 11
-4860.913011136257
 21
-6987.242167466106
 31
0.0
  0
LINE
  5
2A1B
330
1F
100
AcDbEntity
  8
SPOJOVACÍ
  6
DASHED
100
AcDbLine
 10
-4860.913011136257
 20
-6987.833777875858
 30
0.0
 11
-4860.913011136257
 21
-6988.163767040984
 31
0.0
  0
LINE
  5
2A1C
330
1F
100
AcDbEntity
  8
SPOJOVACÍ
  6
DASHED
100
AcDbLine
 10
-4864.587559000002
 20
-6980.397171216736
 30
0.0
 11
-4864.217460652198
 21
-6980.611390702524
 31
0.0
  0
LINE
  5
2A1D
330
1F
100
AcDbEntity
  8
SPOJOVACÍ
  6
DASHED
100
AcDbLine
 10
-4864.587559000002
 20
-6980.397171216736
 30
0.0
 11
-4864.217460652198
 21
-6980.027072871071
 31
0.0
  0
LINE
  5
2A1E
330
1F
100
AcDbEntity
  8
SPOJOVACÍ
  6
DASHED
100
AcDbLine
 10
-4864.587559000002
 20
-6983.454584643327
 30
0.0
 11
-4864.217460652198
 21
-6983.668804129106
 31
0.0
  0
LINE
  5
2A1F
330
1F
100
AcDbEntity
  8
SPOJOVACÍ
  6
DASHED
100
AcDbLine
 10
-4864.587559000002
 20
-6983.454584643327
 30
0.0
 11
-4864.217460652198
 21
-6983.08448629766
 31
0.0
  0
LINE
  5
2A20
330
1F
100
AcDbEntity
  8
SPOJOVACÍ
  6
DASHED
100
AcDbLine
 10
-4864.587559000002
 20
-6986.512909642368
 30
0.0
 11
-4864.217460652198
 21
-6986.726217555696
 31
0.0
  0
LINE
  5
2A21
330
1F
100
AcDbEntity
  8
SPOJOVACÍ
  6
DASHED
100
AcDbLine
 10
-4864.587559000002
 20
-6986.512909642368
 30
0.0
 11
-4864.217460652198
 21
-6986.141899724244
 31
0.0
  0
LINE
  5
2A22
330
1F
100
AcDbEntity
  8
SPOJOVACÍ
  6
DASHED
100
AcDbLine
 10
-4863.558393895738
 20
-6977.766373616809
 30
0.0
 11
-4863.558393895738
 21
-6980.236734495384
 31
0.0
  0
LINE
  5
2A23
330
1F
100
AcDbEntity
  8
SPOJOVACÍ
  6
DASHED
100
AcDbLine
 10
-4860.913011136257
 20
-6978.654245017532
 30
0.0
 11
-4860.913011136257
 21
-6981.131898474143
 31
0.0
  0
LINE
  5
2A24
330
1F
100
AcDbEntity
  8
SPOJOVACÍ
  6
DASHED
100
AcDbLine
 10
-4864.587559000002
 20
-6977.339757789883
 30
0.0
 11
-4859.883846036271
 21
-6978.515686031087
 31
0.0
  0
LINE
  5
2A25
330
1F
100
AcDbEntity
  8
SPOJOVACÍ
  6
DASHED
100
AcDbLine
 10
-4864.587559000002
 20
-6980.397171216736
 30
0.0
 11
-4859.883846036271
 21
-6981.573099457669
 31
0.0
  0
LINE
  5
2A26
330
1F
100
AcDbEntity
  8
SPOJOVACÍ
  6
DASHED
100
AcDbLine
 10
-4864.587559000002
 20
-6983.454584643327
 30
0.0
 11
-4859.883846036271
 21
-6984.63051288426
 31
0.0
  0
LINE
  5
2A27
330
1F
100
AcDbEntity
  8
SPOJOVACÍ
  6
DASHED
100
AcDbLine
 10
-4864.587559000002
 20
-6986.512909642368
 30
0.0
 11
-4859.883846036271
 21
-6987.688837883301
 31
0.0
  0
LINE
  5
2A28
330
1F
100
AcDbEntity
  8
SPOJOVACÍ
  6
DASHED
100
AcDbLine
 10
-4864.217460652198
 20
-6977.553977275668
 30
0.0
 11
-4860.253944379797
 21
-6978.885784376481
 31
0.0
  0
LINE
  5
2A29
330
1F
100
AcDbEntity
  8
SPOJOVACÍ
  6
DASHED
100
AcDbLine
 10
-4864.217460652198
 20
-6976.969659444218
 30
0.0
 11
-4860.253944379797
 21
-6978.301466545301
 31
0.0
  0
LINE
  5
2A2A
330
1F
100
AcDbEntity
  8
SPOJOVACÍ
  6
DASHED
100
AcDbLine
 10
-4864.217460652198
 20
-6980.611390702524
 30
0.0
 11
-4860.253944379797
 21
-6981.944109375523
 31
0.0
  0
LINE
  5
2A2B
330
1F
100
AcDbEntity
  8
SPOJOVACÍ
  6
DASHED
100
AcDbLine
 10
-4864.217460652198
 20
-6980.027072871071
 30
0.0
 11
-4860.253944379797
 21
-6981.359791544079
 31
0.0
  0
LINE
  5
2A2C
330
1F
100
AcDbEntity
  8
SPOJOVACÍ
  6
DASHED
100
AcDbLine
 10
-4864.217460652198
 20
-6983.668804129106
 30
0.0
 11
-4860.253944379797
 21
-6985.001522802114
 31
0.0
  0
LINE
  5
2A2D
330
1F
100
AcDbEntity
  8
SPOJOVACÍ
  6
DASHED
100
AcDbLine
 10
-4864.217460652198
 20
-6983.08448629766
 30
0.0
 11
-4860.253944379797
 21
-6984.417204970933
 31
0.0
  0
LINE
  5
2A2E
330
1F
100
AcDbEntity
  8
SPOJOVACÍ
  6
DASHED
100
AcDbLine
 10
-4864.217460652198
 20
-6986.726217555696
 30
0.0
 11
-4860.253944379797
 21
-6988.058936228966
 31
0.0
  0
LINE
  5
2A2F
330
1F
100
AcDbEntity
  8
SPOJOVACÍ
  6
DASHED
100
AcDbLine
 10
-4864.217460652198
 20
-6986.141899724244
 30
0.0
 11
-4860.253944379797
 21
-6987.474618397515
 31
0.0
  0
LINE
  5
2A30
330
1F
100
AcDbEntity
  8
SPOJOVACÍ
  6
DASHED
100
AcDbLine
 10
-4863.335970258393
 20
-6989.94497927609
 30
0.0
 11
-4863.051559705865
 21
-6992.220263686433
 31
0.0
  0
LINE
  5
2A31
330
1F
100
AcDbEntity
  8
SPOJOVACÍ
  6
DASHED
100
AcDbLine
 10
-4862.974076061884
 20
-6992.838309692304
 30
0.0
 11
-4862.689665513633
 21
-6995.112682530453
 31
0.0
  0
LINE
  5
2A32
330
1F
100
AcDbEntity
  8
SPOJOVACÍ
  6
DASHED
100
AcDbLine
 10
-4861.818202410151
 20
-6995.410766666068
 30
0.0
 11
-4861.555669594406
 21
-6993.308680988786
 31
0.0
  0
LINE
  5
2A33
330
1F
100
AcDbEntity
  8
SPOJOVACÍ
  6
DASHED
100
AcDbLine
 10
-4861.485478532205
 20
-6992.748064036625
 30
0.0
 11
-4861.223857285974
 21
-6990.654182509828
 31
0.0
  0
LINE
  5
2A34
330
1F
100
AcDbEntity
  8
SPOJOVACÍ
  6
DASHED
100
AcDbLine
 10
-4864.33869976547
 20
-6989.528390744036
 30
0.0
 11
-4863.967689848151
 21
-6989.742610229821
 31
0.0
  0
LINE
  5
2A35
330
1F
100
AcDbEntity
  8
SPOJOVACÍ
  6
DASHED
100
AcDbLine
 10
-4864.33869976547
 20
-6989.528390744036
 30
0.0
 11
-4863.967689848151
 21
-6989.158292398371
 31
0.0
  0
LINE
  5
2A36
330
1F
100
AcDbEntity
  8
SPOJOVACÍ
  6
DASHED
100
AcDbLine
 10
-4863.967689848151
 20
-6989.742610229821
 30
0.0
 11
-4860.665975049307
 21
-6990.852905266819
 31
0.0
  0
LINE
  5
2A37
330
1F
100
AcDbEntity
  8
SPOJOVACÍ
  6
DASHED
100
AcDbLine
 10
-4863.967689848151
 20
-6989.158292398371
 30
0.0
 11
-4860.665975049307
 21
-6990.268587435366
 31
0.0
  0
LINE
  5
2A38
330
1F
100
AcDbEntity
  8
SPOJOVACÍ
  6
DASHED
100
AcDbLine
 10
-4863.785375393486
 20
-6992.482796503248
 30
0.0
 11
-4863.415277045682
 21
-6992.696104416575
 31
0.0
  0
LINE
  5
2A39
330
1F
100
AcDbEntity
  8
SPOJOVACÍ
  6
DASHED
100
AcDbLine
 10
-4863.785375393486
 20
-6992.482796503248
 30
0.0
 11
-4863.415277045682
 21
-6992.111786585123
 31
0.0
  0
LINE
  5
2A3A
330
1F
100
AcDbEntity
  8
SPOJOVACÍ
  6
DASHED
100
AcDbLine
 10
-4860.731608255384
 20
-6993.103577225681
 30
0.0
 11
-4861.10170659891
 21
-6993.474587143535
 31
0.0
  0
LINE
  5
2A3B
330
1F
100
AcDbEntity
  8
SPOJOVACÍ
  6
DASHED
100
AcDbLine
 10
-4860.731608255384
 20
-6993.103577225681
 30
0.0
 11
-4861.10170659891
 21
-6992.890269312354
 31
0.0
  0
LINE
  5
2A3C
330
1F
100
AcDbEntity
  8
SPOJOVACÍ
  6
DASHED
100
AcDbLine
 10
-4863.415277045682
 20
-6992.696104416575
 30
0.0
 11
-4861.10170659891
 21
-6993.474587143535
 31
0.0
  0
LINE
  5
2A3D
330
1F
100
AcDbEntity
  8
SPOJOVACÍ
  6
DASHED
100
AcDbLine
 10
-4863.415277045682
 20
-6992.111786585123
 30
0.0
 11
-4861.10170659891
 21
-6992.890269312354
 31
0.0
  0
LINE
  5
2A3E
330
1F
100
AcDbEntity
  8
SPOJOVACÍ
  6
DASHED
100
AcDbLine
 10
-4863.785375393486
 20
-6992.482796503248
 30
0.0
 11
-4860.731608255384
 21
-6993.103577225681
 31
0.0
  0
LINE
  5
2A3F
330
1F
100
AcDbEntity
  8
SPOJOVACÍ
  6
DASHED
100
AcDbLine
 10
-4863.232051017224
 20
-6995.43629069
 30
0.0
 11
-4862.861952673697
 21
-6995.65051017578
 31
0.0
  0
LINE
  5
2A40
330
1F
100
AcDbEntity
  8
SPOJOVACÍ
  6
DASHED
100
AcDbLine
 10
-4863.232051017224
 20
-6995.43629069
 30
0.0
 11
-4862.861952673697
 21
-6995.066192344335
 31
0.0
  0
LINE
  5
2A41
330
1F
100
AcDbEntity
  8
SPOJOVACÍ
  6
DASHED
100
AcDbLine
 10
-4861.120849618597
 20
-6995.740755831459
 30
0.0
 11
-4861.490947962123
 21
-6996.111765749311
 31
0.0
  0
LINE
  5
2A42
330
1F
100
AcDbEntity
  8
SPOJOVACÍ
  6
DASHED
100
AcDbLine
 10
-4861.120849618597
 20
-6995.740755831459
 30
0.0
 11
-4861.490947962123
 21
-6995.527447917869
 31
0.0
  0
LINE
  5
2A43
330
1F
100
AcDbEntity
  8
SPOJOVACÍ
  6
DASHED
100
AcDbLine
 10
-4862.861952673697
 20
-6995.65051017578
 30
0.0
 11
-4861.490947962123
 21
-6996.111765749311
 31
0.0
  0
LINE
  5
2A44
330
1F
100
AcDbEntity
  8
SPOJOVACÍ
  6
DASHED
100
AcDbLine
 10
-4862.861952673697
 20
-6995.066192344335
 30
0.0
 11
-4861.490947962123
 21
-6995.527447917869
 31
0.0
  0
LINE
  5
2A45
330
1F
100
AcDbEntity
  8
SPOJOVACÍ
  6
DASHED
100
AcDbLine
 10
-4863.232051017224
 20
-6995.43629069
 30
0.0
 11
-4861.120849618597
 21
-6995.740755831459
 31
0.0
  0
LINE
  5
2A46
330
1F
100
AcDbEntity
  8
SPOJOVACÍ
  6
DASHED
100
AcDbLine
 10
-4862.235702518137
 20
-6998.748032782637
 30
0.0
 11
-4861.88839347663
 21
-6995.968648901395
 31
0.0
  0
LINE
  5
2A47
330
1F
100
AcDbEntity
  8
SPOJOVACÍ
  6
DASHED
100
AcDbLine
 10
-4862.614005012957
 20
-6995.720701241189
 30
0.0
 11
-4862.235702518137
 21
-6998.748032782637
 31
0.0
  0
LINE
  5
2A48
330
1F
100
AcDbEntity
  8
SPOJOVACÍ
  6
DASHED
100
AcDbLine
 10
-4860.295876705782
 20
-6990.481895348693
 30
0.0
 11
-4860.665975049307
 21
-6990.852905266819
 31
0.0
  0
LINE
  5
2A49
330
1F
100
AcDbEntity
  8
SPOJOVACÍ
  6
DASHED
100
AcDbLine
 10
-4860.295876705782
 20
-6990.481895348693
 30
0.0
 11
-4860.665975049307
 21
-6990.268587435366
 31
0.0
  0
LINE
  5
2A4A
330
1F
100
AcDbEntity
  8
SPOJOVACÍ
  6
DASHED
100
AcDbLine
 10
-4864.33869976547
 20
-6989.528390744036
 30
0.0
 11
-4860.295876705782
 21
-6990.481895348693
 31
0.0
  0
LINE
  5
2A4B
330
1F
100
AcDbEntity
  8
SPOJOVACÍ
  6
DASHED
100
AcDbLine
 10
-4863.558393895738
 20
-6988.163767040984
 30
0.0
 11
-4863.41163075907
 21
-6989.336960565353
 31
0.0
  0
LINE
  5
2A4C
330
1F
100
AcDbEntity
  8
SPOJOVACÍ
  6
DASHED
100
AcDbLine
 10
-4861.153666219495
 20
-6990.095388702044
 30
0.0
 11
-4860.913011136257
 21
-6988.163767040984
 31
0.0
  0
LINE
  5
2A4D
330
1F
100
AcDbEntity
  8
SPOJOVACÍ
  6
DASHED
100
AcDbLine
 10
-4860.089861371026
 20
-6967.286938687442
 30
0.0
 11
-4859.150941922441
 21
-6966.103717868202
 31
0.0
  0
LINE
  5
2A4E
330
1F
100
AcDbEntity
  8
SPOJOVACÍ
  6
DASHED
100
AcDbLine
 10
-4857.237551707275
 20
-6963.698078621646
 30
0.0
 11
-4857.237551707275
 21
-6964.874006862842
 31
0.0
  0
LINE
  5
2A4F
330
1F
100
AcDbEntity
  8
SPOJOVACÍ
  6
DASHED
100
AcDbLine
 10
-4857.93855078972
 20
-6965.20399602797
 30
0.0
 11
-4857.237551707275
 21
-6964.874006862842
 31
0.0
  0
LINE
  5
2A50
330
1F
100
AcDbEntity
  8
SPOJOVACÍ
  6
DASHED
100
AcDbLine
 10
-4859.150941922441
 20
-6966.103717868202
 30
0.0
 11
-4857.93855078972
 21
-6965.20399602797
 31
0.0
  0
LINE
  5
2A51
330
1F
100
AcDbEntity
  8
SPOJOVACÍ
  6
DASHED
100
AcDbLine
 10
-4867.233853328997
 20
-6963.698078621646
 30
0.0
 11
-4867.233853328997
 21
-6964.874006862842
 31
0.0
  0
LINE
  5
2A52
330
1F
100
AcDbEntity
  8
SPOJOVACÍ
  6
DASHED
100
AcDbLine
 10
-4864.822744644766
 20
-6966.650661236212
 30
0.0
 11
-4864.042438775034
 21
-6967.943270728944
 31
0.0
  0
LINE
  5
2A53
330
1F
100
AcDbEntity
  8
SPOJOVACÍ
  6
DASHED
100
AcDbLine
 10
-4865.911161947117
 20
-6965.603264686588
 30
0.0
 11
-4864.822744644766
 21
-6966.650661236212
 31
0.0
  0
LINE
  5
2A54
330
1F
100
AcDbEntity
  8
SPOJOVACÍ
  6
DASHED
100
AcDbLine
 10
-4867.233853328997
 20
-6964.874006862842
 30
0.0
 11
-4865.911161947117
 21
-6965.603264686588
 31
0.0
  0
LINE
  5
2A55
330
1F
100
AcDbEntity
  8
SPOJOVACÍ
  6
DASHED
100
AcDbLine
 10
-4863.558393895738
 20
-6970.165683947313
 30
0.0
 11
-4863.558393895738
 21
-6974.122819214399
 31
0.0
  0
LINE
  5
2A56
330
1F
100
AcDbEntity
  8
SPOJOVACÍ
  6
DASHED
100
AcDbLine
 10
-4864.587559000002
 20
-6974.282344363301
 30
0.0
 11
-4864.217460652198
 21
-6974.495652276629
 31
0.0
  0
LINE
  5
2A57
330
1F
100
AcDbEntity
  8
SPOJOVACÍ
  6
DASHED
100
AcDbLine
 10
-4864.587559000002
 20
-6974.282344363301
 30
0.0
 11
-4864.217460652198
 21
-6973.911334445448
 31
0.0
  0
LINE
  5
2A58
330
1F
100
AcDbEntity
  8
SPOJOVACÍ
  6
DASHED
100
AcDbLine
 10
-4863.623115528021
 20
-6969.394493798652
 30
0.0
 11
-4863.558393895738
 21
-6970.165683947313
 31
0.0
  0
LINE
  5
2A59
330
1F
100
AcDbEntity
  8
SPOJOVACÍ
  6
DASHED
100
AcDbLine
 10
-4860.913011136257
 20
-6970.165683947313
 30
0.0
 11
-4860.69058750319
 21
-6968.672528552952
 31
0.0
  0
LINE
  5
2A5A
330
1F
100
AcDbEntity
  8
SPOJOVACÍ
  6
DASHED
100
AcDbLine
 10
-4864.042438775034
 20
-6967.943270728944
 30
0.0
 11
-4863.623115528021
 21
-6969.394493798652
 31
0.0
  0
LINE
  5
2A5B
330
1F
100
AcDbEntity
  8
SPOJOVACÍ
  6
DASHED
100
AcDbLine
 10
-4860.69058750319
 20
-6968.672528552952
 30
0.0
 11
-4860.089861371026
 21
-6967.286938687442
 31
0.0
  0
LINE
  5
2A5C
330
1F
100
AcDbEntity
  8
SPOJOVACÍ
  6
DASHED
100
AcDbLine
 10
-4867.233853328997
 20
-6963.698078621646
 30
0.0
 11
-4857.237551707275
 21
-6963.698078621646
 31
0.0
  0
LINE
  5
2A5D
330
1F
100
AcDbEntity
  8
SPOJOVACÍ
  6
DASHED
100
AcDbLine
 10
-4867.233853328997
 20
-6964.874006862842
 30
0.0
 11
-4857.237551707275
 21
-6964.874006862842
 31
0.0
  0
LINE
  5
2A5E
330
1F
100
AcDbEntity
  8
STAVBA OBRYS
100
AcDbLine
 10
-4733.546178906875
 20
-7017.24974385144
 30
0.0
 11
-4722.484513153426
 21
-7012.338268440595
 31
0.0
  0
LINE
  5
2A5F
330
1F
100
AcDbEntity
  8
STAVBA OBRYS
100
AcDbLine
 10
-4707.24399833494
 20
-7014.302858817932
 30
0.0
 11
-4696.919777528552
 21
-7013.074989698973
 31
0.0
  0
LWPOLYLINE
  5
2A60
330
1F
100
AcDbEntity
  8
izolace
100
AcDbPolyline
 90
        4
 70
     1
 43
0.0
 10
-4789.244435920623
 20
-7107.698078621647
 10
-4812.886168630458
 20
-7107.698078621647
 10
-4812.886168630458
 20
-7110.698078621647
 10
-4789.244435920623
 20
-7110.698078621647
  0
HATCH
  5
2A61
330
1F
100
AcDbEntity
  8
izolace
100
AcDbHatch
 10
0.0
 20
0.0
 30
0.0
210
0.0
220
0.0
230
1.0
  2
SOLID
 70
     1
 71
     0
 91
        1
 92
        7
 72
     0
 73
     1
 93
        4
 10
-4812.886168630458
 20
-7107.698078621647
 10
-4812.886168630455
 20
-7110.698078621647
 10
-4789.244435920619
 20
-7110.698078621647
 10
-4789.244435920619
 20
-7107.698078621647
 97
        0
 75
     0
 76
     1
 47
0.1901250437635136
 98
        1
 10
-4803.528373872115
 20
-7108.514890172727
  0
LWPOLYLINE
  5
2A62
330
1F
100
AcDbEntity
  8
izolace
100
AcDbPolyline
 90
        4
 70
     1
 43
0.0
 10
-4741.960970500953
 20
-7107.698078621647
 10
-4765.602703210787
 20
-7107.698078621647
 10
-4765.602703210787
 20
-7110.698078621647
 10
-4741.960970500953
 20
-7110.698078621647
  0
HATCH
  5
2A63
330
1F
100
AcDbEntity
  8
izolace
100
AcDbHatch
 10
0.0
 20
0.0
 30
0.0
210
0.0
220
0.0
230
1.0
  2
SOLID
 70
     1
 71
     0
 91
        1
 92
        7
 72
     0
 73
     1
 93
        4
 10
-4765.602703210784
 20
-7107.698078621647
 10
-4765.602703210784
 20
-7110.698078621647
 10
-4741.960970500949
 20
-7110.698078621647
 10
-4741.960970500949
 20
-7107.698078621647
 97
        0
 75
     0
 76
     1
 47
0.1901250437635136
 98
        1
 10
-4756.244908452444
 20
-7108.514890172727
  0
HATCH
  5
2A64
330
1F
100
AcDbEntity
  8
izolace
100
AcDbHatch
 10
0.0
 20
0.0
 30
0.0
210
0.0
220
0.0
230
1.0
  2
SOLID
 70
     1
 71
     0
 91
        1
 92
        7
 72
     0
 73
     1
 93
        4
 10
-4716.271246241823
 20
-7107.698078621647
 10
-4716.271246241823
 20
-7110.698078621647
 10
-4692.629513531988
 20
-7110.698078621647
 10
-4692.629513531988
 20
-7107.698078621647
 97
        0
 75
     0
 76
     1
 47
0.1901250437635136
 98
        1
 10
-4706.913451483483
 20
-7108.514890172727
  0
LINE
  5
2A65
330
1F
100
AcDbEntity
  8
izolace
100
AcDbLine
 10
-4736.720439172982
 20
-7017.698078621646
 30
0.0
 11
-4736.720439172982
 21
-7047.698078621646
 31
0.0
  0
LINE
  5
2A66
330
1F
100
AcDbEntity
  8
STAVBA OBRYS
100
AcDbLine
 10
-4718.551476253256
 20
-7017.24974385144
 30
0.0
 11
-4707.24399833494
 21
-7014.302858817932
 31
0.0
  0
LINE
  5
2A67
330
1F
100
AcDbEntity
  8
POPIS
370
    20
100
AcDbLine
 10
-4804.902822306848
 20
-6891.404619868459
 30
0.0
 11
-4804.902822306848
 21
-6970.752263951718
 31
0.0
  0
LINE
  5
2A68
330
1F
100
AcDbEntity
  8
SPOJOVACÍ
  6
DASHED
100
AcDbLine
 10
-4808.581662158892
 20
-6965.603264686588
 30
0.0
 11
-4807.493244856541
 21
-6966.650661236212
 31
0.0
  0
LINE
  5
2A69
330
1F
100
AcDbEntity
  8
SPOJOVACÍ
  6
DASHED
100
AcDbLine
 10
-4809.904353540772
 20
-6964.874006862842
 30
0.0
 11
-4799.908051919049
 21
-6964.874006862842
 31
0.0
  0
LINE
  5
2A6A
330
1F
100
AcDbEntity
  8
SPOJOVACÍ
  6
DASHED
100
AcDbLine
 10
-4809.904353540772
 20
-6963.698078621646
 30
0.0
 11
-4799.908051919049
 21
-6963.698078621646
 31
0.0
  0
LINE
  5
2A6B
330
1F
100
AcDbEntity
  8
CETRIS
100
AcDbLine
 10
-4835.4714160224
 20
-6963.762768385571
 30
0.0
 11
-4835.4714160224
 21
-6975.762768385571
 31
0.0
  0
LINE
  5
2A6C
330
1F
100
AcDbEntity
  8
SPOJOVACÍ
  6
DASHED
100
AcDbLine
 10
-4809.904353540772
 20
-6964.874006862842
 30
0.0
 11
-4808.581662158892
 21
-6965.603264686588
 31
0.0
  0
LINE
  5
2A6D
330
1F
100
AcDbEntity
  8
SPOJOVACÍ
  6
DASHED
100
AcDbLine
 10
-4809.904353540772
 20
-6963.698078621646
 30
0.0
 11
-4809.904353540772
 21
-6964.874006862842
 31
0.0
  0
LINE
  5
2A6E
330
1F
100
AcDbEntity
  8
SPOJOVACÍ
  6
DASHED
100
AcDbLine
 10
-4803.583511348031
 20
-6970.165683947313
 30
0.0
 11
-4803.583511348031
 21
-6975.009779042662
 31
0.0
  0
LINE
  5
2A6F
330
1F
100
AcDbEntity
  8
SPOJOVACÍ
  6
DASHED
100
AcDbLine
 10
-4806.228894107512
 20
-6974.706225473392
 30
0.0
 11
-4806.228894107512
 21
-6977.17476320732
 31
0.0
  0
LINE
  5
2A70
330
1F
100
AcDbEntity
  8
SPOJOVACÍ
  6
DASHED
100
AcDbLine
 10
-4806.887960863972
 20
-6973.911334445448
 30
0.0
 11
-4802.924444591571
 21
-6975.244053118448
 31
0.0
  0
LINE
  5
2A71
330
1F
100
AcDbEntity
  8
SPOJOVACÍ
  6
DASHED
100
AcDbLine
 10
-4806.887960863972
 20
-6974.495652276629
 30
0.0
 11
-4802.924444591571
 21
-6975.8283709499
 31
0.0
  0
LINE
  5
2A72
330
1F
100
AcDbEntity
  8
SPOJOVACÍ
  6
DASHED
100
AcDbLine
 10
-4807.258059211776
 20
-6974.282344363301
 30
0.0
 11
-4802.554346248045
 21
-6975.458272604234
 31
0.0
  0
LINE
  5
2A73
330
1F
100
AcDbEntity
  8
SPOJOVACÍ
  6
DASHED
100
AcDbLine
 10
-4802.554346248045
 20
-6978.515686031087
 30
0.0
 11
-4802.924444591571
 21
-6978.301466545301
 31
0.0
  0
LINE
  5
2A74
330
1F
100
AcDbEntity
  8
SPOJOVACÍ
  6
DASHED
100
AcDbLine
 10
-4802.554346248045
 20
-6978.515686031087
 30
0.0
 11
-4802.924444591571
 21
-6978.885784376481
 31
0.0
  0
LINE
  5
2A75
330
1F
100
AcDbEntity
  8
SPOJOVACÍ
  6
DASHED
100
AcDbLine
 10
-4802.554346248045
 20
-6975.458272604234
 30
0.0
 11
-4802.924444591571
 21
-6975.244053118448
 31
0.0
  0
LINE
  5
2A76
330
1F
100
AcDbEntity
  8
SPOJOVACÍ
  6
DASHED
100
AcDbLine
 10
-4802.554346248045
 20
-6975.458272604234
 30
0.0
 11
-4802.924444591571
 21
-6975.8283709499
 31
0.0
  0
LINE
  5
2A77
330
1F
100
AcDbEntity
  8
SPOJOVACÍ
  6
DASHED
100
AcDbLine
 10
-4803.583511348031
 20
-6975.601389452151
 30
0.0
 11
-4803.583511348031
 21
-6978.06992718608
 31
0.0
  0
LINE
  5
2A78
330
1F
100
AcDbEntity
  8
SPOJOVACÍ
  6
DASHED
100
AcDbLine
 10
-4807.258059211776
 20
-6977.339757789883
 30
0.0
 11
-4806.887960863972
 21
-6976.969659444218
 31
0.0
  0
LINE
  5
2A79
330
1F
100
AcDbEntity
  8
SPOJOVACÍ
  6
DASHED
100
AcDbLine
 10
-4807.258059211776
 20
-6977.339757789883
 30
0.0
 11
-4806.887960863972
 21
-6977.553977275668
 31
0.0
  0
LINE
  5
2A7A
330
1F
100
AcDbEntity
  8
SPOJOVACÍ
  6
DASHED
100
AcDbLine
 10
-4806.887960863972
 20
-6976.969659444218
 30
0.0
 11
-4802.924444591571
 21
-6978.301466545301
 31
0.0
  0
LINE
  5
2A7B
330
1F
100
AcDbEntity
  8
SPOJOVACÍ
  6
DASHED
100
AcDbLine
 10
-4806.887960863972
 20
-6977.553977275668
 30
0.0
 11
-4802.924444591571
 21
-6978.885784376481
 31
0.0
  0
LINE
  5
2A7C
330
1F
100
AcDbEntity
  8
SPOJOVACÍ
  6
DASHED
100
AcDbLine
 10
-4807.258059211776
 20
-6977.339757789883
 30
0.0
 11
-4802.554346248045
 21
-6978.515686031087
 31
0.0
  0
LINE
  5
2A7D
330
1F
100
AcDbEntity
  8
SPOJOVACÍ
  6
DASHED
100
AcDbLine
 10
-4802.554346248045
 20
-6987.688837883301
 30
0.0
 11
-4802.924444591571
 21
-6987.474618397515
 31
0.0
  0
LINE
  5
2A7E
330
1F
100
AcDbEntity
  8
SPOJOVACÍ
  6
DASHED
100
AcDbLine
 10
-4802.554346248045
 20
-6987.688837883301
 30
0.0
 11
-4802.924444591571
 21
-6988.058936228966
 31
0.0
  0
LINE
  5
2A7F
330
1F
100
AcDbEntity
  8
SPOJOVACÍ
  6
DASHED
100
AcDbLine
 10
-4802.554346248045
 20
-6984.63051288426
 30
0.0
 11
-4802.924444591571
 21
-6984.417204970933
 31
0.0
  0
LINE
  5
2A80
330
1F
100
AcDbEntity
  8
SPOJOVACÍ
  6
DASHED
100
AcDbLine
 10
-4802.554346248045
 20
-6984.63051288426
 30
0.0
 11
-4802.924444591571
 21
-6985.001522802114
 31
0.0
  0
LINE
  5
2A81
330
1F
100
AcDbEntity
  8
SPOJOVACÍ
  6
DASHED
100
AcDbLine
 10
-4802.554346248045
 20
-6981.573099457669
 30
0.0
 11
-4802.924444591571
 21
-6981.359791544079
 31
0.0
  0
LINE
  5
2A82
330
1F
100
AcDbEntity
  8
SPOJOVACÍ
  6
DASHED
100
AcDbLine
 10
-4802.554346248045
 20
-6981.573099457669
 30
0.0
 11
-4802.924444591571
 21
-6981.944109375523
 31
0.0
  0
LINE
  5
2A83
330
1F
100
AcDbEntity
  8
SPOJOVACÍ
  6
DASHED
100
AcDbLine
 10
-4803.583511348031
 20
-6987.833777875858
 30
0.0
 11
-4803.583511348031
 21
-6988.163767040984
 31
0.0
  0
LINE
  5
2A84
330
1F
100
AcDbEntity
  8
SPOJOVACÍ
  6
DASHED
100
AcDbLine
 10
-4803.583511348031
 20
-6984.773629732178
 30
0.0
 11
-4803.583511348031
 21
-6987.242167466106
 31
0.0
  0
LINE
  5
2A85
330
1F
100
AcDbEntity
  8
SPOJOVACÍ
  6
DASHED
100
AcDbLine
 10
-4803.583511348031
 20
-6981.714393160948
 30
0.0
 11
-4803.583511348031
 21
-6984.184754039524
 31
0.0
  0
LINE
  5
2A86
330
1F
100
AcDbEntity
  8
SPOJOVACÍ
  6
DASHED
100
AcDbLine
 10
-4807.258059211776
 20
-6986.512909642368
 30
0.0
 11
-4806.887960863972
 21
-6986.141899724244
 31
0.0
  0
LINE
  5
2A87
330
1F
100
AcDbEntity
  8
SPOJOVACÍ
  6
DASHED
100
AcDbLine
 10
-4807.258059211776
 20
-6986.512909642368
 30
0.0
 11
-4806.887960863972
 21
-6986.726217555696
 31
0.0
  0
LINE
  5
2A88
330
1F
100
AcDbEntity
  8
SPOJOVACÍ
  6
DASHED
100
AcDbLine
 10
-4807.258059211776
 20
-6983.454584643327
 30
0.0
 11
-4806.887960863972
 21
-6983.08448629766
 31
0.0
  0
LINE
  5
2A89
330
1F
100
AcDbEntity
  8
SPOJOVACÍ
  6
DASHED
100
AcDbLine
 10
-4807.258059211776
 20
-6983.454584643327
 30
0.0
 11
-4806.887960863972
 21
-6983.668804129106
 31
0.0
  0
LINE
  5
2A8A
330
1F
100
AcDbEntity
  8
SPOJOVACÍ
  6
DASHED
100
AcDbLine
 10
-4807.258059211776
 20
-6980.397171216736
 30
0.0
 11
-4806.887960863972
 21
-6980.027072871071
 31
0.0
  0
LINE
  5
2A8B
330
1F
100
AcDbEntity
  8
SPOJOVACÍ
  6
DASHED
100
AcDbLine
 10
-4807.258059211776
 20
-6980.397171216736
 30
0.0
 11
-4806.887960863972
 21
-6980.611390702524
 31
0.0
  0
LINE
  5
2A8C
330
1F
100
AcDbEntity
  8
SPOJOVACÍ
  6
DASHED
100
AcDbLine
 10
-4806.228894107512
 20
-6986.941348613934
 30
0.0
 11
-4806.228894107512
 21
-6988.163767040984
 31
0.0
  0
LINE
  5
2A8D
330
1F
100
AcDbEntity
  8
SPOJOVACÍ
  6
DASHED
100
AcDbLine
 10
-4806.228894107512
 20
-6983.889404620741
 30
0.0
 11
-4806.228894107512
 21
-6986.357030782482
 31
0.0
  0
LINE
  5
2A8E
330
1F
100
AcDbEntity
  8
SPOJOVACÍ
  6
DASHED
100
AcDbLine
 10
-4806.228894107512
 20
-6980.819229182189
 30
0.0
 11
-4806.228894107512
 21
-6983.296882638801
 31
0.0
  0
LINE
  5
2A8F
330
1F
100
AcDbEntity
  8
SPOJOVACÍ
  6
DASHED
100
AcDbLine
 10
-4806.887960863972
 20
-6986.141899724244
 30
0.0
 11
-4802.924444591571
 21
-6987.474618397515
 31
0.0
  0
LINE
  5
2A90
330
1F
100
AcDbEntity
  8
SPOJOVACÍ
  6
DASHED
100
AcDbLine
 10
-4806.887960863972
 20
-6986.726217555696
 30
0.0
 11
-4802.924444591571
 21
-6988.058936228966
 31
0.0
  0
LINE
  5
2A91
330
1F
100
AcDbEntity
  8
SPOJOVACÍ
  6
DASHED
100
AcDbLine
 10
-4807.258059211776
 20
-6986.512909642368
 30
0.0
 11
-4802.554346248045
 21
-6987.688837883301
 31
0.0
  0
LINE
  5
2A92
330
1F
100
AcDbEntity
  8
SPOJOVACÍ
  6
DASHED
100
AcDbLine
 10
-4806.887960863972
 20
-6983.08448629766
 30
0.0
 11
-4802.924444591571
 21
-6984.417204970933
 31
0.0
  0
LINE
  5
2A93
330
1F
100
AcDbEntity
  8
SPOJOVACÍ
  6
DASHED
100
AcDbLine
 10
-4806.887960863972
 20
-6983.668804129106
 30
0.0
 11
-4802.924444591571
 21
-6985.001522802114
 31
0.0
  0
LINE
  5
2A94
330
1F
100
AcDbEntity
  8
SPOJOVACÍ
  6
DASHED
100
AcDbLine
 10
-4807.258059211776
 20
-6983.454584643327
 30
0.0
 11
-4802.554346248045
 21
-6984.63051288426
 31
0.0
  0
LINE
  5
2A95
330
1F
100
AcDbEntity
  8
SPOJOVACÍ
  6
DASHED
100
AcDbLine
 10
-4806.887960863972
 20
-6980.027072871071
 30
0.0
 11
-4802.924444591571
 21
-6981.359791544079
 31
0.0
  0
LINE
  5
2A96
330
1F
100
AcDbEntity
  8
SPOJOVACÍ
  6
DASHED
100
AcDbLine
 10
-4806.887960863972
 20
-6980.611390702524
 30
0.0
 11
-4802.924444591571
 21
-6981.944109375523
 31
0.0
  0
LINE
  5
2A97
330
1F
100
AcDbEntity
  8
SPOJOVACÍ
  6
DASHED
100
AcDbLine
 10
-4807.258059211776
 20
-6980.397171216736
 30
0.0
 11
-4802.554346248045
 21
-6981.573099457669
 31
0.0
  0
LINE
  5
2A98
330
1F
100
AcDbEntity
  8
SPOJOVACÍ
  6
DASHED
100
AcDbLine
 10
-4803.583511348031
 20
-6978.654245017532
 30
0.0
 11
-4803.583511348031
 21
-6981.131898474143
 31
0.0
  0
LINE
  5
2A99
330
1F
100
AcDbEntity
  8
SPOJOVACÍ
  6
DASHED
100
AcDbLine
 10
-4806.228894107512
 20
-6977.766373616809
 30
0.0
 11
-4806.228894107512
 21
-6980.236734495384
 31
0.0
  0
LINE
  5
2A9A
330
1F
100
AcDbEntity
  8
SPOJOVACÍ
  6
DASHED
100
AcDbLine
 10
-4802.966376917556
 20
-6990.481895348693
 30
0.0
 11
-4803.336475261082
 21
-6990.268587435366
 31
0.0
  0
LINE
  5
2A9B
330
1F
100
AcDbEntity
  8
SPOJOVACÍ
  6
DASHED
100
AcDbLine
 10
-4802.966376917556
 20
-6990.481895348693
 30
0.0
 11
-4803.336475261082
 21
-6990.852905266819
 31
0.0
  0
LINE
  5
2A9C
330
1F
100
AcDbEntity
  8
SPOJOVACÍ
  6
DASHED
100
AcDbLine
 10
-4805.902551228999
 20
-6995.43629069
 30
0.0
 11
-4803.791349830371
 21
-6995.740755831459
 31
0.0
  0
LINE
  5
2A9D
330
1F
100
AcDbEntity
  8
SPOJOVACÍ
  6
DASHED
100
AcDbLine
 10
-4805.532452885472
 20
-6995.066192344335
 30
0.0
 11
-4804.161448173897
 21
-6995.527447917869
 31
0.0
  0
LINE
  5
2A9E
330
1F
100
AcDbEntity
  8
SPOJOVACÍ
  6
DASHED
100
AcDbLine
 10
-4805.532452885472
 20
-6995.65051017578
 30
0.0
 11
-4804.161448173897
 21
-6996.111765749311
 31
0.0
  0
LINE
  5
2A9F
330
1F
100
AcDbEntity
  8
SPOJOVACÍ
  6
DASHED
100
AcDbLine
 10
-4803.791349830371
 20
-6995.740755831459
 30
0.0
 11
-4804.161448173897
 21
-6995.527447917869
 31
0.0
  0
LINE
  5
2AA0
330
1F
100
AcDbEntity
  8
SPOJOVACÍ
  6
DASHED
100
AcDbLine
 10
-4803.791349830371
 20
-6995.740755831459
 30
0.0
 11
-4804.161448173897
 21
-6996.111765749311
 31
0.0
  0
LINE
  5
2AA1
330
1F
100
AcDbEntity
  8
SPOJOVACÍ
  6
DASHED
100
AcDbLine
 10
-4805.902551228999
 20
-6995.43629069
 30
0.0
 11
-4805.532452885472
 21
-6995.066192344335
 31
0.0
  0
LINE
  5
2AA2
330
1F
100
AcDbEntity
  8
SPOJOVACÍ
  6
DASHED
100
AcDbLine
 10
-4805.902551228999
 20
-6995.43629069
 30
0.0
 11
-4805.532452885472
 21
-6995.65051017578
 31
0.0
  0
LINE
  5
2AA3
330
1F
100
AcDbEntity
  8
SPOJOVACÍ
  6
DASHED
100
AcDbLine
 10
-4806.085777257456
 20
-6992.111786585123
 30
0.0
 11
-4803.772206810684
 21
-6992.890269312354
 31
0.0
  0
LINE
  5
2AA4
330
1F
100
AcDbEntity
  8
SPOJOVACÍ
  6
DASHED
100
AcDbLine
 10
-4806.085777257456
 20
-6992.696104416575
 30
0.0
 11
-4803.772206810684
 21
-6993.474587143535
 31
0.0
  0
LINE
  5
2AA5
330
1F
100
AcDbEntity
  8
SPOJOVACÍ
  6
DASHED
100
AcDbLine
 10
-4806.45587560526
 20
-6992.482796503248
 30
0.0
 11
-4806.085777257456
 21
-6992.111786585123
 31
0.0
  0
LINE
  5
2AA6
330
1F
100
AcDbEntity
  8
SPOJOVACÍ
  6
DASHED
100
AcDbLine
 10
-4806.45587560526
 20
-6992.482796503248
 30
0.0
 11
-4806.085777257456
 21
-6992.696104416575
 31
0.0
  0
LINE
  5
2AA7
330
1F
100
AcDbEntity
  8
SPOJOVACÍ
  6
DASHED
100
AcDbLine
 10
-4807.009199977244
 20
-6989.528390744036
 30
0.0
 11
-4806.638190059925
 21
-6989.158292398371
 31
0.0
  0
LINE
  5
2AA8
330
1F
100
AcDbEntity
  8
SPOJOVACÍ
  6
DASHED
100
AcDbLine
 10
-4807.009199977244
 20
-6989.528390744036
 30
0.0
 11
-4806.638190059925
 21
-6989.742610229821
 31
0.0
  0
LINE
  5
2AA9
330
1F
100
AcDbEntity
  8
SPOJOVACÍ
  6
DASHED
100
AcDbLine
 10
-4804.155978743979
 20
-6992.748064036625
 30
0.0
 11
-4803.894357497749
 21
-6990.654182509828
 31
0.0
  0
LINE
  5
2AAA
330
1F
100
AcDbEntity
  8
SPOJOVACÍ
  6
DASHED
100
AcDbLine
 10
-4804.488702621925
 20
-6995.410766666068
 30
0.0
 11
-4804.22616980618
 21
-6993.308680988786
 31
0.0
  0
LINE
  5
2AAB
330
1F
100
AcDbEntity
  8
SPOJOVACÍ
  6
DASHED
100
AcDbLine
 10
-4805.644576273658
 20
-6992.838309692304
 30
0.0
 11
-4805.360165725407
 21
-6995.112682530453
 31
0.0
  0
LINE
  5
2AAC
330
1F
100
AcDbEntity
  8
SPOJOVACÍ
  6
DASHED
100
AcDbLine
 10
-4806.006470470168
 20
-6989.94497927609
 30
0.0
 11
-4805.722059917639
 21
-6992.220263686433
 31
0.0
  0
LINE
  5
2AAD
330
1F
100
AcDbEntity
  8
SPOJOVACÍ
  6
DASHED
100
AcDbLine
 10
-4806.45587560526
 20
-6992.482796503248
 30
0.0
 11
-4803.402108467158
 21
-6993.103577225681
 31
0.0
  0
LINE
  5
2AAE
330
1F
100
AcDbEntity
  8
SPOJOVACÍ
  6
DASHED
100
AcDbLine
 10
-4803.402108467158
 20
-6993.103577225681
 30
0.0
 11
-4803.772206810684
 21
-6992.890269312354
 31
0.0
  0
LINE
  5
2AAF
330
1F
100
AcDbEntity
  8
SPOJOVACÍ
  6
DASHED
100
AcDbLine
 10
-4803.402108467158
 20
-6993.103577225681
 30
0.0
 11
-4803.772206810684
 21
-6993.474587143535
 31
0.0
  0
LINE
  5
2AB0
330
1F
100
AcDbEntity
  8
SPOJOVACÍ
  6
DASHED
100
AcDbLine
 10
-4807.009199977244
 20
-6989.528390744036
 30
0.0
 11
-4802.966376917556
 21
-6990.481895348693
 31
0.0
  0
LINE
  5
2AB1
330
1F
100
AcDbEntity
  8
SPOJOVACÍ
  6
DASHED
100
AcDbLine
 10
-4806.638190059925
 20
-6989.158292398371
 30
0.0
 11
-4803.336475261082
 21
-6990.268587435366
 31
0.0
  0
LINE
  5
2AB2
330
1F
100
AcDbEntity
  8
SPOJOVACÍ
  6
DASHED
100
AcDbLine
 10
-4806.638190059925
 20
-6989.742610229821
 30
0.0
 11
-4803.336475261082
 21
-6990.852905266819
 31
0.0
  0
LINE
  5
2AB3
330
1F
100
AcDbEntity
  8
SPOJOVACÍ
  6
DASHED
100
AcDbLine
 10
-4805.284505224731
 20
-6995.720701241189
 30
0.0
 11
-4804.90620272991
 21
-6998.748032782637
 31
0.0
  0
LINE
  5
2AB4
330
1F
100
AcDbEntity
  8
SPOJOVACÍ
  6
DASHED
100
AcDbLine
 10
-4804.90620272991
 20
-6998.748032782637
 30
0.0
 11
-4804.558893688405
 21
-6995.968648901395
 31
0.0
  0
LINE
  5
2AB5
330
1F
100
AcDbEntity
  8
SPOJOVACÍ
  6
DASHED
100
AcDbLine
 10
-4803.824166431269
 20
-6990.095388702044
 30
0.0
 11
-4803.583511348031
 21
-6988.163767040984
 31
0.0
  0
LINE
  5
2AB6
330
1F
100
AcDbEntity
  8
SPOJOVACÍ
  6
DASHED
100
AcDbLine
 10
-4806.228894107512
 20
-6988.163767040984
 30
0.0
 11
-4806.082130970843
 21
-6989.336960565353
 31
0.0
  0
LINE
  5
2AB7
330
1F
100
AcDbEntity
  8
SPOJOVACÍ
  6
DASHED
100
AcDbLine
 10
-4801.821442134215
 20
-6966.103717868202
 30
0.0
 11
-4800.609051001494
 21
-6965.20399602797
 31
0.0
  0
LINE
  5
2AB8
330
1F
100
AcDbEntity
  8
SPOJOVACÍ
  6
DASHED
100
AcDbLine
 10
-4800.609051001494
 20
-6965.20399602797
 30
0.0
 11
-4799.908051919049
 21
-6964.874006862842
 31
0.0
  0
LINE
  5
2AB9
330
1F
100
AcDbEntity
  8
SPOJOVACÍ
  6
DASHED
100
AcDbLine
 10
-4799.908051919049
 20
-6963.698078621646
 30
0.0
 11
-4799.908051919049
 21
-6964.874006862842
 31
0.0
  0
LINE
  5
2ABA
330
1F
100
AcDbEntity
  8
SPOJOVACÍ
  6
DASHED
100
AcDbLine
 10
-4803.361087714964
 20
-6968.672528552952
 30
0.0
 11
-4802.760361582801
 21
-6967.286938687442
 31
0.0
  0
LINE
  5
2ABB
330
1F
100
AcDbEntity
  8
SPOJOVACÍ
  6
DASHED
100
AcDbLine
 10
-4802.760361582801
 20
-6967.286938687442
 30
0.0
 11
-4801.821442134215
 21
-6966.103717868202
 31
0.0
  0
LINE
  5
2ABC
330
1F
100
AcDbEntity
  8
SPOJOVACÍ
  6
DASHED
100
AcDbLine
 10
-4807.493244856541
 20
-6966.650661236212
 30
0.0
 11
-4806.712938986809
 21
-6967.943270728944
 31
0.0
  0
LINE
  5
2ABD
330
1F
100
AcDbEntity
  8
SPOJOVACÍ
  6
DASHED
100
AcDbLine
 10
-4807.258059211776
 20
-6974.282344363301
 30
0.0
 11
-4806.887960863972
 21
-6973.911334445448
 31
0.0
  0
LINE
  5
2ABE
330
1F
100
AcDbEntity
  8
SPOJOVACÍ
  6
DASHED
100
AcDbLine
 10
-4807.258059211776
 20
-6974.282344363301
 30
0.0
 11
-4806.887960863972
 21
-6974.495652276629
 31
0.0
  0
LINE
  5
2ABF
330
1F
100
AcDbEntity
  8
SPOJOVACÍ
  6
DASHED
100
AcDbLine
 10
-4806.228894107512
 20
-6970.165683947313
 30
0.0
 11
-4806.228894107512
 21
-6974.122819214399
 31
0.0
  0
LINE
  5
2AC0
330
1F
100
AcDbEntity
  8
SPOJOVACÍ
  6
DASHED
100
AcDbLine
 10
-4806.293615739796
 20
-6969.394493798652
 30
0.0
 11
-4806.228894107512
 21
-6970.165683947313
 31
0.0
  0
INSERT
  5
2AC1
330
1F
100
AcDbEntity
  8
POPIS
100
AcDbBlockReference
  2
E_PUNKT
 10
-4804.931890637722
 20
-6970.72465357609
 30
0.0
 50
270.0
  0
LINE
  5
2AC2
330
1F
100
AcDbEntity
  8
SPOJOVACÍ
  6
DASHED
100
AcDbLine
 10
-4806.712938986809
 20
-6967.943270728944
 30
0.0
 11
-4806.293615739796
 21
-6969.394493798652
 31
0.0
  0
LINE
  5
2AC3
330
1F
100
AcDbEntity
  8
SPOJOVACÍ
  6
DASHED
100
AcDbLine
 10
-4803.583511348031
 20
-6970.165683947313
 30
0.0
 11
-4803.361087714964
 21
-6968.672528552952
 31
0.0
  0
LINE
  5
2AC4
330
1F
100
AcDbEntity
  8
STAVBA OBRYS
100
AcDbLine
 10
-4736.741770859985
 20
-6991.955642343859
 30
0.0
 11
-4707.489812612922
 21
-6991.21892002049
 31
0.0
  0
LINE
  5
2AC5
330
1F
100
AcDbEntity
  8
STAVBA OBRYS
100
AcDbLine
 10
-4736.495956582003
 20
-6996.867117754705
 30
0.0
 11
-4711.914478069056
 21
-6994.902527377369
 31
0.0
  0
LINE
  5
2AC6
330
1F
100
AcDbEntity
  8
STAVBA OBRYS
100
AcDbLine
 10
-4736.495956582003
 20
-7000.059577251001
 30
0.0
 11
-4712.160292347038
 21
-6998.586134734246
 31
0.0
  0
LINE
  5
2AC7
330
1F
100
AcDbEntity
  8
STAVBA OBRYS
100
AcDbLine
 10
-4736.741770859985
 20
-7010.864824858848
 30
0.0
 11
-4711.177033121995
 21
-7006.198922845797
 31
0.0
  0
LINE
  5
2AC8
330
1F
100
AcDbEntity
  8
STAVBA OBRYS
100
AcDbLine
 10
-4731.57966045679
 20
-6998.586134734246
 30
0.0
 11
-4719.043106922335
 21
-7012.583841838391
 31
0.0
  0
LINE
  5
2AC9
330
1F
100
AcDbEntity
  8
STAVBA OBRYS
100
AcDbLine
 10
-4736.987585137966
 20
-7006.198922845797
 30
0.0
 11
-4709.947959618971
 21
-7002.269742091124
 31
0.0
  0
LINE
  5
2ACA
330
1F
100
AcDbEntity
  8
STAVBA OBRYS
100
AcDbLine
 10
-4704.540034937794
 20
-7008.409087685922
 30
0.0
 11
-4686.349742444181
 21
-7008.409087685922
 31
0.0
  0
LINE
  5
2ACB
330
1F
100
AcDbEntity
  8
STAVBA OBRYS
100
AcDbLine
 10
-4711.177033121995
 20
-7006.198922845797
 30
0.0
 11
-4689.299520119308
 21
-7004.971053726838
 31
0.0
  0
LINE
  5
2ACC
330
1F
100
AcDbEntity
  8
STAVBA OBRYS
100
AcDbLine
 10
-4714.126810797123
 20
-6993.429084860614
 30
0.0
 11
-4699.869555203679
 21
-7013.074989698973
 31
0.0
  0
LINE
  5
2ACD
330
1F
100
AcDbEntity
  8
STAVBA OBRYS
100
AcDbLine
 10
-4711.914478069056
 20
-6994.902527377369
 30
0.0
 11
-4694.215814131406
 21
-6994.165806118991
 31
0.0
  0
LINE
  5
2ACE
330
1F
100
AcDbEntity
  8
STAVBA OBRYS
100
AcDbLine
 10
-4712.160292347038
 20
-6998.586134734246
 30
0.0
 11
-4698.148851031575
 21
-6997.849413475869
 31
0.0
  0
LINE
  5
2ACF
330
1F
100
AcDbEntity
  8
STAVBA OBRYS
100
AcDbLine
 10
-4709.947959618971
 20
-7002.269742091124
 30
0.0
 11
-4694.707444800484
 21
-7000.550725111583
 31
0.0
  0
LINE
  5
2AD0
330
1F
100
AcDbEntity
  8
STAVBA OBRYS
100
AcDbLine
 10
-4722.484513153426
 20
-7012.338268440595
 30
0.0
 11
-4704.540034937794
 21
-7008.409087685922
 31
0.0
  0
LWPOLYLINE
  5
2AD1
330
1F
100
AcDbEntity
  8
STAVBA OBRYS
370
    20
100
AcDbPolyline
 90
        7
 70
     0
 43
0.0
 10
-4712.205670693299
 20
-6987.698078621646
 42
-0.0203924744732807
 10
-4713.107754677707
 20
-6988.711208650801
 42
-0.0273961979096945
 10
-4713.957619027903
 20
-6989.499385024827
 42
-0.0243529190212958
 10
-4715.120739520322
 20
-6990.373144369494
 42
-0.0398020282482987
 10
-4715.895698057884
 20
-6990.812773112941
 42
-0.104168275620852
 10
-4716.282109194223
 20
-6990.902789573119
 42
-0.007272956268647
 10
-4716.720439172982
 20
-6990.921242924412
 42
-0.007272956268647
  0
LINE
  5
2AD2
330
1F
100
AcDbEntity
  8
SPOJOVACÍ
  6
DASHED
100
AcDbLine
 10
-4688.152194998906
 20
-6978.103717868201
 30
0.0
 11
-4686.939803866184
 21
-6977.203996027968
 31
0.0
  0
LINE
  5
2AD3
330
1F
100
AcDbEntity
  8
SPOJOVACÍ
  6
DASHED
100
AcDbLine
 10
-4686.939803866184
 20
-6977.203996027968
 30
0.0
 11
-4686.23880478374
 21
-6976.874006862842
 31
0.0
  0
LINE
  5
2AD4
330
1F
100
AcDbEntity
  8
SPOJOVACÍ
  6
DASHED
100
AcDbLine
 10
-4686.23880478374
 20
-6975.698078621646
 30
0.0
 11
-4686.23880478374
 21
-6976.874006862842
 31
0.0
  0
LINE
  5
2AD5
330
1F
100
AcDbEntity
  8
SPOJOVACÍ
  6
DASHED
100
AcDbLine
 10
-4693.823997721231
 20
-6978.650661236212
 30
0.0
 11
-4693.043691851499
 21
-6979.943270728942
 31
0.0
  0
LINE
  5
2AD6
330
1F
100
AcDbEntity
  8
SPOJOVACÍ
  6
DASHED
100
AcDbLine
 10
-4692.624368604486
 20
-6981.394493798652
 30
0.0
 11
-4692.559646972203
 21
-6982.165683947312
 31
0.0
  0
LINE
  5
2AD7
330
1F
100
AcDbEntity
  8
SPOJOVACÍ
  6
DASHED
100
AcDbLine
 10
-4693.043691851499
 20
-6979.943270728942
 30
0.0
 11
-4692.624368604486
 21
-6981.394493798652
 31
0.0
  0
LINE
  5
2AD8
330
1F
100
AcDbEntity
  8
SPOJOVACÍ
  6
DASHED
100
AcDbLine
 10
-4696.235106405462
 20
-6976.874006862842
 30
0.0
 11
-4694.912415023583
 21
-6977.603264686587
 31
0.0
  0
LINE
  5
2AD9
330
1F
100
AcDbEntity
  8
SPOJOVACÍ
  6
DASHED
100
AcDbLine
 10
-4694.912415023583
 20
-6977.603264686587
 30
0.0
 11
-4693.823997721231
 21
-6978.650661236212
 31
0.0
  0
LINE
  5
2ADA
330
1F
100
AcDbEntity
  8
SPOJOVACÍ
  6
DASHED
100
AcDbLine
 10
-4689.691840579656
 20
-6980.67252855295
 30
0.0
 11
-4689.091114447491
 21
-6979.286938687441
 31
0.0
  0
LINE
  5
2ADB
330
1F
100
AcDbEntity
  8
SPOJOVACÍ
  6
DASHED
100
AcDbLine
 10
-4689.914264212721
 20
-6982.165683947312
 30
0.0
 11
-4689.691840579656
 21
-6980.67252855295
 31
0.0
  0
LINE
  5
2ADC
330
1F
100
AcDbEntity
  8
SPOJOVACÍ
  6
DASHED
100
AcDbLine
 10
-4696.235106405462
 20
-6975.698078621646
 30
0.0
 11
-4696.235106405462
 21
-6976.874006862842
 31
0.0
  0
LINE
  5
2ADD
330
1F
100
AcDbEntity
  8
SPOJOVACÍ
  6
DASHED
100
AcDbLine
 10
-4696.235106405462
 20
-6976.874006862842
 30
0.0
 11
-4686.23880478374
 21
-6976.874006862842
 31
0.0
  0
LINE
  5
2ADE
330
1F
100
AcDbEntity
  8
SPOJOVACÍ
  6
DASHED
100
AcDbLine
 10
-4696.235106405462
 20
-6975.698078621646
 30
0.0
 11
-4686.23880478374
 21
-6975.698078621646
 31
0.0
  0
LINE
  5
2ADF
330
1F
100
AcDbEntity
  8
SPOJOVACÍ
  6
DASHED
100
AcDbLine
 10
-4689.091114447491
 20
-6979.286938687441
 30
0.0
 11
-4688.152194998906
 21
-6978.103717868201
 31
0.0
  0
LINE
  5
2AE0
330
1F
100
AcDbEntity
  8
SPOJOVACÍ
  6
DASHED
100
AcDbLine
 10
-4693.218713728662
 20
-6992.027072871071
 30
0.0
 11
-4689.255197456262
 21
-6993.359791544079
 31
0.0
  0
LINE
  5
2AE1
330
1F
100
AcDbEntity
  8
SPOJOVACÍ
  6
DASHED
100
AcDbLine
 10
-4693.218713728662
 20
-6992.611390702522
 30
0.0
 11
-4689.255197456262
 21
-6993.944109375522
 31
0.0
  0
LINE
  5
2AE2
330
1F
100
AcDbEntity
  8
SPOJOVACÍ
  6
DASHED
100
AcDbLine
 10
-4693.588812076467
 20
-6992.397171216736
 30
0.0
 11
-4688.885099112735
 21
-6993.573099457669
 31
0.0
  0
LINE
  5
2AE3
330
1F
100
AcDbEntity
  8
SPOJOVACÍ
  6
DASHED
100
AcDbLine
 10
-4693.218713728662
 20
-6988.969659444217
 30
0.0
 11
-4689.255197456262
 21
-6990.3014665453
 31
0.0
  0
LINE
  5
2AE4
330
1F
100
AcDbEntity
  8
SPOJOVACÍ
  6
DASHED
100
AcDbLine
 10
-4693.218713728662
 20
-6989.553977275669
 30
0.0
 11
-4689.255197456262
 21
-6990.88578437648
 31
0.0
  0
LINE
  5
2AE5
330
1F
100
AcDbEntity
  8
SPOJOVACÍ
  6
DASHED
100
AcDbLine
 10
-4693.588812076467
 20
-6989.339757789882
 30
0.0
 11
-4688.885099112735
 21
-6990.515686031087
 31
0.0
  0
LINE
  5
2AE6
330
1F
100
AcDbEntity
  8
SPOJOVACÍ
  6
DASHED
100
AcDbLine
 10
-4693.218713728662
 20
-6985.911334445447
 30
0.0
 11
-4689.255197456262
 21
-6987.244053118446
 31
0.0
  0
LINE
  5
2AE7
330
1F
100
AcDbEntity
  8
SPOJOVACÍ
  6
DASHED
100
AcDbLine
 10
-4693.218713728662
 20
-6986.495652276627
 30
0.0
 11
-4689.255197456262
 21
-6987.828370949898
 31
0.0
  0
LINE
  5
2AE8
330
1F
100
AcDbEntity
  8
SPOJOVACÍ
  6
DASHED
100
AcDbLine
 10
-4693.588812076467
 20
-6986.2823443633
 30
0.0
 11
-4688.885099112735
 21
-6987.458272604233
 31
0.0
  0
LINE
  5
2AE9
330
1F
100
AcDbEntity
  8
SPOJOVACÍ
  6
DASHED
100
AcDbLine
 10
-4692.559646972203
 20
-6989.766373616808
 30
0.0
 11
-4692.559646972203
 21
-6992.236734495382
 31
0.0
  0
LINE
  5
2AEA
330
1F
100
AcDbEntity
  8
SPOJOVACÍ
  6
DASHED
100
AcDbLine
 10
-4692.559646972203
 20
-6992.819229182188
 30
0.0
 11
-4692.559646972203
 21
-6995.2968826388
 31
0.0
  0
LINE
  5
2AEB
330
1F
100
AcDbEntity
  8
SPOJOVACÍ
  6
DASHED
100
AcDbLine
 10
-4693.588812076467
 20
-6995.454584643326
 30
0.0
 11
-4693.218713728662
 21
-6995.084486297661
 31
0.0
  0
LINE
  5
2AEC
330
1F
100
AcDbEntity
  8
SPOJOVACÍ
  6
DASHED
100
AcDbLine
 10
-4693.588812076467
 20
-6995.454584643326
 30
0.0
 11
-4693.218713728662
 21
-6995.668804129104
 31
0.0
  0
LINE
  5
2AED
330
1F
100
AcDbEntity
  8
SPOJOVACÍ
  6
DASHED
100
AcDbLine
 10
-4693.588812076467
 20
-6992.397171216736
 30
0.0
 11
-4693.218713728662
 21
-6992.027072871071
 31
0.0
  0
LINE
  5
2AEE
330
1F
100
AcDbEntity
  8
SPOJOVACÍ
  6
DASHED
100
AcDbLine
 10
-4693.588812076467
 20
-6992.397171216736
 30
0.0
 11
-4693.218713728662
 21
-6992.611390702522
 31
0.0
  0
LINE
  5
2AEF
330
1F
100
AcDbEntity
  8
SPOJOVACÍ
  6
DASHED
100
AcDbLine
 10
-4693.588812076467
 20
-6989.339757789882
 30
0.0
 11
-4693.218713728662
 21
-6988.969659444217
 31
0.0
  0
LINE
  5
2AF0
330
1F
100
AcDbEntity
  8
SPOJOVACÍ
  6
DASHED
100
AcDbLine
 10
-4693.588812076467
 20
-6989.339757789882
 30
0.0
 11
-4693.218713728662
 21
-6989.553977275669
 31
0.0
  0
LINE
  5
2AF1
330
1F
100
AcDbEntity
  8
SPOJOVACÍ
  6
DASHED
100
AcDbLine
 10
-4693.588812076467
 20
-6986.2823443633
 30
0.0
 11
-4693.218713728662
 21
-6985.911334445447
 31
0.0
  0
LINE
  5
2AF2
330
1F
100
AcDbEntity
  8
SPOJOVACÍ
  6
DASHED
100
AcDbLine
 10
-4693.588812076467
 20
-6986.2823443633
 30
0.0
 11
-4693.218713728662
 21
-6986.495652276627
 31
0.0
  0
LINE
  5
2AF3
330
1F
100
AcDbEntity
  8
SPOJOVACÍ
  6
DASHED
100
AcDbLine
 10
-4692.559646972203
 20
-6986.70622547339
 30
0.0
 11
-4692.559646972203
 21
-6989.174763207319
 31
0.0
  0
LINE
  5
2AF4
330
1F
100
AcDbEntity
  8
SPOJOVACÍ
  6
DASHED
100
AcDbLine
 10
-4688.885099112735
 20
-6990.515686031087
 30
0.0
 11
-4689.255197456262
 21
-6990.3014665453
 31
0.0
  0
LINE
  5
2AF5
330
1F
100
AcDbEntity
  8
SPOJOVACÍ
  6
DASHED
100
AcDbLine
 10
-4688.885099112735
 20
-6990.515686031087
 30
0.0
 11
-4689.255197456262
 21
-6990.88578437648
 31
0.0
  0
LINE
  5
2AF6
330
1F
100
AcDbEntity
  8
SPOJOVACÍ
  6
DASHED
100
AcDbLine
 10
-4688.885099112735
 20
-6993.573099457669
 30
0.0
 11
-4689.255197456262
 21
-6993.359791544079
 31
0.0
  0
LINE
  5
2AF7
330
1F
100
AcDbEntity
  8
SPOJOVACÍ
  6
DASHED
100
AcDbLine
 10
-4688.885099112735
 20
-6993.573099457669
 30
0.0
 11
-4689.255197456262
 21
-6993.944109375522
 31
0.0
  0
LINE
  5
2AF8
330
1F
100
AcDbEntity
  8
SPOJOVACÍ
  6
DASHED
100
AcDbLine
 10
-4689.914264212721
 20
-6990.65424501753
 30
0.0
 11
-4689.914264212721
 21
-6993.131898474143
 31
0.0
  0
LINE
  5
2AF9
330
1F
100
AcDbEntity
  8
SPOJOVACÍ
  6
DASHED
100
AcDbLine
 10
-4688.885099112735
 20
-6987.458272604233
 30
0.0
 11
-4689.255197456262
 21
-6987.244053118446
 31
0.0
  0
LINE
  5
2AFA
330
1F
100
AcDbEntity
  8
SPOJOVACÍ
  6
DASHED
100
AcDbLine
 10
-4688.885099112735
 20
-6987.458272604233
 30
0.0
 11
-4689.255197456262
 21
-6987.828370949898
 31
0.0
  0
LINE
  5
2AFB
330
1F
100
AcDbEntity
  8
SPOJOVACÍ
  6
DASHED
100
AcDbLine
 10
-4689.914264212721
 20
-6987.601389452151
 30
0.0
 11
-4689.914264212721
 21
-6990.069927186079
 31
0.0
  0
LINE
  5
2AFC
330
1F
100
AcDbEntity
  8
SPOJOVACÍ
  6
DASHED
100
AcDbLine
 10
-4693.218713728662
 20
-6998.141899724243
 30
0.0
 11
-4689.255197456262
 21
-6999.474618397513
 31
0.0
  0
LINE
  5
2AFD
330
1F
100
AcDbEntity
  8
SPOJOVACÍ
  6
DASHED
100
AcDbLine
 10
-4693.218713728662
 20
-6998.726217555695
 30
0.0
 11
-4689.255197456262
 21
-7000.058936228966
 31
0.0
  0
LINE
  5
2AFE
330
1F
100
AcDbEntity
  8
SPOJOVACÍ
  6
DASHED
100
AcDbLine
 10
-4693.588812076467
 20
-6998.512909642368
 30
0.0
 11
-4688.885099112735
 21
-6999.688837883301
 31
0.0
  0
LINE
  5
2AFF
330
1F
100
AcDbEntity
  8
SPOJOVACÍ
  6
DASHED
100
AcDbLine
 10
-4692.968942924617
 20
-7001.158292398369
 30
0.0
 11
-4689.667228125773
 21
-7002.268587435366
 31
0.0
  0
LINE
  5
2B00
330
1F
100
AcDbEntity
  8
SPOJOVACÍ
  6
DASHED
100
AcDbLine
 10
-4690.48673160867
 20
-7004.748064036625
 30
0.0
 11
-4690.225110362439
 21
-7002.654182509828
 31
0.0
  0
LINE
  5
2B01
330
1F
100
AcDbEntity
  8
SPOJOVACÍ
  6
DASHED
100
AcDbLine
 10
-4692.786628469951
 20
-7004.482796503246
 30
0.0
 11
-4689.732861331848
 21
-7005.103577225681
 31
0.0
  0
LINE
  5
2B02
330
1F
100
AcDbEntity
  8
SPOJOVACÍ
  6
DASHED
100
AcDbLine
 10
-4692.416530122146
 20
-7004.111786585122
 30
0.0
 11
-4690.102959675375
 21
-7004.890269312354
 31
0.0
  0
LINE
  5
2B03
330
1F
100
AcDbEntity
  8
SPOJOVACÍ
  6
DASHED
100
AcDbLine
 10
-4693.339952841935
 20
-7001.528390744034
 30
0.0
 11
-4689.297129782246
 21
-7002.481895348693
 31
0.0
  0
LINE
  5
2B04
330
1F
100
AcDbEntity
  8
SPOJOVACÍ
  6
DASHED
100
AcDbLine
 10
-4692.968942924617
 20
-7001.74261022982
 30
0.0
 11
-4689.667228125773
 21
-7002.852905266817
 31
0.0
  0
LINE
  5
2B05
330
1F
100
AcDbEntity
  8
SPOJOVACÍ
  6
DASHED
100
AcDbLine
 10
-4692.559646972203
 20
-7000.163767040984
 30
0.0
 11
-4692.412883835534
 21
-7001.336960565352
 31
0.0
  0
LINE
  5
2B06
330
1F
100
AcDbEntity
  8
SPOJOVACÍ
  6
DASHED
100
AcDbLine
 10
-4693.339952841935
 20
-7001.528390744034
 30
0.0
 11
-4692.968942924617
 21
-7001.158292398369
 31
0.0
  0
LINE
  5
2B07
330
1F
100
AcDbEntity
  8
SPOJOVACÍ
  6
DASHED
100
AcDbLine
 10
-4693.339952841935
 20
-7001.528390744034
 30
0.0
 11
-4692.968942924617
 21
-7001.74261022982
 31
0.0
  0
LINE
  5
2B08
330
1F
100
AcDbEntity
  8
SPOJOVACÍ
  6
DASHED
100
AcDbLine
 10
-4692.786628469951
 20
-7004.482796503246
 30
0.0
 11
-4692.416530122146
 21
-7004.111786585122
 31
0.0
  0
LINE
  5
2B09
330
1F
100
AcDbEntity
  8
SPOJOVACÍ
  6
DASHED
100
AcDbLine
 10
-4692.786628469951
 20
-7004.482796503246
 30
0.0
 11
-4692.416530122146
 21
-7004.696104416574
 31
0.0
  0
LINE
  5
2B0A
330
1F
100
AcDbEntity
  8
SPOJOVACÍ
  6
DASHED
100
AcDbLine
 10
-4692.337223334859
 20
-7001.944979276089
 30
0.0
 11
-4692.05281278233
 21
-7004.220263686431
 31
0.0
  0
LINE
  5
2B0B
330
1F
100
AcDbEntity
  8
SPOJOVACÍ
  6
DASHED
100
AcDbLine
 10
-4693.588812076467
 20
-6998.512909642368
 30
0.0
 11
-4693.218713728662
 21
-6998.141899724243
 31
0.0
  0
LINE
  5
2B0C
330
1F
100
AcDbEntity
  8
SPOJOVACÍ
  6
DASHED
100
AcDbLine
 10
-4692.559646972203
 20
-6995.88940462074
 30
0.0
 11
-4692.559646972203
 21
-6998.35703078248
 31
0.0
  0
LINE
  5
2B0D
330
1F
100
AcDbEntity
  8
SPOJOVACÍ
  6
DASHED
100
AcDbLine
 10
-4693.588812076467
 20
-6998.512909642368
 30
0.0
 11
-4693.218713728662
 21
-6998.726217555695
 31
0.0
  0
LINE
  5
2B0E
330
1F
100
AcDbEntity
  8
SPOJOVACÍ
  6
DASHED
100
AcDbLine
 10
-4692.559646972203
 20
-6998.941348613932
 30
0.0
 11
-4692.559646972203
 21
-7000.163767040984
 31
0.0
  0
LINE
  5
2B0F
330
1F
100
AcDbEntity
  8
SPOJOVACÍ
  6
DASHED
100
AcDbLine
 10
-4690.154919295959
 20
-7002.095388702044
 30
0.0
 11
-4689.914264212721
 21
-7000.163767040984
 31
0.0
  0
LINE
  5
2B10
330
1F
100
AcDbEntity
  8
SPOJOVACÍ
  6
DASHED
100
AcDbLine
 10
-4689.732861331848
 20
-7005.103577225681
 30
0.0
 11
-4690.102959675375
 21
-7004.890269312354
 31
0.0
  0
LINE
  5
2B11
330
1F
100
AcDbEntity
  8
SPOJOVACÍ
  6
DASHED
100
AcDbLine
 10
-4689.297129782246
 20
-7002.481895348693
 30
0.0
 11
-4689.667228125773
 21
-7002.852905266817
 31
0.0
  0
LINE
  5
2B12
330
1F
100
AcDbEntity
  8
SPOJOVACÍ
  6
DASHED
100
AcDbLine
 10
-4689.297129782246
 20
-7002.481895348693
 30
0.0
 11
-4689.667228125773
 21
-7002.268587435366
 31
0.0
  0
LINE
  5
2B13
330
1F
100
AcDbEntity
  8
SPOJOVACÍ
  6
DASHED
100
AcDbLine
 10
-4688.885099112735
 20
-6996.630512884259
 30
0.0
 11
-4689.255197456262
 21
-6996.417204970931
 31
0.0
  0
LINE
  5
2B14
330
1F
100
AcDbEntity
  8
SPOJOVACÍ
  6
DASHED
100
AcDbLine
 10
-4688.885099112735
 20
-6996.630512884259
 30
0.0
 11
-4689.255197456262
 21
-6997.001522802112
 31
0.0
  0
LINE
  5
2B15
330
1F
100
AcDbEntity
  8
SPOJOVACÍ
  6
DASHED
100
AcDbLine
 10
-4689.914264212721
 20
-6996.773629732176
 30
0.0
 11
-4689.914264212721
 21
-6999.242167466104
 31
0.0
  0
LINE
  5
2B16
330
1F
100
AcDbEntity
  8
SPOJOVACÍ
  6
DASHED
100
AcDbLine
 10
-4688.885099112735
 20
-6999.688837883301
 30
0.0
 11
-4689.255197456262
 21
-6999.474618397513
 31
0.0
  0
LINE
  5
2B17
330
1F
100
AcDbEntity
  8
SPOJOVACÍ
  6
DASHED
100
AcDbLine
 10
-4688.885099112735
 20
-6999.688837883301
 30
0.0
 11
-4689.255197456262
 21
-7000.058936228966
 31
0.0
  0
LINE
  5
2B18
330
1F
100
AcDbEntity
  8
SPOJOVACÍ
  6
DASHED
100
AcDbLine
 10
-4689.914264212721
 20
-6999.833777875856
 30
0.0
 11
-4689.914264212721
 21
-7000.163767040984
 31
0.0
  0
LINE
  5
2B19
330
1F
100
AcDbEntity
  8
SPOJOVACÍ
  6
DASHED
100
AcDbLine
 10
-4693.218713728662
 20
-6995.084486297661
 30
0.0
 11
-4689.255197456262
 21
-6996.417204970931
 31
0.0
  0
LINE
  5
2B1A
330
1F
100
AcDbEntity
  8
SPOJOVACÍ
  6
DASHED
100
AcDbLine
 10
-4693.218713728662
 20
-6995.668804129104
 30
0.0
 11
-4689.255197456262
 21
-6997.001522802112
 31
0.0
  0
LINE
  5
2B1B
330
1F
100
AcDbEntity
  8
SPOJOVACÍ
  6
DASHED
100
AcDbLine
 10
-4693.588812076467
 20
-6995.454584643326
 30
0.0
 11
-4688.885099112735
 21
-6996.630512884259
 31
0.0
  0
LINE
  5
2B1C
330
1F
100
AcDbEntity
  8
SPOJOVACÍ
  6
DASHED
100
AcDbLine
 10
-4689.914264212721
 20
-6993.714393160947
 30
0.0
 11
-4689.914264212721
 21
-6996.184754039522
 31
0.0
  0
LINE
  5
2B1D
330
1F
100
AcDbEntity
  8
SPOJOVACÍ
  6
DASHED
100
AcDbLine
 10
-4692.233304093689
 20
-7007.436290689999
 30
0.0
 11
-4690.122102695061
 21
-7007.740755831457
 31
0.0
  0
LINE
  5
2B1E
330
1F
100
AcDbEntity
  8
SPOJOVACÍ
  6
DASHED
100
AcDbLine
 10
-4690.122102695061
 20
-7007.740755831457
 30
0.0
 11
-4690.492201038588
 21
-7007.527447917867
 31
0.0
  0
LINE
  5
2B1F
330
1F
100
AcDbEntity
  8
SPOJOVACÍ
  6
DASHED
100
AcDbLine
 10
-4690.122102695061
 20
-7007.740755831457
 30
0.0
 11
-4690.492201038588
 21
-7008.111765749311
 31
0.0
  0
LINE
  5
2B20
330
1F
100
AcDbEntity
  8
SPOJOVACÍ
  6
DASHED
100
AcDbLine
 10
-4691.863205750162
 20
-7007.066192344334
 30
0.0
 11
-4690.492201038588
 21
-7007.527447917867
 31
0.0
  0
LINE
  5
2B21
330
1F
100
AcDbEntity
  8
SPOJOVACÍ
  6
DASHED
100
AcDbLine
 10
-4691.863205750162
 20
-7007.650510175778
 30
0.0
 11
-4690.492201038588
 21
-7008.111765749311
 31
0.0
  0
LINE
  5
2B22
330
1F
100
AcDbEntity
  8
SPOJOVACÍ
  6
DASHED
100
AcDbLine
 10
-4692.233304093689
 20
-7007.436290689999
 30
0.0
 11
-4691.863205750162
 21
-7007.066192344334
 31
0.0
  0
LINE
  5
2B23
330
1F
100
AcDbEntity
  8
SPOJOVACÍ
  6
DASHED
100
AcDbLine
 10
-4692.233304093689
 20
-7007.436290689999
 30
0.0
 11
-4691.863205750162
 21
-7007.650510175778
 31
0.0
  0
LINE
  5
2B24
330
1F
100
AcDbEntity
  8
SPOJOVACÍ
  6
DASHED
100
AcDbLine
 10
-4691.615258089422
 20
-7007.720701241189
 30
0.0
 11
-4691.236955594601
 21
-7010.748032782636
 31
0.0
  0
LINE
  5
2B25
330
1F
100
AcDbEntity
  8
SPOJOVACÍ
  6
DASHED
100
AcDbLine
 10
-4691.236955594601
 20
-7010.748032782636
 30
0.0
 11
-4690.889646553094
 21
-7007.968648901393
 31
0.0
  0
LINE
  5
2B26
330
1F
100
AcDbEntity
  8
SPOJOVACÍ
  6
DASHED
100
AcDbLine
 10
-4692.416530122146
 20
-7004.696104416574
 30
0.0
 11
-4690.102959675375
 21
-7005.474587143535
 31
0.0
  0
LINE
  5
2B27
330
1F
100
AcDbEntity
  8
SPOJOVACÍ
  6
DASHED
100
AcDbLine
 10
-4690.819455486615
 20
-7007.410766666068
 30
0.0
 11
-4690.556922670871
 21
-7005.308680988784
 31
0.0
  0
LINE
  5
2B28
330
1F
100
AcDbEntity
  8
SPOJOVACÍ
  6
DASHED
100
AcDbLine
 10
-4691.975329138348
 20
-7004.838309692303
 30
0.0
 11
-4691.690918590097
 21
-7007.112682530451
 31
0.0
  0
LINE
  5
2B29
330
1F
100
AcDbEntity
  8
SPOJOVACÍ
  6
DASHED
100
AcDbLine
 10
-4689.732861331848
 20
-7005.103577225681
 30
0.0
 11
-4690.102959675375
 21
-7005.474587143535
 31
0.0
  0
LINE
  5
2B2A
330
1F
100
AcDbEntity
  8
SPOJOVACÍ
  6
DASHED
100
AcDbLine
 10
-4692.559646972203
 20
-6982.165683947312
 30
0.0
 11
-4692.559646972203
 21
-6986.122819214398
 31
0.0
  0
LINE
  5
2B2B
330
1F
100
AcDbEntity
  8
SPOJOVACÍ
  6
DASHED
100
AcDbLine
 10
-4689.914264212721
 20
-6982.165683947312
 30
0.0
 11
-4689.914264212721
 21
-6987.009779042661
 31
0.0
  0
LINE
  5
2B2C
330
1F
100
AcDbEntity
  8
izolace
  6
IZOLACE
 48
3.0
100
AcDbLine
 10
-4524.932781967683
 20
-7017.698078621646
 30
0.0
 11
-4314.204819805355
 21
-7017.698078621646
 31
0.0
  0
LINE
  5
2B2D
330
1F
100
AcDbEntity
  8
izolace
100
AcDbLine
 10
-4656.720439172982
 20
-7047.698078621646
 30
0.0
 11
-4314.204819805355
 21
-7047.698078621646
 31
0.0
  0
HATCH
  5
2B2E
330
1F
100
AcDbEntity
  8
CETRIS
370
    20
100
AcDbHatch
 10
0.0
 20
0.0
 30
0.0
210
0.0
220
0.0
230
1.0
  2
ANSI31
 70
     0
 71
     0
 91
        3
 92
        7
 72
     0
 73
     1
 93
       24
 10
-4314.204819805355
 20
-6975.698078621646
 10
-4327.99049269604
 20
-6975.698078621646
 10
-4327.990492696033
 20
-6977.191116788154
 10
-4327.33142593958
 20
-6976.969659444218
 10
-4326.961327591775
 20
-6977.339757789883
 10
-4327.331425939587
 20
-6977.553977275672
 10
-4327.990492696036
 20
-6977.775434619559
 10
-4327.990492696036
 20
-6980.248681794242
 10
-4327.33142593958
 20
-6980.027072871071
 10
-4326.961327591772
 20
-6980.397171216738
 10
-4327.331425939576
 20
-6980.611390702524
 10
-4327.990492696033
 20
-6980.832999625693
 10
-4327.990492696036
 20
-6983.306095220872
 10
-4327.331425939584
 20
-6983.08448629766
 10
-4326.961327591772
 20
-6983.454584643324
 10
-4327.33142593958
 20
-6983.668804129107
 10
-4327.990492696036
 20
-6983.890413052275
 10
-4327.990492696036
 20
-6986.363508647456
 10
-4327.331425939576
 20
-6986.141899724244
 10
-4326.961327591768
 20
-6986.512909642368
 10
-4327.331425939573
 20
-6986.726217555691
 10
-4327.990492696036
 20
-6986.947826478909
 10
-4327.990492696036
 20
-6987.698078621647
 10
-4314.204819805359
 20
-6987.698078621646
 97
        0
 92
        7
 72
     0
 73
     1
 93
       45
 10
-4330.635875455528
 20
-6978.664327032591
 10
-4331.294942211977
 20
-6978.885784376481
 10
-4331.665040555503
 20
-6978.515686031087
 10
-4331.294942211973
 20
-6978.301466545301
 10
-4330.635875455517
 20
-6978.080009201363
 10
-4330.635875455517
 20
-6975.698078621646
 10
-4330.907451758396
 20
-6975.698078621646
 10
-4331.294942211977
 20
-6975.8283709499
 10
-4331.425234539477
 20
-6975.698078621646
 10
-4577.990492696033
 20
-6975.698078621646
 10
-4577.990492696043
 20
-6977.191116788155
 10
-4577.331425939576
 20
-6976.969659444215
 10
-4576.961327591775
 20
-6977.339757789882
 10
-4577.33142593958
 20
-6977.553977275673
 10
-4577.990492696036
 20
-6977.775434619563
 10
-4577.990492696033
 20
-6980.248681794241
 10
-4577.33142593958
 20
-6980.027072871071
 10
-4576.961327591772
 20
-6980.397171216738
 10
-4577.331425939584
 20
-6980.611390702525
 10
-4577.990492696036
 20
-6980.832999625691
 10
-4577.990492696036
 20
-6983.306095220874
 10
-4577.331425939584
 20
-6983.08448629766
 10
-4576.961327591775
 20
-6983.454584643324
 10
-4577.33142593958
 20
-6983.668804129107
 10
-4577.990492696036
 20
-6983.890413052275
 10
-4577.99049269604
 20
-6986.363508647456
 10
-4577.331425939576
 20
-6986.141899724244
 10
-4576.961327591772
 20
-6986.512909642366
 10
-4577.331425939584
 20
-6986.726217555691
 10
-4577.990492696036
 20
-6986.947826478905
 10
-4577.990492696036
 20
-6987.698078621646
 10
-4331.702003508897
 20
-6987.698078621646
 10
-4331.665040555503
 20
-6987.688837883299
 10
-4331.29494221197
 20
-6987.474618397509
 10
-4330.635875455514
 20
-6987.253009474298
 10
-4330.635875455507
 20
-6984.779913878941
 10
-4331.294942211977
 20
-6985.001522802111
 10
-4331.665040555507
 20
-6984.63051288426
 10
-4331.294942211977
 20
-6984.417204970927
 10
-4330.635875455517
 20
-6984.195596047715
 10
-4330.635875455514
 20
-6981.722500452358
 10
-4331.294942211981
 20
-6981.944109375523
 10
-4331.665040555503
 20
-6981.573099457669
 10
-4331.29494221197
 20
-6981.359791544081
 10
-4330.635875455517
 20
-6981.138182620913
 97
        0
 92
        7
 72
     0
 73
     1
 93
       25
 10
-4580.635875455517
 20
-6978.664327032589
 10
-4581.294942211973
 20
-6978.885784376483
 10
-4581.6650405555
 20
-6978.515686031087
 10
-4581.29494221197
 20
-6978.301466545301
 10
-4580.635875455517
 20
-6978.080009201365
 10
-4580.635875455514
 20
-6975.698078621646
 10
-4580.907451758396
 20
-6975.698078621646
 10
-4581.294942211977
 20
-6975.828370949897
 10
-4581.425234539477
 20
-6975.698078621646
 10
-4596.720439172979
 20
-6975.698078621646
 10
-4596.720439172979
 20
-6987.698078621646
 10
-4581.702003508893
 20
-6987.698078621647
 10
-4581.6650405555
 20
-6987.688837883301
 10
-4581.294942211981
 20
-6987.474618397513
 10
-4580.635875455517
 20
-6987.253009474301
 10
-4580.635875455517
 20
-6984.779913878944
 10
-4581.294942211985
 20
-6985.001522802111
 10
-4581.665040555507
 20
-6984.630512884262
 10
-4581.294942211989
 20
-6984.41720497093
 10
-4580.635875455517
 20
-6984.195596047718
 10
-4580.635875455514
 20
-6981.722500452353
 10
-4581.294942211977
 20
-6981.944109375523
 10
-4581.665040555503
 20
-6981.573099457671
 10
-4581.29494221197
 20
-6981.359791544079
 10
-4580.635875455521
 20
-6981.138182620911
 97
        0
 75
     0
 76
     1
 52
90.0
 41
1.0
 77
     0
 78
     1
 53
135.0
 43
-32482.53127089704
 44
-3123.107951617705
 45
-2.245064030267288
 46
-2.245064030267287
 79
     0
 47
0.4519862576681119
 98
        3
 10
-4323.169458959461
 20
-6979.850873062609
 10
-4356.636984014908
 20
-6979.850873062609
 10
-4589.552864995093
 20
-6979.398895027197
  0
LWPOLYLINE
  5
2B2F
330
1F
100
AcDbEntity
  8
nášlap_vrstvy
100
AcDbPolyline
 90
        4
 70
     0
 43
0.0
 10
-4621.401679516507
 20
-6961.07631825913
 10
-4314.204819805359
 20
-6961.07631825913
 10
-4314.204819805359
 20
-6956.737829233181
 10
-4621.401679516507
 20
-6956.737829233181
  0
LINE
  5
2B30
330
1F
100
AcDbEntity
  8
CETRIS
100
AcDbLine
 10
-4596.720439172982
 20
-6987.698078621646
 30
0.0
 11
-4314.204819805355
 21
-6987.698078621646
 31
0.0
  0
LINE
  5
2B31
330
1F
100
AcDbEntity
  8
CETRIS
100
AcDbLine
 10
-4596.720439172982
 20
-6975.698078621646
 30
0.0
 11
-4314.204819805355
 21
-6975.698078621646
 31
0.0
  0
TEXT
  5
2B32
330
1F
100
AcDbEntity
  8
POPIS
100
AcDbText
 10
-4393.709990844683
 20
-7187.945511248959
 30
0.0
 40
25.0
  1
13
  7
SIMPLEX7
100
AcDbText
  0
TEXT
  5
2B33
330
1F
100
AcDbEntity
  8
POPIS
100
AcDbText
 10
-4450.779295425028
 20
-7187.945511248959
 30
0.0
 40
25.0
  1
11
  7
SIMPLEX7
100
AcDbText
  0
TEXT
  5
2B34
330
1F
100
AcDbEntity
  8
POPIS
100
AcDbText
 10
-4584.935211808576
 20
-7187.945511248959
 30
0.0
 40
25.0
  1
09
  7
SIMPLEX7
100
AcDbText
  0
TEXT
  5
2B35
330
1F
100
AcDbEntity
  8
POPIS
100
AcDbText
 10
-4649.914730718522
 20
-7187.945511248959
 30
0.0
 40
25.0
  1
03
  7
SIMPLEX7
100
AcDbText
  0
TEXT
  5
2B36
330
1F
100
AcDbEntity
  8
POPIS
100
AcDbText
 10
-4505.420123948074
 20
-7187.945511248959
 30
0.0
 40
25.0
  1
10
  7
SIMPLEX7
100
AcDbText
  0
LINE
  5
2B37
330
1F
100
AcDbEntity
  8
POPIS
370
    20
100
AcDbLine
 10
-4614.220439172981
 20
-6972.877716977706
 30
0.0
 11
-4496.267041916335
 21
-6887.964703961188
 31
0.0
  0
LWPOLYLINE
  5
2B38
330
1F
100
AcDbEntity
  8
STAVBA OBRYS
100
AcDbPolyline
 90
        4
 70
     1
 43
0.0
 10
-4505.5436434026
 20
-7107.698078621647
 10
-4529.185376112436
 20
-7107.698078621647
 10
-4529.185376112436
 20
-7110.698078621647
 10
-4505.5436434026
 20
-7110.698078621647
  0
HATCH
  5
2B39
330
1F
100
AcDbEntity
  8
izolace
100
AcDbHatch
 10
0.0
 20
0.0
 30
0.0
210
0.0
220
0.0
230
1.0
  2
SOLID
 70
     1
 71
     0
 91
        1
 92
        7
 72
     0
 73
     1
 93
        4
 10
-4529.185376112436
 20
-7107.698078621647
 10
-4529.185376112432
 20
-7110.698078621647
 10
-4505.543643402597
 20
-7110.698078621647
 10
-4505.543643402607
 20
-7107.698078621647
 97
        0
 75
     0
 76
     1
 47
0.1901250437635136
 98
        1
 10
-4519.827581354092
 20
-7108.514890172727
  0
LINE
  5
2B3A
330
1F
100
AcDbEntity
  8
0
100
AcDbLine
 10
-4516.606155641154
 20
-6987.698078621646
 30
0.0
 11
-4516.606155641154
 21
-7047.698078621646
 31
0.0
  0
LINE
  5
2B3B
330
1F
100
AcDbEntity
  8
STAVBA OBRYS
100
AcDbLine
 10
-4556.919777528551
 20
-7013.074989698973
 30
0.0
 11
-4541.433446318968
 21
-7013.81171095735
 31
0.0
  0
LINE
  5
2B3C
330
1F
100
AcDbEntity
  8
STAVBA OBRYS
100
AcDbLine
 10
-4538.237854365859
 20
-6992.937937000032
 30
0.0
 11
-4551.020222178297
 21
-7013.320563096768
 31
0.0
  0
LINE
  5
2B3D
330
1F
100
AcDbEntity
  8
STAVBA OBRYS
100
AcDbLine
 10
-4546.34974244418
 20
-7008.409087685922
 30
0.0
 11
-4521.030821097288
 21
-7014.057284355145
 31
0.0
  0
LINE
  5
2B3E
330
1F
100
AcDbEntity
  8
STAVBA OBRYS
100
AcDbLine
 10
-4593.546178906875
 20
-7017.24974385144
 30
0.0
 11
-4582.484513153427
 21
-7012.338268440595
 31
0.0
  0
LINE
  5
2B3F
330
1F
100
AcDbEntity
  8
STAVBA OBRYS
100
AcDbLine
 10
-4567.24399833494
 20
-7014.302858817932
 30
0.0
 11
-4556.919777528551
 21
-7013.074989698973
 31
0.0
  0
LWPOLYLINE
  5
2B40
330
1F
100
AcDbEntity
  8
STAVBA OBRYS
370
    20
100
AcDbPolyline
 90
        3
 70
     0
 43
0.0
 10
-4637.646516182218
 20
-7012.29477317948
 10
-4620.891298562491
 20
-7020.678514047448
 10
-4614.802953625664
 20
-7026.777442483961
  0
LWPOLYLINE
  5
2B41
330
1F
100
AcDbEntity
  8
STAVBA OBRYS
370
    20
100
AcDbPolyline
 90
        4
 70
     0
 43
0.0
 10
-4611.720439172982
 20
-6991.826639336679
 42
-0.027278836128071
 10
-4612.503552853558
 20
-6993.498590696233
 42
-0.0295006114745606
 10
-4614.919613307857
 20
-6997.425489909634
 42
-0.1674698908043404
 10
-4641.720439172981
 20
-7016.900278341477
  0
LWPOLYLINE
  5
2B42
330
1F
100
AcDbEntity
  8
STAVBA OBRYS
370
    20
100
AcDbPolyline
 90
        4
 70
     0
 43
0.0
 10
-4611.720439172982
 20
-7005.173668922288
 42
-0.027278836128071
 10
-4612.503552853558
 20
-7006.845620281841
 42
-0.0295006114745606
 10
-4614.919613307857
 20
-7010.772519495242
 42
-0.1674698908043404
 10
-4641.720439172981
 20
-7030.247307927085
  0
LINE
  5
2B43
330
1F
100
AcDbEntity
  8
POPIS
370
    20
100
AcDbLine
 10
-4564.462027816278
 20
-7157.23002034263
 30
0.0
 11
-4564.462027816278
 21
-6992.508300186353
 31
0.0
  0
LWPOLYLINE
  5
2B44
330
1F
100
AcDbEntity
  8
STAVBA OBRYS
370
    20
100
AcDbPolyline
 90
        4
 70
     0
 43
0.0
 10
-4611.720439172982
 20
-6991.826639336679
 42
-0.027278836128071
 10
-4612.503552853558
 20
-6993.498590696233
 42
-0.0295006114745606
 10
-4614.919613307857
 20
-6997.425489909634
 42
-0.1674698908043411
 10
-4641.720439172981
 20
-7016.900278341477
  0
LINE
  5
2B45
330
1F
100
AcDbEntity
  8
POPIS
370
    20
100
AcDbLine
 10
-4629.441546726225
 20
-7157.88669657855
 30
0.0
 11
-4629.441546726225
 21
-6992.508300186353
 31
0.0
  0
LWPOLYLINE
  5
2B46
330
1F
100
AcDbEntity
  8
STAVBA OBRYS
100
AcDbPolyline
 90
        4
 70
     1
 43
0.0
 10
-4641.720439172981
 20
-6978.978062980885
 10
-4611.720439172982
 20
-6978.978062980885
 10
-4611.720439172982
 20
-7047.698078621646
 10
-4641.720439172981
 20
-7047.698078621646
  0
LINE
  5
2B47
330
1F
100
AcDbEntity
  8
izolace
  6
IZOLACE
 48
0.7
370
    20
100
AcDbLine
 10
-4604.220439172982
 20
-7047.698078621646
 30
0.0
 11
-4604.220439172982
 21
-6963.698078621646
 31
0.0
  0
LINE
  5
2B48
330
1F
100
AcDbEntity
  8
izolace
  6
IZOLACE
 48
0.7
370
    20
100
AcDbLine
 10
-4649.220439172982
 20
-7047.698078621646
 30
0.0
 11
-4649.220439172982
 21
-6963.698078621646
 31
0.0
  0
LWPOLYLINE
  5
2B49
330
1F
100
AcDbEntity
  8
izolace
100
AcDbPolyline
 90
        4
 70
     0
 43
0.0
 10
-4656.720439172982
 20
-6963.698078621646
 10
-4656.720439172982
 20
-7047.698078621646
 10
-4641.720439172981
 20
-7047.698078621646
 10
-4641.720439172981
 20
-6963.698078621646
  0
LWPOLYLINE
  5
2B4A
330
1F
100
AcDbEntity
  8
izolace
100
AcDbPolyline
 90
        4
 70
     1
 43
0.0
 10
-4611.720439172982
 20
-6963.698078621646
 10
-4596.720439172982
 20
-6963.698078621646
 10
-4596.720439172982
 20
-7047.698078621646
 10
-4611.720439172982
 20
-7047.698078621646
  0
LWPOLYLINE
  5
2B4B
330
1F
100
AcDbEntity
  8
izolace
100
AcDbPolyline
 90
        4
 70
     1
 43
0.0
 10
-4647.394039661612
 20
-7107.698078621647
 10
-4671.035772371447
 20
-7107.698078621647
 10
-4671.035772371447
 20
-7110.698078621647
 10
-4647.394039661612
 20
-7110.698078621647
  0
HATCH
  5
2B4C
330
1F
100
AcDbEntity
  8
izolace
100
AcDbHatch
 10
0.0
 20
0.0
 30
0.0
210
0.0
220
0.0
230
1.0
  2
SOLID
 70
     1
 71
     0
 91
        1
 92
        7
 72
     0
 73
     1
 93
        4
 10
-4671.035772371447
 20
-7107.698078621647
 10
-4671.035772371443
 20
-7110.698078621647
 10
-4647.394039661612
 20
-7110.698078621647
 10
-4647.394039661608
 20
-7107.698078621647
 97
        0
 75
     0
 76
     1
 47
0.1901250437635136
 98
        1
 10
-4661.677977613103
 20
-7108.514890172727
  0
LWPOLYLINE
  5
2B4D
330
1F
100
AcDbEntity
  8
STAVBA OBRYS
100
AcDbPolyline
 90
        2
 70
     0
 43
0.0
 10
-4656.720439172982
 20
-7101.081601511971
 42
-0.0070027860950108
 10
-4658.544410372952
 20
-7107.698078621647
  0
LWPOLYLINE
  5
2B4E
330
1F
100
AcDbEntity
  8
STAVBA OBRYS
100
AcDbPolyline
 90
        4
 70
     1
 43
0.0
 10
-4600.110574241941
 20
-7107.698078621647
 10
-4623.752306951776
 20
-7107.698078621647
 10
-4623.752306951776
 20
-7110.698078621647
 10
-4600.110574241941
 20
-7110.698078621647
  0
HATCH
  5
2B4F
330
1F
100
AcDbEntity
  8
izolace
100
AcDbHatch
 10
0.0
 20
0.0
 30
0.0
210
0.0
220
0.0
230
1.0
  2
SOLID
 70
     1
 71
     0
 91
        1
 92
        7
 72
     0
 73
     1
 93
        4
 10
-4623.752306951776
 20
-7107.698078621647
 10
-4623.752306951772
 20
-7110.698078621647
 10
-4600.110574241937
 20
-7110.698078621647
 10
-4600.110574241937
 20
-7107.698078621647
 97
        0
 75
     0
 76
     1
 47
0.1901250437635136
 98
        1
 10
-4614.394512193433
 20
-7108.514890172727
  0
LWPOLYLINE
  5
2B50
330
1F
100
AcDbEntity
  8
STAVBA OBRYS
370
    20
100
AcDbPolyline
 90
        3
 70
     0
 43
0.0
 10
-4641.45461194017
 20
-7030.802719340738
 10
-4624.699394320442
 20
-7039.186460208707
 10
-4618.611049383615
 20
-7045.285388645218
  0
LINE
  5
2B51
330
1F
100
AcDbEntity
  8
STAVBA OBRYS
100
AcDbLine
 10
-4661.030821097288
 20
-7014.057284355145
 30
0.0
 11
-4656.360339250058
 21
-7015.776301334686
 31
0.0
  0
LINE
  5
2B52
330
1F
100
AcDbEntity
  8
STAVBA OBRYS
100
AcDbLine
 10
-4681.433446318968
 20
-7013.81171095735
 30
0.0
 11
-4672.092484737623
 21
-7017.004170453645
 31
0.0
  0
LWPOLYLINE
  5
2B53
330
1F
100
AcDbEntity
  8
STAVBA OBRYS
370
    20
100
AcDbPolyline
 90
        4
 70
     0
 43
0.0
 10
-4611.720439172982
 20
-7023.377115253339
 42
-0.027278836128071
 10
-4612.503552853558
 20
-7025.049066612893
 42
-0.0295006114745606
 10
-4614.919613307857
 20
-7028.975965826294
 42
-0.1553986944503789
 10
-4639.449599125328
 20
-7047.698078621646
 42
-0.0575103654596281
  0
LWPOLYLINE
  5
2B54
330
1F
100
AcDbEntity
  8
STAVBA OBRYS
100
AcDbPolyline
 90
        4
 70
     1
 43
0.0
 10
-4552.82710882227
 20
-7107.698078621647
 10
-4576.468841532106
 20
-7107.698078621647
 10
-4576.468841532106
 20
-7110.698078621647
 10
-4552.82710882227
 20
-7110.698078621647
  0
HATCH
  5
2B55
330
1F
100
AcDbEntity
  8
izolace
100
AcDbHatch
 10
0.0
 20
0.0
 30
0.0
210
0.0
220
0.0
230
1.0
  2
SOLID
 70
     1
 71
     0
 91
        1
 92
        7
 72
     0
 73
     1
 93
        4
 10
-4576.468841532102
 20
-7107.698078621647
 10
-4576.468841532102
 20
-7110.698078621647
 10
-4552.827108822267
 20
-7110.698078621647
 10
-4552.827108822267
 20
-7107.698078621647
 97
        0
 75
     0
 76
     1
 47
0.1901250437635136
 98
        1
 10
-4567.111046773763
 20
-7108.514890172727
  0
LWPOLYLINE
  5
2B56
330
1F
100
AcDbEntity
  8
STAVBA OBRYS
370
    20
100
AcDbPolyline
 90
        2
 70
     0
 43
0.0
 10
-4536.720439172982
 20
-7101.081601511971
 42
-0.0070027860950108
 10
-4538.544410372952
 20
-7107.698078621647
  0
LINE
  5
2B57
330
1F
100
AcDbEntity
  8
0
100
AcDbLine
 10
-4516.606155641154
 20
-7017.698078621646
 30
0.0
 11
-4596.720439172982
 21
-7017.698078621646
 31
0.0
  0
LINE
  5
2B58
330
1F
100
AcDbEntity
  8
izolace
  6
IZOLACE
 48
1.45
100
AcDbLine
 10
-4596.720439172982
 20
-7032.698078621646
 30
0.0
 11
-4516.764890815817
 21
-7032.698078621646
 31
0.0
  0
LINE
  5
2B59
330
1F
100
AcDbEntity
  8
STAVBA OBRYS
100
AcDbLine
 10
-4578.551476253256
 20
-7017.24974385144
 30
0.0
 11
-4567.24399833494
 21
-7014.302858817932
 31
0.0
  0
LINE
  5
2B5A
330
1F
100
AcDbEntity
  8
STAVBA OBRYS
100
AcDbLine
 10
-4541.433446318968
 20
-7013.81171095735
 30
0.0
 11
-4532.092484737622
 21
-7017.004170453645
 31
0.0
  0
LINE
  5
2B5B
330
1F
100
AcDbEntity
  8
POPIS
370
    20
100
AcDbLine
 10
-4548.702748340819
 20
-6886.849741454837
 30
0.0
 11
-4627.191789196479
 21
-6953.823563881122
 31
0.0
  0
LINE
  5
2B5C
330
1F
100
AcDbEntity
  8
izolace
100
AcDbLine
 10
-4640.720439172978
 20
-6974.874294129714
 30
0.0
 11
-4639.220439172982
 21
-6974.874294129714
 31
0.0
  0
LWPOLYLINE
  5
2B5D
330
1F
100
AcDbEntity
  8
STAVBA OBRYS
370
    20
100
AcDbPolyline
 90
        7
 70
     0
 43
0.0
 10
-4637.205670693298
 20
-6978.978062980885
 42
-0.0203924744732807
 10
-4638.107754677707
 20
-6979.99119301004
 42
-0.0273961979096945
 10
-4638.957619027903
 20
-6980.779369384065
 42
-0.0243529190212958
 10
-4640.120739520322
 20
-6981.653128728734
 42
-0.0398020282482987
 10
-4640.895698057883
 20
-6982.092757472179
 42
-0.104168275620852
 10
-4641.282109194223
 20
-6982.182773932357
 42
-0.007272956268647
 10
-4641.720439172981
 20
-6982.201227283652
 42
-0.007272956268647
  0
POLYLINE
  5
2B5E
330
1F
100
AcDbEntity
  8
STAVBA OBRYS
370
    20
100
AcDb2dPolyline
 66
     1
 10
0.0
 20
0.0
 30
0.0
  0
VERTEX
  5
2B5F
330
2B5E
100
AcDbEntity
  8
STAVBA OBRYS
370
    20
100
AcDbVertex
100
AcDb2dVertex
 10
-4631.855984358781
 20
-6978.978062980887
 30
0.0
 42
-0.0064239028828688
  0
VERTEX
  5
2B60
330
2B5E
100
AcDbEntity
  8
STAVBA OBRYS
370
    20
100
AcDbVertex
100
AcDb2dVertex
 10
-4631.894852798962
 20
-6979.197176640237
 30
0.0
 42
-0.0832048017309575
  0
VERTEX
  5
2B61
330
2B5E
100
AcDbEntity
  8
STAVBA OBRYS
370
    20
100
AcDbVertex
100
AcDb2dVertex
 10
-4632.679035401643
 20
-6981.527390219891
 30
0.0
 42
-0.0336767237692336
  0
VERTEX
  5
2B62
330
2B5E
100
AcDbEntity
  8
STAVBA OBRYS
370
    20
100
AcDbVertex
100
AcDb2dVertex
 10
-4634.381851960565
 20
-6984.255664739352
 30
0.0
 42
-0.0844635135812105
  0
VERTEX
  5
2B63
330
2B5E
100
AcDbEntity
  8
STAVBA OBRYS
370
    20
100
AcDbVertex
100
AcDb2dVertex
 10
-4635.301661720458
 20
-6985.160086344348
 30
0.0
 42
-0.0495829410719565
  0
VERTEX
  5
2B64
330
2B5E
100
AcDbEntity
  8
STAVBA OBRYS
370
    20
100
AcDbVertex
100
AcDb2dVertex
 10
-4637.050340157812
 20
-6986.13673585166
 30
0.0
 42
-0.0322692699774654
  0
VERTEX
  5
2B65
330
2B5E
100
AcDbEntity
  8
STAVBA OBRYS
370
    20
100
AcDbVertex
100
AcDb2dVertex
 10
-4639.941694338904
 20
-6987.178259353061
 30
0.0
 42
-0.0276160659512937
  0
VERTEX
  5
2B66
330
2B5E
100
AcDbEntity
  8
STAVBA OBRYS
370
    20
100
AcDbVertex
100
AcDb2dVertex
 10
-4640.79727077719
 20
-6987.374994782006
 30
0.0
 42
-0.0126891984598699
  0
VERTEX
  5
2B67
330
2B5E
100
AcDbEntity
  8
STAVBA OBRYS
370
    20
100
AcDbVertex
100
AcDb2dVertex
 10
-4641.720439172981
 20
-6987.510197171546
 30
0.0
  0
SEQEND
  5
2B68
330
2B5E
100
AcDbEntity
  8
STAVBA OBRYS
370
    20
  0
HATCH
  5
2B69
330
1F
100
AcDbEntity
  8
izolace
100
AcDbHatch
 10
0.0
 20
0.0
 30
0.0
210
0.0
220
0.0
230
1.0
  2
SOLID
 70
     1
 71
     0
 91
        2
 92
        7
 72
     0
 73
     1
 93
        6
 10
-4612.720439172981
 20
-6964.646782053951
 10
-4626.720439172982
 20
-6964.646782053951
 10
-4626.720439172978
 20
-6965.943605462765
 10
-4614.220439172985
 20
-6965.943605462765
 10
-4614.220439172978
 20
-6974.874294129714
 10
-4612.720439172989
 20
-6974.874294129714
 97
        0
 92
        7
 72
     0
 73
     1
 93
        6
 10
-4626.720439172978
 20
-6964.646782053951
 10
-4640.720439172985
 20
-6964.646782053951
 10
-4640.720439172978
 20
-6974.874294129714
 10
-4639.220439172982
 20
-6974.874294129714
 10
-4639.220439172985
 20
-6965.943605462765
 10
-4626.720439172982
 20
-6965.943605462765
 97
        0
 75
     0
 76
     1
 47
0.1904839148977221
 98
        2
 10
-4624.007569530333
 20
-6965.348719849349
 10
-4629.534982116267
 20
-6965.158231980237
  0
LINE
  5
2B6A
330
1F
100
AcDbEntity
  8
izolace
100
AcDbLine
 10
-4640.720439172982
 20
-6964.646782053951
 30
0.0
 11
-4612.720439172978
 21
-6964.646782053951
 31
0.0
  0
LINE
  5
2B6B
330
1F
100
AcDbEntity
  8
izolace
100
AcDbLine
 10
-4641.746063895403
 20
-6961.756710509606
 30
0.0
 11
-4631.257122810612
 21
-6961.756710509606
 31
0.0
  0
LINE
  5
2B6C
330
1F
100
AcDbEntity
  8
izolace
100
AcDbLine
 10
-4641.746063895403
 20
-6962.694402236313
 30
0.0
 11
-4630.195191298097
 21
-6962.694402236313
 31
0.0
  0
HATCH
  5
2B6D
330
1F
100
AcDbEntity
  8
izolace
100
AcDbHatch
 10
0.0
 20
0.0
 30
0.0
210
0.0
220
0.0
230
1.0
  2
SOLID
 70
     1
 71
     0
 91
        1
 92
        7
 72
     0
 73
     1
 93
       12
 10
-4622.183755535352
 20
-6956.73782923318
 10
-4631.257122810612
 20
-6956.737829233181
 10
-4631.257122810612
 20
-6961.756710509606
 10
-4641.746063895403
 20
-6961.756710509606
 10
-4641.746063895403
 20
-6962.694402236313
 10
-4630.195191298097
 20
-6962.694402236313
 10
-4630.195191298097
 20
-6957.833609880603
 10
-4623.245687047866
 20
-6957.833609880605
 10
-4623.245687047862
 20
-6962.694402236313
 10
-4611.694814450561
 20
-6962.694402236313
 10
-4611.694814450564
 20
-6961.756710509606
 10
-4622.183755535352
 20
-6961.756710509606
 97
        0
 75
     0
 76
     1
 47
0.1079746841384943
 98
        1
 10
-4629.669517374288
 20
-6957.165217481303
  0
LWPOLYLINE
  5
2B6E
330
1F
100
AcDbEntity
  8
STAVBA OBRYS
370
    20
100
AcDbPolyline
 90
        8
 70
     0
 43
0.0
 10
-4617.678155314358
 20
-6978.978062980885
 42
-0.0168162630274195
 10
-4617.813180893422
 20
-6980.669101133004
 42
-0.0575155827655532
 10
-4618.493213173765
 20
-6983.768725793722
 42
-0.0310289133982999
 10
-4621.496014518593
 20
-6991.013753318366
 42
-0.0882970623535771
 10
-4623.133236438686
 20
-6993.254122369165
 42
-0.0171636441953577
 10
-4625.946600500544
 20
-6995.768039724412
 42
-0.0157521173632038
 10
-4629.18545533758
 20
-6998.299535776919
 42
-0.0195937963304537
 10
-4641.720439172981
 20
-7006.742193405983
 42
-0.0014948023799519
  0
POLYLINE
  5
2B6F
330
1F
100
AcDbEntity
  8
STAVBA OBRYS
370
    20
100
AcDb2dPolyline
 66
     1
 10
0.0
 20
0.0
 30
0.0
  0
VERTEX
  5
2B70
330
2B6F
100
AcDbEntity
  8
STAVBA OBRYS
370
    20
100
AcDbVertex
100
AcDb2dVertex
 10
-4624.627933338043
 20
-6978.978062980887
 30
0.0
 42
-0.0072417954699014
  0
VERTEX
  5
2B71
330
2B6F
100
AcDbEntity
  8
STAVBA OBRYS
370
    20
100
AcDbVertex
100
AcDb2dVertex
 10
-4624.683503705887
 20
-6979.389468192161
 30
0.0
 42
-0.0707158694326265
  0
VERTEX
  5
2B72
330
2B6F
100
AcDbEntity
  8
STAVBA OBRYS
370
    20
100
AcDbVertex
100
AcDb2dVertex
 10
-4625.214630222307
 20
-6981.325571644754
 30
0.0
 42
-0.033952657250207
  0
VERTEX
  5
2B73
330
2B6F
100
AcDbEntity
  8
STAVBA OBRYS
370
    20
100
AcDbVertex
100
AcDb2dVertex
 10
-4627.463286061716
 20
-6985.678609369928
 30
0.0
 42
-0.0571374688189033
  0
VERTEX
  5
2B74
330
2B6F
100
AcDbEntity
  8
STAVBA OBRYS
370
    20
100
AcDbVertex
100
AcDb2dVertex
 10
-4629.249442821567
 20
-6987.985533653615
 30
0.0
 42
-0.0274923553235744
  0
VERTEX
  5
2B75
330
2B6F
100
AcDbEntity
  8
STAVBA OBRYS
370
    20
100
AcDbVertex
100
AcDb2dVertex
 10
-4631.84674855212
 20
-6990.37060897675
 30
0.0
 42
-0.0255412025538677
  0
VERTEX
  5
2B76
330
2B6F
100
AcDbEntity
  8
STAVBA OBRYS
370
    20
100
AcDbVertex
100
AcDb2dVertex
 10
-4634.898178589831
 20
-6992.627322653769
 30
0.0
 42
-0.0272796991712396
  0
VERTEX
  5
2B77
330
2B6F
100
AcDbEntity
  8
STAVBA OBRYS
370
    20
100
AcDbVertex
100
AcDb2dVertex
 10
-4639.011177743016
 20
-6995.043658535431
 30
0.0
 42
-0.056967459841729
  0
VERTEX
  5
2B78
330
2B6F
100
AcDbEntity
  8
STAVBA OBRYS
370
    20
100
AcDbVertex
100
AcDb2dVertex
 10
-4641.152125023748
 20
-6995.856394370631
 30
0.0
 42
-0.0373408083348504
  0
VERTEX
  5
2B79
330
2B6F
100
AcDbEntity
  8
STAVBA OBRYS
370
    20
100
AcDbVertex
100
AcDb2dVertex
 10
-4641.374479399222
 20
-6995.895559911581
 30
0.0
 42
-0.0052305969362967
  0
VERTEX
  5
2B7A
330
2B6F
100
AcDbEntity
  8
STAVBA OBRYS
370
    20
100
AcDbVertex
100
AcDb2dVertex
 10
-4641.720439172981
 20
-6995.926516878487
 30
0.0
  0
SEQEND
  5
2B7B
330
2B6F
100
AcDbEntity
  8
STAVBA OBRYS
370
    20
  0
LINE
  5
2B7C
330
1F
100
AcDbEntity
  8
izolace
100
AcDbLine
 10
-4640.720439172978
 20
-6974.874294129714
 30
0.0
 11
-4640.720439172982
 21
-6964.646782053951
 31
0.0
  0
LINE
  5
2B7D
330
1F
100
AcDbEntity
  8
SPOJOVACÍ
  6
DASHED
100
AcDbLine
 10
-4672.805002890446
 20
-6970.165683947313
 30
0.0
 11
-4672.805002890446
 21
-6975.009779042662
 31
0.0
  0
LINE
  5
2B7E
330
1F
100
AcDbEntity
  8
SPOJOVACÍ
  6
DASHED
100
AcDbLine
 10
-4675.450385649927
 20
-6974.706225473392
 30
0.0
 11
-4675.450385649927
 21
-6977.17476320732
 31
0.0
  0
LINE
  5
2B7F
330
1F
100
AcDbEntity
  8
SPOJOVACÍ
  6
DASHED
100
AcDbLine
 10
-4676.479550754192
 20
-6974.282344363301
 30
0.0
 11
-4671.77583779046
 21
-6975.458272604234
 31
0.0
  0
LINE
  5
2B80
330
1F
100
AcDbEntity
  8
SPOJOVACÍ
  6
DASHED
100
AcDbLine
 10
-4676.109452406387
 20
-6974.495652276629
 30
0.0
 11
-4672.145936133986
 21
-6975.8283709499
 31
0.0
  0
LINE
  5
2B81
330
1F
100
AcDbEntity
  8
SPOJOVACÍ
  6
DASHED
100
AcDbLine
 10
-4676.109452406387
 20
-6973.911334445448
 30
0.0
 11
-4672.145936133986
 21
-6975.244053118448
 31
0.0
  0
LINE
  5
2B82
330
1F
100
AcDbEntity
  8
STAVBA OBRYS
100
AcDbLine
 10
-4671.355041903676
 20
-6994.902527377369
 30
0.0
 11
-4656.606155641154
 21
-6995.39367523795
 31
0.0
  0
LINE
  5
2B83
330
1F
100
AcDbEntity
  8
STAVBA OBRYS
100
AcDbLine
 10
-4663.980598772415
 20
-7002.024167628338
 30
0.0
 11
-4656.606155641154
 21
-7003.988759070665
 31
0.0
  0
LINE
  5
2B84
330
1F
100
AcDbEntity
  8
STAVBA OBRYS
100
AcDbLine
 10
-4668.405264228549
 20
-7007.181218566962
 30
0.0
 11
-4656.360339250058
 21
-7008.900234481512
 31
0.0
  0
LINE
  5
2B85
330
1F
100
AcDbEntity
  8
STAVBA OBRYS
100
AcDbLine
 10
-4680.696003485022
 20
-6991.464494483278
 30
0.0
 11
-4656.720439172982
 21
-6991.943535933607
 31
0.0
  0
LINE
  5
2B86
330
1F
100
AcDbEntity
  8
STAVBA OBRYS
100
AcDbLine
 10
-4678.23785436586
 20
-6998.340561336451
 30
0.0
 11
-4656.606155641154
 21
-6999.077282594829
 31
0.0
  0
LINE
  5
2B87
330
1F
100
AcDbEntity
  8
STAVBA OBRYS
100
AcDbLine
 10
-4677.746225809895
 20
-7001.778594230542
 30
0.0
 11
-4663.980598772415
 21
-7002.024167628338
 31
0.0
  0
LINE
  5
2B88
330
1F
100
AcDbEntity
  8
STAVBA OBRYS
100
AcDbLine
 10
-4668.65107850653
 20
-7003.497611210083
 30
0.0
 11
-4674.796448134768
 21
-7009.882530202677
 31
0.0
  0
LINE
  5
2B89
330
1F
100
AcDbEntity
  8
SPOJOVACÍ
  6
DASHED
100
AcDbLine
 10
-4672.805002890446
 20
-6975.601389452151
 30
0.0
 11
-4672.805002890446
 21
-6978.06992718608
 31
0.0
  0
LINE
  5
2B8A
330
1F
100
AcDbEntity
  8
SPOJOVACÍ
  6
DASHED
100
AcDbLine
 10
-4671.77583779046
 20
-6975.458272604234
 30
0.0
 11
-4672.145936133986
 21
-6975.8283709499
 31
0.0
  0
LINE
  5
2B8B
330
1F
100
AcDbEntity
  8
SPOJOVACÍ
  6
DASHED
100
AcDbLine
 10
-4671.77583779046
 20
-6975.458272604234
 30
0.0
 11
-4672.145936133986
 21
-6975.244053118448
 31
0.0
  0
LINE
  5
2B8C
330
1F
100
AcDbEntity
  8
SPOJOVACÍ
  6
DASHED
100
AcDbLine
 10
-4671.77583779046
 20
-6978.515686031087
 30
0.0
 11
-4672.145936133986
 21
-6978.885784376481
 31
0.0
  0
LINE
  5
2B8D
330
1F
100
AcDbEntity
  8
SPOJOVACÍ
  6
DASHED
100
AcDbLine
 10
-4671.77583779046
 20
-6978.515686031087
 30
0.0
 11
-4672.145936133986
 21
-6978.301466545301
 31
0.0
  0
LINE
  5
2B8E
330
1F
100
AcDbEntity
  8
SPOJOVACÍ
  6
DASHED
100
AcDbLine
 10
-4676.479550754192
 20
-6977.339757789883
 30
0.0
 11
-4676.109452406387
 21
-6977.553977275668
 31
0.0
  0
LINE
  5
2B8F
330
1F
100
AcDbEntity
  8
SPOJOVACÍ
  6
DASHED
100
AcDbLine
 10
-4676.479550754192
 20
-6977.339757789883
 30
0.0
 11
-4676.109452406387
 21
-6976.969659444218
 31
0.0
  0
LINE
  5
2B90
330
1F
100
AcDbEntity
  8
SPOJOVACÍ
  6
DASHED
100
AcDbLine
 10
-4676.479550754192
 20
-6977.339757789883
 30
0.0
 11
-4671.77583779046
 21
-6978.515686031087
 31
0.0
  0
LINE
  5
2B91
330
1F
100
AcDbEntity
  8
SPOJOVACÍ
  6
DASHED
100
AcDbLine
 10
-4676.109452406387
 20
-6977.553977275668
 30
0.0
 11
-4672.145936133986
 21
-6978.885784376481
 31
0.0
  0
LINE
  5
2B92
330
1F
100
AcDbEntity
  8
SPOJOVACÍ
  6
DASHED
100
AcDbLine
 10
-4676.109452406387
 20
-6976.969659444218
 30
0.0
 11
-4672.145936133986
 21
-6978.301466545301
 31
0.0
  0
LINE
  5
2B93
330
1F
100
AcDbEntity
  8
SPOJOVACÍ
  6
DASHED
100
AcDbLine
 10
-4672.805002890446
 20
-6981.714393160948
 30
0.0
 11
-4672.805002890446
 21
-6984.184754039524
 31
0.0
  0
LINE
  5
2B94
330
1F
100
AcDbEntity
  8
SPOJOVACÍ
  6
DASHED
100
AcDbLine
 10
-4672.805002890446
 20
-6984.773629732178
 30
0.0
 11
-4672.805002890446
 21
-6987.242167466106
 31
0.0
  0
LINE
  5
2B95
330
1F
100
AcDbEntity
  8
SPOJOVACÍ
  6
DASHED
100
AcDbLine
 10
-4672.805002890446
 20
-6987.833777875858
 30
0.0
 11
-4672.805002890446
 21
-6988.163767040984
 31
0.0
  0
LINE
  5
2B96
330
1F
100
AcDbEntity
  8
SPOJOVACÍ
  6
DASHED
100
AcDbLine
 10
-4671.77583779046
 20
-6981.573099457669
 30
0.0
 11
-4672.145936133986
 21
-6981.944109375523
 31
0.0
  0
LINE
  5
2B97
330
1F
100
AcDbEntity
  8
SPOJOVACÍ
  6
DASHED
100
AcDbLine
 10
-4671.77583779046
 20
-6981.573099457669
 30
0.0
 11
-4672.145936133986
 21
-6981.359791544079
 31
0.0
  0
LINE
  5
2B98
330
1F
100
AcDbEntity
  8
SPOJOVACÍ
  6
DASHED
100
AcDbLine
 10
-4671.77583779046
 20
-6984.63051288426
 30
0.0
 11
-4672.145936133986
 21
-6985.001522802114
 31
0.0
  0
LINE
  5
2B99
330
1F
100
AcDbEntity
  8
SPOJOVACÍ
  6
DASHED
100
AcDbLine
 10
-4671.77583779046
 20
-6984.63051288426
 30
0.0
 11
-4672.145936133986
 21
-6984.417204970933
 31
0.0
  0
LINE
  5
2B9A
330
1F
100
AcDbEntity
  8
SPOJOVACÍ
  6
DASHED
100
AcDbLine
 10
-4671.77583779046
 20
-6987.688837883301
 30
0.0
 11
-4672.145936133986
 21
-6988.058936228966
 31
0.0
  0
LINE
  5
2B9B
330
1F
100
AcDbEntity
  8
SPOJOVACÍ
  6
DASHED
100
AcDbLine
 10
-4671.77583779046
 20
-6987.688837883301
 30
0.0
 11
-4672.145936133986
 21
-6987.474618397515
 31
0.0
  0
LINE
  5
2B9C
330
1F
100
AcDbEntity
  8
SPOJOVACÍ
  6
DASHED
100
AcDbLine
 10
-4675.450385649927
 20
-6980.819229182189
 30
0.0
 11
-4675.450385649927
 21
-6983.296882638801
 31
0.0
  0
LINE
  5
2B9D
330
1F
100
AcDbEntity
  8
SPOJOVACÍ
  6
DASHED
100
AcDbLine
 10
-4675.450385649927
 20
-6983.889404620741
 30
0.0
 11
-4675.450385649927
 21
-6986.357030782482
 31
0.0
  0
LINE
  5
2B9E
330
1F
100
AcDbEntity
  8
SPOJOVACÍ
  6
DASHED
100
AcDbLine
 10
-4675.450385649927
 20
-6986.941348613934
 30
0.0
 11
-4675.450385649927
 21
-6988.163767040984
 31
0.0
  0
LINE
  5
2B9F
330
1F
100
AcDbEntity
  8
SPOJOVACÍ
  6
DASHED
100
AcDbLine
 10
-4676.479550754192
 20
-6980.397171216736
 30
0.0
 11
-4676.109452406387
 21
-6980.611390702524
 31
0.0
  0
LINE
  5
2BA0
330
1F
100
AcDbEntity
  8
SPOJOVACÍ
  6
DASHED
100
AcDbLine
 10
-4676.479550754192
 20
-6980.397171216736
 30
0.0
 11
-4676.109452406387
 21
-6980.027072871071
 31
0.0
  0
LINE
  5
2BA1
330
1F
100
AcDbEntity
  8
SPOJOVACÍ
  6
DASHED
100
AcDbLine
 10
-4676.479550754192
 20
-6983.454584643327
 30
0.0
 11
-4676.109452406387
 21
-6983.668804129106
 31
0.0
  0
LINE
  5
2BA2
330
1F
100
AcDbEntity
  8
SPOJOVACÍ
  6
DASHED
100
AcDbLine
 10
-4676.479550754192
 20
-6983.454584643327
 30
0.0
 11
-4676.109452406387
 21
-6983.08448629766
 31
0.0
  0
LINE
  5
2BA3
330
1F
100
AcDbEntity
  8
SPOJOVACÍ
  6
DASHED
100
AcDbLine
 10
-4676.479550754192
 20
-6986.512909642368
 30
0.0
 11
-4676.109452406387
 21
-6986.726217555696
 31
0.0
  0
LINE
  5
2BA4
330
1F
100
AcDbEntity
  8
SPOJOVACÍ
  6
DASHED
100
AcDbLine
 10
-4676.479550754192
 20
-6986.512909642368
 30
0.0
 11
-4676.109452406387
 21
-6986.141899724244
 31
0.0
  0
LINE
  5
2BA5
330
1F
100
AcDbEntity
  8
SPOJOVACÍ
  6
DASHED
100
AcDbLine
 10
-4676.479550754192
 20
-6980.397171216736
 30
0.0
 11
-4671.77583779046
 21
-6981.573099457669
 31
0.0
  0
LINE
  5
2BA6
330
1F
100
AcDbEntity
  8
SPOJOVACÍ
  6
DASHED
100
AcDbLine
 10
-4676.109452406387
 20
-6980.611390702524
 30
0.0
 11
-4672.145936133986
 21
-6981.944109375523
 31
0.0
  0
LINE
  5
2BA7
330
1F
100
AcDbEntity
  8
SPOJOVACÍ
  6
DASHED
100
AcDbLine
 10
-4676.109452406387
 20
-6980.027072871071
 30
0.0
 11
-4672.145936133986
 21
-6981.359791544079
 31
0.0
  0
LINE
  5
2BA8
330
1F
100
AcDbEntity
  8
SPOJOVACÍ
  6
DASHED
100
AcDbLine
 10
-4676.479550754192
 20
-6983.454584643327
 30
0.0
 11
-4671.77583779046
 21
-6984.63051288426
 31
0.0
  0
LINE
  5
2BA9
330
1F
100
AcDbEntity
  8
SPOJOVACÍ
  6
DASHED
100
AcDbLine
 10
-4676.109452406387
 20
-6983.668804129106
 30
0.0
 11
-4672.145936133986
 21
-6985.001522802114
 31
0.0
  0
LINE
  5
2BAA
330
1F
100
AcDbEntity
  8
SPOJOVACÍ
  6
DASHED
100
AcDbLine
 10
-4676.109452406387
 20
-6983.08448629766
 30
0.0
 11
-4672.145936133986
 21
-6984.417204970933
 31
0.0
  0
LINE
  5
2BAB
330
1F
100
AcDbEntity
  8
SPOJOVACÍ
  6
DASHED
100
AcDbLine
 10
-4676.479550754192
 20
-6986.512909642368
 30
0.0
 11
-4671.77583779046
 21
-6987.688837883301
 31
0.0
  0
LINE
  5
2BAC
330
1F
100
AcDbEntity
  8
SPOJOVACÍ
  6
DASHED
100
AcDbLine
 10
-4676.109452406387
 20
-6986.726217555696
 30
0.0
 11
-4672.145936133986
 21
-6988.058936228966
 31
0.0
  0
LINE
  5
2BAD
330
1F
100
AcDbEntity
  8
SPOJOVACÍ
  6
DASHED
100
AcDbLine
 10
-4676.109452406387
 20
-6986.141899724244
 30
0.0
 11
-4672.145936133986
 21
-6987.474618397515
 31
0.0
  0
LINE
  5
2BAE
330
1F
100
AcDbEntity
  8
SPOJOVACÍ
  6
DASHED
100
AcDbLine
 10
-4675.450385649927
 20
-6977.766373616809
 30
0.0
 11
-4675.450385649927
 21
-6980.236734495384
 31
0.0
  0
LINE
  5
2BAF
330
1F
100
AcDbEntity
  8
SPOJOVACÍ
  6
DASHED
100
AcDbLine
 10
-4672.805002890446
 20
-6978.654245017532
 30
0.0
 11
-4672.805002890446
 21
-6981.131898474143
 31
0.0
  0
LINE
  5
2BB0
330
1F
100
AcDbEntity
  8
SPOJOVACÍ
  6
DASHED
100
AcDbLine
 10
-4673.377470286395
 20
-6992.748064036625
 30
0.0
 11
-4673.115849040164
 21
-6990.654182509828
 31
0.0
  0
LINE
  5
2BB1
330
1F
100
AcDbEntity
  8
SPOJOVACÍ
  6
DASHED
100
AcDbLine
 10
-4672.187868459971
 20
-6990.481895348693
 30
0.0
 11
-4672.557966803497
 21
-6990.852905266819
 31
0.0
  0
LINE
  5
2BB2
330
1F
100
AcDbEntity
  8
SPOJOVACÍ
  6
DASHED
100
AcDbLine
 10
-4672.187868459971
 20
-6990.481895348693
 30
0.0
 11
-4672.557966803497
 21
-6990.268587435366
 31
0.0
  0
LINE
  5
2BB3
330
1F
100
AcDbEntity
  8
SPOJOVACÍ
  6
DASHED
100
AcDbLine
 10
-4672.623600009573
 20
-6993.103577225681
 30
0.0
 11
-4672.993698353099
 21
-6993.474587143535
 31
0.0
  0
LINE
  5
2BB4
330
1F
100
AcDbEntity
  8
SPOJOVACÍ
  6
DASHED
100
AcDbLine
 10
-4672.623600009573
 20
-6993.103577225681
 30
0.0
 11
-4672.993698353099
 21
-6992.890269312354
 31
0.0
  0
LINE
  5
2BB5
330
1F
100
AcDbEntity
  8
SPOJOVACÍ
  6
DASHED
100
AcDbLine
 10
-4673.012841372786
 20
-6995.740755831459
 30
0.0
 11
-4673.382939716312
 21
-6996.111765749311
 31
0.0
  0
LINE
  5
2BB6
330
1F
100
AcDbEntity
  8
SPOJOVACÍ
  6
DASHED
100
AcDbLine
 10
-4673.012841372786
 20
-6995.740755831459
 30
0.0
 11
-4673.382939716312
 21
-6995.527447917869
 31
0.0
  0
LINE
  5
2BB7
330
1F
100
AcDbEntity
  8
SPOJOVACÍ
  6
DASHED
100
AcDbLine
 10
-4675.227962012583
 20
-6989.94497927609
 30
0.0
 11
-4674.943551460055
 21
-6992.220263686433
 31
0.0
  0
LINE
  5
2BB8
330
1F
100
AcDbEntity
  8
SPOJOVACÍ
  6
DASHED
100
AcDbLine
 10
-4674.866067816073
 20
-6992.838309692304
 30
0.0
 11
-4674.581657267822
 21
-6995.112682530453
 31
0.0
  0
LINE
  5
2BB9
330
1F
100
AcDbEntity
  8
SPOJOVACÍ
  6
DASHED
100
AcDbLine
 10
-4676.230691519659
 20
-6989.528390744036
 30
0.0
 11
-4675.859681602341
 21
-6989.742610229821
 31
0.0
  0
LINE
  5
2BBA
330
1F
100
AcDbEntity
  8
SPOJOVACÍ
  6
DASHED
100
AcDbLine
 10
-4676.230691519659
 20
-6989.528390744036
 30
0.0
 11
-4675.859681602341
 21
-6989.158292398371
 31
0.0
  0
LINE
  5
2BBB
330
1F
100
AcDbEntity
  8
SPOJOVACÍ
  6
DASHED
100
AcDbLine
 10
-4675.677367147676
 20
-6992.482796503248
 30
0.0
 11
-4675.307268799871
 21
-6992.696104416575
 31
0.0
  0
LINE
  5
2BBC
330
1F
100
AcDbEntity
  8
SPOJOVACÍ
  6
DASHED
100
AcDbLine
 10
-4675.677367147676
 20
-6992.482796503248
 30
0.0
 11
-4675.307268799871
 21
-6992.111786585123
 31
0.0
  0
LINE
  5
2BBD
330
1F
100
AcDbEntity
  8
SPOJOVACÍ
  6
DASHED
100
AcDbLine
 10
-4675.124042771414
 20
-6995.43629069
 30
0.0
 11
-4674.753944427886
 21
-6995.65051017578
 31
0.0
  0
LINE
  5
2BBE
330
1F
100
AcDbEntity
  8
SPOJOVACÍ
  6
DASHED
100
AcDbLine
 10
-4675.124042771414
 20
-6995.43629069
 30
0.0
 11
-4674.753944427886
 21
-6995.066192344335
 31
0.0
  0
LINE
  5
2BBF
330
1F
100
AcDbEntity
  8
SPOJOVACÍ
  6
DASHED
100
AcDbLine
 10
-4673.71019416434
 20
-6995.410766666068
 30
0.0
 11
-4673.447661348595
 21
-6993.308680988786
 31
0.0
  0
LINE
  5
2BC0
330
1F
100
AcDbEntity
  8
SPOJOVACÍ
  6
DASHED
100
AcDbLine
 10
-4675.859681602341
 20
-6989.742610229821
 30
0.0
 11
-4672.557966803497
 21
-6990.852905266819
 31
0.0
  0
LINE
  5
2BC1
330
1F
100
AcDbEntity
  8
SPOJOVACÍ
  6
DASHED
100
AcDbLine
 10
-4675.859681602341
 20
-6989.158292398371
 30
0.0
 11
-4672.557966803497
 21
-6990.268587435366
 31
0.0
  0
LINE
  5
2BC2
330
1F
100
AcDbEntity
  8
SPOJOVACÍ
  6
DASHED
100
AcDbLine
 10
-4676.230691519659
 20
-6989.528390744036
 30
0.0
 11
-4672.187868459971
 21
-6990.481895348693
 31
0.0
  0
LINE
  5
2BC3
330
1F
100
AcDbEntity
  8
SPOJOVACÍ
  6
DASHED
100
AcDbLine
 10
-4675.307268799871
 20
-6992.696104416575
 30
0.0
 11
-4672.993698353099
 21
-6993.474587143535
 31
0.0
  0
LINE
  5
2BC4
330
1F
100
AcDbEntity
  8
SPOJOVACÍ
  6
DASHED
100
AcDbLine
 10
-4675.307268799871
 20
-6992.111786585123
 30
0.0
 11
-4672.993698353099
 21
-6992.890269312354
 31
0.0
  0
LINE
  5
2BC5
330
1F
100
AcDbEntity
  8
SPOJOVACÍ
  6
DASHED
100
AcDbLine
 10
-4675.677367147676
 20
-6992.482796503248
 30
0.0
 11
-4672.623600009573
 21
-6993.103577225681
 31
0.0
  0
LINE
  5
2BC6
330
1F
100
AcDbEntity
  8
SPOJOVACÍ
  6
DASHED
100
AcDbLine
 10
-4674.753944427886
 20
-6995.65051017578
 30
0.0
 11
-4673.382939716312
 21
-6996.111765749311
 31
0.0
  0
LINE
  5
2BC7
330
1F
100
AcDbEntity
  8
SPOJOVACÍ
  6
DASHED
100
AcDbLine
 10
-4674.753944427886
 20
-6995.066192344335
 30
0.0
 11
-4673.382939716312
 21
-6995.527447917869
 31
0.0
  0
LINE
  5
2BC8
330
1F
100
AcDbEntity
  8
SPOJOVACÍ
  6
DASHED
100
AcDbLine
 10
-4675.124042771414
 20
-6995.43629069
 30
0.0
 11
-4673.012841372786
 21
-6995.740755831459
 31
0.0
  0
LINE
  5
2BC9
330
1F
100
AcDbEntity
  8
SPOJOVACÍ
  6
DASHED
100
AcDbLine
 10
-4674.127694272326
 20
-6998.748032782637
 30
0.0
 11
-4673.780385230819
 21
-6995.968648901395
 31
0.0
  0
LINE
  5
2BCA
330
1F
100
AcDbEntity
  8
SPOJOVACÍ
  6
DASHED
100
AcDbLine
 10
-4674.505996767146
 20
-6995.720701241189
 30
0.0
 11
-4674.127694272326
 21
-6998.748032782637
 31
0.0
  0
LINE
  5
2BCB
330
1F
100
AcDbEntity
  8
SPOJOVACÍ
  6
DASHED
100
AcDbLine
 10
-4675.450385649927
 20
-6988.163767040984
 30
0.0
 11
-4675.303622513259
 21
-6989.336960565353
 31
0.0
  0
LINE
  5
2BCC
330
1F
100
AcDbEntity
  8
SPOJOVACÍ
  6
DASHED
100
AcDbLine
 10
-4673.045657973684
 20
-6990.095388702044
 30
0.0
 11
-4672.805002890446
 21
-6988.163767040984
 31
0.0
  0
INSERT
  5
2BCD
330
1F
100
AcDbEntity
  8
POPIS
100
AcDbBlockReference
  2
E_PUNKT
 10
-4649.241613930545
 20
-6992.034580949414
 30
0.0
 50
270.0
  0
LINE
  5
2BCE
330
1F
100
AcDbEntity
  8
SPOJOVACÍ
  6
DASHED
100
AcDbLine
 10
-4671.981853125216
 20
-6967.286938687442
 30
0.0
 11
-4671.042933676631
 21
-6966.103717868202
 31
0.0
  0
LINE
  5
2BCF
330
1F
100
AcDbEntity
  8
SPOJOVACÍ
  6
DASHED
100
AcDbLine
 10
-4672.58257925738
 20
-6968.672528552952
 30
0.0
 11
-4671.981853125216
 21
-6967.286938687442
 31
0.0
  0
LINE
  5
2BD0
330
1F
100
AcDbEntity
  8
SPOJOVACÍ
  6
DASHED
100
AcDbLine
 10
-4669.129543461465
 20
-6963.698078621646
 30
0.0
 11
-4669.129543461465
 21
-6964.874006862842
 31
0.0
  0
LINE
  5
2BD1
330
1F
100
AcDbEntity
  8
SPOJOVACÍ
  6
DASHED
100
AcDbLine
 10
-4669.830542543909
 20
-6965.20399602797
 30
0.0
 11
-4669.129543461465
 21
-6964.874006862842
 31
0.0
  0
LINE
  5
2BD2
330
1F
100
AcDbEntity
  8
SPOJOVACÍ
  6
DASHED
100
AcDbLine
 10
-4671.042933676631
 20
-6966.103717868202
 30
0.0
 11
-4669.830542543909
 21
-6965.20399602797
 31
0.0
  0
LINE
  5
2BD3
330
1F
100
AcDbEntity
  8
SPOJOVACÍ
  6
DASHED
100
AcDbLine
 10
-4679.125845083187
 20
-6963.698078621646
 30
0.0
 11
-4679.125845083187
 21
-6964.874006862842
 31
0.0
  0
LINE
  5
2BD4
330
1F
100
AcDbEntity
  8
SPOJOVACÍ
  6
DASHED
100
AcDbLine
 10
-4676.714736398956
 20
-6966.650661236212
 30
0.0
 11
-4675.934430529224
 21
-6967.943270728944
 31
0.0
  0
LINE
  5
2BD5
330
1F
100
AcDbEntity
  8
SPOJOVACÍ
  6
DASHED
100
AcDbLine
 10
-4677.803153701307
 20
-6965.603264686588
 30
0.0
 11
-4676.714736398956
 21
-6966.650661236212
 31
0.0
  0
LINE
  5
2BD6
330
1F
100
AcDbEntity
  8
SPOJOVACÍ
  6
DASHED
100
AcDbLine
 10
-4679.125845083187
 20
-6964.874006862842
 30
0.0
 11
-4677.803153701307
 21
-6965.603264686588
 31
0.0
  0
LINE
  5
2BD7
330
1F
100
AcDbEntity
  8
SPOJOVACÍ
  6
DASHED
100
AcDbLine
 10
-4679.125845083187
 20
-6963.698078621646
 30
0.0
 11
-4669.129543461465
 21
-6963.698078621646
 31
0.0
  0
LINE
  5
2BD8
330
1F
100
AcDbEntity
  8
SPOJOVACÍ
  6
DASHED
100
AcDbLine
 10
-4679.125845083187
 20
-6964.874006862842
 30
0.0
 11
-4669.129543461465
 21
-6964.874006862842
 31
0.0
  0
LINE
  5
2BD9
330
1F
100
AcDbEntity
  8
SPOJOVACÍ
  6
DASHED
100
AcDbLine
 10
-4675.515107282211
 20
-6969.394493798652
 30
0.0
 11
-4675.450385649927
 21
-6970.165683947313
 31
0.0
  0
LINE
  5
2BDA
330
1F
100
AcDbEntity
  8
SPOJOVACÍ
  6
DASHED
100
AcDbLine
 10
-4675.450385649927
 20
-6970.165683947313
 30
0.0
 11
-4675.450385649927
 21
-6974.122819214399
 31
0.0
  0
LINE
  5
2BDB
330
1F
100
AcDbEntity
  8
SPOJOVACÍ
  6
DASHED
100
AcDbLine
 10
-4676.479550754192
 20
-6974.282344363301
 30
0.0
 11
-4676.109452406387
 21
-6974.495652276629
 31
0.0
  0
LINE
  5
2BDC
330
1F
100
AcDbEntity
  8
SPOJOVACÍ
  6
DASHED
100
AcDbLine
 10
-4676.479550754192
 20
-6974.282344363301
 30
0.0
 11
-4676.109452406387
 21
-6973.911334445448
 31
0.0
  0
LINE
  5
2BDD
330
1F
100
AcDbEntity
  8
SPOJOVACÍ
  6
DASHED
100
AcDbLine
 10
-4672.805002890446
 20
-6970.165683947313
 30
0.0
 11
-4672.58257925738
 21
-6968.672528552952
 31
0.0
  0
LINE
  5
2BDE
330
1F
100
AcDbEntity
  8
SPOJOVACÍ
  6
DASHED
100
AcDbLine
 10
-4675.934430529224
 20
-6967.943270728944
 30
0.0
 11
-4675.515107282211
 21
-6969.394493798652
 31
0.0
  0
LINE
  5
2BDF
330
1F
100
AcDbEntity
  8
izolace
100
AcDbLine
 10
-4641.746063895403
 20
-6962.694402236313
 30
0.0
 11
-4641.746063895403
 21
-6961.756710509606
 31
0.0
  0
INSERT
  5
2BE0
330
1F
100
AcDbEntity
  8
POPIS
100
AcDbBlockReference
  2
E_PUNKT
 10
-4613.971336846431
 20
-6974.06876204368
 30
0.0
 50
270.0
  0
LINE
  5
2BE1
330
1F
100
AcDbEntity
  8
izolace
100
AcDbLine
 10
-4612.720439172985
 20
-6974.874294129714
 30
0.0
 11
-4612.720439172978
 21
-6964.646782053951
 31
0.0
  0
LINE
  5
2BE2
330
1F
100
AcDbEntity
  8
izolace
100
AcDbLine
 10
-4614.220439172981
 20
-6974.874294129714
 30
0.0
 11
-4614.220439172985
 21
-6965.943605462765
 31
0.0
  0
LINE
  5
2BE3
330
1F
100
AcDbEntity
  8
izolace
100
AcDbLine
 10
-4639.220439172982
 20
-6974.874294129714
 30
0.0
 11
-4639.220439172982
 21
-6965.943605462765
 31
0.0
  0
LWPOLYLINE
  5
2BE4
330
1F
100
AcDbEntity
  8
STAVBA OBRYS
370
    20
100
AcDbPolyline
 90
        3
 70
     0
 43
0.0
 10
-4635.012041715278
 20
-6984.495393676403
 10
-4618.25682409555
 20
-6992.879134544371
 10
-4612.168479158724
 20
-6998.978062980885
  0
INSERT
  5
2BE5
330
1F
100
AcDbEntity
  8
POPIS
100
AcDbBlockReference
  2
E_PUNKT
 10
-4629.572725753116
 20
-6992.034580949414
 30
0.0
 50
270.0
  0
LINE
  5
2BE6
330
1F
100
AcDbEntity
  8
izolace
100
AcDbLine
 10
-4612.720439172985
 20
-6974.874294129714
 30
0.0
 11
-4614.220439172981
 21
-6974.874294129714
 31
0.0
  0
LWPOLYLINE
  5
2BE7
330
1F
100
AcDbEntity
  8
STAVBA OBRYS
370
    20
100
AcDbPolyline
 90
        2
 70
     0
 43
0.0
 10
-4615.719464090033
 20
-6985.47723255014
 10
-4611.720439172982
 20
-6987.320334398081
  0
LINE
  5
2BE8
330
1F
100
AcDbEntity
  8
izolace
100
AcDbLine
 10
-4611.694814450561
 20
-6962.694402236313
 30
0.0
 11
-4623.245687047866
 21
-6962.694402236313
 31
0.0
  0
LINE
  5
2BE9
330
1F
100
AcDbEntity
  8
izolace
100
AcDbLine
 10
-4611.694814450561
 20
-6961.756710509606
 30
0.0
 11
-4622.183755535352
 21
-6961.756710509606
 31
0.0
  0
LINE
  5
2BEA
330
1F
100
AcDbEntity
  8
izolace
100
AcDbLine
 10
-4639.220439172982
 20
-6965.943605462765
 30
0.0
 11
-4614.220439172985
 21
-6965.943605462765
 31
0.0
  0
INSERT
  5
2BEB
330
1F
100
AcDbEntity
  8
POPIS
100
AcDbBlockReference
  2
E_PUNKT
 10
-4627.261413220046
 20
-6955.045295426583
 30
0.0
 50
270.0
  0
LINE
  5
2BEC
330
1F
100
AcDbEntity
  8
izolace
100
AcDbLine
 10
-4631.257122810612
 20
-6956.737829233181
 30
0.0
 11
-4622.183755535352
 21
-6956.73782923318
 31
0.0
  0
LINE
  5
2BED
330
1F
100
AcDbEntity
  8
izolace
100
AcDbLine
 10
-4630.195191298097
 20
-6957.833609880603
 30
0.0
 11
-4623.245687047866
 21
-6957.833609880605
 31
0.0
  0
LINE
  5
2BEE
330
1F
100
AcDbEntity
  8
nášlap_vrstvy
100
AcDbLine
 10
-4632.039198829456
 20
-6961.07631825913
 30
0.0
 11
-4632.039198829456
 21
-6956.737829233181
 31
0.0
  0
LINE
  5
2BEF
330
1F
100
AcDbEntity
  8
nášlap_vrstvy
100
AcDbLine
 10
-4621.401679516507
 20
-6956.737829233181
 30
0.0
 11
-4621.401679516507
 21
-6961.07631825913
 31
0.0
  0
LINE
  5
2BF0
330
1F
100
AcDbEntity
  8
izolace
100
AcDbLine
 10
-4630.195191298097
 20
-6957.833609880603
 30
0.0
 11
-4630.195191298097
 21
-6962.694402236313
 31
0.0
  0
LINE
  5
2BF1
330
1F
100
AcDbEntity
  8
izolace
100
AcDbLine
 10
-4631.257122810612
 20
-6956.737829233181
 30
0.0
 11
-4631.257122810612
 21
-6961.756710509606
 31
0.0
  0
LINE
  5
2BF2
330
1F
100
AcDbEntity
  8
izolace
100
AcDbLine
 10
-4622.183755535352
 20
-6956.73782923318
 30
0.0
 11
-4622.183755535352
 21
-6961.756710509606
 31
0.0
  0
LINE
  5
2BF3
330
1F
100
AcDbEntity
  8
izolace
100
AcDbLine
 10
-4623.245687047866
 20
-6957.833609880605
 30
0.0
 11
-4623.245687047866
 21
-6962.694402236313
 31
0.0
  0
LINE
  5
2BF4
330
1F
100
AcDbEntity
  8
nášlap_vrstvy
100
AcDbLine
 10
-4621.401679516507
 20
-6961.07631825913
 30
0.0
 11
-4621.401679516507
 21
-6956.737829233181
 31
0.0
  0
LINE
  5
2BF5
330
1F
100
AcDbEntity
  8
izolace
100
AcDbLine
 10
-4611.694814450561
 20
-6962.694402236313
 30
0.0
 11
-4611.694814450561
 21
-6961.756710509606
 31
0.0
  0
LINE
  5
2BF6
330
1F
100
AcDbEntity
  8
STAVBA OBRYS
100
AcDbLine
 10
-4558.148851031575
 20
-6997.849413475869
 30
0.0
 11
-4538.237854365859
 21
-6998.340561336452
 31
0.0
  0
LINE
  5
2BF7
330
1F
100
AcDbEntity
  8
STAVBA OBRYS
100
AcDbLine
 10
-4567.489812612921
 20
-6991.21892002049
 30
0.0
 11
-4540.696003485021
 21
-6991.464494483278
 31
0.0
  0
LINE
  5
2BF8
330
1F
100
AcDbEntity
  8
STAVBA OBRYS
100
AcDbLine
 10
-4571.914478069055
 20
-6994.902527377369
 30
0.0
 11
-4554.215814131406
 21
-6994.165806118991
 31
0.0
  0
LINE
  5
2BF9
330
1F
100
AcDbEntity
  8
STAVBA OBRYS
100
AcDbLine
 10
-4564.540034937794
 20
-7008.409087685922
 30
0.0
 11
-4546.34974244418
 21
-7008.409087685922
 31
0.0
  0
LINE
  5
2BFA
330
1F
100
AcDbEntity
  8
STAVBA OBRYS
100
AcDbLine
 10
-4571.177033121996
 20
-7006.198922845797
 30
0.0
 11
-4549.299520119308
 21
-7004.971053726838
 31
0.0
  0
LINE
  5
2BFB
330
1F
100
AcDbEntity
  8
STAVBA OBRYS
100
AcDbLine
 10
-4569.94795961897
 20
-7002.269742091124
 30
0.0
 11
-4554.707444800484
 21
-7000.550725111583
 31
0.0
  0
LINE
  5
2BFC
330
1F
100
AcDbEntity
  8
SPOJOVACÍ
  6
DASHED
100
AcDbLine
 10
-4556.235106405463
 20
-6976.874006862842
 30
0.0
 11
-4554.912415023583
 21
-6977.603264686587
 31
0.0
  0
LINE
  5
2BFD
330
1F
100
AcDbEntity
  8
SPOJOVACÍ
  6
DASHED
100
AcDbLine
 10
-4556.235106405463
 20
-6976.874006862842
 30
0.0
 11
-4546.238804783739
 21
-6976.874006862842
 31
0.0
  0
LINE
  5
2BFE
330
1F
100
AcDbEntity
  8
SPOJOVACÍ
  6
DASHED
100
AcDbLine
 10
-4556.235106405463
 20
-6975.698078621646
 30
0.0
 11
-4546.238804783739
 21
-6975.698078621646
 31
0.0
  0
LINE
  5
2BFF
330
1F
100
AcDbEntity
  8
SPOJOVACÍ
  6
DASHED
100
AcDbLine
 10
-4577.331425939576
 20
-6973.911334445448
 30
0.0
 11
-4581.294942211977
 21
-6975.244053118448
 31
0.0
  0
LINE
  5
2C00
330
1F
100
AcDbEntity
  8
SPOJOVACÍ
  6
DASHED
100
AcDbLine
 10
-4577.331425939576
 20
-6974.495652276629
 30
0.0
 11
-4581.294942211977
 21
-6975.8283709499
 31
0.0
  0
LINE
  5
2C01
330
1F
100
AcDbEntity
  8
SPOJOVACÍ
  6
DASHED
100
AcDbLine
 10
-4576.961327591772
 20
-6974.282344363301
 30
0.0
 11
-4581.665040555503
 21
-6975.458272604234
 31
0.0
  0
LINE
  5
2C02
330
1F
100
AcDbEntity
  8
SPOJOVACÍ
  6
DASHED
100
AcDbLine
 10
-4577.990492696036
 20
-6974.706225473392
 30
0.0
 11
-4577.990492696036
 21
-6977.17476320732
 31
0.0
  0
LINE
  5
2C03
330
1F
100
AcDbEntity
  8
SPOJOVACÍ
  6
DASHED
100
AcDbLine
 10
-4580.635875455517
 20
-6970.165683947313
 30
0.0
 11
-4580.635875455517
 21
-6975.009779042662
 31
0.0
  0
LWPOLYLINE
  5
2C04
330
1F
100
AcDbEntity
  8
STAVBA OBRYS
370
    20
100
AcDbPolyline
 90
        7
 70
     0
 43
0.0
 10
-4572.205670693299
 20
-6987.698078621646
 42
-0.0203924744732807
 10
-4573.107754677708
 20
-6988.711208650801
 42
-0.0273961979096945
 10
-4573.957619027903
 20
-6989.499385024827
 42
-0.0243529190212958
 10
-4575.120739520323
 20
-6990.373144369494
 42
-0.0398020282482987
 10
-4575.895698057883
 20
-6990.812773112941
 42
-0.104168275620852
 10
-4576.282109194223
 20
-6990.902789573119
 42
-0.007272956268647
 10
-4576.720439172982
 20
-6990.921242924412
 42
-0.007272956268647
  0
LINE
  5
2C05
330
1F
100
AcDbEntity
  8
STAVBA OBRYS
100
AcDbLine
 10
-4596.741770859984
 20
-6991.95564234386
 30
0.0
 11
-4567.489812612921
 21
-6991.21892002049
 31
0.0
  0
LINE
  5
2C06
330
1F
100
AcDbEntity
  8
STAVBA OBRYS
100
AcDbLine
 10
-4596.495956582002
 20
-6996.867117754705
 30
0.0
 11
-4571.914478069055
 21
-6994.902527377369
 31
0.0
  0
LINE
  5
2C07
330
1F
100
AcDbEntity
  8
STAVBA OBRYS
100
AcDbLine
 10
-4596.741770859984
 20
-7010.864824858849
 30
0.0
 11
-4571.177033121996
 21
-7006.198922845797
 31
0.0
  0
LINE
  5
2C08
330
1F
100
AcDbEntity
  8
STAVBA OBRYS
100
AcDbLine
 10
-4596.495956582002
 20
-7000.059577251001
 30
0.0
 11
-4572.160292347038
 21
-6998.586134734248
 31
0.0
  0
LINE
  5
2C09
330
1F
100
AcDbEntity
  8
STAVBA OBRYS
100
AcDbLine
 10
-4596.987585137966
 20
-7006.198922845797
 30
0.0
 11
-4569.94795961897
 21
-7002.269742091124
 31
0.0
  0
LINE
  5
2C0A
330
1F
100
AcDbEntity
  8
STAVBA OBRYS
100
AcDbLine
 10
-4582.484513153427
 20
-7012.338268440595
 30
0.0
 11
-4564.540034937794
 21
-7008.409087685922
 31
0.0
  0
LWPOLYLINE
  5
2C0B
330
1F
100
AcDbEntity
  8
STAVBA OBRYS
370
    20
100
AcDbPolyline
 90
        8
 70
     0
 43
0.0
 10
-4572.678155314358
 20
-6987.698078621646
 42
-0.0168162630274195
 10
-4572.813180893422
 20
-6989.389116773766
 42
-0.0575155827655532
 10
-4573.493213173764
 20
-6992.488741434484
 42
-0.0310289133982999
 10
-4576.496014518593
 20
-6999.733768959128
 42
-0.0882970623535771
 10
-4578.133236438686
 20
-7001.974138009927
 42
-0.0171636441953577
 10
-4580.946600500544
 20
-7004.488055365174
 42
-0.0157521173632038
 10
-4584.18545533758
 20
-7007.01955141768
 42
-0.0014948023799519
 10
-4585.118167185092
 20
-7007.698078621647
 42
-0.0014948023799519
  0
LINE
  5
2C0C
330
1F
100
AcDbEntity
  8
STAVBA OBRYS
100
AcDbLine
 10
-4591.57966045679
 20
-6998.586134734248
 30
0.0
 11
-4579.043106922335
 21
-7012.583841838391
 31
0.0
  0
LINE
  5
2C0D
330
1F
100
AcDbEntity
  8
SPOJOVACÍ
  6
DASHED
100
AcDbLine
 10
-4577.331425939576
 20
-6976.969659444218
 30
0.0
 11
-4581.294942211977
 21
-6978.301466545301
 31
0.0
  0
LINE
  5
2C0E
330
1F
100
AcDbEntity
  8
SPOJOVACÍ
  6
DASHED
100
AcDbLine
 10
-4577.331425939576
 20
-6977.553977275668
 30
0.0
 11
-4581.294942211977
 21
-6978.885784376481
 31
0.0
  0
LINE
  5
2C0F
330
1F
100
AcDbEntity
  8
SPOJOVACÍ
  6
DASHED
100
AcDbLine
 10
-4581.665040555503
 20
-6978.515686031087
 30
0.0
 11
-4581.294942211977
 21
-6978.301466545301
 31
0.0
  0
LINE
  5
2C10
330
1F
100
AcDbEntity
  8
SPOJOVACÍ
  6
DASHED
100
AcDbLine
 10
-4581.665040555503
 20
-6978.515686031087
 30
0.0
 11
-4581.294942211977
 21
-6978.885784376481
 31
0.0
  0
LINE
  5
2C11
330
1F
100
AcDbEntity
  8
SPOJOVACÍ
  6
DASHED
100
AcDbLine
 10
-4576.961327591772
 20
-6977.339757789883
 30
0.0
 11
-4577.331425939576
 21
-6976.969659444218
 31
0.0
  0
LINE
  5
2C12
330
1F
100
AcDbEntity
  8
SPOJOVACÍ
  6
DASHED
100
AcDbLine
 10
-4576.961327591772
 20
-6977.339757789883
 30
0.0
 11
-4577.331425939576
 21
-6977.553977275668
 31
0.0
  0
LINE
  5
2C13
330
1F
100
AcDbEntity
  8
SPOJOVACÍ
  6
DASHED
100
AcDbLine
 10
-4576.961327591772
 20
-6977.339757789883
 30
0.0
 11
-4581.665040555503
 21
-6978.515686031087
 31
0.0
  0
LINE
  5
2C14
330
1F
100
AcDbEntity
  8
SPOJOVACÍ
  6
DASHED
100
AcDbLine
 10
-4581.665040555503
 20
-6975.458272604234
 30
0.0
 11
-4581.294942211977
 21
-6975.244053118448
 31
0.0
  0
LINE
  5
2C15
330
1F
100
AcDbEntity
  8
SPOJOVACÍ
  6
DASHED
100
AcDbLine
 10
-4581.665040555503
 20
-6975.458272604234
 30
0.0
 11
-4581.294942211977
 21
-6975.8283709499
 31
0.0
  0
LINE
  5
2C16
330
1F
100
AcDbEntity
  8
SPOJOVACÍ
  6
DASHED
100
AcDbLine
 10
-4580.635875455517
 20
-6975.601389452151
 30
0.0
 11
-4580.635875455517
 21
-6978.06992718608
 31
0.0
  0
LINE
  5
2C17
330
1F
100
AcDbEntity
  8
SPOJOVACÍ
  6
DASHED
100
AcDbLine
 10
-4577.331425939576
 20
-6986.141899724244
 30
0.0
 11
-4581.294942211977
 21
-6987.474618397515
 31
0.0
  0
LINE
  5
2C18
330
1F
100
AcDbEntity
  8
SPOJOVACÍ
  6
DASHED
100
AcDbLine
 10
-4577.331425939576
 20
-6986.726217555696
 30
0.0
 11
-4581.294942211977
 21
-6988.058936228966
 31
0.0
  0
LINE
  5
2C19
330
1F
100
AcDbEntity
  8
SPOJOVACÍ
  6
DASHED
100
AcDbLine
 10
-4581.665040555503
 20
-6987.688837883301
 30
0.0
 11
-4581.294942211977
 21
-6987.474618397515
 31
0.0
  0
LINE
  5
2C1A
330
1F
100
AcDbEntity
  8
SPOJOVACÍ
  6
DASHED
100
AcDbLine
 10
-4581.665040555503
 20
-6987.688837883301
 30
0.0
 11
-4581.294942211977
 21
-6988.058936228966
 31
0.0
  0
LINE
  5
2C1B
330
1F
100
AcDbEntity
  8
SPOJOVACÍ
  6
DASHED
100
AcDbLine
 10
-4576.961327591772
 20
-6986.512909642368
 30
0.0
 11
-4577.331425939576
 21
-6986.141899724244
 31
0.0
  0
LINE
  5
2C1C
330
1F
100
AcDbEntity
  8
SPOJOVACÍ
  6
DASHED
100
AcDbLine
 10
-4576.961327591772
 20
-6986.512909642368
 30
0.0
 11
-4577.331425939576
 21
-6986.726217555696
 31
0.0
  0
LINE
  5
2C1D
330
1F
100
AcDbEntity
  8
SPOJOVACÍ
  6
DASHED
100
AcDbLine
 10
-4576.961327591772
 20
-6986.512909642368
 30
0.0
 11
-4581.665040555503
 21
-6987.688837883301
 31
0.0
  0
LINE
  5
2C1E
330
1F
100
AcDbEntity
  8
SPOJOVACÍ
  6
DASHED
100
AcDbLine
 10
-4577.331425939576
 20
-6983.08448629766
 30
0.0
 11
-4581.294942211977
 21
-6984.417204970933
 31
0.0
  0
LINE
  5
2C1F
330
1F
100
AcDbEntity
  8
SPOJOVACÍ
  6
DASHED
100
AcDbLine
 10
-4577.331425939576
 20
-6983.668804129106
 30
0.0
 11
-4581.294942211977
 21
-6985.001522802114
 31
0.0
  0
LINE
  5
2C20
330
1F
100
AcDbEntity
  8
SPOJOVACÍ
  6
DASHED
100
AcDbLine
 10
-4581.665040555503
 20
-6984.63051288426
 30
0.0
 11
-4581.294942211977
 21
-6984.417204970933
 31
0.0
  0
LINE
  5
2C21
330
1F
100
AcDbEntity
  8
SPOJOVACÍ
  6
DASHED
100
AcDbLine
 10
-4581.665040555503
 20
-6984.63051288426
 30
0.0
 11
-4581.294942211977
 21
-6985.001522802114
 31
0.0
  0
LINE
  5
2C22
330
1F
100
AcDbEntity
  8
SPOJOVACÍ
  6
DASHED
100
AcDbLine
 10
-4576.961327591772
 20
-6983.454584643327
 30
0.0
 11
-4577.331425939576
 21
-6983.08448629766
 31
0.0
  0
LINE
  5
2C23
330
1F
100
AcDbEntity
  8
SPOJOVACÍ
  6
DASHED
100
AcDbLine
 10
-4576.961327591772
 20
-6983.454584643327
 30
0.0
 11
-4577.331425939576
 21
-6983.668804129106
 31
0.0
  0
LINE
  5
2C24
330
1F
100
AcDbEntity
  8
SPOJOVACÍ
  6
DASHED
100
AcDbLine
 10
-4576.961327591772
 20
-6983.454584643327
 30
0.0
 11
-4581.665040555503
 21
-6984.63051288426
 31
0.0
  0
LINE
  5
2C25
330
1F
100
AcDbEntity
  8
SPOJOVACÍ
  6
DASHED
100
AcDbLine
 10
-4577.331425939576
 20
-6980.027072871071
 30
0.0
 11
-4581.294942211977
 21
-6981.359791544079
 31
0.0
  0
LINE
  5
2C26
330
1F
100
AcDbEntity
  8
SPOJOVACÍ
  6
DASHED
100
AcDbLine
 10
-4577.331425939576
 20
-6980.611390702524
 30
0.0
 11
-4581.294942211977
 21
-6981.944109375523
 31
0.0
  0
LINE
  5
2C27
330
1F
100
AcDbEntity
  8
SPOJOVACÍ
  6
DASHED
100
AcDbLine
 10
-4581.665040555503
 20
-6981.573099457669
 30
0.0
 11
-4581.294942211977
 21
-6981.359791544079
 31
0.0
  0
LINE
  5
2C28
330
1F
100
AcDbEntity
  8
SPOJOVACÍ
  6
DASHED
100
AcDbLine
 10
-4581.665040555503
 20
-6981.573099457669
 30
0.0
 11
-4581.294942211977
 21
-6981.944109375523
 31
0.0
  0
LINE
  5
2C29
330
1F
100
AcDbEntity
  8
SPOJOVACÍ
  6
DASHED
100
AcDbLine
 10
-4576.961327591772
 20
-6980.397171216736
 30
0.0
 11
-4577.331425939576
 21
-6980.027072871071
 31
0.0
  0
LINE
  5
2C2A
330
1F
100
AcDbEntity
  8
SPOJOVACÍ
  6
DASHED
100
AcDbLine
 10
-4576.961327591772
 20
-6980.397171216736
 30
0.0
 11
-4577.331425939576
 21
-6980.611390702524
 31
0.0
  0
LINE
  5
2C2B
330
1F
100
AcDbEntity
  8
SPOJOVACÍ
  6
DASHED
100
AcDbLine
 10
-4576.961327591772
 20
-6980.397171216736
 30
0.0
 11
-4581.665040555503
 21
-6981.573099457669
 31
0.0
  0
LINE
  5
2C2C
330
1F
100
AcDbEntity
  8
SPOJOVACÍ
  6
DASHED
100
AcDbLine
 10
-4580.635875455517
 20
-6987.833777875858
 30
0.0
 11
-4580.635875455517
 21
-6988.163767040984
 31
0.0
  0
LINE
  5
2C2D
330
1F
100
AcDbEntity
  8
SPOJOVACÍ
  6
DASHED
100
AcDbLine
 10
-4580.635875455517
 20
-6984.773629732178
 30
0.0
 11
-4580.635875455517
 21
-6987.242167466106
 31
0.0
  0
LINE
  5
2C2E
330
1F
100
AcDbEntity
  8
SPOJOVACÍ
  6
DASHED
100
AcDbLine
 10
-4577.990492696036
 20
-6986.941348613934
 30
0.0
 11
-4577.990492696036
 21
-6988.163767040984
 31
0.0
  0
LINE
  5
2C2F
330
1F
100
AcDbEntity
  8
SPOJOVACÍ
  6
DASHED
100
AcDbLine
 10
-4577.990492696036
 20
-6983.889404620741
 30
0.0
 11
-4577.990492696036
 21
-6986.357030782482
 31
0.0
  0
LINE
  5
2C30
330
1F
100
AcDbEntity
  8
SPOJOVACÍ
  6
DASHED
100
AcDbLine
 10
-4580.635875455517
 20
-6981.714393160948
 30
0.0
 11
-4580.635875455517
 21
-6984.184754039524
 31
0.0
  0
LINE
  5
2C31
330
1F
100
AcDbEntity
  8
SPOJOVACÍ
  6
DASHED
100
AcDbLine
 10
-4577.990492696036
 20
-6980.819229182189
 30
0.0
 11
-4577.990492696036
 21
-6983.296882638801
 31
0.0
  0
LINE
  5
2C32
330
1F
100
AcDbEntity
  8
SPOJOVACÍ
  6
DASHED
100
AcDbLine
 10
-4580.635875455517
 20
-6978.654245017532
 30
0.0
 11
-4580.635875455517
 21
-6981.131898474143
 31
0.0
  0
LINE
  5
2C33
330
1F
100
AcDbEntity
  8
SPOJOVACÍ
  6
DASHED
100
AcDbLine
 10
-4577.990492696036
 20
-6977.766373616809
 30
0.0
 11
-4577.990492696036
 21
-6980.236734495384
 31
0.0
  0
LINE
  5
2C34
330
1F
100
AcDbEntity
  8
SPOJOVACÍ
  6
DASHED
100
AcDbLine
 10
-4578.31683557455
 20
-6995.43629069
 30
0.0
 11
-4580.428036973177
 21
-6995.740755831459
 31
0.0
  0
LINE
  5
2C35
330
1F
100
AcDbEntity
  8
SPOJOVACÍ
  6
DASHED
100
AcDbLine
 10
-4578.686933918077
 20
-6995.066192344335
 30
0.0
 11
-4580.057938629651
 21
-6995.527447917869
 31
0.0
  0
LINE
  5
2C36
330
1F
100
AcDbEntity
  8
SPOJOVACÍ
  6
DASHED
100
AcDbLine
 10
-4578.686933918077
 20
-6995.65051017578
 30
0.0
 11
-4580.057938629651
 21
-6996.111765749311
 31
0.0
  0
LINE
  5
2C37
330
1F
100
AcDbEntity
  8
SPOJOVACÍ
  6
DASHED
100
AcDbLine
 10
-4580.428036973177
 20
-6995.740755831459
 30
0.0
 11
-4580.057938629651
 21
-6995.527447917869
 31
0.0
  0
LINE
  5
2C38
330
1F
100
AcDbEntity
  8
SPOJOVACÍ
  6
DASHED
100
AcDbLine
 10
-4580.428036973177
 20
-6995.740755831459
 30
0.0
 11
-4580.057938629651
 21
-6996.111765749311
 31
0.0
  0
LINE
  5
2C39
330
1F
100
AcDbEntity
  8
SPOJOVACÍ
  6
DASHED
100
AcDbLine
 10
-4578.31683557455
 20
-6995.43629069
 30
0.0
 11
-4578.686933918077
 21
-6995.066192344335
 31
0.0
  0
LINE
  5
2C3A
330
1F
100
AcDbEntity
  8
SPOJOVACÍ
  6
DASHED
100
AcDbLine
 10
-4578.31683557455
 20
-6995.43629069
 30
0.0
 11
-4578.686933918077
 21
-6995.65051017578
 31
0.0
  0
LINE
  5
2C3B
330
1F
100
AcDbEntity
  8
SPOJOVACÍ
  6
DASHED
100
AcDbLine
 10
-4577.763511198288
 20
-6992.482796503248
 30
0.0
 11
-4580.81727833639
 21
-6993.103577225681
 31
0.0
  0
LINE
  5
2C3C
330
1F
100
AcDbEntity
  8
SPOJOVACÍ
  6
DASHED
100
AcDbLine
 10
-4578.133609546092
 20
-6992.111786585123
 30
0.0
 11
-4580.447179992864
 21
-6992.890269312354
 31
0.0
  0
LINE
  5
2C3D
330
1F
100
AcDbEntity
  8
SPOJOVACÍ
  6
DASHED
100
AcDbLine
 10
-4578.133609546092
 20
-6992.696104416575
 30
0.0
 11
-4580.447179992864
 21
-6993.474587143535
 31
0.0
  0
LINE
  5
2C3E
330
1F
100
AcDbEntity
  8
SPOJOVACÍ
  6
DASHED
100
AcDbLine
 10
-4580.81727833639
 20
-6993.103577225681
 30
0.0
 11
-4580.447179992864
 21
-6992.890269312354
 31
0.0
  0
LINE
  5
2C3F
330
1F
100
AcDbEntity
  8
SPOJOVACÍ
  6
DASHED
100
AcDbLine
 10
-4580.81727833639
 20
-6993.103577225681
 30
0.0
 11
-4580.447179992864
 21
-6993.474587143535
 31
0.0
  0
LINE
  5
2C40
330
1F
100
AcDbEntity
  8
SPOJOVACÍ
  6
DASHED
100
AcDbLine
 10
-4577.763511198288
 20
-6992.482796503248
 30
0.0
 11
-4578.133609546092
 21
-6992.111786585123
 31
0.0
  0
LINE
  5
2C41
330
1F
100
AcDbEntity
  8
SPOJOVACÍ
  6
DASHED
100
AcDbLine
 10
-4577.763511198288
 20
-6992.482796503248
 30
0.0
 11
-4578.133609546092
 21
-6992.696104416575
 31
0.0
  0
LINE
  5
2C42
330
1F
100
AcDbEntity
  8
SPOJOVACÍ
  6
DASHED
100
AcDbLine
 10
-4577.210186826304
 20
-6989.528390744036
 30
0.0
 11
-4581.253009885992
 21
-6990.481895348693
 31
0.0
  0
LINE
  5
2C43
330
1F
100
AcDbEntity
  8
SPOJOVACÍ
  6
DASHED
100
AcDbLine
 10
-4577.581196743623
 20
-6989.158292398371
 30
0.0
 11
-4580.882911542466
 21
-6990.268587435366
 31
0.0
  0
LINE
  5
2C44
330
1F
100
AcDbEntity
  8
SPOJOVACÍ
  6
DASHED
100
AcDbLine
 10
-4577.581196743623
 20
-6989.742610229821
 30
0.0
 11
-4580.882911542466
 21
-6990.852905266819
 31
0.0
  0
LINE
  5
2C45
330
1F
100
AcDbEntity
  8
SPOJOVACÍ
  6
DASHED
100
AcDbLine
 10
-4581.253009885992
 20
-6990.481895348693
 30
0.0
 11
-4580.882911542466
 21
-6990.268587435366
 31
0.0
  0
LINE
  5
2C46
330
1F
100
AcDbEntity
  8
SPOJOVACÍ
  6
DASHED
100
AcDbLine
 10
-4581.253009885992
 20
-6990.481895348693
 30
0.0
 11
-4580.882911542466
 21
-6990.852905266819
 31
0.0
  0
LINE
  5
2C47
330
1F
100
AcDbEntity
  8
SPOJOVACÍ
  6
DASHED
100
AcDbLine
 10
-4577.210186826304
 20
-6989.528390744036
 30
0.0
 11
-4577.581196743623
 21
-6989.158292398371
 31
0.0
  0
LINE
  5
2C48
330
1F
100
AcDbEntity
  8
SPOJOVACÍ
  6
DASHED
100
AcDbLine
 10
-4577.210186826304
 20
-6989.528390744036
 30
0.0
 11
-4577.581196743623
 21
-6989.742610229821
 31
0.0
  0
LINE
  5
2C49
330
1F
100
AcDbEntity
  8
SPOJOVACÍ
  6
DASHED
100
AcDbLine
 10
-4580.063408059569
 20
-6992.748064036625
 30
0.0
 11
-4580.325029305799
 21
-6990.654182509828
 31
0.0
  0
LINE
  5
2C4A
330
1F
100
AcDbEntity
  8
SPOJOVACÍ
  6
DASHED
100
AcDbLine
 10
-4579.730684181623
 20
-6995.410766666068
 30
0.0
 11
-4579.993216997368
 21
-6993.308680988786
 31
0.0
  0
LINE
  5
2C4B
330
1F
100
AcDbEntity
  8
SPOJOVACÍ
  6
DASHED
100
AcDbLine
 10
-4578.57481052989
 20
-6992.838309692304
 30
0.0
 11
-4578.859221078142
 21
-6995.112682530453
 31
0.0
  0
LINE
  5
2C4C
330
1F
100
AcDbEntity
  8
SPOJOVACÍ
  6
DASHED
100
AcDbLine
 10
-4578.21291633338
 20
-6989.94497927609
 30
0.0
 11
-4578.497326885909
 21
-6992.220263686433
 31
0.0
  0
LINE
  5
2C4D
330
1F
100
AcDbEntity
  8
SPOJOVACÍ
  6
DASHED
100
AcDbLine
 10
-4578.934881578817
 20
-6995.720701241189
 30
0.0
 11
-4579.313184073638
 21
-6998.748032782637
 31
0.0
  0
LINE
  5
2C4E
330
1F
100
AcDbEntity
  8
SPOJOVACÍ
  6
DASHED
100
AcDbLine
 10
-4579.313184073638
 20
-6998.748032782637
 30
0.0
 11
-4579.660493115144
 21
-6995.968648901395
 31
0.0
  0
LINE
  5
2C4F
330
1F
100
AcDbEntity
  8
SPOJOVACÍ
  6
DASHED
100
AcDbLine
 10
-4580.395220372279
 20
-6990.095388702044
 30
0.0
 11
-4580.635875455517
 21
-6988.163767040984
 31
0.0
  0
LINE
  5
2C50
330
1F
100
AcDbEntity
  8
SPOJOVACÍ
  6
DASHED
100
AcDbLine
 10
-4577.990492696036
 20
-6988.163767040984
 30
0.0
 11
-4578.137255832705
 21
-6989.336960565353
 31
0.0
  0
LINE
  5
2C51
330
1F
100
AcDbEntity
  8
STAVBA OBRYS
100
AcDbLine
 10
-4572.160292347038
 20
-6998.586134734248
 30
0.0
 11
-4558.148851031575
 21
-6997.849413475869
 31
0.0
  0
LINE
  5
2C52
330
1F
100
AcDbEntity
  8
STAVBA OBRYS
100
AcDbLine
 10
-4574.126810797123
 20
-6993.429084860614
 30
0.0
 11
-4559.869555203678
 21
-7013.074989698973
 31
0.0
  0
LINE
  5
2C53
330
1F
100
AcDbEntity
  8
SPOJOVACÍ
  6
DASHED
100
AcDbLine
 10
-4556.235106405463
 20
-6975.698078621646
 30
0.0
 11
-4556.235106405463
 21
-6976.874006862842
 31
0.0
  0
INSERT
  5
2C54
330
1F
100
AcDbEntity
  8
POPIS
100
AcDbBlockReference
  2
E_PUNKT
 10
-4564.593206843171
 20
-6992.034580949414
 30
0.0
 50
270.0
  0
LINE
  5
2C55
330
1F
100
AcDbEntity
  8
SPOJOVACÍ
  6
DASHED
100
AcDbLine
 10
-4575.637724644656
 20
-6965.603264686588
 30
0.0
 11
-4576.726141947008
 21
-6966.650661236212
 31
0.0
  0
LINE
  5
2C56
330
1F
100
AcDbEntity
  8
SPOJOVACÍ
  6
DASHED
100
AcDbLine
 10
-4574.315033262776
 20
-6964.874006862842
 30
0.0
 11
-4584.311334884499
 21
-6964.874006862842
 31
0.0
  0
LINE
  5
2C57
330
1F
100
AcDbEntity
  8
SPOJOVACÍ
  6
DASHED
100
AcDbLine
 10
-4574.315033262776
 20
-6963.698078621646
 30
0.0
 11
-4584.311334884499
 21
-6963.698078621646
 31
0.0
  0
LINE
  5
2C58
330
1F
100
AcDbEntity
  8
SPOJOVACÍ
  6
DASHED
100
AcDbLine
 10
-4576.726141947008
 20
-6966.650661236212
 30
0.0
 11
-4577.506447816739
 21
-6967.943270728944
 31
0.0
  0
LINE
  5
2C59
330
1F
100
AcDbEntity
  8
SPOJOVACÍ
  6
DASHED
100
AcDbLine
 10
-4582.397944669333
 20
-6966.103717868202
 30
0.0
 11
-4583.610335802054
 21
-6965.20399602797
 31
0.0
  0
LINE
  5
2C5A
330
1F
100
AcDbEntity
  8
SPOJOVACÍ
  6
DASHED
100
AcDbLine
 10
-4580.858299088583
 20
-6968.672528552952
 30
0.0
 11
-4581.459025220747
 21
-6967.286938687442
 31
0.0
  0
LINE
  5
2C5B
330
1F
100
AcDbEntity
  8
SPOJOVACÍ
  6
DASHED
100
AcDbLine
 10
-4581.459025220747
 20
-6967.286938687442
 30
0.0
 11
-4582.397944669333
 21
-6966.103717868202
 31
0.0
  0
LINE
  5
2C5C
330
1F
100
AcDbEntity
  8
SPOJOVACÍ
  6
DASHED
100
AcDbLine
 10
-4584.311334884499
 20
-6963.698078621646
 30
0.0
 11
-4584.311334884499
 21
-6964.874006862842
 31
0.0
  0
LINE
  5
2C5D
330
1F
100
AcDbEntity
  8
SPOJOVACÍ
  6
DASHED
100
AcDbLine
 10
-4583.610335802054
 20
-6965.20399602797
 30
0.0
 11
-4584.311334884499
 21
-6964.874006862842
 31
0.0
  0
LINE
  5
2C5E
330
1F
100
AcDbEntity
  8
SPOJOVACÍ
  6
DASHED
100
AcDbLine
 10
-4576.961327591772
 20
-6974.282344363301
 30
0.0
 11
-4577.331425939576
 21
-6973.911334445448
 31
0.0
  0
LINE
  5
2C5F
330
1F
100
AcDbEntity
  8
SPOJOVACÍ
  6
DASHED
100
AcDbLine
 10
-4576.961327591772
 20
-6974.282344363301
 30
0.0
 11
-4577.331425939576
 21
-6974.495652276629
 31
0.0
  0
LINE
  5
2C60
330
1F
100
AcDbEntity
  8
SPOJOVACÍ
  6
DASHED
100
AcDbLine
 10
-4577.990492696036
 20
-6970.165683947313
 30
0.0
 11
-4577.990492696036
 21
-6974.122819214399
 31
0.0
  0
LINE
  5
2C61
330
1F
100
AcDbEntity
  8
SPOJOVACÍ
  6
DASHED
100
AcDbLine
 10
-4577.925771063752
 20
-6969.394493798652
 30
0.0
 11
-4577.990492696036
 21
-6970.165683947313
 31
0.0
  0
LINE
  5
2C62
330
1F
100
AcDbEntity
  8
SPOJOVACÍ
  6
DASHED
100
AcDbLine
 10
-4577.506447816739
 20
-6967.943270728944
 30
0.0
 11
-4577.925771063752
 21
-6969.394493798652
 31
0.0
  0
LINE
  5
2C63
330
1F
100
AcDbEntity
  8
SPOJOVACÍ
  6
DASHED
100
AcDbLine
 10
-4580.635875455517
 20
-6970.165683947313
 30
0.0
 11
-4580.858299088583
 21
-6968.672528552952
 31
0.0
  0
LINE
  5
2C64
330
1F
100
AcDbEntity
  8
SPOJOVACÍ
  6
DASHED
100
AcDbLine
 10
-4574.315033262776
 20
-6964.874006862842
 30
0.0
 11
-4575.637724644656
 21
-6965.603264686588
 31
0.0
  0
LINE
  5
2C65
330
1F
100
AcDbEntity
  8
SPOJOVACÍ
  6
DASHED
100
AcDbLine
 10
-4574.315033262776
 20
-6963.698078621646
 30
0.0
 11
-4574.315033262776
 21
-6964.874006862842
 31
0.0
  0
LINE
  5
2C66
330
1F
100
AcDbEntity
  8
STAVBA OBRYS
100
AcDbLine
 10
-4538.237854365859
 20
-6998.340561336452
 30
0.0
 11
-4516.606155641154
 21
-6999.077282594829
 31
0.0
  0
LINE
  5
2C67
330
1F
100
AcDbEntity
  8
STAVBA OBRYS
100
AcDbLine
 10
-4540.696003485021
 20
-6991.464494483278
 30
0.0
 11
-4516.720439172981
 21
-6991.943535933607
 31
0.0
  0
LINE
  5
2C68
330
1F
100
AcDbEntity
  8
STAVBA OBRYS
100
AcDbLine
 10
-4554.215814131406
 20
-6994.165806118991
 30
0.0
 11
-4531.355041903676
 21
-6994.902527377369
 31
0.0
  0
LINE
  5
2C69
330
1F
100
AcDbEntity
  8
STAVBA OBRYS
100
AcDbLine
 10
-4528.651078506531
 20
-7003.497611210083
 30
0.0
 11
-4534.796448134768
 21
-7009.882530202677
 31
0.0
  0
LINE
  5
2C6A
330
1F
100
AcDbEntity
  8
STAVBA OBRYS
100
AcDbLine
 10
-4537.746225809895
 20
-7001.778594230542
 30
0.0
 11
-4523.980598772414
 21
-7002.024167628338
 31
0.0
  0
LINE
  5
2C6B
330
1F
100
AcDbEntity
  8
STAVBA OBRYS
100
AcDbLine
 10
-4549.299520119308
 20
-7004.971053726838
 30
0.0
 11
-4528.405264228548
 21
-7007.181218566962
 31
0.0
  0
LINE
  5
2C6C
330
1F
100
AcDbEntity
  8
STAVBA OBRYS
100
AcDbLine
 10
-4554.707444800484
 20
-7000.550725111583
 30
0.0
 11
-4537.746225809895
 21
-7001.778594230542
 31
0.0
  0
LINE
  5
2C6D
330
1F
100
AcDbEntity
  8
SPOJOVACÍ
  6
DASHED
100
AcDbLine
 10
-4548.152194998906
 20
-6978.103717868201
 30
0.0
 11
-4546.939803866185
 21
-6977.203996027968
 31
0.0
  0
LINE
  5
2C6E
330
1F
100
AcDbEntity
  8
SPOJOVACÍ
  6
DASHED
100
AcDbLine
 10
-4549.691840579656
 20
-6980.67252855295
 30
0.0
 11
-4549.091114447491
 21
-6979.286938687441
 31
0.0
  0
LINE
  5
2C6F
330
1F
100
AcDbEntity
  8
SPOJOVACÍ
  6
DASHED
100
AcDbLine
 10
-4549.914264212722
 20
-6982.165683947312
 30
0.0
 11
-4549.691840579656
 21
-6980.67252855295
 31
0.0
  0
LINE
  5
2C70
330
1F
100
AcDbEntity
  8
SPOJOVACÍ
  6
DASHED
100
AcDbLine
 10
-4549.091114447491
 20
-6979.286938687441
 30
0.0
 11
-4548.152194998906
 21
-6978.103717868201
 31
0.0
  0
LINE
  5
2C71
330
1F
100
AcDbEntity
  8
SPOJOVACÍ
  6
DASHED
100
AcDbLine
 10
-4546.939803866185
 20
-6977.203996027968
 30
0.0
 11
-4546.238804783739
 21
-6976.874006862842
 31
0.0
  0
LINE
  5
2C72
330
1F
100
AcDbEntity
  8
SPOJOVACÍ
  6
DASHED
100
AcDbLine
 10
-4546.238804783739
 20
-6975.698078621646
 30
0.0
 11
-4546.238804783739
 21
-6976.874006862842
 31
0.0
  0
LINE
  5
2C73
330
1F
100
AcDbEntity
  8
SPOJOVACÍ
  6
DASHED
100
AcDbLine
 10
-4554.912415023583
 20
-6977.603264686587
 30
0.0
 11
-4553.823997721231
 21
-6978.650661236212
 31
0.0
  0
LINE
  5
2C74
330
1F
100
AcDbEntity
  8
SPOJOVACÍ
  6
DASHED
100
AcDbLine
 10
-4553.823997721231
 20
-6978.650661236212
 30
0.0
 11
-4553.0436918515
 21
-6979.943270728942
 31
0.0
  0
LINE
  5
2C75
330
1F
100
AcDbEntity
  8
SPOJOVACÍ
  6
DASHED
100
AcDbLine
 10
-4552.624368604486
 20
-6981.394493798652
 30
0.0
 11
-4552.559646972203
 21
-6982.165683947312
 31
0.0
  0
LINE
  5
2C76
330
1F
100
AcDbEntity
  8
SPOJOVACÍ
  6
DASHED
100
AcDbLine
 10
-4553.0436918515
 20
-6979.943270728942
 30
0.0
 11
-4552.624368604486
 21
-6981.394493798652
 31
0.0
  0
LINE
  5
2C77
330
1F
100
AcDbEntity
  8
SPOJOVACÍ
  6
DASHED
100
AcDbLine
 10
-4549.914264212722
 20
-6987.601389452151
 30
0.0
 11
-4549.914264212722
 21
-6990.069927186079
 31
0.0
  0
LINE
  5
2C78
330
1F
100
AcDbEntity
  8
SPOJOVACÍ
  6
DASHED
100
AcDbLine
 10
-4548.885099112736
 20
-6990.515686031087
 30
0.0
 11
-4549.255197456262
 21
-6990.3014665453
 31
0.0
  0
LINE
  5
2C79
330
1F
100
AcDbEntity
  8
SPOJOVACÍ
  6
DASHED
100
AcDbLine
 10
-4548.885099112736
 20
-6990.515686031087
 30
0.0
 11
-4549.255197456262
 21
-6990.88578437648
 31
0.0
  0
LINE
  5
2C7A
330
1F
100
AcDbEntity
  8
SPOJOVACÍ
  6
DASHED
100
AcDbLine
 10
-4549.914264212722
 20
-6990.65424501753
 30
0.0
 11
-4549.914264212722
 21
-6993.131898474143
 31
0.0
  0
LINE
  5
2C7B
330
1F
100
AcDbEntity
  8
SPOJOVACÍ
  6
DASHED
100
AcDbLine
 10
-4548.885099112736
 20
-6987.458272604233
 30
0.0
 11
-4549.255197456262
 21
-6987.244053118446
 31
0.0
  0
LINE
  5
2C7C
330
1F
100
AcDbEntity
  8
SPOJOVACÍ
  6
DASHED
100
AcDbLine
 10
-4548.885099112736
 20
-6987.458272604233
 30
0.0
 11
-4549.255197456262
 21
-6987.828370949898
 31
0.0
  0
LINE
  5
2C7D
330
1F
100
AcDbEntity
  8
SPOJOVACÍ
  6
DASHED
100
AcDbLine
 10
-4549.914264212722
 20
-6996.773629732176
 30
0.0
 11
-4549.914264212722
 21
-6999.242167466104
 31
0.0
  0
LINE
  5
2C7E
330
1F
100
AcDbEntity
  8
SPOJOVACÍ
  6
DASHED
100
AcDbLine
 10
-4550.15491929596
 20
-7002.095388702044
 30
0.0
 11
-4549.914264212722
 21
-7000.163767040984
 31
0.0
  0
LINE
  5
2C7F
330
1F
100
AcDbEntity
  8
SPOJOVACÍ
  6
DASHED
100
AcDbLine
 10
-4549.297129782247
 20
-7002.481895348693
 30
0.0
 11
-4549.667228125773
 21
-7002.852905266817
 31
0.0
  0
LINE
  5
2C80
330
1F
100
AcDbEntity
  8
SPOJOVACÍ
  6
DASHED
100
AcDbLine
 10
-4549.297129782247
 20
-7002.481895348693
 30
0.0
 11
-4549.667228125773
 21
-7002.268587435366
 31
0.0
  0
LINE
  5
2C81
330
1F
100
AcDbEntity
  8
SPOJOVACÍ
  6
DASHED
100
AcDbLine
 10
-4548.885099112736
 20
-6999.688837883301
 30
0.0
 11
-4549.255197456262
 21
-6999.474618397513
 31
0.0
  0
LINE
  5
2C82
330
1F
100
AcDbEntity
  8
SPOJOVACÍ
  6
DASHED
100
AcDbLine
 10
-4548.885099112736
 20
-6999.688837883301
 30
0.0
 11
-4549.255197456262
 21
-7000.058936228966
 31
0.0
  0
LINE
  5
2C83
330
1F
100
AcDbEntity
  8
SPOJOVACÍ
  6
DASHED
100
AcDbLine
 10
-4549.914264212722
 20
-6999.833777875856
 30
0.0
 11
-4549.914264212722
 21
-7000.163767040984
 31
0.0
  0
LINE
  5
2C84
330
1F
100
AcDbEntity
  8
SPOJOVACÍ
  6
DASHED
100
AcDbLine
 10
-4548.885099112736
 20
-6993.573099457669
 30
0.0
 11
-4549.255197456262
 21
-6993.359791544079
 31
0.0
  0
LINE
  5
2C85
330
1F
100
AcDbEntity
  8
SPOJOVACÍ
  6
DASHED
100
AcDbLine
 10
-4548.885099112736
 20
-6993.573099457669
 30
0.0
 11
-4549.255197456262
 21
-6993.944109375522
 31
0.0
  0
LINE
  5
2C86
330
1F
100
AcDbEntity
  8
SPOJOVACÍ
  6
DASHED
100
AcDbLine
 10
-4548.885099112736
 20
-6996.630512884259
 30
0.0
 11
-4549.255197456262
 21
-6996.417204970931
 31
0.0
  0
LINE
  5
2C87
330
1F
100
AcDbEntity
  8
SPOJOVACÍ
  6
DASHED
100
AcDbLine
 10
-4548.885099112736
 20
-6996.630512884259
 30
0.0
 11
-4549.255197456262
 21
-6997.001522802112
 31
0.0
  0
LINE
  5
2C88
330
1F
100
AcDbEntity
  8
SPOJOVACÍ
  6
DASHED
100
AcDbLine
 10
-4549.914264212722
 20
-6993.714393160947
 30
0.0
 11
-4549.914264212722
 21
-6996.184754039522
 31
0.0
  0
LINE
  5
2C89
330
1F
100
AcDbEntity
  8
SPOJOVACÍ
  6
DASHED
100
AcDbLine
 10
-4552.559646972203
 20
-6986.70622547339
 30
0.0
 11
-4552.559646972203
 21
-6989.174763207319
 31
0.0
  0
LINE
  5
2C8A
330
1F
100
AcDbEntity
  8
SPOJOVACÍ
  6
DASHED
100
AcDbLine
 10
-4552.559646972203
 20
-6989.766373616808
 30
0.0
 11
-4552.559646972203
 21
-6992.236734495382
 31
0.0
  0
LINE
  5
2C8B
330
1F
100
AcDbEntity
  8
SPOJOVACÍ
  6
DASHED
100
AcDbLine
 10
-4553.588812076467
 20
-6992.397171216736
 30
0.0
 11
-4553.218713728663
 21
-6992.027072871071
 31
0.0
  0
LINE
  5
2C8C
330
1F
100
AcDbEntity
  8
SPOJOVACÍ
  6
DASHED
100
AcDbLine
 10
-4553.588812076467
 20
-6992.397171216736
 30
0.0
 11
-4553.218713728663
 21
-6992.611390702522
 31
0.0
  0
LINE
  5
2C8D
330
1F
100
AcDbEntity
  8
SPOJOVACÍ
  6
DASHED
100
AcDbLine
 10
-4553.588812076467
 20
-6989.339757789882
 30
0.0
 11
-4553.218713728663
 21
-6988.969659444217
 31
0.0
  0
LINE
  5
2C8E
330
1F
100
AcDbEntity
  8
SPOJOVACÍ
  6
DASHED
100
AcDbLine
 10
-4553.588812076467
 20
-6989.339757789882
 30
0.0
 11
-4553.218713728663
 21
-6989.553977275669
 31
0.0
  0
LINE
  5
2C8F
330
1F
100
AcDbEntity
  8
SPOJOVACÍ
  6
DASHED
100
AcDbLine
 10
-4553.588812076467
 20
-6986.2823443633
 30
0.0
 11
-4553.218713728663
 21
-6985.911334445447
 31
0.0
  0
LINE
  5
2C90
330
1F
100
AcDbEntity
  8
SPOJOVACÍ
  6
DASHED
100
AcDbLine
 10
-4553.588812076467
 20
-6986.2823443633
 30
0.0
 11
-4553.218713728663
 21
-6986.495652276627
 31
0.0
  0
LINE
  5
2C91
330
1F
100
AcDbEntity
  8
SPOJOVACÍ
  6
DASHED
100
AcDbLine
 10
-4553.588812076467
 20
-6998.512909642368
 30
0.0
 11
-4553.218713728663
 21
-6998.726217555695
 31
0.0
  0
LINE
  5
2C92
330
1F
100
AcDbEntity
  8
SPOJOVACÍ
  6
DASHED
100
AcDbLine
 10
-4552.559646972203
 20
-7000.163767040984
 30
0.0
 11
-4552.412883835534
 21
-7001.336960565352
 31
0.0
  0
LINE
  5
2C93
330
1F
100
AcDbEntity
  8
SPOJOVACÍ
  6
DASHED
100
AcDbLine
 10
-4553.339952841935
 20
-7001.528390744034
 30
0.0
 11
-4552.968942924616
 21
-7001.158292398369
 31
0.0
  0
LINE
  5
2C94
330
1F
100
AcDbEntity
  8
SPOJOVACÍ
  6
DASHED
100
AcDbLine
 10
-4553.339952841935
 20
-7001.528390744034
 30
0.0
 11
-4552.968942924616
 21
-7001.74261022982
 31
0.0
  0
LINE
  5
2C95
330
1F
100
AcDbEntity
  8
SPOJOVACÍ
  6
DASHED
100
AcDbLine
 10
-4552.559646972203
 20
-6998.941348613932
 30
0.0
 11
-4552.559646972203
 21
-7000.163767040984
 31
0.0
  0
LINE
  5
2C96
330
1F
100
AcDbEntity
  8
SPOJOVACÍ
  6
DASHED
100
AcDbLine
 10
-4553.588812076467
 20
-6995.454584643326
 30
0.0
 11
-4553.218713728663
 21
-6995.084486297661
 31
0.0
  0
LINE
  5
2C97
330
1F
100
AcDbEntity
  8
SPOJOVACÍ
  6
DASHED
100
AcDbLine
 10
-4553.588812076467
 20
-6995.454584643326
 30
0.0
 11
-4553.218713728663
 21
-6995.668804129104
 31
0.0
  0
LINE
  5
2C98
330
1F
100
AcDbEntity
  8
SPOJOVACÍ
  6
DASHED
100
AcDbLine
 10
-4553.588812076467
 20
-6998.512909642368
 30
0.0
 11
-4553.218713728663
 21
-6998.141899724243
 31
0.0
  0
LINE
  5
2C99
330
1F
100
AcDbEntity
  8
SPOJOVACÍ
  6
DASHED
100
AcDbLine
 10
-4552.559646972203
 20
-6995.88940462074
 30
0.0
 11
-4552.559646972203
 21
-6998.35703078248
 31
0.0
  0
LINE
  5
2C9A
330
1F
100
AcDbEntity
  8
SPOJOVACÍ
  6
DASHED
100
AcDbLine
 10
-4552.559646972203
 20
-6992.819229182188
 30
0.0
 11
-4552.559646972203
 21
-6995.2968826388
 31
0.0
  0
LINE
  5
2C9B
330
1F
100
AcDbEntity
  8
SPOJOVACÍ
  6
DASHED
100
AcDbLine
 10
-4553.218713728663
 20
-6998.141899724243
 30
0.0
 11
-4549.255197456262
 21
-6999.474618397513
 31
0.0
  0
LINE
  5
2C9C
330
1F
100
AcDbEntity
  8
SPOJOVACÍ
  6
DASHED
100
AcDbLine
 10
-4553.588812076467
 20
-6998.512909642368
 30
0.0
 11
-4548.885099112736
 21
-6999.688837883301
 31
0.0
  0
LINE
  5
2C9D
330
1F
100
AcDbEntity
  8
SPOJOVACÍ
  6
DASHED
100
AcDbLine
 10
-4553.218713728663
 20
-6998.726217555695
 30
0.0
 11
-4549.255197456262
 21
-7000.058936228966
 31
0.0
  0
LINE
  5
2C9E
330
1F
100
AcDbEntity
  8
SPOJOVACÍ
  6
DASHED
100
AcDbLine
 10
-4552.968942924616
 20
-7001.158292398369
 30
0.0
 11
-4549.667228125773
 21
-7002.268587435366
 31
0.0
  0
LINE
  5
2C9F
330
1F
100
AcDbEntity
  8
SPOJOVACÍ
  6
DASHED
100
AcDbLine
 10
-4553.339952841935
 20
-7001.528390744034
 30
0.0
 11
-4549.297129782247
 21
-7002.481895348693
 31
0.0
  0
LINE
  5
2CA0
330
1F
100
AcDbEntity
  8
SPOJOVACÍ
  6
DASHED
100
AcDbLine
 10
-4552.968942924616
 20
-7001.74261022982
 30
0.0
 11
-4549.667228125773
 21
-7002.852905266817
 31
0.0
  0
LINE
  5
2CA1
330
1F
100
AcDbEntity
  8
SPOJOVACÍ
  6
DASHED
100
AcDbLine
 10
-4553.218713728663
 20
-6992.027072871071
 30
0.0
 11
-4549.255197456262
 21
-6993.359791544079
 31
0.0
  0
LINE
  5
2CA2
330
1F
100
AcDbEntity
  8
SPOJOVACÍ
  6
DASHED
100
AcDbLine
 10
-4553.218713728663
 20
-6992.611390702522
 30
0.0
 11
-4549.255197456262
 21
-6993.944109375522
 31
0.0
  0
LINE
  5
2CA3
330
1F
100
AcDbEntity
  8
SPOJOVACÍ
  6
DASHED
100
AcDbLine
 10
-4553.588812076467
 20
-6992.397171216736
 30
0.0
 11
-4548.885099112736
 21
-6993.573099457669
 31
0.0
  0
LINE
  5
2CA4
330
1F
100
AcDbEntity
  8
SPOJOVACÍ
  6
DASHED
100
AcDbLine
 10
-4553.218713728663
 20
-6988.969659444217
 30
0.0
 11
-4549.255197456262
 21
-6990.3014665453
 31
0.0
  0
LINE
  5
2CA5
330
1F
100
AcDbEntity
  8
SPOJOVACÍ
  6
DASHED
100
AcDbLine
 10
-4553.218713728663
 20
-6989.553977275669
 30
0.0
 11
-4549.255197456262
 21
-6990.88578437648
 31
0.0
  0
LINE
  5
2CA6
330
1F
100
AcDbEntity
  8
SPOJOVACÍ
  6
DASHED
100
AcDbLine
 10
-4553.588812076467
 20
-6989.339757789882
 30
0.0
 11
-4548.885099112736
 21
-6990.515686031087
 31
0.0
  0
LINE
  5
2CA7
330
1F
100
AcDbEntity
  8
SPOJOVACÍ
  6
DASHED
100
AcDbLine
 10
-4553.218713728663
 20
-6995.084486297661
 30
0.0
 11
-4549.255197456262
 21
-6996.417204970931
 31
0.0
  0
LINE
  5
2CA8
330
1F
100
AcDbEntity
  8
SPOJOVACÍ
  6
DASHED
100
AcDbLine
 10
-4553.218713728663
 20
-6995.668804129104
 30
0.0
 11
-4549.255197456262
 21
-6997.001522802112
 31
0.0
  0
LINE
  5
2CA9
330
1F
100
AcDbEntity
  8
SPOJOVACÍ
  6
DASHED
100
AcDbLine
 10
-4553.588812076467
 20
-6995.454584643326
 30
0.0
 11
-4548.885099112736
 21
-6996.630512884259
 31
0.0
  0
LINE
  5
2CAA
330
1F
100
AcDbEntity
  8
SPOJOVACÍ
  6
DASHED
100
AcDbLine
 10
-4553.218713728663
 20
-6985.911334445447
 30
0.0
 11
-4549.255197456262
 21
-6987.244053118446
 31
0.0
  0
LINE
  5
2CAB
330
1F
100
AcDbEntity
  8
SPOJOVACÍ
  6
DASHED
100
AcDbLine
 10
-4553.218713728663
 20
-6986.495652276627
 30
0.0
 11
-4549.255197456262
 21
-6987.828370949898
 31
0.0
  0
LINE
  5
2CAC
330
1F
100
AcDbEntity
  8
SPOJOVACÍ
  6
DASHED
100
AcDbLine
 10
-4553.588812076467
 20
-6986.2823443633
 30
0.0
 11
-4548.885099112736
 21
-6987.458272604233
 31
0.0
  0
LINE
  5
2CAD
330
1F
100
AcDbEntity
  8
SPOJOVACÍ
  6
DASHED
100
AcDbLine
 10
-4549.732861331849
 20
-7005.103577225681
 30
0.0
 11
-4550.102959675375
 21
-7004.890269312354
 31
0.0
  0
LINE
  5
2CAE
330
1F
100
AcDbEntity
  8
SPOJOVACÍ
  6
DASHED
100
AcDbLine
 10
-4550.122102695062
 20
-7007.740755831457
 30
0.0
 11
-4550.492201038588
 21
-7007.527447917867
 31
0.0
  0
LINE
  5
2CAF
330
1F
100
AcDbEntity
  8
SPOJOVACÍ
  6
DASHED
100
AcDbLine
 10
-4550.122102695062
 20
-7007.740755831457
 30
0.0
 11
-4550.492201038588
 21
-7008.111765749311
 31
0.0
  0
LINE
  5
2CB0
330
1F
100
AcDbEntity
  8
SPOJOVACÍ
  6
DASHED
100
AcDbLine
 10
-4550.819455486616
 20
-7007.410766666068
 30
0.0
 11
-4550.556922670871
 21
-7005.308680988784
 31
0.0
  0
LINE
  5
2CB1
330
1F
100
AcDbEntity
  8
SPOJOVACÍ
  6
DASHED
100
AcDbLine
 10
-4549.732861331849
 20
-7005.103577225681
 30
0.0
 11
-4550.102959675375
 21
-7005.474587143535
 31
0.0
  0
LINE
  5
2CB2
330
1F
100
AcDbEntity
  8
SPOJOVACÍ
  6
DASHED
100
AcDbLine
 10
-4551.615258089422
 20
-7007.720701241189
 30
0.0
 11
-4551.236955594601
 21
-7010.748032782636
 31
0.0
  0
LINE
  5
2CB3
330
1F
100
AcDbEntity
  8
SPOJOVACÍ
  6
DASHED
100
AcDbLine
 10
-4552.786628469951
 20
-7004.482796503246
 30
0.0
 11
-4552.416530122147
 21
-7004.111786585122
 31
0.0
  0
LINE
  5
2CB4
330
1F
100
AcDbEntity
  8
SPOJOVACÍ
  6
DASHED
100
AcDbLine
 10
-4552.786628469951
 20
-7004.482796503246
 30
0.0
 11
-4552.416530122147
 21
-7004.696104416574
 31
0.0
  0
LINE
  5
2CB5
330
1F
100
AcDbEntity
  8
SPOJOVACÍ
  6
DASHED
100
AcDbLine
 10
-4552.233304093689
 20
-7007.436290689999
 30
0.0
 11
-4551.863205750162
 21
-7007.066192344334
 31
0.0
  0
LINE
  5
2CB6
330
1F
100
AcDbEntity
  8
SPOJOVACÍ
  6
DASHED
100
AcDbLine
 10
-4552.233304093689
 20
-7007.436290689999
 30
0.0
 11
-4551.863205750162
 21
-7007.650510175778
 31
0.0
  0
LINE
  5
2CB7
330
1F
100
AcDbEntity
  8
SPOJOVACÍ
  6
DASHED
100
AcDbLine
 10
-4551.975329138349
 20
-7004.838309692303
 30
0.0
 11
-4551.690918590098
 21
-7007.112682530451
 31
0.0
  0
LINE
  5
2CB8
330
1F
100
AcDbEntity
  8
SPOJOVACÍ
  6
DASHED
100
AcDbLine
 10
-4551.236955594601
 20
-7010.748032782636
 30
0.0
 11
-4550.889646553095
 21
-7007.968648901393
 31
0.0
  0
LINE
  5
2CB9
330
1F
100
AcDbEntity
  8
SPOJOVACÍ
  6
DASHED
100
AcDbLine
 10
-4552.786628469951
 20
-7004.482796503246
 30
0.0
 11
-4549.732861331849
 21
-7005.103577225681
 31
0.0
  0
LINE
  5
2CBA
330
1F
100
AcDbEntity
  8
SPOJOVACÍ
  6
DASHED
100
AcDbLine
 10
-4552.416530122147
 20
-7004.111786585122
 30
0.0
 11
-4550.102959675375
 21
-7004.890269312354
 31
0.0
  0
LINE
  5
2CBB
330
1F
100
AcDbEntity
  8
SPOJOVACÍ
  6
DASHED
100
AcDbLine
 10
-4552.233304093689
 20
-7007.436290689999
 30
0.0
 11
-4550.122102695062
 21
-7007.740755831457
 31
0.0
  0
LINE
  5
2CBC
330
1F
100
AcDbEntity
  8
SPOJOVACÍ
  6
DASHED
100
AcDbLine
 10
-4551.863205750162
 20
-7007.066192344334
 30
0.0
 11
-4550.492201038588
 21
-7007.527447917867
 31
0.0
  0
LINE
  5
2CBD
330
1F
100
AcDbEntity
  8
SPOJOVACÍ
  6
DASHED
100
AcDbLine
 10
-4551.863205750162
 20
-7007.650510175778
 30
0.0
 11
-4550.492201038588
 21
-7008.111765749311
 31
0.0
  0
LINE
  5
2CBE
330
1F
100
AcDbEntity
  8
SPOJOVACÍ
  6
DASHED
100
AcDbLine
 10
-4552.416530122147
 20
-7004.696104416574
 30
0.0
 11
-4550.102959675375
 21
-7005.474587143535
 31
0.0
  0
LINE
  5
2CBF
330
1F
100
AcDbEntity
  8
SPOJOVACÍ
  6
DASHED
100
AcDbLine
 10
-4550.48673160867
 20
-7004.748064036625
 30
0.0
 11
-4550.225110362439
 21
-7002.654182509828
 31
0.0
  0
LINE
  5
2CC0
330
1F
100
AcDbEntity
  8
SPOJOVACÍ
  6
DASHED
100
AcDbLine
 10
-4552.337223334858
 20
-7001.944979276089
 30
0.0
 11
-4552.05281278233
 21
-7004.220263686431
 31
0.0
  0
LINE
  5
2CC1
330
1F
100
AcDbEntity
  8
SPOJOVACÍ
  6
DASHED
100
AcDbLine
 10
-4552.559646972203
 20
-6982.165683947312
 30
0.0
 11
-4552.559646972203
 21
-6986.122819214398
 31
0.0
  0
LINE
  5
2CC2
330
1F
100
AcDbEntity
  8
SPOJOVACÍ
  6
DASHED
100
AcDbLine
 10
-4549.914264212722
 20
-6982.165683947312
 30
0.0
 11
-4549.914264212722
 21
-6987.009779042661
 31
0.0
  0
LINE
  5
2CC3
330
1F
100
AcDbEntity
  8
STAVBA OBRYS
100
AcDbLine
 10
-4531.355041903676
 20
-6994.902527377369
 30
0.0
 11
-4516.606155641154
 21
-6995.39367523795
 31
0.0
  0
LINE
  5
2CC4
330
1F
100
AcDbEntity
  8
STAVBA OBRYS
100
AcDbLine
 10
-4528.405264228548
 20
-7007.181218566962
 30
0.0
 11
-4516.360339250058
 21
-7008.900234481512
 31
0.0
  0
LINE
  5
2CC5
330
1F
100
AcDbEntity
  8
POPIS
370
    20
100
AcDbLine
 10
-4484.946939955777
 20
-7159.467557791346
 30
0.0
 11
-4484.946939955777
 21
-6992.508300186353
 31
0.0
  0
INSERT
  5
2CC6
330
1F
100
AcDbEntity
  8
POPIS
100
AcDbBlockReference
  2
E_PUNKT
 10
-4430.762913101479
 20
-7111.307121586702
 30
0.0
 50
270.0
  0
HATCH
  5
2CC7
330
1F
100
AcDbEntity
  8
izolace
100
AcDbHatch
 10
0.0
 20
0.0
 30
0.0
210
0.0
220
0.0
230
1.0
  2
SOLID
 70
     1
 71
     0
 91
        1
 92
        7
 72
     0
 73
     1
 93
        4
 10
-4434.618445273095
 20
-7107.698078621647
 10
-4434.618445273091
 20
-7110.698078621647
 10
-4410.976712563257
 20
-7110.698078621647
 10
-4410.976712563257
 20
-7107.698078621647
 97
        0
 75
     0
 76
     1
 47
0.1901250437635136
 98
        1
 10
-4425.260650514752
 20
-7108.514890172727
  0
LWPOLYLINE
  5
2CC8
330
1F
100
AcDbEntity
  8
STAVBA OBRYS
100
AcDbPolyline
 90
        4
 70
     1
 43
0.0
 10
-4410.97671256326
 20
-7107.698078621647
 10
-4434.618445273095
 20
-7107.698078621647
 10
-4434.618445273095
 20
-7110.698078621647
 10
-4410.97671256326
 20
-7110.698078621647
  0
LWPOLYLINE
  5
2CC9
330
1F
100
AcDbEntity
  8
STAVBA OBRYS
100
AcDbPolyline
 90
        4
 70
     1
 43
0.0
 10
-4458.26017798293
 20
-7107.698078621647
 10
-4481.901910692765
 20
-7107.698078621647
 10
-4481.901910692765
 20
-7110.698078621647
 10
-4458.26017798293
 20
-7110.698078621647
  0
HATCH
  5
2CCA
330
1F
100
AcDbEntity
  8
izolace
100
AcDbHatch
 10
0.0
 20
0.0
 30
0.0
210
0.0
220
0.0
230
1.0
  2
SOLID
 70
     1
 71
     0
 91
        1
 92
        7
 72
     0
 73
     1
 93
        4
 10
-4481.901910692765
 20
-7107.698078621647
 10
-4481.901910692761
 20
-7110.698078621647
 10
-4458.260177982927
 20
-7110.698078621647
 10
-4458.260177982927
 20
-7107.698078621647
 97
        0
 75
     0
 76
     1
 47
0.1901250437635136
 98
        1
 10
-4472.544115934422
 20
-7108.514890172727
  0
LINE
  5
2CCB
330
1F
100
AcDbEntity
  8
POPIS
370
    20
100
AcDbLine
 10
-4430.306111432731
 20
-7155.313673202027
 30
0.0
 11
-4430.306111432731
 21
-7107.698078621647
 31
0.0
  0
HATCH
  5
2CCC
330
1F
100
AcDbEntity
  8
izolace
100
AcDbHatch
 10
0.0
 20
0.0
 30
0.0
210
0.0
220
0.0
230
1.0
  2
SOLID
 70
     1
 71
     0
 91
        1
 92
        7
 72
     0
 73
     1
 93
        4
 10
-4387.334979853425
 20
-7107.698078621647
 10
-4387.33497985342
 20
-7110.698078621647
 10
-4363.693247143586
 20
-7110.698078621647
 10
-4363.693247143586
 20
-7107.698078621647
 97
        0
 75
     0
 76
     1
 47
0.1901250437635136
 98
        1
 10
-4377.977185095081
 20
-7108.514890172727
  0
LWPOLYLINE
  5
2CCD
330
1F
100
AcDbEntity
  8
izolace
100
AcDbPolyline
 90
        4
 70
     1
 43
0.0
 10
-4363.693247143589
 20
-7107.698078621647
 10
-4387.334979853425
 20
-7107.698078621647
 10
-4387.334979853425
 20
-7110.698078621647
 10
-4363.693247143589
 20
-7110.698078621647
  0
LINE
  5
2CCE
330
1F
100
AcDbEntity
  8
POPIS
370
    20
100
AcDbLine
 10
-4373.236806852385
 20
-7155.313673202027
 30
0.0
 11
-4373.236806852385
 21
-7123.910986694188
 31
0.0
  0
INSERT
  5
2CCF
330
1F
100
AcDbEntity
  8
POPIS
100
AcDbBlockReference
  2
E_PUNKT
 10
-4372.6247366415
 20
-7124.240235789908
 30
0.0
 50
270.0
  0
INSERT
  5
2CD0
330
1F
100
AcDbEntity
  8
POPIS
100
AcDbBlockReference
  2
E_PUNKT
 10
-4484.799140495127
 20
-6992.993652489587
 30
0.0
 50
270.0
  0
LINE
  5
2CD1
330
1F
100
AcDbEntity
  8
SPOJOVACÍ
  6
DASHED
100
AcDbLine
 10
-4446.182819134187
 20
-6974.282344363301
 30
0.0
 11
-4450.88653209792
 21
-6975.458272604234
 31
0.0
  0
LINE
  5
2CD2
330
1F
100
AcDbEntity
  8
SPOJOVACÍ
  6
DASHED
100
AcDbLine
 10
-4446.552917481992
 20
-6974.495652276629
 30
0.0
 11
-4450.516433754393
 21
-6975.8283709499
 31
0.0
  0
LINE
  5
2CD3
330
1F
100
AcDbEntity
  8
SPOJOVACÍ
  6
DASHED
100
AcDbLine
 10
-4446.552917481992
 20
-6973.911334445448
 30
0.0
 11
-4450.516433754393
 21
-6975.244053118448
 31
0.0
  0
LINE
  5
2CD4
330
1F
100
AcDbEntity
  8
SPOJOVACÍ
  6
DASHED
100
AcDbLine
 10
-4449.857366997933
 20
-6970.165683947313
 30
0.0
 11
-4449.857366997933
 21
-6975.009779042662
 31
0.0
  0
LINE
  5
2CD5
330
1F
100
AcDbEntity
  8
SPOJOVACÍ
  6
DASHED
100
AcDbLine
 10
-4447.211984238452
 20
-6974.706225473392
 30
0.0
 11
-4447.211984238452
 21
-6977.17476320732
 31
0.0
  0
LINE
  5
2CD6
330
1F
100
AcDbEntity
  8
SPOJOVACÍ
  6
DASHED
100
AcDbLine
 10
-4446.182819134187
 20
-6977.339757789883
 30
0.0
 11
-4450.88653209792
 21
-6978.515686031087
 31
0.0
  0
LINE
  5
2CD7
330
1F
100
AcDbEntity
  8
SPOJOVACÍ
  6
DASHED
100
AcDbLine
 10
-4446.552917481992
 20
-6977.553977275668
 30
0.0
 11
-4450.516433754393
 21
-6978.885784376481
 31
0.0
  0
LINE
  5
2CD8
330
1F
100
AcDbEntity
  8
SPOJOVACÍ
  6
DASHED
100
AcDbLine
 10
-4446.552917481992
 20
-6976.969659444218
 30
0.0
 11
-4450.516433754393
 21
-6978.301466545301
 31
0.0
  0
LINE
  5
2CD9
330
1F
100
AcDbEntity
  8
SPOJOVACÍ
  6
DASHED
100
AcDbLine
 10
-4446.182819134187
 20
-6980.397171216736
 30
0.0
 11
-4450.88653209792
 21
-6981.573099457669
 31
0.0
  0
LINE
  5
2CDA
330
1F
100
AcDbEntity
  8
SPOJOVACÍ
  6
DASHED
100
AcDbLine
 10
-4446.552917481992
 20
-6980.611390702524
 30
0.0
 11
-4450.516433754393
 21
-6981.944109375523
 31
0.0
  0
LINE
  5
2CDB
330
1F
100
AcDbEntity
  8
SPOJOVACÍ
  6
DASHED
100
AcDbLine
 10
-4446.552917481992
 20
-6980.027072871071
 30
0.0
 11
-4450.516433754393
 21
-6981.359791544079
 31
0.0
  0
LINE
  5
2CDC
330
1F
100
AcDbEntity
  8
SPOJOVACÍ
  6
DASHED
100
AcDbLine
 10
-4446.182819134187
 20
-6983.454584643327
 30
0.0
 11
-4450.88653209792
 21
-6984.63051288426
 31
0.0
  0
LINE
  5
2CDD
330
1F
100
AcDbEntity
  8
SPOJOVACÍ
  6
DASHED
100
AcDbLine
 10
-4446.552917481992
 20
-6983.668804129106
 30
0.0
 11
-4450.516433754393
 21
-6985.001522802114
 31
0.0
  0
LINE
  5
2CDE
330
1F
100
AcDbEntity
  8
SPOJOVACÍ
  6
DASHED
100
AcDbLine
 10
-4446.552917481992
 20
-6983.08448629766
 30
0.0
 11
-4450.516433754393
 21
-6984.417204970933
 31
0.0
  0
LINE
  5
2CDF
330
1F
100
AcDbEntity
  8
SPOJOVACÍ
  6
DASHED
100
AcDbLine
 10
-4446.182819134187
 20
-6986.512909642368
 30
0.0
 11
-4450.88653209792
 21
-6987.688837883301
 31
0.0
  0
LINE
  5
2CE0
330
1F
100
AcDbEntity
  8
SPOJOVACÍ
  6
DASHED
100
AcDbLine
 10
-4446.552917481992
 20
-6986.726217555696
 30
0.0
 11
-4450.516433754393
 21
-6988.058936228966
 31
0.0
  0
LINE
  5
2CE1
330
1F
100
AcDbEntity
  8
SPOJOVACÍ
  6
DASHED
100
AcDbLine
 10
-4446.552917481992
 20
-6986.141899724244
 30
0.0
 11
-4450.516433754393
 21
-6987.474618397515
 31
0.0
  0
LINE
  5
2CE2
330
1F
100
AcDbEntity
  8
SPOJOVACÍ
  6
DASHED
100
AcDbLine
 10
-4450.474501428408
 20
-6990.481895348693
 30
0.0
 11
-4450.104403084881
 21
-6990.852905266819
 31
0.0
  0
LINE
  5
2CE3
330
1F
100
AcDbEntity
  8
SPOJOVACÍ
  6
DASHED
100
AcDbLine
 10
-4450.474501428408
 20
-6990.481895348693
 30
0.0
 11
-4450.104403084881
 21
-6990.268587435366
 31
0.0
  0
LINE
  5
2CE4
330
1F
100
AcDbEntity
  8
SPOJOVACÍ
  6
DASHED
100
AcDbLine
 10
-4446.43167836872
 20
-6989.528390744036
 30
0.0
 11
-4450.474501428408
 21
-6990.481895348693
 31
0.0
  0
LINE
  5
2CE5
330
1F
100
AcDbEntity
  8
SPOJOVACÍ
  6
DASHED
100
AcDbLine
 10
-4450.88653209792
 20
-6975.458272604234
 30
0.0
 11
-4450.516433754393
 21
-6975.8283709499
 31
0.0
  0
LINE
  5
2CE6
330
1F
100
AcDbEntity
  8
SPOJOVACÍ
  6
DASHED
100
AcDbLine
 10
-4450.88653209792
 20
-6975.458272604234
 30
0.0
 11
-4450.516433754393
 21
-6975.244053118448
 31
0.0
  0
LINE
  5
2CE7
330
1F
100
AcDbEntity
  8
SPOJOVACÍ
  6
DASHED
100
AcDbLine
 10
-4450.88653209792
 20
-6978.515686031087
 30
0.0
 11
-4450.516433754393
 21
-6978.885784376481
 31
0.0
  0
LINE
  5
2CE8
330
1F
100
AcDbEntity
  8
SPOJOVACÍ
  6
DASHED
100
AcDbLine
 10
-4450.88653209792
 20
-6978.515686031087
 30
0.0
 11
-4450.516433754393
 21
-6978.301466545301
 31
0.0
  0
LINE
  5
2CE9
330
1F
100
AcDbEntity
  8
SPOJOVACÍ
  6
DASHED
100
AcDbLine
 10
-4450.88653209792
 20
-6981.573099457669
 30
0.0
 11
-4450.516433754393
 21
-6981.944109375523
 31
0.0
  0
LINE
  5
2CEA
330
1F
100
AcDbEntity
  8
SPOJOVACÍ
  6
DASHED
100
AcDbLine
 10
-4450.88653209792
 20
-6981.573099457669
 30
0.0
 11
-4450.516433754393
 21
-6981.359791544079
 31
0.0
  0
LINE
  5
2CEB
330
1F
100
AcDbEntity
  8
SPOJOVACÍ
  6
DASHED
100
AcDbLine
 10
-4450.88653209792
 20
-6984.63051288426
 30
0.0
 11
-4450.516433754393
 21
-6985.001522802114
 31
0.0
  0
LINE
  5
2CEC
330
1F
100
AcDbEntity
  8
SPOJOVACÍ
  6
DASHED
100
AcDbLine
 10
-4450.88653209792
 20
-6984.63051288426
 30
0.0
 11
-4450.516433754393
 21
-6984.417204970933
 31
0.0
  0
LINE
  5
2CED
330
1F
100
AcDbEntity
  8
SPOJOVACÍ
  6
DASHED
100
AcDbLine
 10
-4450.88653209792
 20
-6987.688837883301
 30
0.0
 11
-4450.516433754393
 21
-6988.058936228966
 31
0.0
  0
LINE
  5
2CEE
330
1F
100
AcDbEntity
  8
SPOJOVACÍ
  6
DASHED
100
AcDbLine
 10
-4450.88653209792
 20
-6987.688837883301
 30
0.0
 11
-4450.516433754393
 21
-6987.474618397515
 31
0.0
  0
LINE
  5
2CEF
330
1F
100
AcDbEntity
  8
SPOJOVACÍ
  6
DASHED
100
AcDbLine
 10
-4449.857366997933
 20
-6975.601389452151
 30
0.0
 11
-4449.857366997933
 21
-6978.06992718608
 31
0.0
  0
LINE
  5
2CF0
330
1F
100
AcDbEntity
  8
SPOJOVACÍ
  6
DASHED
100
AcDbLine
 10
-4446.182819134187
 20
-6977.339757789883
 30
0.0
 11
-4446.552917481992
 21
-6977.553977275668
 31
0.0
  0
LINE
  5
2CF1
330
1F
100
AcDbEntity
  8
SPOJOVACÍ
  6
DASHED
100
AcDbLine
 10
-4446.182819134187
 20
-6977.339757789883
 30
0.0
 11
-4446.552917481992
 21
-6976.969659444218
 31
0.0
  0
LINE
  5
2CF2
330
1F
100
AcDbEntity
  8
SPOJOVACÍ
  6
DASHED
100
AcDbLine
 10
-4447.211984238452
 20
-6980.819229182189
 30
0.0
 11
-4447.211984238452
 21
-6983.296882638801
 31
0.0
  0
LINE
  5
2CF3
330
1F
100
AcDbEntity
  8
SPOJOVACÍ
  6
DASHED
100
AcDbLine
 10
-4449.857366997933
 20
-6981.714393160948
 30
0.0
 11
-4449.857366997933
 21
-6984.184754039524
 31
0.0
  0
LINE
  5
2CF4
330
1F
100
AcDbEntity
  8
SPOJOVACÍ
  6
DASHED
100
AcDbLine
 10
-4447.211984238452
 20
-6983.889404620741
 30
0.0
 11
-4447.211984238452
 21
-6986.357030782482
 31
0.0
  0
LINE
  5
2CF5
330
1F
100
AcDbEntity
  8
SPOJOVACÍ
  6
DASHED
100
AcDbLine
 10
-4447.211984238452
 20
-6986.941348613934
 30
0.0
 11
-4447.211984238452
 21
-6988.163767040984
 31
0.0
  0
LINE
  5
2CF6
330
1F
100
AcDbEntity
  8
SPOJOVACÍ
  6
DASHED
100
AcDbLine
 10
-4449.857366997933
 20
-6984.773629732178
 30
0.0
 11
-4449.857366997933
 21
-6987.242167466106
 31
0.0
  0
LINE
  5
2CF7
330
1F
100
AcDbEntity
  8
SPOJOVACÍ
  6
DASHED
100
AcDbLine
 10
-4449.857366997933
 20
-6987.833777875858
 30
0.0
 11
-4449.857366997933
 21
-6988.163767040984
 31
0.0
  0
LINE
  5
2CF8
330
1F
100
AcDbEntity
  8
SPOJOVACÍ
  6
DASHED
100
AcDbLine
 10
-4446.182819134187
 20
-6980.397171216736
 30
0.0
 11
-4446.552917481992
 21
-6980.611390702524
 31
0.0
  0
LINE
  5
2CF9
330
1F
100
AcDbEntity
  8
SPOJOVACÍ
  6
DASHED
100
AcDbLine
 10
-4446.182819134187
 20
-6980.397171216736
 30
0.0
 11
-4446.552917481992
 21
-6980.027072871071
 31
0.0
  0
LINE
  5
2CFA
330
1F
100
AcDbEntity
  8
SPOJOVACÍ
  6
DASHED
100
AcDbLine
 10
-4446.182819134187
 20
-6983.454584643327
 30
0.0
 11
-4446.552917481992
 21
-6983.668804129106
 31
0.0
  0
LINE
  5
2CFB
330
1F
100
AcDbEntity
  8
SPOJOVACÍ
  6
DASHED
100
AcDbLine
 10
-4446.182819134187
 20
-6983.454584643327
 30
0.0
 11
-4446.552917481992
 21
-6983.08448629766
 31
0.0
  0
LINE
  5
2CFC
330
1F
100
AcDbEntity
  8
SPOJOVACÍ
  6
DASHED
100
AcDbLine
 10
-4446.182819134187
 20
-6986.512909642368
 30
0.0
 11
-4446.552917481992
 21
-6986.726217555696
 31
0.0
  0
LINE
  5
2CFD
330
1F
100
AcDbEntity
  8
SPOJOVACÍ
  6
DASHED
100
AcDbLine
 10
-4446.182819134187
 20
-6986.512909642368
 30
0.0
 11
-4446.552917481992
 21
-6986.141899724244
 31
0.0
  0
LINE
  5
2CFE
330
1F
100
AcDbEntity
  8
SPOJOVACÍ
  6
DASHED
100
AcDbLine
 10
-4447.211984238452
 20
-6977.766373616809
 30
0.0
 11
-4447.211984238452
 21
-6980.236734495384
 31
0.0
  0
LINE
  5
2CFF
330
1F
100
AcDbEntity
  8
SPOJOVACÍ
  6
DASHED
100
AcDbLine
 10
-4449.857366997933
 20
-6978.654245017532
 30
0.0
 11
-4449.857366997933
 21
-6981.131898474143
 31
0.0
  0
LINE
  5
2D00
330
1F
100
AcDbEntity
  8
SPOJOVACÍ
  6
DASHED
100
AcDbLine
 10
-4447.434407875795
 20
-6989.94497927609
 30
0.0
 11
-4447.718818428325
 21
-6992.220263686433
 31
0.0
  0
LINE
  5
2D01
330
1F
100
AcDbEntity
  8
SPOJOVACÍ
  6
DASHED
100
AcDbLine
 10
-4447.796302072307
 20
-6992.838309692304
 30
0.0
 11
-4448.080712620558
 21
-6995.112682530453
 31
0.0
  0
LINE
  5
2D02
330
1F
100
AcDbEntity
  8
SPOJOVACÍ
  6
DASHED
100
AcDbLine
 10
-4448.952175724039
 20
-6995.410766666068
 30
0.0
 11
-4449.214708539783
 21
-6993.308680988786
 31
0.0
  0
LINE
  5
2D03
330
1F
100
AcDbEntity
  8
SPOJOVACÍ
  6
DASHED
100
AcDbLine
 10
-4449.284899601985
 20
-6992.748064036625
 30
0.0
 11
-4449.546520848215
 21
-6990.654182509828
 31
0.0
  0
LINE
  5
2D04
330
1F
100
AcDbEntity
  8
SPOJOVACÍ
  6
DASHED
100
AcDbLine
 10
-4446.43167836872
 20
-6989.528390744036
 30
0.0
 11
-4446.802688286038
 21
-6989.742610229821
 31
0.0
  0
LINE
  5
2D05
330
1F
100
AcDbEntity
  8
SPOJOVACÍ
  6
DASHED
100
AcDbLine
 10
-4446.43167836872
 20
-6989.528390744036
 30
0.0
 11
-4446.802688286038
 21
-6989.158292398371
 31
0.0
  0
LINE
  5
2D06
330
1F
100
AcDbEntity
  8
SPOJOVACÍ
  6
DASHED
100
AcDbLine
 10
-4446.802688286038
 20
-6989.742610229821
 30
0.0
 11
-4450.104403084881
 21
-6990.852905266819
 31
0.0
  0
LINE
  5
2D07
330
1F
100
AcDbEntity
  8
SPOJOVACÍ
  6
DASHED
100
AcDbLine
 10
-4446.802688286038
 20
-6989.158292398371
 30
0.0
 11
-4450.104403084881
 21
-6990.268587435366
 31
0.0
  0
LINE
  5
2D08
330
1F
100
AcDbEntity
  8
SPOJOVACÍ
  6
DASHED
100
AcDbLine
 10
-4446.985002740704
 20
-6992.482796503248
 30
0.0
 11
-4447.355101088509
 21
-6992.696104416575
 31
0.0
  0
LINE
  5
2D09
330
1F
100
AcDbEntity
  8
SPOJOVACÍ
  6
DASHED
100
AcDbLine
 10
-4446.985002740704
 20
-6992.482796503248
 30
0.0
 11
-4447.355101088509
 21
-6992.111786585123
 31
0.0
  0
LINE
  5
2D0A
330
1F
100
AcDbEntity
  8
SPOJOVACÍ
  6
DASHED
100
AcDbLine
 10
-4450.038769878807
 20
-6993.103577225681
 30
0.0
 11
-4449.66867153528
 21
-6993.474587143535
 31
0.0
  0
LINE
  5
2D0B
330
1F
100
AcDbEntity
  8
SPOJOVACÍ
  6
DASHED
100
AcDbLine
 10
-4450.038769878807
 20
-6993.103577225681
 30
0.0
 11
-4449.66867153528
 21
-6992.890269312354
 31
0.0
  0
LINE
  5
2D0C
330
1F
100
AcDbEntity
  8
SPOJOVACÍ
  6
DASHED
100
AcDbLine
 10
-4447.355101088509
 20
-6992.696104416575
 30
0.0
 11
-4449.66867153528
 21
-6993.474587143535
 31
0.0
  0
LINE
  5
2D0D
330
1F
100
AcDbEntity
  8
SPOJOVACÍ
  6
DASHED
100
AcDbLine
 10
-4447.355101088509
 20
-6992.111786585123
 30
0.0
 11
-4449.66867153528
 21
-6992.890269312354
 31
0.0
  0
LINE
  5
2D0E
330
1F
100
AcDbEntity
  8
SPOJOVACÍ
  6
DASHED
100
AcDbLine
 10
-4446.985002740704
 20
-6992.482796503248
 30
0.0
 11
-4450.038769878807
 21
-6993.103577225681
 31
0.0
  0
LINE
  5
2D0F
330
1F
100
AcDbEntity
  8
SPOJOVACÍ
  6
DASHED
100
AcDbLine
 10
-4447.538327116966
 20
-6995.43629069
 30
0.0
 11
-4447.908425460492
 21
-6995.65051017578
 31
0.0
  0
LINE
  5
2D10
330
1F
100
AcDbEntity
  8
SPOJOVACÍ
  6
DASHED
100
AcDbLine
 10
-4447.538327116966
 20
-6995.43629069
 30
0.0
 11
-4447.908425460492
 21
-6995.066192344335
 31
0.0
  0
LINE
  5
2D11
330
1F
100
AcDbEntity
  8
SPOJOVACÍ
  6
DASHED
100
AcDbLine
 10
-4449.649528515593
 20
-6995.740755831459
 30
0.0
 11
-4449.279430172067
 21
-6996.111765749311
 31
0.0
  0
LINE
  5
2D12
330
1F
100
AcDbEntity
  8
SPOJOVACÍ
  6
DASHED
100
AcDbLine
 10
-4449.649528515593
 20
-6995.740755831459
 30
0.0
 11
-4449.279430172067
 21
-6995.527447917869
 31
0.0
  0
LINE
  5
2D13
330
1F
100
AcDbEntity
  8
SPOJOVACÍ
  6
DASHED
100
AcDbLine
 10
-4447.908425460492
 20
-6995.65051017578
 30
0.0
 11
-4449.279430172067
 21
-6996.111765749311
 31
0.0
  0
LINE
  5
2D14
330
1F
100
AcDbEntity
  8
SPOJOVACÍ
  6
DASHED
100
AcDbLine
 10
-4447.908425460492
 20
-6995.066192344335
 30
0.0
 11
-4449.279430172067
 21
-6995.527447917869
 31
0.0
  0
LINE
  5
2D15
330
1F
100
AcDbEntity
  8
SPOJOVACÍ
  6
DASHED
100
AcDbLine
 10
-4447.538327116966
 20
-6995.43629069
 30
0.0
 11
-4449.649528515593
 21
-6995.740755831459
 31
0.0
  0
LINE
  5
2D16
330
1F
100
AcDbEntity
  8
SPOJOVACÍ
  6
DASHED
100
AcDbLine
 10
-4448.534675616053
 20
-6998.748032782637
 30
0.0
 11
-4448.88198465756
 21
-6995.968648901395
 31
0.0
  0
LINE
  5
2D17
330
1F
100
AcDbEntity
  8
SPOJOVACÍ
  6
DASHED
100
AcDbLine
 10
-4448.156373121232
 20
-6995.720701241189
 30
0.0
 11
-4448.534675616053
 21
-6998.748032782637
 31
0.0
  0
LINE
  5
2D18
330
1F
100
AcDbEntity
  8
SPOJOVACÍ
  6
DASHED
100
AcDbLine
 10
-4447.211984238452
 20
-6988.163767040984
 30
0.0
 11
-4447.35874737512
 21
-6989.336960565353
 31
0.0
  0
LINE
  5
2D19
330
1F
100
AcDbEntity
  8
SPOJOVACÍ
  6
DASHED
100
AcDbLine
 10
-4449.616711914694
 20
-6990.095388702044
 30
0.0
 11
-4449.857366997933
 21
-6988.163767040984
 31
0.0
  0
LINE
  5
2D1A
330
1F
100
AcDbEntity
  8
SPOJOVACÍ
  6
DASHED
100
AcDbLine
 10
-4450.079790630999
 20
-6968.672528552952
 30
0.0
 11
-4450.680516763164
 21
-6967.286938687442
 31
0.0
  0
LINE
  5
2D1B
330
1F
100
AcDbEntity
  8
SPOJOVACÍ
  6
DASHED
100
AcDbLine
 10
-4443.536524805192
 20
-6963.698078621646
 30
0.0
 11
-4453.532826426914
 21
-6963.698078621646
 31
0.0
  0
LINE
  5
2D1C
330
1F
100
AcDbEntity
  8
SPOJOVACÍ
  6
DASHED
100
AcDbLine
 10
-4443.536524805192
 20
-6964.874006862842
 30
0.0
 11
-4453.532826426914
 21
-6964.874006862842
 31
0.0
  0
LINE
  5
2D1D
330
1F
100
AcDbEntity
  8
SPOJOVACÍ
  6
DASHED
100
AcDbLine
 10
-4450.680516763164
 20
-6967.286938687442
 30
0.0
 11
-4451.619436211749
 21
-6966.103717868202
 31
0.0
  0
LINE
  5
2D1E
330
1F
100
AcDbEntity
  8
SPOJOVACÍ
  6
DASHED
100
AcDbLine
 10
-4453.532826426914
 20
-6963.698078621646
 30
0.0
 11
-4453.532826426914
 21
-6964.874006862842
 31
0.0
  0
LINE
  5
2D1F
330
1F
100
AcDbEntity
  8
SPOJOVACÍ
  6
DASHED
100
AcDbLine
 10
-4452.83182734447
 20
-6965.20399602797
 30
0.0
 11
-4453.532826426914
 21
-6964.874006862842
 31
0.0
  0
LINE
  5
2D20
330
1F
100
AcDbEntity
  8
SPOJOVACÍ
  6
DASHED
100
AcDbLine
 10
-4451.619436211749
 20
-6966.103717868202
 30
0.0
 11
-4452.83182734447
 21
-6965.20399602797
 31
0.0
  0
LINE
  5
2D21
330
1F
100
AcDbEntity
  8
SPOJOVACÍ
  6
DASHED
100
AcDbLine
 10
-4443.536524805192
 20
-6963.698078621646
 30
0.0
 11
-4443.536524805192
 21
-6964.874006862842
 31
0.0
  0
LINE
  5
2D22
330
1F
100
AcDbEntity
  8
SPOJOVACÍ
  6
DASHED
100
AcDbLine
 10
-4443.536524805192
 20
-6964.874006862842
 30
0.0
 11
-4444.859216187071
 21
-6965.603264686588
 31
0.0
  0
LINE
  5
2D23
330
1F
100
AcDbEntity
  8
SPOJOVACÍ
  6
DASHED
100
AcDbLine
 10
-4445.947633489423
 20
-6966.650661236212
 30
0.0
 11
-4446.727939359155
 21
-6967.943270728944
 31
0.0
  0
LINE
  5
2D24
330
1F
100
AcDbEntity
  8
SPOJOVACÍ
  6
DASHED
100
AcDbLine
 10
-4444.859216187071
 20
-6965.603264686588
 30
0.0
 11
-4445.947633489423
 21
-6966.650661236212
 31
0.0
  0
LINE
  5
2D25
330
1F
100
AcDbEntity
  8
SPOJOVACÍ
  6
DASHED
100
AcDbLine
 10
-4447.211984238452
 20
-6970.165683947313
 30
0.0
 11
-4447.211984238452
 21
-6974.122819214399
 31
0.0
  0
LINE
  5
2D26
330
1F
100
AcDbEntity
  8
SPOJOVACÍ
  6
DASHED
100
AcDbLine
 10
-4446.182819134187
 20
-6974.282344363301
 30
0.0
 11
-4446.552917481992
 21
-6974.495652276629
 31
0.0
  0
LINE
  5
2D27
330
1F
100
AcDbEntity
  8
SPOJOVACÍ
  6
DASHED
100
AcDbLine
 10
-4446.182819134187
 20
-6974.282344363301
 30
0.0
 11
-4446.552917481992
 21
-6973.911334445448
 31
0.0
  0
LINE
  5
2D28
330
1F
100
AcDbEntity
  8
SPOJOVACÍ
  6
DASHED
100
AcDbLine
 10
-4447.147262606168
 20
-6969.394493798652
 30
0.0
 11
-4447.211984238452
 21
-6970.165683947313
 31
0.0
  0
LINE
  5
2D29
330
1F
100
AcDbEntity
  8
SPOJOVACÍ
  6
DASHED
100
AcDbLine
 10
-4449.857366997933
 20
-6970.165683947313
 30
0.0
 11
-4450.079790630999
 21
-6968.672528552952
 31
0.0
  0
LINE
  5
2D2A
330
1F
100
AcDbEntity
  8
SPOJOVACÍ
  6
DASHED
100
AcDbLine
 10
-4446.727939359155
 20
-6967.943270728944
 30
0.0
 11
-4447.147262606168
 21
-6969.394493798652
 31
0.0
  0
LINE
  5
2D2B
330
1F
100
AcDbEntity
  8
SPOJOVACÍ
  6
DASHED
100
AcDbLine
 10
-4402.379923284882
 20
-6970.165683947313
 30
0.0
 11
-4402.379923284882
 21
-6975.009779042662
 31
0.0
  0
LINE
  5
2D2C
330
1F
100
AcDbEntity
  8
SPOJOVACÍ
  6
DASHED
100
AcDbLine
 10
-4399.7345405254
 20
-6974.706225473392
 30
0.0
 11
-4399.7345405254
 21
-6977.17476320732
 31
0.0
  0
LINE
  5
2D2D
330
1F
100
AcDbEntity
  8
SPOJOVACÍ
  6
DASHED
100
AcDbLine
 10
-4398.705375421136
 20
-6974.282344363301
 30
0.0
 11
-4403.409088384868
 21
-6975.458272604234
 31
0.0
  0
LINE
  5
2D2E
330
1F
100
AcDbEntity
  8
SPOJOVACÍ
  6
DASHED
100
AcDbLine
 10
-4399.075473768941
 20
-6974.495652276629
 30
0.0
 11
-4403.038990041341
 21
-6975.8283709499
 31
0.0
  0
LINE
  5
2D2F
330
1F
100
AcDbEntity
  8
SPOJOVACÍ
  6
DASHED
100
AcDbLine
 10
-4399.075473768941
 20
-6973.911334445448
 30
0.0
 11
-4403.038990041341
 21
-6975.244053118448
 31
0.0
  0
LINE
  5
2D30
330
1F
100
AcDbEntity
  8
CETRIS
100
AcDbLine
 10
-4424.603000955384
 20
-6963.762768385571
 30
0.0
 11
-4424.603000955384
 21
-6975.762768385571
 31
0.0
  0
LINE
  5
2D31
330
1F
100
AcDbEntity
  8
SPOJOVACÍ
  6
DASHED
100
AcDbLine
 10
-4402.379923284882
 20
-6975.601389452151
 30
0.0
 11
-4402.379923284882
 21
-6978.06992718608
 31
0.0
  0
LINE
  5
2D32
330
1F
100
AcDbEntity
  8
SPOJOVACÍ
  6
DASHED
100
AcDbLine
 10
-4403.409088384868
 20
-6975.458272604234
 30
0.0
 11
-4403.038990041341
 21
-6975.8283709499
 31
0.0
  0
LINE
  5
2D33
330
1F
100
AcDbEntity
  8
SPOJOVACÍ
  6
DASHED
100
AcDbLine
 10
-4403.409088384868
 20
-6975.458272604234
 30
0.0
 11
-4403.038990041341
 21
-6975.244053118448
 31
0.0
  0
LINE
  5
2D34
330
1F
100
AcDbEntity
  8
SPOJOVACÍ
  6
DASHED
100
AcDbLine
 10
-4398.705375421136
 20
-6977.339757789883
 30
0.0
 11
-4403.409088384868
 21
-6978.515686031087
 31
0.0
  0
LINE
  5
2D35
330
1F
100
AcDbEntity
  8
SPOJOVACÍ
  6
DASHED
100
AcDbLine
 10
-4398.705375421136
 20
-6977.339757789883
 30
0.0
 11
-4399.075473768941
 21
-6977.553977275668
 31
0.0
  0
LINE
  5
2D36
330
1F
100
AcDbEntity
  8
SPOJOVACÍ
  6
DASHED
100
AcDbLine
 10
-4398.705375421136
 20
-6977.339757789883
 30
0.0
 11
-4399.075473768941
 21
-6976.969659444218
 31
0.0
  0
LINE
  5
2D37
330
1F
100
AcDbEntity
  8
SPOJOVACÍ
  6
DASHED
100
AcDbLine
 10
-4403.409088384868
 20
-6978.515686031087
 30
0.0
 11
-4403.038990041341
 21
-6978.885784376481
 31
0.0
  0
LINE
  5
2D38
330
1F
100
AcDbEntity
  8
SPOJOVACÍ
  6
DASHED
100
AcDbLine
 10
-4403.409088384868
 20
-6978.515686031087
 30
0.0
 11
-4403.038990041341
 21
-6978.301466545301
 31
0.0
  0
LINE
  5
2D39
330
1F
100
AcDbEntity
  8
SPOJOVACÍ
  6
DASHED
100
AcDbLine
 10
-4399.075473768941
 20
-6977.553977275668
 30
0.0
 11
-4403.038990041341
 21
-6978.885784376481
 31
0.0
  0
LINE
  5
2D3A
330
1F
100
AcDbEntity
  8
SPOJOVACÍ
  6
DASHED
100
AcDbLine
 10
-4399.075473768941
 20
-6976.969659444218
 30
0.0
 11
-4403.038990041341
 21
-6978.301466545301
 31
0.0
  0
LINE
  5
2D3B
330
1F
100
AcDbEntity
  8
SPOJOVACÍ
  6
DASHED
100
AcDbLine
 10
-4399.7345405254
 20
-6980.819229182189
 30
0.0
 11
-4399.7345405254
 21
-6983.296882638801
 31
0.0
  0
LINE
  5
2D3C
330
1F
100
AcDbEntity
  8
SPOJOVACÍ
  6
DASHED
100
AcDbLine
 10
-4402.379923284882
 20
-6981.714393160948
 30
0.0
 11
-4402.379923284882
 21
-6984.184754039524
 31
0.0
  0
LINE
  5
2D3D
330
1F
100
AcDbEntity
  8
SPOJOVACÍ
  6
DASHED
100
AcDbLine
 10
-4399.7345405254
 20
-6983.889404620741
 30
0.0
 11
-4399.7345405254
 21
-6986.357030782482
 31
0.0
  0
LINE
  5
2D3E
330
1F
100
AcDbEntity
  8
SPOJOVACÍ
  6
DASHED
100
AcDbLine
 10
-4399.7345405254
 20
-6986.941348613934
 30
0.0
 11
-4399.7345405254
 21
-6988.163767040984
 31
0.0
  0
LINE
  5
2D3F
330
1F
100
AcDbEntity
  8
SPOJOVACÍ
  6
DASHED
100
AcDbLine
 10
-4402.379923284882
 20
-6984.773629732178
 30
0.0
 11
-4402.379923284882
 21
-6987.242167466106
 31
0.0
  0
LINE
  5
2D40
330
1F
100
AcDbEntity
  8
SPOJOVACÍ
  6
DASHED
100
AcDbLine
 10
-4402.379923284882
 20
-6987.833777875858
 30
0.0
 11
-4402.379923284882
 21
-6988.163767040984
 31
0.0
  0
LINE
  5
2D41
330
1F
100
AcDbEntity
  8
SPOJOVACÍ
  6
DASHED
100
AcDbLine
 10
-4398.705375421136
 20
-6980.397171216736
 30
0.0
 11
-4403.409088384868
 21
-6981.573099457669
 31
0.0
  0
LINE
  5
2D42
330
1F
100
AcDbEntity
  8
SPOJOVACÍ
  6
DASHED
100
AcDbLine
 10
-4398.705375421136
 20
-6980.397171216736
 30
0.0
 11
-4399.075473768941
 21
-6980.611390702524
 31
0.0
  0
LINE
  5
2D43
330
1F
100
AcDbEntity
  8
SPOJOVACÍ
  6
DASHED
100
AcDbLine
 10
-4398.705375421136
 20
-6980.397171216736
 30
0.0
 11
-4399.075473768941
 21
-6980.027072871071
 31
0.0
  0
LINE
  5
2D44
330
1F
100
AcDbEntity
  8
SPOJOVACÍ
  6
DASHED
100
AcDbLine
 10
-4403.409088384868
 20
-6981.573099457669
 30
0.0
 11
-4403.038990041341
 21
-6981.944109375523
 31
0.0
  0
LINE
  5
2D45
330
1F
100
AcDbEntity
  8
SPOJOVACÍ
  6
DASHED
100
AcDbLine
 10
-4403.409088384868
 20
-6981.573099457669
 30
0.0
 11
-4403.038990041341
 21
-6981.359791544079
 31
0.0
  0
LINE
  5
2D46
330
1F
100
AcDbEntity
  8
SPOJOVACÍ
  6
DASHED
100
AcDbLine
 10
-4399.075473768941
 20
-6980.611390702524
 30
0.0
 11
-4403.038990041341
 21
-6981.944109375523
 31
0.0
  0
LINE
  5
2D47
330
1F
100
AcDbEntity
  8
SPOJOVACÍ
  6
DASHED
100
AcDbLine
 10
-4399.075473768941
 20
-6980.027072871071
 30
0.0
 11
-4403.038990041341
 21
-6981.359791544079
 31
0.0
  0
LINE
  5
2D48
330
1F
100
AcDbEntity
  8
SPOJOVACÍ
  6
DASHED
100
AcDbLine
 10
-4398.705375421136
 20
-6983.454584643327
 30
0.0
 11
-4403.409088384868
 21
-6984.63051288426
 31
0.0
  0
LINE
  5
2D49
330
1F
100
AcDbEntity
  8
SPOJOVACÍ
  6
DASHED
100
AcDbLine
 10
-4398.705375421136
 20
-6983.454584643327
 30
0.0
 11
-4399.075473768941
 21
-6983.668804129106
 31
0.0
  0
LINE
  5
2D4A
330
1F
100
AcDbEntity
  8
SPOJOVACÍ
  6
DASHED
100
AcDbLine
 10
-4398.705375421136
 20
-6983.454584643327
 30
0.0
 11
-4399.075473768941
 21
-6983.08448629766
 31
0.0
  0
LINE
  5
2D4B
330
1F
100
AcDbEntity
  8
SPOJOVACÍ
  6
DASHED
100
AcDbLine
 10
-4403.409088384868
 20
-6984.63051288426
 30
0.0
 11
-4403.038990041341
 21
-6985.001522802114
 31
0.0
  0
LINE
  5
2D4C
330
1F
100
AcDbEntity
  8
SPOJOVACÍ
  6
DASHED
100
AcDbLine
 10
-4403.409088384868
 20
-6984.63051288426
 30
0.0
 11
-4403.038990041341
 21
-6984.417204970933
 31
0.0
  0
LINE
  5
2D4D
330
1F
100
AcDbEntity
  8
SPOJOVACÍ
  6
DASHED
100
AcDbLine
 10
-4399.075473768941
 20
-6983.668804129106
 30
0.0
 11
-4403.038990041341
 21
-6985.001522802114
 31
0.0
  0
LINE
  5
2D4E
330
1F
100
AcDbEntity
  8
SPOJOVACÍ
  6
DASHED
100
AcDbLine
 10
-4399.075473768941
 20
-6983.08448629766
 30
0.0
 11
-4403.038990041341
 21
-6984.417204970933
 31
0.0
  0
LINE
  5
2D4F
330
1F
100
AcDbEntity
  8
SPOJOVACÍ
  6
DASHED
100
AcDbLine
 10
-4398.705375421136
 20
-6986.512909642368
 30
0.0
 11
-4403.409088384868
 21
-6987.688837883301
 31
0.0
  0
LINE
  5
2D50
330
1F
100
AcDbEntity
  8
SPOJOVACÍ
  6
DASHED
100
AcDbLine
 10
-4398.705375421136
 20
-6986.512909642368
 30
0.0
 11
-4399.075473768941
 21
-6986.726217555696
 31
0.0
  0
LINE
  5
2D51
330
1F
100
AcDbEntity
  8
SPOJOVACÍ
  6
DASHED
100
AcDbLine
 10
-4398.705375421136
 20
-6986.512909642368
 30
0.0
 11
-4399.075473768941
 21
-6986.141899724244
 31
0.0
  0
LINE
  5
2D52
330
1F
100
AcDbEntity
  8
SPOJOVACÍ
  6
DASHED
100
AcDbLine
 10
-4403.409088384868
 20
-6987.688837883301
 30
0.0
 11
-4403.038990041341
 21
-6988.058936228966
 31
0.0
  0
LINE
  5
2D53
330
1F
100
AcDbEntity
  8
SPOJOVACÍ
  6
DASHED
100
AcDbLine
 10
-4403.409088384868
 20
-6987.688837883301
 30
0.0
 11
-4403.038990041341
 21
-6987.474618397515
 31
0.0
  0
LINE
  5
2D54
330
1F
100
AcDbEntity
  8
SPOJOVACÍ
  6
DASHED
100
AcDbLine
 10
-4399.075473768941
 20
-6986.726217555696
 30
0.0
 11
-4403.038990041341
 21
-6988.058936228966
 31
0.0
  0
LINE
  5
2D55
330
1F
100
AcDbEntity
  8
SPOJOVACÍ
  6
DASHED
100
AcDbLine
 10
-4399.075473768941
 20
-6986.141899724244
 30
0.0
 11
-4403.038990041341
 21
-6987.474618397515
 31
0.0
  0
LINE
  5
2D56
330
1F
100
AcDbEntity
  8
SPOJOVACÍ
  6
DASHED
100
AcDbLine
 10
-4399.7345405254
 20
-6977.766373616809
 30
0.0
 11
-4399.7345405254
 21
-6980.236734495384
 31
0.0
  0
LINE
  5
2D57
330
1F
100
AcDbEntity
  8
SPOJOVACÍ
  6
DASHED
100
AcDbLine
 10
-4402.379923284882
 20
-6978.654245017532
 30
0.0
 11
-4402.379923284882
 21
-6981.131898474143
 31
0.0
  0
LINE
  5
2D58
330
1F
100
AcDbEntity
  8
SPOJOVACÍ
  6
DASHED
100
AcDbLine
 10
-4399.956964162745
 20
-6989.94497927609
 30
0.0
 11
-4400.241374715274
 21
-6992.220263686433
 31
0.0
  0
LINE
  5
2D59
330
1F
100
AcDbEntity
  8
SPOJOVACÍ
  6
DASHED
100
AcDbLine
 10
-4400.318858359255
 20
-6992.838309692304
 30
0.0
 11
-4400.603268907506
 21
-6995.112682530453
 31
0.0
  0
LINE
  5
2D5A
330
1F
100
AcDbEntity
  8
SPOJOVACÍ
  6
DASHED
100
AcDbLine
 10
-4401.474732010988
 20
-6995.410766666068
 30
0.0
 11
-4401.737264826732
 21
-6993.308680988786
 31
0.0
  0
LINE
  5
2D5B
330
1F
100
AcDbEntity
  8
SPOJOVACÍ
  6
DASHED
100
AcDbLine
 10
-4401.807455888934
 20
-6992.748064036625
 30
0.0
 11
-4402.069077135164
 21
-6990.654182509828
 31
0.0
  0
LINE
  5
2D5C
330
1F
100
AcDbEntity
  8
SPOJOVACÍ
  6
DASHED
100
AcDbLine
 10
-4398.954234655668
 20
-6989.528390744036
 30
0.0
 11
-4399.325244572987
 21
-6989.742610229821
 31
0.0
  0
LINE
  5
2D5D
330
1F
100
AcDbEntity
  8
SPOJOVACÍ
  6
DASHED
100
AcDbLine
 10
-4398.954234655668
 20
-6989.528390744036
 30
0.0
 11
-4399.325244572987
 21
-6989.158292398371
 31
0.0
  0
LINE
  5
2D5E
330
1F
100
AcDbEntity
  8
SPOJOVACÍ
  6
DASHED
100
AcDbLine
 10
-4402.997057715356
 20
-6990.481895348693
 30
0.0
 11
-4402.626959371831
 21
-6990.852905266819
 31
0.0
  0
LINE
  5
2D5F
330
1F
100
AcDbEntity
  8
SPOJOVACÍ
  6
DASHED
100
AcDbLine
 10
-4402.997057715356
 20
-6990.481895348693
 30
0.0
 11
-4402.626959371831
 21
-6990.268587435366
 31
0.0
  0
LINE
  5
2D60
330
1F
100
AcDbEntity
  8
SPOJOVACÍ
  6
DASHED
100
AcDbLine
 10
-4399.325244572987
 20
-6989.742610229821
 30
0.0
 11
-4402.626959371831
 21
-6990.852905266819
 31
0.0
  0
LINE
  5
2D61
330
1F
100
AcDbEntity
  8
SPOJOVACÍ
  6
DASHED
100
AcDbLine
 10
-4399.325244572987
 20
-6989.158292398371
 30
0.0
 11
-4402.626959371831
 21
-6990.268587435366
 31
0.0
  0
LINE
  5
2D62
330
1F
100
AcDbEntity
  8
SPOJOVACÍ
  6
DASHED
100
AcDbLine
 10
-4398.954234655668
 20
-6989.528390744036
 30
0.0
 11
-4402.997057715356
 21
-6990.481895348693
 31
0.0
  0
LINE
  5
2D63
330
1F
100
AcDbEntity
  8
SPOJOVACÍ
  6
DASHED
100
AcDbLine
 10
-4399.507559027653
 20
-6992.482796503248
 30
0.0
 11
-4399.877657375458
 21
-6992.696104416575
 31
0.0
  0
LINE
  5
2D64
330
1F
100
AcDbEntity
  8
SPOJOVACÍ
  6
DASHED
100
AcDbLine
 10
-4399.507559027653
 20
-6992.482796503248
 30
0.0
 11
-4399.877657375458
 21
-6992.111786585123
 31
0.0
  0
LINE
  5
2D65
330
1F
100
AcDbEntity
  8
SPOJOVACÍ
  6
DASHED
100
AcDbLine
 10
-4402.561326165755
 20
-6993.103577225681
 30
0.0
 11
-4402.191227822228
 21
-6993.474587143535
 31
0.0
  0
LINE
  5
2D66
330
1F
100
AcDbEntity
  8
SPOJOVACÍ
  6
DASHED
100
AcDbLine
 10
-4402.561326165755
 20
-6993.103577225681
 30
0.0
 11
-4402.191227822228
 21
-6992.890269312354
 31
0.0
  0
LINE
  5
2D67
330
1F
100
AcDbEntity
  8
SPOJOVACÍ
  6
DASHED
100
AcDbLine
 10
-4399.877657375458
 20
-6992.696104416575
 30
0.0
 11
-4402.191227822228
 21
-6993.474587143535
 31
0.0
  0
LINE
  5
2D68
330
1F
100
AcDbEntity
  8
SPOJOVACÍ
  6
DASHED
100
AcDbLine
 10
-4399.877657375458
 20
-6992.111786585123
 30
0.0
 11
-4402.191227822228
 21
-6992.890269312354
 31
0.0
  0
LINE
  5
2D69
330
1F
100
AcDbEntity
  8
SPOJOVACÍ
  6
DASHED
100
AcDbLine
 10
-4399.507559027653
 20
-6992.482796503248
 30
0.0
 11
-4402.561326165755
 21
-6993.103577225681
 31
0.0
  0
LINE
  5
2D6A
330
1F
100
AcDbEntity
  8
SPOJOVACÍ
  6
DASHED
100
AcDbLine
 10
-4400.060883403915
 20
-6995.43629069
 30
0.0
 11
-4400.430981747441
 21
-6995.65051017578
 31
0.0
  0
LINE
  5
2D6B
330
1F
100
AcDbEntity
  8
SPOJOVACÍ
  6
DASHED
100
AcDbLine
 10
-4400.060883403915
 20
-6995.43629069
 30
0.0
 11
-4400.430981747441
 21
-6995.066192344335
 31
0.0
  0
LINE
  5
2D6C
330
1F
100
AcDbEntity
  8
SPOJOVACÍ
  6
DASHED
100
AcDbLine
 10
-4402.172084802542
 20
-6995.740755831459
 30
0.0
 11
-4401.801986459015
 21
-6996.111765749311
 31
0.0
  0
LINE
  5
2D6D
330
1F
100
AcDbEntity
  8
SPOJOVACÍ
  6
DASHED
100
AcDbLine
 10
-4402.172084802542
 20
-6995.740755831459
 30
0.0
 11
-4401.801986459015
 21
-6995.527447917869
 31
0.0
  0
LINE
  5
2D6E
330
1F
100
AcDbEntity
  8
SPOJOVACÍ
  6
DASHED
100
AcDbLine
 10
-4400.430981747441
 20
-6995.65051017578
 30
0.0
 11
-4401.801986459015
 21
-6996.111765749311
 31
0.0
  0
LINE
  5
2D6F
330
1F
100
AcDbEntity
  8
SPOJOVACÍ
  6
DASHED
100
AcDbLine
 10
-4400.430981747441
 20
-6995.066192344335
 30
0.0
 11
-4401.801986459015
 21
-6995.527447917869
 31
0.0
  0
LINE
  5
2D70
330
1F
100
AcDbEntity
  8
SPOJOVACÍ
  6
DASHED
100
AcDbLine
 10
-4400.060883403915
 20
-6995.43629069
 30
0.0
 11
-4402.172084802542
 21
-6995.740755831459
 31
0.0
  0
LINE
  5
2D71
330
1F
100
AcDbEntity
  8
SPOJOVACÍ
  6
DASHED
100
AcDbLine
 10
-4401.057231903002
 20
-6998.748032782637
 30
0.0
 11
-4401.404540944509
 21
-6995.968648901395
 31
0.0
  0
LINE
  5
2D72
330
1F
100
AcDbEntity
  8
SPOJOVACÍ
  6
DASHED
100
AcDbLine
 10
-4400.678929408182
 20
-6995.720701241189
 30
0.0
 11
-4401.057231903002
 21
-6998.748032782637
 31
0.0
  0
LINE
  5
2D73
330
1F
100
AcDbEntity
  8
SPOJOVACÍ
  6
DASHED
100
AcDbLine
 10
-4399.7345405254
 20
-6988.163767040984
 30
0.0
 11
-4399.881303662069
 21
-6989.336960565353
 31
0.0
  0
LINE
  5
2D74
330
1F
100
AcDbEntity
  8
SPOJOVACÍ
  6
DASHED
100
AcDbLine
 10
-4402.139268201644
 20
-6990.095388702044
 30
0.0
 11
-4402.379923284882
 21
-6988.163767040984
 31
0.0
  0
LINE
  5
2D75
330
1F
100
AcDbEntity
  8
SPOJOVACÍ
  6
DASHED
100
AcDbLine
 10
-4396.059081092141
 20
-6963.698078621646
 30
0.0
 11
-4396.059081092141
 21
-6964.874006862842
 31
0.0
  0
LINE
  5
2D76
330
1F
100
AcDbEntity
  8
SPOJOVACÍ
  6
DASHED
100
AcDbLine
 10
-4403.203073050113
 20
-6967.286938687442
 30
0.0
 11
-4404.141992498697
 21
-6966.103717868202
 31
0.0
  0
LINE
  5
2D77
330
1F
100
AcDbEntity
  8
SPOJOVACÍ
  6
DASHED
100
AcDbLine
 10
-4402.602346917948
 20
-6968.672528552952
 30
0.0
 11
-4403.203073050113
 21
-6967.286938687442
 31
0.0
  0
LINE
  5
2D78
330
1F
100
AcDbEntity
  8
SPOJOVACÍ
  6
DASHED
100
AcDbLine
 10
-4398.470189776372
 20
-6966.650661236212
 30
0.0
 11
-4399.250495646104
 21
-6967.943270728944
 31
0.0
  0
LINE
  5
2D79
330
1F
100
AcDbEntity
  8
SPOJOVACÍ
  6
DASHED
100
AcDbLine
 10
-4397.381772474021
 20
-6965.603264686588
 30
0.0
 11
-4398.470189776372
 21
-6966.650661236212
 31
0.0
  0
LINE
  5
2D7A
330
1F
100
AcDbEntity
  8
SPOJOVACÍ
  6
DASHED
100
AcDbLine
 10
-4396.059081092141
 20
-6964.874006862842
 30
0.0
 11
-4397.381772474021
 21
-6965.603264686588
 31
0.0
  0
LINE
  5
2D7B
330
1F
100
AcDbEntity
  8
SPOJOVACÍ
  6
DASHED
100
AcDbLine
 10
-4399.669818893118
 20
-6969.394493798652
 30
0.0
 11
-4399.7345405254
 21
-6970.165683947313
 31
0.0
  0
LINE
  5
2D7C
330
1F
100
AcDbEntity
  8
SPOJOVACÍ
  6
DASHED
100
AcDbLine
 10
-4399.7345405254
 20
-6970.165683947313
 30
0.0
 11
-4399.7345405254
 21
-6974.122819214399
 31
0.0
  0
LINE
  5
2D7D
330
1F
100
AcDbEntity
  8
SPOJOVACÍ
  6
DASHED
100
AcDbLine
 10
-4398.705375421136
 20
-6974.282344363301
 30
0.0
 11
-4399.075473768941
 21
-6974.495652276629
 31
0.0
  0
LINE
  5
2D7E
330
1F
100
AcDbEntity
  8
SPOJOVACÍ
  6
DASHED
100
AcDbLine
 10
-4398.705375421136
 20
-6974.282344363301
 30
0.0
 11
-4399.075473768941
 21
-6973.911334445448
 31
0.0
  0
LINE
  5
2D7F
330
1F
100
AcDbEntity
  8
SPOJOVACÍ
  6
DASHED
100
AcDbLine
 10
-4402.379923284882
 20
-6970.165683947313
 30
0.0
 11
-4402.602346917948
 21
-6968.672528552952
 31
0.0
  0
LINE
  5
2D80
330
1F
100
AcDbEntity
  8
SPOJOVACÍ
  6
DASHED
100
AcDbLine
 10
-4399.250495646104
 20
-6967.943270728944
 30
0.0
 11
-4399.669818893118
 21
-6969.394493798652
 31
0.0
  0
LINE
  5
2D81
330
1F
100
AcDbEntity
  8
SPOJOVACÍ
  6
DASHED
100
AcDbLine
 10
-4406.055382713864
 20
-6963.698078621646
 30
0.0
 11
-4406.055382713864
 21
-6964.874006862842
 31
0.0
  0
LINE
  5
2D82
330
1F
100
AcDbEntity
  8
SPOJOVACÍ
  6
DASHED
100
AcDbLine
 10
-4405.354383631419
 20
-6965.20399602797
 30
0.0
 11
-4406.055382713864
 21
-6964.874006862842
 31
0.0
  0
LINE
  5
2D83
330
1F
100
AcDbEntity
  8
SPOJOVACÍ
  6
DASHED
100
AcDbLine
 10
-4396.059081092141
 20
-6963.698078621646
 30
0.0
 11
-4406.055382713864
 21
-6963.698078621646
 31
0.0
  0
LINE
  5
2D84
330
1F
100
AcDbEntity
  8
SPOJOVACÍ
  6
DASHED
100
AcDbLine
 10
-4396.059081092141
 20
-6964.874006862842
 30
0.0
 11
-4406.055382713864
 21
-6964.874006862842
 31
0.0
  0
LINE
  5
2D85
330
1F
100
AcDbEntity
  8
SPOJOVACÍ
  6
DASHED
100
AcDbLine
 10
-4404.141992498697
 20
-6966.103717868202
 30
0.0
 11
-4405.354383631419
 21
-6965.20399602797
 31
0.0
  0
HATCH
  5
2D86
330
1F
100
AcDbEntity
  8
izolace
100
AcDbHatch
 10
0.0
 20
0.0
 30
0.0
210
0.0
220
0.0
230
1.0
  2
SOLID
 70
     1
 71
     0
 91
        1
 92
        7
 72
     0
 73
     1
 93
        4
 10
-4340.051514433754
 20
-7107.698078621647
 10
-4340.05151443375
 20
-7110.698078621647
 10
-4316.409781723915
 20
-7110.698078621647
 10
-4316.409781723915
 20
-7107.698078621647
 97
        0
 75
     0
 76
     1
 47
0.1901250437635136
 98
        1
 10
-4330.69371967541
 20
-7108.514890172727
  0
LWPOLYLINE
  5
2D87
330
1F
100
AcDbEntity
  8
STAVBA OBRYS
100
AcDbPolyline
 90
        4
 70
     1
 43
0.0
 10
-4316.409781723918
 20
-7107.698078621647
 10
-4340.051514433754
 20
-7107.698078621647
 10
-4340.051514433754
 20
-7110.698078621647
 10
-4316.409781723918
 20
-7110.698078621647
  0
TEXT
  5
5B33
330
1F
100
AcDbEntity
  8
POPIS
100
AcDbText
 10
-4166.919276357433
 20
-7255.673675555745
 30
0.0
 40
25.0
  1
Stropní konstrukce
 41
0.7
  7
SIMPLEX7
100
AcDbText
  0
TEXT
  5
5B34
330
1F
100
AcDbEntity
  8
POPIS
100
AcDbText
 10
-4221.262979517176
 20
-7221.418577298999
 30
0.0
 40
25.0
  1
12
 41
0.85
  7
SIMPLEX7
100
AcDbText
  0
TEXT
  5
5B35
330
1F
100
AcDbEntity
  8
POPIS
100
AcDbText
 10
-4166.919276357433
 20
-7222.358636430765
 30
0.0
 40
25.0
  1
Dilatační spára tl. 15 mm
 41
0.7
  7
SIMPLEX7
100
AcDbText
  0
TEXT
  5
5B36
330
1F
100
AcDbEntity
  8
POPIS
100
AcDbText
 10
-4221.262979517176
 20
-7188.103538174019
 30
0.0
 40
25.0
  1
11
 41
0.85
  7
SIMPLEX7
100
AcDbText
  0
TEXT
  5
5B37
330
1F
100
AcDbEntity
  8
POPIS
100
AcDbText
 10
-4221.262979517176
 20
-6868.234293527244
 30
0.0
 40
25.0
  1
02
 41
0.85
  7
SIMPLEX7
100
AcDbText
  0
TEXT
  5
5B38
330
1F
100
AcDbEntity
  8
POPIS
100
AcDbText
 10
-4221.262979517176
 20
-6831.639281911617
 30
0.0
 40
25.0
  1
01
 41
0.85
  7
SIMPLEX7
100
AcDbText
  0
TEXT
  5
5B39
330
1F
100
AcDbEntity
  8
POPIS
100
AcDbText
 10
-4166.919276357433
 20
-6938.527415158164
 30
0.0
 40
25.0
  1
Nášlapná vrstva
 41
0.7
  7
SIMPLEX7
100
AcDbText
  0
TEXT
  5
5B3A
330
1F
100
AcDbEntity
  8
POPIS
100
AcDbText
 10
-4166.919276357433
 20
-6832.609169679262
 30
0.0
 40
25.0
  1
Dilatační profil Schlűter DILEX
 41
0.7
  7
SIMPLEX7
100
AcDbText
  0
TEXT
  5
5B3B
330
1F
100
AcDbEntity
  8
POPIS
100
AcDbText
 10
-3996.556660912395
 20
-6950.874272301667
 30
0.0
 40
8.399999999999998
  1
R
 41
0.85
  7
SIMPLEX7
100
AcDbText
  0
CIRCLE
  5
5B3C
330
1F
100
AcDbEntity
  8
POPIS
100
AcDbCircle
 10
-3993.225340573767
 20
-6946.992530280176
 30
0.0
 40
7.795592338044182
  0
TEXT
  5
5B3D
330
1F
100
AcDbEntity
  8
POPIS
100
AcDbText
 10
-3996.9420766208
 20
-6991.943024839365
 30
0.0
 40
8.399999999999998
  1
R
 41
0.85
  7
SIMPLEX7
100
AcDbText
  0
CIRCLE
  5
5B3E
330
1F
100
AcDbEntity
  8
POPIS
100
AcDbCircle
 10
-3993.610756282172
 20
-6988.061282817874
 30
0.0
 40
7.795592338044182
  0
TEXT
  5
5B3F
330
1F
100
AcDbEntity
  8
POPIS
100
AcDbText
 10
-4166.919276357433
 20
-6866.575385027752
 30
0.0
 40
25.0
  1
Prahová spojka zárubně
 41
0.7
  7
SIMPLEX7
100
AcDbText
  0
TEXT
  5
5B40
330
1F
100
AcDbEntity
  8
POPIS
100
AcDbText
 10
-4166.919276357433
 20
-6903.170396643379
 30
0.0
 40
25.0
  1
Dřevěný podkladní profil pod zárubeň
 41
0.7
  7
SIMPLEX7
100
AcDbText
  0
TEXT
  5
5B41
330
1F
100
AcDbEntity
  8
POPIS
100
AcDbText
 10
-4221.262979517176
 20
-7153.76865544874
 30
0.0
 40
25.0
  1
10
 41
0.85
  7
SIMPLEX7
100
AcDbText
  0
TEXT
  5
5B42
330
1F
100
AcDbEntity
  8
POPIS
100
AcDbText
 10
-4221.262979517176
 20
-7118.48302925604
 30
0.0
 40
25.0
  1
09
 41
0.85
  7
SIMPLEX7
100
AcDbText
  0
TEXT
  5
5B43
330
1F
100
AcDbEntity
  8
POPIS
100
AcDbText
 10
-4221.262979517176
 20
-7082.957388354738
 30
0.0
 40
25.0
  1
08
 41
0.85
  7
SIMPLEX7
100
AcDbText
  0
TEXT
  5
5B44
330
1F
100
AcDbEntity
  8
POPIS
100
AcDbText
 10
-4166.919276357433
 20
-7188.023753705485
 30
0.0
 40
25.0
  1
Parozábrana
 41
0.7
  7
SIMPLEX7
100
AcDbText
  0
TEXT
  5
5B45
330
1F
100
AcDbEntity
  8
POPIS
100
AcDbText
 10
-4166.919276357433
 20
-7117.302942163307
 30
0.0
 40
25.0
  1
Podkladní dřevěná lišta
 41
0.7
  7
SIMPLEX7
100
AcDbText
  0
TEXT
  5
5B46
330
1F
100
AcDbEntity
  8
POPIS
100
AcDbText
 10
-4221.262979517176
 20
-7012.23657681256
 30
0.0
 40
25.0
  1
06
 41
0.85
  7
SIMPLEX7
100
AcDbText
  0
TEXT
  5
5B47
330
1F
100
AcDbEntity
  8
POPIS
100
AcDbText
 10
-4166.919276357433
 20
-7047.212098624999
 30
0.0
 40
25.0
  1
Vrut 4,2x35 mm
 41
0.7
  7
SIMPLEX7
100
AcDbText
  0
TEXT
  5
5B48
330
1F
100
AcDbEntity
  8
POPIS
100
AcDbText
 10
-4221.262979517176
 20
-6976.832415594397
 30
0.0
 40
25.0
  1
05
 41
0.85
  7
SIMPLEX7
100
AcDbText
  0
TEXT
  5
5B49
330
1F
100
AcDbEntity
  8
POPIS
100
AcDbText
 10
-4166.919276357433
 20
-7013.261910380276
 30
0.0
 40
25.0
  1
Deska CETRIS    tl. 12 mm, spodní
 41
0.7
  7
SIMPLEX7
100
AcDbText
  0
TEXT
  5
5B4A
330
1F
100
AcDbEntity
  8
POPIS
100
AcDbText
 10
-4221.262979517176
 20
-6938.948330556811
 30
0.0
 40
25.0
  1
04
 41
0.85
  7
SIMPLEX7
100
AcDbText
  0
TEXT
  5
5B4B
330
1F
100
AcDbEntity
  8
POPIS
100
AcDbText
 10
-4166.919276357433
 20
-6976.66689876465
 30
0.0
 40
25.0
  1
Deska CETRIS    tl. 12 mm horní, předvrtaná
 41
0.7
  7
SIMPLEX7
100
AcDbText
  0
TEXT
  5
5B4C
330
1F
100
AcDbEntity
  8
POPIS
100
AcDbText
 10
-4221.262979517176
 20
-6902.353318941184
 30
0.0
 40
25.0
  1
03
 41
0.85
  7
SIMPLEX7
100
AcDbText
  0
TEXT
  5
5B4D
330
1F
100
AcDbEntity
  8
POPIS
100
AcDbText
 10
-4221.262979517176
 20
-7046.121848351846
 30
0.0
 40
25.0
  1
07
 41
0.85
  7
SIMPLEX7
100
AcDbText
  0
TEXT
  5
5B4E
330
1F
100
AcDbEntity
  8
POPIS
100
AcDbText
 10
-4166.919276357433
 20
-7151.188213702593
 30
0.0
 40
25.0
  1
Izolace EPS
 41
0.7
  7
SIMPLEX7
100
AcDbText
  0
INSERT
  5
5B4F
330
1F
100
AcDbEntity
  8
POPIS
100
AcDbBlockReference
  2
E_PUNKT
 10
-4953.478684013028
 20
-6957.061264864873
 30
0.0
 50
270.0
  0
TEXT
  5
5B50
330
1F
100
AcDbEntity
  8
POPIS
100
AcDbText
 10
-4221.262979517176
 20
-7253.466058533501
 30
0.0
 40
25.0
  1
13
 41
0.85
  7
SIMPLEX7
100
AcDbText
  0
TEXT
  5
5B51
330
1F
100
AcDbEntity
  8
POPIS
100
AcDbText
 10
-4166.919276357433
 20
-7081.144727440133
 30
0.0
 40
25.0
  1
Separační fólie-pěnová fólie tl. 2 mm
 41
0.7
  7
SIMPLEX7
100
AcDbText
  0
LINE
  5
5B52
330
1F
100
AcDbEntity
  8
POPIS
370
    20
100
AcDbLine
 10
-4759.033762187179
 20
-6891.404619868459
 30
0.0
 11
-4759.033762187179
 21
-6989.470194313063
 31
0.0
  0
TEXT
  5
5B53
330
1F
100
AcDbEntity
  8
POPIS
100
AcDbText
 10
-4779.895435759811
 20
-6882.555258795736
 30
0.0
 40
25.0
  1
08
  7
SIMPLEX7
100
AcDbText
  0
INSERT
  5
5B54
330
1F
100
AcDbEntity
  8
POPIS
100
AcDbBlockReference
  2
E_PUNKT
 10
-4759.062830518053
 20
-6989.68210036149
 30
0.0
 50
270.0
  0
TEXT
  5
5B56
330
1F
100
AcDbEntity
  8
POPIS
100
AcDbText
 10
-4986.886789255396
 20
-6723.2491643176
 30
0.0
 40
45.0
  1
Bezprahý přechod podlahy POLYCET
 41
0.7
  7
SIMPLEX7
100
AcDbText
  0
ENDSEC
  0
SECTION
  2
OBJECTS
  0
DICTIONARY
  5
C
330
0
100
AcDbDictionary
281
     1
  3
ACAD_GROUP
350
D
  3
ACAD_LAYOUT
350
1A
  3
ACAD_MLINESTYLE
350
17
  3
ACAD_PLOTSETTINGS
350
19
  3
ACAD_PLOTSTYLENAME
350
E
  3
AcDbVariableDictionary
350
8A0
  0
DICTIONARY
  5
D
102
{ACAD_REACTORS
330
C
102
}
330
C
100
AcDbDictionary
281
     1
  0
DICTIONARY
  5
1A
102
{ACAD_REACTORS
330
C
102
}
330
C
100
AcDbDictionary
281
     1
  3
Model
350
22
  3
Rozvržení1
350
1E
  3
Rozvržení2
350
26
  0
DICTIONARY
  5
17
102
{ACAD_REACTORS
330
C
102
}
330
C
100
AcDbDictionary
281
     1
  3
Standard
350
18
  0
DICTIONARY
  5
19
102
{ACAD_REACTORS
330
C
102
}
330
C
100
AcDbDictionary
281
     1
  0
ACDBDICTIONARYWDFLT
  5
E
102
{ACAD_REACTORS
330
C
102
}
330
C
100
AcDbDictionary
281
     1
  3
Normal
350
F
100
AcDbDictionaryWithDefault
340
F
  0
DICTIONARY
  5
8A0
102
{ACAD_REACTORS
330
C
102
}
330
C
100
AcDbDictionary
281
     1
  3
DIMASSOC
350
8A1
  0
LAYOUT
  5
22
102
{ACAD_REACTORS
330
1A
102
}
330
1A
100
AcDbPlotSettings
  1

  2
HP DeskJet 690C
  4

  6

 40
0.0
 41
0.0
 42
0.0
 43
0.0
 44
0.0
 45
0.0
 46
0.0
 47
0.0
 48
0.0
 49
0.0
140
0.0
141
0.0
142
1.0
143
1.0
 70
  1712
 72
     0
 73
     0
 74
     0
  7
monochrome.ctb
 75
     0
147
1.0
148
0.0
149
0.0
100
AcDbLayout
  1
Model
 70
     1
 71
     0
 10
0.0
 20
0.0
 11
12.0
 21
9.0
 12
0.0
 22
0.0
 32
0.0
 14
0.0
 24
0.0
 34
0.0
 15
0.0
 25
0.0
 35
0.0
146
0.0
 13
0.0
 23
0.0
 33
0.0
 16
1.0
 26
0.0
 36
0.0
 17
0.0
 27
1.0
 37
0.0
 76
     0
330
1F
  0
LAYOUT
  5
1E
102
{ACAD_REACTORS
330
1A
102
}
330
1A
100
AcDbPlotSettings
  1

  2
HP DeskJet 690C
  4

  6

 40
0.0
 41
0.0
 42
0.0
 43
0.0
 44
0.0
 45
0.0
 46
0.0
 47
0.0
 48
0.0
 49
0.0
140
0.0
141
0.0
142
1.0
143
1.0
 70
   688
 72
     0
 73
     0
 74
     5
  7
monochrome.ctb
 75
    16
147
1.0
148
0.0
149
0.0
100
AcDbLayout
  1
Rozvržení1
 70
     1
 71
     1
 10
0.0
 20
0.0
 11
420.0
 21
297.0
 12
0.0
 22
0.0
 32
0.0
 14
1.000000000000000E+20
 24
1.000000000000000E+20
 34
1.000000000000000E+20
 15
-1.000000000000000E+20
 25
-1.000000000000000E+20
 35
-1.000000000000000E+20
146
0.0
 13
0.0
 23
0.0
 33
0.0
 16
1.0
 26
0.0
 36
0.0
 17
0.0
 27
1.0
 37
0.0
 76
     0
330
1B
  0
LAYOUT
  5
26
102
{ACAD_REACTORS
330
1A
102
}
330
1A
100
AcDbPlotSettings
  1

  2
HP DeskJet 690C
  4

  6

 40
0.0
 41
0.0
 42
0.0
 43
0.0
 44
0.0
 45
0.0
 46
0.0
 47
0.0
 48
0.0
 49
0.0
140
0.0
141
0.0
142
1.0
143
1.0
 70
   688
 72
     0
 73
     0
 74
     5
  7
monochrome.ctb
 75
    16
147
1.0
148
0.0
149
0.0
100
AcDbLayout
  1
Rozvržení2
 70
     1
 71
     2
 10
0.0
 20
0.0
 11
12.0
 21
9.0
 12
0.0
 22
0.0
 32
0.0
 14
0.0
 24
0.0
 34
0.0
 15
0.0
 25
0.0
 35
0.0
146
0.0
 13
0.0
 23
0.0
 33
0.0
 16
1.0
 26
0.0
 36
0.0
 17
0.0
 27
1.0
 37
0.0
 76
     0
330
23
  0
MLINESTYLE
  5
18
102
{ACAD_REACTORS
330
17
102
}
330
17
100
AcDbMlineStyle
  2
STANDARD
 70
     0
  3

 62
   256
 51
90.0
 52
90.0
 71
     2
 49
0.5
 62
   256
  6
BYLAYER
 49
-0.5
 62
   256
  6
BYLAYER
  0
ACDBPLACEHOLDER
  5
F
102
{ACAD_REACTORS
330
E
102
}
330
E
  0
DICTIONARYVAR
  5
8A1
102
{ACAD_REACTORS
330
8A0
102
}
330
8A0
100
DictionaryVariables
280
     0
  1
1
  0
ENDSEC
  0
EOF
