  0
SECTION
  2
HEADER
  9
$ACADVER
  1
AC1015
  9
$ACADMAINTVER
 70
    14
  9
$DWGCODEPAGE
  3
ANSI_1250
  9
$INSBASE
 10
0.0
 20
0.0
 30
0.0
  9
$EXTMIN
 10
2552.662284965321
 20
-4307.206027546508
 30
-0.0015258207003583
  9
$EXTMAX
 10
3493.371655824129
 20
-3104.776233908218
 30
0.0000000349246037
  9
$LIMMIN
 10
0.0
 20
0.0
  9
$LIMMAX
 10
420.0
 20
297.0
  9
$ORTHOMODE
 70
     1
  9
$REGENMODE
 70
     1
  9
$FILLMODE
 70
     1
  9
$QTEXTMODE
 70
     0
  9
$MIRRTEXT
 70
     1
  9
$LTSCALE
 40
1.0
  9
$ATTMODE
 70
     1
  9
$TEXTSIZE
 40
2.5
  9
$TRACEWID
 40
1.0
  9
$TEXTSTYLE
  7
Standard
  9
$CLAYER
  8
CETRIS
  9
$CELTYPE
  6
ByLayer
  9
$CECOLOR
 62
   256
  9
$CELTSCALE
 40
1.0
  9
$DISPSILH
 70
     0
  9
$DIMSCALE
 40
1.0
  9
$DIMASZ
 40
2.5
  9
$DIMEXO
 40
0.625
  9
$DIMDLI
 40
3.75
  9
$DIMRND
 40
0.0
  9
$DIMDLE
 40
0.0
  9
$DIMEXE
 40
1.25
  9
$DIMTP
 40
0.0
  9
$DIMTM
 40
0.0
  9
$DIMTXT
 40
2.5
  9
$DIMCEN
 40
2.5
  9
$DIMTSZ
 40
0.0
  9
$DIMTOL
 70
     0
  9
$DIMLIM
 70
     0
  9
$DIMTIH
 70
     0
  9
$DIMTOH
 70
     0
  9
$DIMSE1
 70
     0
  9
$DIMSE2
 70
     0
  9
$DIMTAD
 70
     1
  9
$DIMZIN
 70
     8
  9
$DIMBLK
  1

  9
$DIMASO
 70
     1
  9
$DIMSHO
 70
     1
  9
$DIMPOST
  1

  9
$DIMAPOST
  1

  9
$DIMALT
 70
     0
  9
$DIMALTD
 70
     3
  9
$DIMALTF
 40
0.03937007874016
  9
$DIMLFAC
 40
1.0
  9
$DIMTOFL
 70
     1
  9
$DIMTVP
 40
0.0
  9
$DIMTIX
 70
     0
  9
$DIMSOXD
 70
     0
  9
$DIMSAH
 70
     0
  9
$DIMBLK1
  1

  9
$DIMBLK2
  1

  9
$DIMSTYLE
  2
ISO-25
  9
$DIMCLRD
 70
     0
  9
$DIMCLRE
 70
     0
  9
$DIMCLRT
 70
     0
  9
$DIMTFAC
 40
1.0
  9
$DIMGAP
 40
0.625
  9
$DIMJUST
 70
     0
  9
$DIMSD1
 70
     0
  9
$DIMSD2
 70
     0
  9
$DIMTOLJ
 70
     0
  9
$DIMTZIN
 70
     8
  9
$DIMALTZ
 70
     0
  9
$DIMALTTZ
 70
     0
  9
$DIMUPT
 70
     0
  9
$DIMDEC
 70
     2
  9
$DIMTDEC
 70
     2
  9
$DIMALTU
 70
     2
  9
$DIMALTTD
 70
     3
  9
$DIMTXSTY
  7
Standard
  9
$DIMAUNIT
 70
     0
  9
$DIMADEC
 70
     0
  9
$DIMALTRND
 40
0.0
  9
$DIMAZIN
 70
     0
  9
$DIMDSEP
 70
    44
  9
$DIMATFIT
 70
     3
  9
$DIMFRAC
 70
     0
  9
$DIMLDRBLK
  1

  9
$DIMLUNIT
 70
     2
  9
$DIMLWD
 70
    -2
  9
$DIMLWE
 70
    -2
  9
$DIMTMOVE
 70
     0
  9
$LUNITS
 70
     2
  9
$LUPREC
 70
     4
  9
$SKETCHINC
 40
1.0
  9
$FILLETRAD
 40
0.0
  9
$AUNITS
 70
     0
  9
$AUPREC
 70
     0
  9
$MENU
  1
.
  9
$ELEVATION
 40
0.0
  9
$PELEVATION
 40
0.0
  9
$THICKNESS
 40
0.0
  9
$LIMCHECK
 70
     0
  9
$CHAMFERA
 40
10.0
  9
$CHAMFERB
 40
10.0
  9
$CHAMFERC
 40
20.0
  9
$CHAMFERD
 40
0.0
  9
$SKPOLY
 70
     0
  9
$TDCREATE
 40
2452332.512107639
  9
$TDUCREATE
 40
2452332.470440972
  9
$TDUPDATE
 40
2455601.324995243
  9
$TDUUPDATE
 40
2455601.283328576
  9
$TDINDWG
 40
1.0589862616
  9
$TDUSRTIMER
 40
1.0589723727
  9
$USRTIMER
 70
     1
  9
$ANGBASE
 50
0.0
  9
$ANGDIR
 70
     0
  9
$PDMODE
 70
     0
  9
$PDSIZE
 40
0.0
  9
$PLINEWID
 40
0.0
  9
$SPLFRAME
 70
     0
  9
$SPLINETYPE
 70
     6
  9
$SPLINESEGS
 70
     8
  9
$HANDSEED
  5
9FB8
  9
$SURFTAB1
 70
     6
  9
$SURFTAB2
 70
     6
  9
$SURFTYPE
 70
     6
  9
$SURFU
 70
     6
  9
$SURFV
 70
     6
  9
$UCSBASE
  2

  9
$UCSNAME
  2

  9
$UCSORG
 10
0.0
 20
0.0
 30
0.0
  9
$UCSXDIR
 10
1.0
 20
0.0
 30
0.0
  9
$UCSYDIR
 10
0.0
 20
1.0
 30
0.0
  9
$UCSORTHOREF
  2

  9
$UCSORTHOVIEW
 70
     0
  9
$UCSORGTOP
 10
0.0
 20
0.0
 30
0.0
  9
$UCSORGBOTTOM
 10
0.0
 20
0.0
 30
0.0
  9
$UCSORGLEFT
 10
0.0
 20
0.0
 30
0.0
  9
$UCSORGRIGHT
 10
0.0
 20
0.0
 30
0.0
  9
$UCSORGFRONT
 10
0.0
 20
0.0
 30
0.0
  9
$UCSORGBACK
 10
0.0
 20
0.0
 30
0.0
  9
$PUCSBASE
  2

  9
$PUCSNAME
  2

  9
$PUCSORG
 10
0.0
 20
0.0
 30
0.0
  9
$PUCSXDIR
 10
1.0
 20
0.0
 30
0.0
  9
$PUCSYDIR
 10
0.0
 20
1.0
 30
0.0
  9
$PUCSORTHOREF
  2

  9
$PUCSORTHOVIEW
 70
     0
  9
$PUCSORGTOP
 10
0.0
 20
0.0
 30
0.0
  9
$PUCSORGBOTTOM
 10
0.0
 20
0.0
 30
0.0
  9
$PUCSORGLEFT
 10
0.0
 20
0.0
 30
0.0
  9
$PUCSORGRIGHT
 10
0.0
 20
0.0
 30
0.0
  9
$PUCSORGFRONT
 10
0.0
 20
0.0
 30
0.0
  9
$PUCSORGBACK
 10
0.0
 20
0.0
 30
0.0
  9
$USERI1
 70
     0
  9
$USERI2
 70
     0
  9
$USERI3
 70
     0
  9
$USERI4
 70
     0
  9
$USERI5
 70
     0
  9
$USERR1
 40
0.0
  9
$USERR2
 40
0.0
  9
$USERR3
 40
0.0
  9
$USERR4
 40
0.0
  9
$USERR5
 40
0.0
  9
$WORLDVIEW
 70
     1
  9
$SHADEDGE
 70
     3
  9
$SHADEDIF
 70
    70
  9
$TILEMODE
 70
     1
  9
$MAXACTVP
 70
    64
  9
$PINSBASE
 10
0.0
 20
0.0
 30
0.0
  9
$PLIMCHECK
 70
     0
  9
$PEXTMIN
 10
1.000000000000000E+20
 20
1.000000000000000E+20
 30
1.000000000000000E+20
  9
$PEXTMAX
 10
-1.000000000000000E+20
 20
-1.000000000000000E+20
 30
-1.000000000000000E+20
  9
$PLIMMIN
 10
0.0
 20
0.0
  9
$PLIMMAX
 10
420.0
 20
297.0
  9
$UNITMODE
 70
     0
  9
$VISRETAIN
 70
     1
  9
$PLINEGEN
 70
     0
  9
$PSLTSCALE
 70
     1
  9
$TREEDEPTH
 70
  3020
  9
$CMLSTYLE
  2
Standard
  9
$CMLJUST
 70
     0
  9
$CMLSCALE
 40
20.0
  9
$PROXYGRAPHICS
 70
     1
  9
$MEASUREMENT
 70
     1
  9
$CELWEIGHT
370
    -1
  9
$ENDCAPS
280
     0
  9
$JOINSTYLE
280
     0
  9
$LWDISPLAY
290
     0
  9
$INSUNITS
 70
     4
  9
$HYPERLINKBASE
  1

  9
$STYLESHEET
  1

  9
$XEDIT
290
     1
  9
$CEPSNTYPE
380
     0
  9
$PSTYLEMODE
290
     1
  9
$FINGERPRINTGUID
  2
{D99C744E-04C5-44F1-9703-862C59725F9B}
  9
$VERSIONGUID
  2
{A0CBABBB-2293-479B-A42B-12EED7DACDBD}
  9
$EXTNAMES
290
     1
  9
$PSVPSCALE
 40
0.0
  9
$OLESTARTUP
290
     0
  0
ENDSEC
  0
SECTION
  2
CLASSES
  0
CLASS
  1
ACDBDICTIONARYWDFLT
  2
AcDbDictionaryWithDefault
  3
AutoCAD 2000
 90
        0
280
     0
281
     0
  0
CLASS
  1
ACDBPLACEHOLDER
  2
AcDbPlaceHolder
  3
AutoCAD 2000
 90
        0
280
     0
281
     0
  0
CLASS
  1
LAYOUT
  2
AcDbLayout
  3
AutoCAD 2000
 90
        0
280
     0
281
     0
  0
CLASS
  1
DICTIONARYVAR
  2
AcDbDictionaryVar
  3
AutoCAD 2000
 90
        0
280
     0
281
     0
  0
ENDSEC
  0
SECTION
  2
TABLES
  0
TABLE
  2
VPORT
  5
8
330
0
100
AcDbSymbolTable
 70
     2
  0
VPORT
  5
9FB7
330
8
100
AcDbSymbolTableRecord
100
AcDbViewportTableRecord
  2
*Active
 70
     0
 10
0.0
 20
0.0
 11
1.0
 21
1.0
 12
2816.001520417268
 22
-3743.129928311244
 13
0.0
 23
0.0
 14
10.0
 24
10.0
 15
10.0
 25
10.0
 16
0.0
 26
0.0
 36
1.0
 17
0.0
 27
0.0
 37
0.0
 40
1358.629505675073
 41
2.031862745098039
 42
50.0
 43
0.0
 44
0.0
 50
0.0
 51
0.0
 71
     0
 72
   100
 73
     1
 74
     3
 75
     0
 76
     1
 77
     0
 78
     0
281
     0
 65
     1
110
0.0
120
0.0
130
0.0
111
1.0
121
0.0
131
0.0
112
0.0
122
1.0
132
0.0
 79
     0
146
0.0
  0
ENDTAB
  0
TABLE
  2
LTYPE
  5
5
330
0
100
AcDbSymbolTable
 70
     5
  0
LTYPE
  5
14
330
5
100
AcDbSymbolTableRecord
100
AcDbLinetypeTableRecord
  2
ByBlock
 70
     0
  3

 72
    65
 73
     0
 40
0.0
  0
LTYPE
  5
15
330
5
100
AcDbSymbolTableRecord
100
AcDbLinetypeTableRecord
  2
ByLayer
 70
     0
  3

 72
    65
 73
     0
 40
0.0
  0
LTYPE
  5
16
330
5
100
AcDbSymbolTableRecord
100
AcDbLinetypeTableRecord
  2
Continuous
 70
     0
  3
Solid line
 72
    65
 73
     0
 40
0.0
  0
LTYPE
  5
33
330
5
100
AcDbSymbolTableRecord
100
AcDbLinetypeTableRecord
  2
DASHED
 70
     0
  3
Dashed __ __ __ __ __ __ __ __ __ __ __ __ __ _
 72
    65
 73
     2
 40
19.04999999999999
 49
12.7
 74
     0
 49
-6.349999999999999
 74
     0
  0
LTYPE
  5
34
330
5
100
AcDbSymbolTableRecord
100
AcDbLinetypeTableRecord
  2
DASHDOT2
 70
     0
  3
Dash dot (.5x) _._._._._._._._._._._._._._._.
 72
    65
 73
     4
 40
12.7
 49
6.349999999999999
 74
     0
 49
-3.174999999999999
 74
     0
 49
0.0
 74
     0
 49
-3.174999999999999
 74
     0
  0
LTYPE
  5
35
330
5
100
AcDbSymbolTableRecord
100
AcDbLinetypeTableRecord
  2
CIKCAK
 70
     0
  3
Cik-cak /\/\/\/\/\/\/\/\/\/\/\/\/\/\/\/\/\/\/\/
 72
    65
 73
     4
 40
20.32254
 49
0.00254
 74
     0
 49
-5.08
 74
     4
 75
   131
340
3E
 46
5.08
 50
0.0
 44
-5.08
 45
0.0
 49
-10.16
 74
     4
 75
   131
340
3E
 46
5.08
 50
180.0
 44
5.08
 45
0.0
 49
-5.08
 74
     0
  0
LTYPE
  5
36
330
5
100
AcDbSymbolTableRecord
100
AcDbLinetypeTableRecord
  2
IZOLACE
 70
     0
  3
Izolace SSSSSSSSSSSSSSSSSSSSSSSSSSSSSSSSSSSSSSS
 72
    65
 73
     4
 40
10.16253999999999
 49
0.00254
 74
     0
 49
-2.54
 74
     4
 75
   134
340
3E
 46
2.54
 50
0.0
 44
-2.54
 45
0.0
 49
-5.08
 74
     4
 75
   134
340
3E
 46
2.54
 50
180.0
 44
2.54
 45
0.0
 49
-2.54
 74
     0
  0
ENDTAB
  0
TABLE
  2
LAYER
  5
2
330
0
100
AcDbSymbolTable
 70
     8
  0
LAYER
  5
10
330
2
100
AcDbSymbolTableRecord
100
AcDbLayerTableRecord
  2
0
 70
     0
 62
     7
  6
Continuous
370
    -3
390
F
  0
LAYER
  5
37
330
2
100
AcDbSymbolTableRecord
100
AcDbLayerTableRecord
  2
POPIS
 70
     0
 62
    30
  6
Continuous
370
    -3
390
F
  0
LAYER
  5
38
330
2
100
AcDbSymbolTableRecord
100
AcDbLayerTableRecord
  2
SPOJOVACÍ
 70
     0
 62
   180
  6
Continuous
370
    -3
390
F
  0
LAYER
  5
39
330
2
100
AcDbSymbolTableRecord
100
AcDbLayerTableRecord
  2
CETRIS
 70
     0
 62
     1
  6
Continuous
370
    -3
390
F
  0
LAYER
  5
3A
330
2
100
AcDbSymbolTableRecord
100
AcDbLayerTableRecord
  2
NOSNÉ KONSTRUKCE
 70
     0
 62
    33
  6
Continuous
370
    -3
390
F
  0
LAYER
  5
3B
330
2
100
AcDbSymbolTableRecord
100
AcDbLayerTableRecord
  2
izolace
 70
     0
 62
    73
  6
Continuous
370
    -3
390
F
  0
LAYER
  5
3C
330
2
100
AcDbSymbolTableRecord
100
AcDbLayerTableRecord
  2
STAVBA OBRYS
 70
     0
 62
     6
  6
Continuous
370
    -3
390
F
  0
LAYER
  5
1B41
330
2
100
AcDbSymbolTableRecord
100
AcDbLayerTableRecord
  2
Defpoints
 70
     0
 62
     7
  6
Continuous
290
     0
370
    -3
390
F
  0
ENDTAB
  0
TABLE
  2
STYLE
  5
3
330
0
100
AcDbSymbolTable
 70
     3
  0
STYLE
  5
11
330
3
100
AcDbSymbolTableRecord
100
AcDbTextStyleTableRecord
  2
Standard
 70
     0
 40
0.0
 41
1.0
 50
0.0
 71
     0
 42
2.5
  3
txt
  4

  0
STYLE
  5
3D
330
3
100
AcDbSymbolTableRecord
100
AcDbTextStyleTableRecord
  2
SIMPLEX7
 70
     0
 40
0.0
 41
0.85
 50
0.0
 71
     0
 42
102.0
  3
ARIAL.TTF
  4

1001
ACAD
1000
Arial CE
1071
    60962
  0
STYLE
  5
3E
330
3
100
AcDbSymbolTableRecord
100
AcDbTextStyleTableRecord
  2

 70
     1
 40
0.0
 41
1.0
 50
0.0
 71
     0
 42
2.5
  3
ltypeshp.shx
  4

  0
ENDTAB
  0
TABLE
  2
VIEW
  5
6
330
0
100
AcDbSymbolTable
 70
     0
  0
ENDTAB
  0
TABLE
  2
UCS
  5
7
330
0
100
AcDbSymbolTable
 70
     0
  0
ENDTAB
  0
TABLE
  2
APPID
  5
9
330
0
100
AcDbSymbolTable
 70
     1
  0
APPID
  5
12
330
9
100
AcDbSymbolTableRecord
100
AcDbRegAppTableRecord
  2
ACAD
 70
     0
  0
ENDTAB
  0
TABLE
  2
DIMSTYLE
  5
A
330
0
100
AcDbSymbolTable
 70
     1
100
AcDbDimStyleTable
 71
     1
340
27
  0
DIMSTYLE
105
27
330
A
100
AcDbSymbolTableRecord
100
AcDbDimStyleTableRecord
  2
ISO-25
 70
     0
 41
2.5
 42
0.625
 43
3.75
 44
1.25
 73
     0
 74
     0
 77
     1
 78
     8
140
2.5
141
2.5
143
0.03937007874016
147
0.625
171
     3
172
     1
271
     2
272
     2
274
     3
278
    44
283
     0
284
     8
340
11
  0
ENDTAB
  0
TABLE
  2
BLOCK_RECORD
  5
1
330
0
100
AcDbSymbolTable
 70
     3
  0
BLOCK_RECORD
  5
1F
330
1
100
AcDbSymbolTableRecord
100
AcDbBlockTableRecord
  2
*Model_Space
340
22
  0
BLOCK_RECORD
  5
1B
330
1
100
AcDbSymbolTableRecord
100
AcDbBlockTableRecord
  2
*Paper_Space
340
1E
  0
BLOCK_RECORD
  5
23
330
1
100
AcDbSymbolTableRecord
100
AcDbBlockTableRecord
  2
*Paper_Space0
340
26
  0
BLOCK_RECORD
  5
2B
330
1
100
AcDbSymbolTableRecord
100
AcDbBlockTableRecord
  2
E_PUNKT
340
0
102
{BLKREFS
331
D05
331
D1A
331
D1D
331
1138
331
1350
331
1351
331
1352
331
1353
331
1414
331
1415
331
1416
331
EAD
331
EB1
331
EB4
331
EB9
331
EBF
331
EC1
331
15BB
331
15BC
331
15C2
331
15C3
331
15CA
331
1D1A
331
1FE7
331
2073
331
2074
331
208A
331
208C
331
2113
331
23A8
331
2669
331
25ED
331
2AB6
331
2B8E
331
2BEE
331
2F0B
331
2E50
331
2E2C
331
2DB0
331
2F0A
331
3527
331
365E
331
371B
331
3C9E
331
3C9F
331
3CA8
331
3CAB
331
3CAC
331
3CAE
331
449A
331
4533
331
45E9
331
45B0
331
4420
331
4498
331
4379
331
45F5
331
47D7
331
4CE5
331
4CE8
331
4CEB
331
5176
331
519A
331
5197
331
5199
331
5198
331
519B
331
519D
331
51A1
331
524F
331
5251
331
5413
331
5412
331
5414
331
5417
331
541A
331
541D
331
567D
331
5667
331
56B3
331
56D8
331
56DC
331
56D9
331
5D48
331
5D4C
331
5F2A
331
5F30
331
5F31
331
5F39
331
5F3B
331
60B5
331
60B6
331
611F
331
6123
331
6126
331
6131
331
612F
331
6130
331
6148
331
6C59
331
6C5A
331
6AD5
331
7412
331
6C86
331
74A2
331
6C7B
331
745F
331
6A75
331
74D0
331
7592
331
74DB
331
74DA
331
75EE
331
75F4
331
75F7
331
75FB
331
75FC
331
7601
331
79D9
331
79DA
331
79DC
331
8178
331
8177
331
8179
331
817D
331
8180
331
8182
331
8186
331
8189
331
818C
331
8B1A
331
8B1F
331
8B21
331
8A05
331
8B1D
331
88E8
331
8CB1
331
8CB9
102
}
  0
BLOCK_RECORD
  5
2F
330
1
100
AcDbSymbolTableRecord
100
AcDbBlockTableRecord
  2
_ArchTick
340
0
102
{BLKREFS
331
B3F
331
B47
331
B48
331
205C
331
205D
102
}
  0
ENDTAB
  0
ENDSEC
  0
SECTION
  2
BLOCKS
  0
BLOCK
  5
20
330
1F
100
AcDbEntity
  8
0
100
AcDbBlockBegin
  2
*Model_Space
 70
     0
 10
0.0
 20
0.0
 30
0.0
  3
*Model_Space
  1

  0
ENDBLK
  5
21
330
1F
100
AcDbEntity
  8
0
100
AcDbBlockEnd
  0
BLOCK
  5
1C
330
1B
100
AcDbEntity
 67
     1
  8
0
100
AcDbBlockBegin
  2
*Paper_Space
 70
     0
 10
0.0
 20
0.0
 30
0.0
  3
*Paper_Space
  1

  0
ENDBLK
  5
1D
330
1B
100
AcDbEntity
 67
     1
  8
0
100
AcDbBlockEnd
  0
BLOCK
  5
24
330
23
100
AcDbEntity
  8
0
100
AcDbBlockBegin
  2
*Paper_Space0
 70
     0
 10
0.0
 20
0.0
 30
0.0
  3
*Paper_Space0
  1

  0
ENDBLK
  5
25
330
23
100
AcDbEntity
  8
0
100
AcDbBlockEnd
  0
BLOCK
  5
2D
330
2B
100
AcDbEntity
  8
0
100
AcDbBlockBegin
  2
E_PUNKT
 70
     0
 10
0.0
 20
0.0
 30
0.0
  3
E_PUNKT
  1

  0
LWPOLYLINE
  5
2C
330
2B
100
AcDbEntity
  8
POPIS
100
AcDbPolyline
 90
        2
 70
     1
 43
2.5
 10
1.27761037562675
 20
0.0290683308725193
 42
-1.0
 10
-1.222389624373249
 20
0.0290683308725193
 42
-1.0
  0
ENDBLK
  5
2E
330
2B
100
AcDbEntity
  8
0
100
AcDbBlockEnd
  0
BLOCK
  5
31
330
2F
100
AcDbEntity
  8
0
100
AcDbBlockBegin
  2
_ArchTick
 70
     0
 10
0.0
 20
0.0
 30
0.0
  3
_ArchTick
  1

  0
LWPOLYLINE
  5
30
330
2F
100
AcDbEntity
  8
0
  6
ByBlock
 62
     0
100
AcDbPolyline
 90
        2
 70
     0
 43
0.15
 10
-0.5
 20
-0.5
 10
0.5
 20
0.5
  0
ENDBLK
  5
32
330
2F
100
AcDbEntity
  8
0
100
AcDbBlockEnd
  0
ENDSEC
  0
SECTION
  2
ENTITIES
  0
LINE
  5
69BD
102
{ACAD_REACTORS
330
7A9C
330
7BFA
102
}
330
1F
100
AcDbEntity
  8
CETRIS
100
AcDbLine
 10
2760.885168034776
 20
-4208.61070823551
 30
0.0
 11
2760.885168034776
 21
-3887.16188001329
 31
0.0
  0
LINE
  5
69BE
102
{ACAD_REACTORS
330
7A9C
102
}
330
1F
100
AcDbEntity
  8
CETRIS
100
AcDbLine
 10
2772.885168034775
 20
-3889.37204129159
 30
0.0
 11
2772.885168034771
 21
-4208.61070823551
 31
0.0
  0
LINE
  5
69C1
102
{ACAD_REACTORS
330
7BFA
102
}
330
1F
100
AcDbEntity
  8
CETRIS
100
AcDbLine
 10
2748.88516803478
 20
-4208.61070823551
 30
0.0
 11
2748.885168034778
 21
-3884.951718734991
 31
0.0
  0
LINE
  5
69C2
330
1F
100
AcDbEntity
  8
NOSNÉ KONSTRUKCE
100
AcDbLine
 10
2693.510380318246
 20
-3874.752784434561
 30
0.0
 11
2693.510380318231
 21
-4208.87689775408
 31
0.0
  0
LINE
  5
69C3
330
1F
100
AcDbEntity
  8
NOSNÉ KONSTRUKCE
100
AcDbLine
 10
2728.161397562507
 20
-3881.134812481809
 30
0.0
 11
2728.161397562515
 21
-4208.87689775408
 31
0.0
  0
LINE
  5
69C4
330
1F
100
AcDbEntity
  8
NOSNÉ KONSTRUKCE
100
AcDbLine
 10
2736.583172266754
 20
-3882.685935843966
 30
0.0
 11
2736.583172266762
 21
-4208.87689775408
 31
0.0
  0
LINE
  5
69C5
330
1F
100
AcDbEntity
  8
NOSNÉ KONSTRUKCE
100
AcDbLine
 10
2747.18537641691
 20
-3884.638650933741
 30
0.0
 11
2747.185376416917
 21
-4208.87689775408
 31
0.0
  0
LINE
  5
69C6
330
1F
100
AcDbEntity
  8
NOSNÉ KONSTRUKCE
100
AcDbLine
 10
2675.847333983185
 20
-3871.106331910359
 30
0.0
 11
2675.847333983189
 21
-4208.87689775408
 31
0.0
  0
LINE
  5
69C7
330
1F
100
AcDbEntity
  8
NOSNÉ KONSTRUKCE
100
AcDbLine
 10
2685.664757359162
 20
-3873.307776762203
 30
0.0
 11
2685.664757359147
 21
-4208.87689775408
 31
0.0
  0
LINE
  5
69D0
102
{ACAD_REACTORS
330
7A9C
102
}
330
1F
100
AcDbEntity
  8
SPOJOVACÍ
  6
Continuous
100
AcDbLine
 10
2767.072499486806
 20
-4140.066338675842
 30
0.0
 11
2766.285570763684
 21
-4140.00029619392
 31
0.0
  0
LINE
  5
69D1
102
{ACAD_REACTORS
330
7A9C
102
}
330
1F
100
AcDbEntity
  8
SPOJOVACÍ
  6
Continuous
100
AcDbLine
 10
2766.285570763684
 20
-4137.300926031184
 30
0.0
 11
2767.809198717113
 21
-4137.073963140301
 31
0.0
  0
LWPOLYLINE
  5
69D2
102
{ACAD_REACTORS
330
7C12
102
}
330
1F
100
AcDbEntity
  8
izolace
100
AcDbPolyline
 90
        4
 70
     1
 43
0.0
 10
2772.885168034776
 20
-4213.828753216696
 10
2772.885168034776
 20
-4208.61070823551
 10
2748.885168034776
 20
-4208.610708235506
 10
2748.885168034776
 20
-4213.828753216696
  0
LINE
  5
69D3
102
{ACAD_REACTORS
330
7A9C
330
7BFA
330
7C12
102
}
330
1F
100
AcDbEntity
  8
CETRIS
100
AcDbLine
 10
2772.885168034776
 20
-4208.61070823551
 30
0.0
 11
2748.88516803478
 21
-4208.61070823551
 31
0.0
  0
LINE
  5
69D5
330
1F
100
AcDbEntity
  8
POPIS
100
AcDbLine
 10
2710.604928385
 20
-4235.458418352663
 30
0.0
 11
2813.393541554462
 21
-4269.345851227003
 31
0.0
  0
LINE
  5
69D6
102
{ACAD_REACTORS
330
7A9C
330
7BFA
102
}
330
1F
100
AcDbEntity
  8
POPIS
100
AcDbLine
 10
2840.765752720308
 20
-4122.328754201052
 30
0.0
 11
2745.198108419714
 21
-4173.515176459358
 31
0.0
  0
LINE
  5
69D7
102
{ACAD_REACTORS
330
7A9C
330
7C12
102
}
330
1F
100
AcDbEntity
  8
POPIS
100
AcDbLine
 10
2840.765752720308
 20
-4161.788087022757
 30
0.0
 11
2761.965927043453
 21
-4210.906727345977
 31
0.0
  0
LINE
  5
69D8
102
{ACAD_REACTORS
330
7A9C
330
7BFA
102
}
330
1F
100
AcDbEntity
  8
POPIS
100
AcDbLine
 10
2842.967512938946
 20
-4036.532209548002
 30
0.0
 11
2728.161397562511
 21
-4036.532209548002
 31
0.0
  0
LINE
  5
69DA
102
{ACAD_REACTORS
330
7C12
102
}
330
1F
100
AcDbEntity
  8
STAVBA OBRYS
100
AcDbLine
 10
2676.017641835609
 20
-4213.828753216696
 30
0.0
 11
2899.142087520249
 21
-4213.828753216696
 31
0.0
  0
HATCH
  5
69DD
330
1F
100
AcDbEntity
  8
NOSNÉ KONSTRUKCE
100
AcDbHatch
 10
0.0
 20
0.0
 30
0.0
210
0.0
220
0.0
230
1.0
  2
SOLID
 70
     1
 71
     0
 91
        1
 92
        7
 72
     1
 73
     1
 93
       60
 10
2695.154496028552
 20
-4209.843262835323
 42
0.0
 10
2728.515700241973
 20
-4209.843262835323
 42
-0.3073346934841183
 10
2730.204771151797
 20
-4208.713559978903
 42
0.0
 10
2733.908727575663
 20
-4208.713559978903
 42
-0.307334693483106
 10
2735.597798485478
 20
-4209.843262835323
 42
0.0
 10
2745.781764562501
 20
-4209.843262835323
 42
0.4142135623730951
 10
2747.721764562501
 20
-4207.903262835323
 42
0.0
 10
2747.721764562501
 20
-4199.950375074663
 42
-0.7595816512230912
 10
2747.721764562501
 20
-4196.466676171939
 42
0.0
 10
2747.721764562497
 20
-4187.566082849516
 42
-0.7595816493590427
 10
2747.721764562501
 20
-4184.08238391482
 42
0.0
 10
2747.721764562501
 20
-4175.181792565164
 42
-0.7767342353201953
 10
2747.797383029844
 20
-4171.678677738463
 42
0.0
 10
2747.797383029843
 20
-4165.307611779082
 42
0.4142135623730868
 10
2745.857383029843
 20
-4163.367611779082
 42
0.0
 10
2743.1168170119
 20
-4163.367611779082
 42
0.0
 10
2743.116817011899
 20
-4164.337611779082
 42
0.0
 10
2745.857383029843
 20
-4164.337611779082
 42
-0.4142135623730951
 10
2746.827383029843
 20
-4165.307611779082
 42
0.0
 10
2746.827383029843
 20
-4171.028376944769
 42
0.5694936494219963
 10
2746.751764562501
 20
-4175.806543966762
 42
0.0
 10
2746.751764562501
 20
-4183.457630598407
 42
0.5590616644338513
 10
2746.751764562497
 20
-4188.190836165928
 42
0.0
 10
2746.751764562501
 20
-4195.841922854952
 42
0.5590616643157284
 10
2746.751764562501
 20
-4200.575128391649
 42
0.0
 10
2746.751764562501
 20
-4207.903262835323
 42
-0.4142135623731451
 10
2745.781764562501
 20
-4208.873262835322
 42
0.0
 10
2736.146750497402
 20
-4208.873262835322
 42
0.2364174637114482
 10
2733.933356330098
 20
-4207.752467521466
 42
0.0
 10
2730.180142397355
 20
-4207.752467521466
 42
0.2364174637115772
 10
2727.966748230051
 20
-4208.873262835322
 42
0.0
 10
2695.699917570443
 20
-4208.873262835322
 42
0.2353201211467568
 10
2693.492764520093
 20
-4207.762971180133
 42
0.0
 10
2689.739551202645
 20
-4207.76512028302
 42
0.2364174637122881
 10
2687.526799169347
 20
-4208.887182810059
 42
0.0
 10
2677.891786683785
 20
-4208.892699851427
 42
-0.4142135623730951
 10
2676.921231417551
 20
-4207.923255435698
 42
0.0
 10
2676.917035303192
 20
-4200.595122193379
 42
0.5590616643157161
 10
2676.914325053827
 20
-4195.861917432631
 42
0.0
 10
2676.909944015934
 20
-4188.210831997906
 42
0.5590616644338511
 10
2676.907233766548
 20
-4183.477627206333
 42
0.0
 10
2676.902852728682
 20
-4175.826541828987
 42
0.5694936494220229
 10
2676.824498279275
 20
-4171.048418889703
 42
0.0
 10
2676.821222549955
 20
-4165.327654661862
 42
-0.4142135623730951
 10
2677.790666965683
 20
-4164.357099395629
 42
0.0
 10
2680.531232534346
 20
-4164.355530138336
 42
0.0
 10
2680.530677109092
 20
-4163.385530297355
 42
0.0
 10
2677.79011154043
 20
-4163.387099554648
 42
0.4142135623730618
 10
2675.851222708974
 20
-4165.328210087116
 42
0.0
 10
2675.85487080271
 20
-4171.699275002041
 42
-0.7767342353201953
 10
2675.932495152954
 20
-4175.202345955063
 42
0.0
 10
2675.937591661412
 20
-4184.102935845579
 42
-0.759581649359043
 10
2675.939586439109
 20
-4187.586634209167
 42
0.0
 10
2675.944682948691
 20
-4196.487226072451
 42
-0.7595816512230912
 10
2675.946677726367
 20
-4199.970924404066
 42
0.0
 10
2675.951231576571
 20
-4207.923810860951
 42
0.4142135623731117
 10
2677.892342109038
 20
-4209.862699692407
 42
0.0
 10
2688.076306516529
 20
-4209.856868319277
 42
-0.3073346934834261
 10
2689.764730277802
 20
-4208.72619848039
 42
0.0
 10
2693.468686094452
 20
-4208.724077582519
 42
-0.3057747226774016
 97
        0
 75
     0
 76
     1
 47
0.1180065091547201
 98
        1
 10
2704.235033926688
 20
-4209.454618874071
  0
LINE
  5
69E3
330
1F
100
AcDbEntity
  8
POPIS
100
AcDbLine
 10
2674.559855099651
 20
-4212.122135169682
 30
0.0
 11
2591.014349857694
 21
-4268.17799823262
 31
0.0
  0
TEXT
  5
69E4
330
1F
100
AcDbEntity
  8
POPIS
100
AcDbText
 10
2553.2108828612
 20
-4281.007846908766
 30
0.0
 40
25.0
  1
07
 41
0.85
  7
SIMPLEX7
100
AcDbText
  0
INSERT
  5
6A75
102
{ACAD_REACTORS
330
7C12
102
}
330
1F
100
AcDbEntity
  8
POPIS
100
AcDbBlockReference
  2
E_PUNKT
 10
2762.179006095196
 20
-4211.16487286205
 30
0.0
 50
270.0
  0
LINE
  5
6A76
330
1F
100
AcDbEntity
  8
SPOJOVACÍ
  6
DASHED
100
AcDbLine
 10
2703.662861527587
 20
-4208.629307017987
 30
0.0
 11
2708.701924027588
 21
-4211.811941320562
 31
0.0
  0
LINE
  5
6A77
330
1F
100
AcDbEntity
  8
SPOJOVACÍ
  6
Continuous
100
AcDbLine
 10
2707.566785207255
 20
-4213.216219789248
 30
0.0
 11
2708.014656135161
 21
-4213.474352292783
 31
0.0
  0
LINE
  5
6A78
330
1F
100
AcDbEntity
  8
SPOJOVACÍ
  6
Continuous
100
AcDbLine
 10
2707.566785207255
 20
-4213.216219789248
 30
0.0
 11
2708.014656135161
 21
-4212.767245733359
 31
0.0
  0
LINE
  5
6A79
330
1F
100
AcDbEntity
  8
SPOJOVACÍ
100
AcDbLine
 10
2703.662861527587
 20
-4207.752396395854
 30
0.0
 11
2703.662861527587
 21
-4208.629307017987
 31
0.0
  0
LINE
  5
6A7A
330
1F
100
AcDbEntity
  8
SPOJOVACÍ
100
AcDbLine
 10
2703.662861527587
 20
-4208.629307017987
 30
0.0
 11
2703.662861527587
 21
-4207.752396395854
 31
0.0
  0
LINE
  5
6A7B
330
1F
100
AcDbEntity
  8
SPOJOVACÍ
100
AcDbLine
 10
2703.662861527587
 20
-4207.187718651517
 30
0.0
 11
2703.662861527587
 21
-4208.629307017987
 31
0.0
  0
LWPOLYLINE
  5
6A7C
330
1F
100
AcDbEntity
  8
izolace
100
AcDbPolyline
 90
        4
 70
     1
 43
0.0
 10
2706.543970405137
 20
-4212.999812295659
 10
2706.543970405137
 20
-4210.999812295654
 10
2694.042893398159
 20
-4210.999812295654
 10
2694.042893398159
 20
-4212.999812295659
  0
LINE
  5
6A7D
330
1F
100
AcDbEntity
  8
SPOJOVACÍ
100
AcDbLine
 10
2717.162861527588
 20
-4208.629307017987
 30
0.0
 11
2717.162861527588
 21
-4207.752396395854
 31
0.0
  0
LINE
  5
6A7E
330
1F
100
AcDbEntity
  8
SPOJOVACÍ
100
AcDbLine
 10
2717.162861527588
 20
-4207.187718651517
 30
0.0
 11
2717.162861527588
 21
-4208.629307017987
 31
0.0
  0
LINE
  5
6A7F
330
1F
100
AcDbEntity
  8
SPOJOVACÍ
100
AcDbLine
 10
2703.662861527587
 20
-4207.187718651517
 30
0.0
 11
2717.162861527588
 21
-4207.187718651517
 31
0.0
  0
LINE
  5
6A80
330
1F
100
AcDbEntity
  8
SPOJOVACÍ
100
AcDbLine
 10
2703.662861527587
 20
-4208.629307017987
 30
0.0
 11
2717.162861527588
 21
-4208.629307017987
 31
0.0
  0
LINE
  5
6A81
330
1F
100
AcDbEntity
  8
SPOJOVACÍ
100
AcDbLine
 10
2717.162861527588
 20
-4208.629307017987
 30
0.0
 11
2712.123799027587
 21
-4211.811941320566
 31
0.0
  0
HATCH
  5
6A82
330
1F
100
AcDbEntity
  8
izolace
100
AcDbHatch
 10
0.0
 20
0.0
 30
0.0
210
0.0
220
0.0
230
1.0
  2
SOLID
 70
     1
 71
     0
 91
        4
 92
        7
 72
     0
 73
     1
 93
        4
 10
2673.885105476587
 20
-4210.999812295654
 10
2686.386182483562
 20
-4210.999812295654
 10
2686.386182483562
 20
-4212.999812295659
 10
2673.885105476587
 20
-4212.999812295659
 97
        0
 92
        7
 72
     0
 73
     1
 93
        4
 10
2694.042893398159
 20
-4210.999812295654
 10
2706.543970405137
 20
-4210.999812295654
 10
2706.543970405137
 20
-4212.999812295659
 10
2694.042893398159
 20
-4212.999812295659
 97
        0
 92
        7
 72
     0
 73
     1
 93
        4
 10
2714.777129419789
 20
-4210.999812295654
 10
2727.278206426767
 20
-4210.999812295654
 10
2727.278206426767
 20
-4212.999812295659
 10
2714.777129419789
 20
-4212.999812295659
 97
        0
 92
        7
 72
     1
 73
     1
 93
        7
 10
2735.921380332653
 20
-4211.478737957775
 42
0.0
 10
2735.921380332653
 20
-4210.999812295654
 42
0.0
 10
2748.422457339628
 20
-4210.999812295654
 42
0.0
 10
2748.422457339628
 20
-4212.999812295659
 42
0.0
 10
2736.157768326907
 20
-4212.999812295659
 42
0.0
 10
2735.921380332653
 20
-4212.841204923577
 42
0.0
 10
2735.921380332653
 20
-4212.765532381588
 42
0.2771233679601331
 97
        0
 75
     0
 76
     1
 47
0.1334780420591298
 98
        4
 10
2679.105881048064
 20
-4212.3018014042
 10
2694.867967380373
 20
-4212.3018014042
 10
2721.850525016579
 20
-4212.3018014042
 10
2740.150576075489
 20
-4212.3018014042
  0
LINE
  5
6A83
330
1F
100
AcDbEntity
  8
SPOJOVACÍ
 48
0.25
100
AcDbLine
 10
2713.938327951062
 20
-4260.46419811099
 30
0.0
 11
2710.412861527587
 21
-4266.11363845171
 31
0.0
  0
LINE
  5
6A84
330
1F
100
AcDbEntity
  8
SPOJOVACÍ
 48
0.25
100
AcDbLine
 10
2706.887395104113
 20
-4260.464198110994
 30
0.0
 11
2710.412861527587
 21
-4266.11363845171
 31
0.0
  0
LINE
  5
6A85
330
1F
100
AcDbEntity
  8
SPOJOVACÍ
  6
Continuous
100
AcDbLine
 10
2707.566785207255
 20
-4216.612209703498
 30
0.0
 11
2713.258937853098
 21
-4218.035247864956
 31
0.0
  0
LINE
  5
6A86
330
1F
100
AcDbEntity
  8
SPOJOVACÍ
  6
Continuous
100
AcDbLine
 10
2707.566785207255
 20
-4216.612209703498
 30
0.0
 11
2708.014656135161
 21
-4216.870342207033
 31
0.0
  0
LINE
  5
6A87
330
1F
100
AcDbEntity
  8
SPOJOVACÍ
  6
Continuous
100
AcDbLine
 10
2707.566785207255
 20
-4216.612209703498
 30
0.0
 11
2708.014656135161
 21
-4216.163235647609
 31
0.0
  0
LINE
  5
6A88
330
1F
100
AcDbEntity
  8
SPOJOVACÍ
  6
Continuous
100
AcDbLine
 10
2713.258937853098
 20
-4218.035247864956
 30
0.0
 11
2712.811066930368
 21
-4218.483118790277
 31
0.0
  0
LINE
  5
6A89
330
1F
100
AcDbEntity
  8
SPOJOVACÍ
  6
Continuous
100
AcDbLine
 10
2713.258937853098
 20
-4218.035247864956
 30
0.0
 11
2712.811066930368
 21
-4217.776012230856
 31
0.0
  0
LINE
  5
6A8A
330
1F
100
AcDbEntity
  8
SPOJOVACÍ
  6
Continuous
100
AcDbLine
 10
2708.014656135161
 20
-4216.870342207033
 30
0.0
 11
2712.811066930368
 21
-4218.483118790277
 31
0.0
  0
LINE
  5
6A8B
330
1F
100
AcDbEntity
  8
SPOJOVACÍ
  6
Continuous
100
AcDbLine
 10
2708.014656135161
 20
-4216.163235647609
 30
0.0
 11
2712.811066930368
 21
-4217.776012230856
 31
0.0
  0
LINE
  5
6A8C
330
1F
100
AcDbEntity
  8
SPOJOVACÍ
  6
Continuous
100
AcDbLine
 10
2713.258937853098
 20
-4214.639257950707
 30
0.0
 11
2712.811066930368
 21
-4215.087128876026
 31
0.0
  0
LINE
  5
6A8D
330
1F
100
AcDbEntity
  8
SPOJOVACÍ
  6
Continuous
100
AcDbLine
 10
2713.258937853098
 20
-4214.639257950707
 30
0.0
 11
2712.811066930368
 21
-4214.380022316605
 31
0.0
  0
LINE
  5
6A8E
330
1F
100
AcDbEntity
  8
SPOJOVACÍ
  6
Continuous
100
AcDbLine
 10
2708.014656135161
 20
-4219.559225561859
 30
0.0
 11
2712.811066930368
 21
-4221.172002145105
 31
0.0
  0
LINE
  5
6A8F
330
1F
100
AcDbEntity
  8
SPOJOVACÍ
  6
Continuous
100
AcDbLine
 10
2708.014656135161
 20
-4220.266332121283
 30
0.0
 11
2712.811066930368
 21
-4221.879108704526
 31
0.0
  0
LINE
  5
6A90
330
1F
100
AcDbEntity
  8
SPOJOVACÍ
  6
Continuous
100
AcDbLine
 10
2713.258937853098
 20
-4221.431237779206
 30
0.0
 11
2712.811066930368
 21
-4221.172002145105
 31
0.0
  0
LINE
  5
6A91
330
1F
100
AcDbEntity
  8
SPOJOVACÍ
  6
Continuous
100
AcDbLine
 10
2713.258937853098
 20
-4221.431237779206
 30
0.0
 11
2712.811066930368
 21
-4221.879108704526
 31
0.0
  0
LINE
  5
6A92
330
1F
100
AcDbEntity
  8
SPOJOVACÍ
  6
Continuous
100
AcDbLine
 10
2707.566785207255
 20
-4220.008199617748
 30
0.0
 11
2708.014656135161
 21
-4219.559225561859
 31
0.0
  0
LINE
  5
6A93
330
1F
100
AcDbEntity
  8
SPOJOVACÍ
  6
Continuous
100
AcDbLine
 10
2707.566785207255
 20
-4220.008199617748
 30
0.0
 11
2708.014656135161
 21
-4220.266332121283
 31
0.0
  0
LINE
  5
6A94
330
1F
100
AcDbEntity
  8
SPOJOVACÍ
  6
Continuous
100
AcDbLine
 10
2707.566785207255
 20
-4220.008199617748
 30
0.0
 11
2713.258937853098
 21
-4221.431237779206
 31
0.0
  0
LINE
  5
6A95
330
1F
100
AcDbEntity
  8
SPOJOVACÍ
  6
Continuous
100
AcDbLine
 10
2707.566785204668
 20
-4253.96809875938
 30
0.0
 11
2708.014656132574
 21
-4253.51912470349
 31
0.0
  0
LINE
  5
6A96
330
1F
100
AcDbEntity
  8
SPOJOVACÍ
  6
Continuous
100
AcDbLine
 10
2708.014656132574
 20
-4250.12313478924
 30
0.0
 11
2712.811066927777
 21
-4251.735911372487
 31
0.0
  0
LINE
  5
6A97
330
1F
100
AcDbEntity
  8
SPOJOVACÍ
  6
Continuous
100
AcDbLine
 10
2708.014656132574
 20
-4250.830241348665
 30
0.0
 11
2712.811066927777
 21
-4252.443017931908
 31
0.0
  0
LINE
  5
6A98
330
1F
100
AcDbEntity
  8
SPOJOVACÍ
  6
Continuous
100
AcDbLine
 10
2713.258937850507
 20
-4251.995147006588
 30
0.0
 11
2712.811066927777
 21
-4251.735911372487
 31
0.0
  0
LINE
  5
6A99
330
1F
100
AcDbEntity
  8
SPOJOVACÍ
  6
Continuous
100
AcDbLine
 10
2713.258937850507
 20
-4251.995147006588
 30
0.0
 11
2712.811066927777
 21
-4252.443017931908
 31
0.0
  0
LINE
  5
6A9A
330
1F
100
AcDbEntity
  8
SPOJOVACÍ
  6
Continuous
100
AcDbLine
 10
2707.566785204668
 20
-4250.57210884513
 30
0.0
 11
2708.014656132574
 21
-4250.12313478924
 31
0.0
  0
LINE
  5
6A9B
330
1F
100
AcDbEntity
  8
SPOJOVACÍ
  6
Continuous
100
AcDbLine
 10
2707.566785204668
 20
-4250.57210884513
 30
0.0
 11
2708.014656132574
 21
-4250.830241348665
 31
0.0
  0
LINE
  5
6A9C
330
1F
100
AcDbEntity
  8
SPOJOVACÍ
  6
Continuous
100
AcDbLine
 10
2707.566785204668
 20
-4250.57210884513
 30
0.0
 11
2713.258937850507
 21
-4251.995147006588
 31
0.0
  0
LINE
  5
6A9D
330
1F
100
AcDbEntity
  8
SPOJOVACÍ
  6
Continuous
100
AcDbLine
 10
2707.566785204668
 20
-4247.176118930879
 30
0.0
 11
2713.258937850507
 21
-4248.599157092338
 31
0.0
  0
LINE
  5
6A9E
330
1F
100
AcDbEntity
  8
SPOJOVACÍ
  6
Continuous
100
AcDbLine
 10
2707.566785204668
 20
-4247.176118930879
 30
0.0
 11
2708.014656132574
 21
-4247.434251434415
 31
0.0
  0
LINE
  5
6A9F
330
1F
100
AcDbEntity
  8
SPOJOVACÍ
  6
Continuous
100
AcDbLine
 10
2707.566785204668
 20
-4247.176118930879
 30
0.0
 11
2708.014656132574
 21
-4246.727144874991
 31
0.0
  0
LINE
  5
6AA0
330
1F
100
AcDbEntity
  8
SPOJOVACÍ
  6
Continuous
100
AcDbLine
 10
2713.258937850507
 20
-4248.599157092338
 30
0.0
 11
2712.811066927777
 21
-4249.047028017658
 31
0.0
  0
LINE
  5
6AA1
330
1F
100
AcDbEntity
  8
SPOJOVACÍ
  6
Continuous
100
AcDbLine
 10
2713.258937850507
 20
-4248.599157092338
 30
0.0
 11
2712.811066927777
 21
-4248.339921458237
 31
0.0
  0
LINE
  5
6AA2
330
1F
100
AcDbEntity
  8
SPOJOVACÍ
  6
Continuous
100
AcDbLine
 10
2708.014656132574
 20
-4247.434251434415
 30
0.0
 11
2712.811066927777
 21
-4249.047028017658
 31
0.0
  0
LINE
  5
6AA3
330
1F
100
AcDbEntity
  8
SPOJOVACÍ
  6
Continuous
100
AcDbLine
 10
2708.014656132574
 20
-4246.727144874991
 30
0.0
 11
2712.811066927777
 21
-4248.339921458237
 31
0.0
  0
LINE
  5
6AA4
330
1F
100
AcDbEntity
  8
SPOJOVACÍ
  6
Continuous
100
AcDbLine
 10
2707.566785204668
 20
-4243.78012901663
 30
0.0
 11
2713.258937850507
 21
-4245.203167178088
 31
0.0
  0
LINE
  5
6AA5
330
1F
100
AcDbEntity
  8
SPOJOVACÍ
  6
Continuous
100
AcDbLine
 10
2707.566785204668
 20
-4243.78012901663
 30
0.0
 11
2708.014656132574
 21
-4244.038261520165
 31
0.0
  0
LINE
  5
6AA6
330
1F
100
AcDbEntity
  8
SPOJOVACÍ
  6
Continuous
100
AcDbLine
 10
2707.566785204668
 20
-4243.78012901663
 30
0.0
 11
2708.014656132574
 21
-4243.331154960741
 31
0.0
  0
LINE
  5
6AA7
330
1F
100
AcDbEntity
  8
SPOJOVACÍ
  6
Continuous
100
AcDbLine
 10
2713.258937850507
 20
-4245.203167178088
 30
0.0
 11
2712.811066927777
 21
-4245.651038103408
 31
0.0
  0
LINE
  5
6AA8
330
1F
100
AcDbEntity
  8
SPOJOVACÍ
  6
Continuous
100
AcDbLine
 10
2713.258937850507
 20
-4245.203167178088
 30
0.0
 11
2712.811066927777
 21
-4244.943931543986
 31
0.0
  0
LINE
  5
6AA9
330
1F
100
AcDbEntity
  8
SPOJOVACÍ
  6
Continuous
100
AcDbLine
 10
2708.014656132574
 20
-4244.038261520165
 30
0.0
 11
2712.811066927777
 21
-4245.651038103408
 31
0.0
  0
LINE
  5
6AAA
330
1F
100
AcDbEntity
  8
SPOJOVACÍ
  6
Continuous
100
AcDbLine
 10
2708.014656132574
 20
-4243.331154960741
 30
0.0
 11
2712.811066927777
 21
-4244.943931543986
 31
0.0
  0
LINE
  5
6AAB
330
1F
100
AcDbEntity
  8
SPOJOVACÍ
  6
Continuous
100
AcDbLine
 10
2707.566785204668
 20
-4240.384139102379
 30
0.0
 11
2713.258937850507
 21
-4241.807177263837
 31
0.0
  0
LINE
  5
6AAC
330
1F
100
AcDbEntity
  8
SPOJOVACÍ
  6
Continuous
100
AcDbLine
 10
2707.566785204668
 20
-4240.384139102379
 30
0.0
 11
2708.014656132574
 21
-4240.642271605915
 31
0.0
  0
LINE
  5
6AAD
330
1F
100
AcDbEntity
  8
SPOJOVACÍ
  6
Continuous
100
AcDbLine
 10
2707.566785204668
 20
-4240.384139102379
 30
0.0
 11
2708.014656132574
 21
-4239.935165046491
 31
0.0
  0
LINE
  5
6AAE
330
1F
100
AcDbEntity
  8
SPOJOVACÍ
  6
Continuous
100
AcDbLine
 10
2713.258937850507
 20
-4241.807177263837
 30
0.0
 11
2712.811066927777
 21
-4242.255048189157
 31
0.0
  0
LINE
  5
6AAF
330
1F
100
AcDbEntity
  8
SPOJOVACÍ
  6
Continuous
100
AcDbLine
 10
2713.258937850507
 20
-4241.807177263837
 30
0.0
 11
2712.811066927777
 21
-4241.547941629736
 31
0.0
  0
LINE
  5
6AB0
330
1F
100
AcDbEntity
  8
SPOJOVACÍ
  6
Continuous
100
AcDbLine
 10
2708.014656132574
 20
-4240.642271605915
 30
0.0
 11
2712.811066927777
 21
-4242.255048189157
 31
0.0
  0
LINE
  5
6AB1
330
1F
100
AcDbEntity
  8
SPOJOVACÍ
  6
Continuous
100
AcDbLine
 10
2708.014656132574
 20
-4239.935165046491
 30
0.0
 11
2712.811066927777
 21
-4241.547941629736
 31
0.0
  0
LINE
  5
6AB2
330
1F
100
AcDbEntity
  8
SPOJOVACÍ
  6
Continuous
100
AcDbLine
 10
2707.566785204668
 20
-4236.988149188129
 30
0.0
 11
2713.258937850507
 21
-4238.411187349587
 31
0.0
  0
LINE
  5
6AB3
330
1F
100
AcDbEntity
  8
SPOJOVACÍ
  6
Continuous
100
AcDbLine
 10
2707.566785204668
 20
-4236.988149188129
 30
0.0
 11
2708.014656132574
 21
-4237.246281691665
 31
0.0
  0
LINE
  5
6AB4
330
1F
100
AcDbEntity
  8
SPOJOVACÍ
  6
Continuous
100
AcDbLine
 10
2707.566785204668
 20
-4236.988149188129
 30
0.0
 11
2708.014656132574
 21
-4236.53917513224
 31
0.0
  0
LINE
  5
6AB5
330
1F
100
AcDbEntity
  8
SPOJOVACÍ
  6
Continuous
100
AcDbLine
 10
2713.258937850507
 20
-4238.411187349587
 30
0.0
 11
2712.811066927777
 21
-4238.859058274907
 31
0.0
  0
LINE
  5
6AB6
330
1F
100
AcDbEntity
  8
SPOJOVACÍ
  6
Continuous
100
AcDbLine
 10
2713.258937850507
 20
-4238.411187349587
 30
0.0
 11
2712.811066927777
 21
-4238.151951715486
 31
0.0
  0
LINE
  5
6AB7
330
1F
100
AcDbEntity
  8
SPOJOVACÍ
  6
Continuous
100
AcDbLine
 10
2708.014656132574
 20
-4237.246281691665
 30
0.0
 11
2712.811066927777
 21
-4238.859058274907
 31
0.0
  0
LINE
  5
6AB8
330
1F
100
AcDbEntity
  8
SPOJOVACÍ
  6
Continuous
100
AcDbLine
 10
2708.014656132574
 20
-4236.53917513224
 30
0.0
 11
2712.811066927777
 21
-4238.151951715486
 31
0.0
  0
LINE
  5
6AB9
330
1F
100
AcDbEntity
  8
SPOJOVACÍ
  6
Continuous
100
AcDbLine
 10
2707.566785204668
 20
-4233.59215927388
 30
0.0
 11
2713.258937850507
 21
-4235.015197435337
 31
0.0
  0
LINE
  5
6ABA
330
1F
100
AcDbEntity
  8
SPOJOVACÍ
  6
Continuous
100
AcDbLine
 10
2707.566785204668
 20
-4233.59215927388
 30
0.0
 11
2708.014656132574
 21
-4233.850291777415
 31
0.0
  0
LINE
  5
6ABB
330
1F
100
AcDbEntity
  8
SPOJOVACÍ
  6
Continuous
100
AcDbLine
 10
2707.566785204668
 20
-4233.59215927388
 30
0.0
 11
2708.014656132574
 21
-4233.14318521799
 31
0.0
  0
LINE
  5
6ABC
330
1F
100
AcDbEntity
  8
SPOJOVACÍ
  6
Continuous
100
AcDbLine
 10
2713.258937850507
 20
-4235.015197435337
 30
0.0
 11
2712.811066927777
 21
-4235.463068360657
 31
0.0
  0
LINE
  5
6ABD
330
1F
100
AcDbEntity
  8
SPOJOVACÍ
  6
Continuous
100
AcDbLine
 10
2713.258937850507
 20
-4235.015197435337
 30
0.0
 11
2712.811066927777
 21
-4234.755961801236
 31
0.0
  0
LINE
  5
6ABE
330
1F
100
AcDbEntity
  8
SPOJOVACÍ
  6
Continuous
100
AcDbLine
 10
2708.014656132574
 20
-4233.850291777415
 30
0.0
 11
2712.811066927777
 21
-4235.463068360657
 31
0.0
  0
LINE
  5
6ABF
330
1F
100
AcDbEntity
  8
SPOJOVACÍ
  6
Continuous
100
AcDbLine
 10
2708.014656132574
 20
-4233.14318521799
 30
0.0
 11
2712.811066927777
 21
-4234.755961801236
 31
0.0
  0
LINE
  5
6AC0
330
1F
100
AcDbEntity
  8
SPOJOVACÍ
  6
Continuous
100
AcDbLine
 10
2707.566785204668
 20
-4230.196169359629
 30
0.0
 11
2713.258937850507
 21
-4231.619207521087
 31
0.0
  0
LINE
  5
6AC1
330
1F
100
AcDbEntity
  8
SPOJOVACÍ
  6
Continuous
100
AcDbLine
 10
2707.566785204668
 20
-4230.196169359629
 30
0.0
 11
2708.014656132574
 21
-4230.454301863164
 31
0.0
  0
LINE
  5
6AC2
330
1F
100
AcDbEntity
  8
SPOJOVACÍ
  6
Continuous
100
AcDbLine
 10
2707.566785204668
 20
-4230.196169359629
 30
0.0
 11
2708.014656132574
 21
-4229.747195303739
 31
0.0
  0
LINE
  5
6AC3
330
1F
100
AcDbEntity
  8
SPOJOVACÍ
  6
Continuous
100
AcDbLine
 10
2713.258937850507
 20
-4231.619207521087
 30
0.0
 11
2712.811066927777
 21
-4232.067078446408
 31
0.0
  0
LINE
  5
6AC4
330
1F
100
AcDbEntity
  8
SPOJOVACÍ
  6
Continuous
100
AcDbLine
 10
2713.258937850507
 20
-4231.619207521087
 30
0.0
 11
2712.811066927777
 21
-4231.359971886987
 31
0.0
  0
LINE
  5
6AC5
330
1F
100
AcDbEntity
  8
SPOJOVACÍ
  6
Continuous
100
AcDbLine
 10
2708.014656132574
 20
-4230.454301863164
 30
0.0
 11
2712.811066927777
 21
-4232.067078446408
 31
0.0
  0
LINE
  5
6AC6
330
1F
100
AcDbEntity
  8
SPOJOVACÍ
  6
Continuous
100
AcDbLine
 10
2708.014656132574
 20
-4229.747195303739
 30
0.0
 11
2712.811066927777
 21
-4231.359971886987
 31
0.0
  0
LINE
  5
6AC7
330
1F
100
AcDbEntity
  8
SPOJOVACÍ
  6
Continuous
100
AcDbLine
 10
2708.014656132574
 20
-4222.95521547524
 30
0.0
 11
2712.811066927777
 21
-4224.567992058486
 31
0.0
  0
LINE
  5
6AC8
330
1F
100
AcDbEntity
  8
SPOJOVACÍ
  6
Continuous
100
AcDbLine
 10
2708.014656132574
 20
-4223.662322034664
 30
0.0
 11
2712.811066927777
 21
-4225.275098617907
 31
0.0
  0
LINE
  5
6AC9
330
1F
100
AcDbEntity
  8
SPOJOVACÍ
  6
Continuous
100
AcDbLine
 10
2713.258937850507
 20
-4224.827227692587
 30
0.0
 11
2712.811066927777
 21
-4224.567992058486
 31
0.0
  0
LINE
  5
6ACA
330
1F
100
AcDbEntity
  8
SPOJOVACÍ
  6
Continuous
100
AcDbLine
 10
2713.258937850507
 20
-4224.827227692587
 30
0.0
 11
2712.811066927777
 21
-4225.275098617907
 31
0.0
  0
LINE
  5
6ACB
330
1F
100
AcDbEntity
  8
SPOJOVACÍ
  6
Continuous
100
AcDbLine
 10
2707.566785204668
 20
-4223.404189531129
 30
0.0
 11
2708.014656132574
 21
-4222.95521547524
 31
0.0
  0
LINE
  5
6ACC
330
1F
100
AcDbEntity
  8
SPOJOVACÍ
  6
Continuous
100
AcDbLine
 10
2707.566785204668
 20
-4223.404189531129
 30
0.0
 11
2708.014656132574
 21
-4223.662322034664
 31
0.0
  0
LINE
  5
6ACD
330
1F
100
AcDbEntity
  8
SPOJOVACÍ
  6
Continuous
100
AcDbLine
 10
2707.566785204668
 20
-4223.404189531129
 30
0.0
 11
2713.258937850507
 21
-4224.827227692587
 31
0.0
  0
LINE
  5
6ACE
330
1F
100
AcDbEntity
  8
SPOJOVACÍ
  6
Continuous
100
AcDbLine
 10
2708.014656132574
 20
-4226.35120538949
 30
0.0
 11
2712.811066927777
 21
-4227.963981972736
 31
0.0
  0
LINE
  5
6ACF
330
1F
100
AcDbEntity
  8
SPOJOVACÍ
  6
Continuous
100
AcDbLine
 10
2708.014656132574
 20
-4227.058311948915
 30
0.0
 11
2712.811066927777
 21
-4228.671088532157
 31
0.0
  0
LINE
  5
6AD0
330
1F
100
AcDbEntity
  8
SPOJOVACÍ
  6
Continuous
100
AcDbLine
 10
2713.258937850507
 20
-4228.223217606838
 30
0.0
 11
2712.811066927777
 21
-4227.963981972736
 31
0.0
  0
LINE
  5
6AD1
330
1F
100
AcDbEntity
  8
SPOJOVACÍ
  6
Continuous
100
AcDbLine
 10
2713.258937850507
 20
-4228.223217606838
 30
0.0
 11
2712.811066927777
 21
-4228.671088532157
 31
0.0
  0
LINE
  5
6AD2
330
1F
100
AcDbEntity
  8
SPOJOVACÍ
  6
Continuous
100
AcDbLine
 10
2707.566785204668
 20
-4226.800179445379
 30
0.0
 11
2708.014656132574
 21
-4226.35120538949
 31
0.0
  0
LINE
  5
6AD3
330
1F
100
AcDbEntity
  8
SPOJOVACÍ
  6
Continuous
100
AcDbLine
 10
2707.566785204668
 20
-4226.800179445379
 30
0.0
 11
2708.014656132574
 21
-4227.058311948915
 31
0.0
  0
LINE
  5
6AD4
330
1F
100
AcDbEntity
  8
SPOJOVACÍ
  6
Continuous
100
AcDbLine
 10
2707.566785204668
 20
-4226.800179445379
 30
0.0
 11
2713.258937850507
 21
-4228.223217606838
 31
0.0
  0
INSERT
  5
6AD5
330
1F
100
AcDbEntity
  8
POPIS
100
AcDbBlockReference
  2
E_PUNKT
 10
2709.776964442611
 20
-4235.430807977035
 30
0.0
 41
-1.0
 50
90.0
  0
LINE
  5
6AD6
330
1F
100
AcDbEntity
  8
SPOJOVACÍ
  6
Continuous
100
AcDbLine
 10
2708.199886107883
 20
-4257.234084051195
 30
0.0
 11
2708.590298329549
 21
-4257.459506341723
 31
0.0
  0
LINE
  5
6AD7
330
1F
100
AcDbEntity
  8
SPOJOVACÍ
  6
Continuous
100
AcDbLine
 10
2708.199886107883
 20
-4257.234084051195
 30
0.0
 11
2708.590298329549
 21
-4256.844631072655
 31
0.0
  0
LINE
  5
6AD8
330
1F
100
AcDbEntity
  8
SPOJOVACÍ
  6
Continuous
100
AcDbLine
 10
2712.454132312272
 20
-4258.237453054824
 30
0.0
 11
2712.064679335984
 21
-4258.627865277338
 31
0.0
  0
LINE
  5
6AD9
330
1F
100
AcDbEntity
  8
SPOJOVACÍ
  6
Continuous
100
AcDbLine
 10
2712.454132312272
 20
-4258.237453054824
 30
0.0
 11
2712.064679335984
 21
-4258.012990008274
 31
0.0
  0
LINE
  5
6ADA
330
1F
100
AcDbEntity
  8
SPOJOVACÍ
  6
Continuous
100
AcDbLine
 10
2708.590298329549
 20
-4257.459506341723
 30
0.0
 11
2712.064679335984
 21
-4258.627865277338
 31
0.0
  0
LINE
  5
6ADB
330
1F
100
AcDbEntity
  8
SPOJOVACÍ
  6
Continuous
100
AcDbLine
 10
2708.590298329549
 20
-4256.844631072655
 30
0.0
 11
2712.064679335984
 21
-4258.012990008274
 31
0.0
  0
LINE
  5
6ADC
330
1F
100
AcDbEntity
  8
SPOJOVACÍ
  6
Continuous
100
AcDbLine
 10
2708.199886107883
 20
-4257.234084051195
 30
0.0
 11
2712.454132312272
 21
-4258.237453054824
 31
0.0
  0
LINE
  5
6ADD
330
1F
100
AcDbEntity
  8
SPOJOVACÍ
  6
Continuous
100
AcDbLine
 10
2708.782147086051
 20
-4260.342993172815
 30
0.0
 11
2709.171600066841
 21
-4260.567456219365
 31
0.0
  0
LINE
  5
6ADE
330
1F
100
AcDbEntity
  8
SPOJOVACÍ
  6
Continuous
100
AcDbLine
 10
2708.782147086051
 20
-4260.342993172815
 30
0.0
 11
2709.171600066841
 21
-4259.952580950301
 31
0.0
  0
LINE
  5
6ADF
330
1F
100
AcDbEntity
  8
SPOJOVACÍ
  6
Continuous
100
AcDbLine
 10
2711.995613781124
 20
-4260.996238193232
 30
0.0
 11
2711.606160804833
 21
-4261.386650415462
 31
0.0
  0
LINE
  5
6AE0
330
1F
100
AcDbEntity
  8
SPOJOVACÍ
  6
Continuous
100
AcDbLine
 10
2711.995613781124
 20
-4260.996238193232
 30
0.0
 11
2711.606160804833
 21
-4260.771775146686
 31
0.0
  0
LINE
  5
6AE1
330
1F
100
AcDbEntity
  8
SPOJOVACÍ
  6
Continuous
100
AcDbLine
 10
2709.171600066841
 20
-4260.567456219365
 30
0.0
 11
2711.606160804833
 21
-4261.386650415462
 31
0.0
  0
LINE
  5
6AE2
330
1F
100
AcDbEntity
  8
SPOJOVACÍ
  6
Continuous
100
AcDbLine
 10
2709.171600066841
 20
-4259.952580950301
 30
0.0
 11
2711.606160804833
 21
-4260.771775146686
 31
0.0
  0
LINE
  5
6AE3
330
1F
100
AcDbEntity
  8
SPOJOVACÍ
  6
Continuous
100
AcDbLine
 10
2708.782147086051
 20
-4260.342993172815
 30
0.0
 11
2711.995613781124
 21
-4260.996238193232
 31
0.0
  0
LINE
  5
6AE4
330
1F
100
AcDbEntity
  8
SPOJOVACÍ
  6
Continuous
100
AcDbLine
 10
2709.364408068726
 20
-4263.450943050457
 30
0.0
 11
2709.753861045014
 21
-4263.676365340978
 31
0.0
  0
LINE
  5
6AE5
330
1F
100
AcDbEntity
  8
SPOJOVACÍ
  6
Continuous
100
AcDbLine
 10
2709.364408068726
 20
-4263.450943050457
 30
0.0
 11
2709.753861045014
 21
-4263.061490071921
 31
0.0
  0
LINE
  5
6AE6
330
1F
100
AcDbEntity
  8
SPOJOVACÍ
  6
Continuous
100
AcDbLine
 10
2711.586016683352
 20
-4263.7713304761
 30
0.0
 11
2711.196563707068
 21
-4264.161742698333
 31
0.0
  0
LINE
  5
6AE7
330
1F
100
AcDbEntity
  8
SPOJOVACÍ
  6
Continuous
100
AcDbLine
 10
2711.586016683352
 20
-4263.7713304761
 30
0.0
 11
2711.196563707068
 21
-4263.546867429269
 31
0.0
  0
LINE
  5
6AE8
330
1F
100
AcDbEntity
  8
SPOJOVACÍ
  6
Continuous
100
AcDbLine
 10
2709.753861045014
 20
-4263.676365340978
 30
0.0
 11
2711.196563707068
 21
-4264.161742698333
 31
0.0
  0
LINE
  5
6AE9
330
1F
100
AcDbEntity
  8
SPOJOVACÍ
  6
Continuous
100
AcDbLine
 10
2709.753861045014
 20
-4263.061490071921
 30
0.0
 11
2711.196563707068
 21
-4263.546867429269
 31
0.0
  0
LINE
  5
6AEA
330
1F
100
AcDbEntity
  8
SPOJOVACÍ
  6
Continuous
100
AcDbLine
 10
2709.364408068726
 20
-4263.450943050457
 30
0.0
 11
2711.586016683352
 21
-4263.7713304761
 31
0.0
  0
LINE
  5
6AEB
330
1F
100
AcDbEntity
  8
SPOJOVACÍ
  6
Continuous
100
AcDbLine
 10
2713.258937850507
 20
-4255.391136920837
 30
0.0
 11
2712.811066927777
 21
-4255.839007846158
 31
0.0
  0
LINE
  5
6AEC
330
1F
100
AcDbEntity
  8
SPOJOVACÍ
  6
Continuous
100
AcDbLine
 10
2713.258937850507
 20
-4255.391136920837
 30
0.0
 11
2712.811066927777
 21
-4255.131901286737
 31
0.0
  0
LINE
  5
6AED
330
1F
100
AcDbEntity
  8
SPOJOVACÍ
  6
Continuous
100
AcDbLine
 10
2708.014656132574
 20
-4254.226231262915
 30
0.0
 11
2712.811066927777
 21
-4255.839007846158
 31
0.0
  0
LINE
  5
6AEE
330
1F
100
AcDbEntity
  8
SPOJOVACÍ
  6
Continuous
100
AcDbLine
 10
2707.566785204668
 20
-4253.96809875938
 30
0.0
 11
2713.258937850507
 21
-4255.391136920837
 31
0.0
  0
LINE
  5
6AEF
330
1F
100
AcDbEntity
  8
SPOJOVACÍ
  6
Continuous
100
AcDbLine
 10
2707.566785204668
 20
-4253.96809875938
 30
0.0
 11
2708.014656132574
 21
-4254.226231262915
 31
0.0
  0
LINE
  5
6AF0
330
1F
100
AcDbEntity
  8
SPOJOVACÍ
  6
Continuous
100
AcDbLine
 10
2708.014656132574
 20
-4253.51912470349
 30
0.0
 11
2712.811066927777
 21
-4255.131901286737
 31
0.0
  0
LINE
  5
6AF1
330
1F
100
AcDbEntity
  8
SPOJOVACÍ
  6
DASHED
100
AcDbLine
 10
2710.412861527587
 20
-4264.194236221756
 30
0.0
 11
2708.701924027588
 21
-4251.488976098062
 31
0.0
  0
LINE
  5
6AF2
330
1F
100
AcDbEntity
  8
SPOJOVACÍ
  6
DASHED
100
AcDbLine
 10
2710.412861527587
 20
-4264.194236221756
 30
0.0
 11
2712.123799027587
 21
-4251.488976098062
 31
0.0
  0
LINE
  5
6AF3
330
1F
100
AcDbEntity
  8
SPOJOVACÍ
  6
CIKCAK
 48
0.25
100
AcDbLine
 10
2713.938327951062
 20
-4212.999812295659
 30
0.0
 11
2713.938327951062
 21
-4260.46419811099
 31
0.0
  0
LINE
  5
6AF4
330
1F
100
AcDbEntity
  8
SPOJOVACÍ
  6
CIKCAK
 48
0.25
100
AcDbLine
 10
2706.887395104113
 20
-4212.999812295659
 30
0.0
 11
2706.887395104113
 21
-4260.464198110994
 31
0.0
  0
LINE
  5
6AF5
330
1F
100
AcDbEntity
  8
SPOJOVACÍ
  6
Continuous
100
AcDbLine
 10
2707.566785207255
 20
-4213.216219789248
 30
0.0
 11
2713.258937853098
 21
-4214.639257950707
 31
0.0
  0
LINE
  5
6AF6
330
1F
100
AcDbEntity
  8
SPOJOVACÍ
  6
Continuous
100
AcDbLine
 10
2708.014656135161
 20
-4213.474352292783
 30
0.0
 11
2712.811066930368
 21
-4215.087128876026
 31
0.0
  0
LINE
  5
6AF7
330
1F
100
AcDbEntity
  8
SPOJOVACÍ
  6
Continuous
100
AcDbLine
 10
2708.014656135161
 20
-4212.767245733359
 30
0.0
 11
2712.811066930368
 21
-4214.380022316605
 31
0.0
  0
LINE
  5
6AF8
330
1F
100
AcDbEntity
  8
SPOJOVACÍ
  6
DASHED
100
AcDbLine
 10
2708.701924027588
 20
-4252.600126692801
 30
0.0
 11
2708.701924027588
 21
-4211.811941320562
 31
0.0
  0
LINE
  5
6AF9
330
1F
100
AcDbEntity
  8
SPOJOVACÍ
  6
DASHED
100
AcDbLine
 10
2712.123799027587
 20
-4252.600126692801
 30
0.0
 11
2712.123799027587
 21
-4211.811941320566
 31
0.0
  0
LINE
  5
6AFA
330
1F
100
AcDbEntity
  8
SPOJOVACÍ
  6
DASHDOT2
100
AcDbLine
 10
2710.412861527587
 20
-4197.290843651249
 30
0.0
 11
2710.412861527587
 21
-4265.696598860219
 31
0.0
  0
LINE
  5
6BB3
102
{ACAD_REACTORS
330
7A9C
102
}
330
1F
100
AcDbEntity
  8
SPOJOVACÍ
  6
Continuous
100
AcDbLine
 10
2766.285570763684
 20
-4140.00029619392
 30
0.0
 11
2762.247677634004
 21
-4140.00029619392
 31
0.0
  0
LINE
  5
6BB4
102
{ACAD_REACTORS
330
7A9C
102
}
330
1F
100
AcDbEntity
  8
SPOJOVACÍ
  6
Continuous
100
AcDbLine
 10
2762.463478418649
 20
-4140.672813292349
 30
0.0
 11
2761.103561405383
 21
-4136.628408932756
 31
0.0
  0
LINE
  5
6BB5
102
{ACAD_REACTORS
330
7A9C
102
}
330
1F
100
AcDbEntity
  8
SPOJOVACÍ
  6
Continuous
100
AcDbLine
 10
2762.084896869819
 20
-4141.050464667659
 30
0.0
 11
2762.463478418649
 21
-4140.672813292349
 31
0.0
  0
LINE
  5
6BB6
102
{ACAD_REACTORS
330
7A9C
330
7BFA
102
}
330
1F
100
AcDbEntity
  8
SPOJOVACÍ
  6
Continuous
100
AcDbLine
 10
2761.86723573377
 20
-4140.672813292349
 30
0.0
 11
2760.507318720228
 21
-4136.628408932756
 31
0.0
  0
LINE
  5
6BB7
102
{ACAD_REACTORS
330
7A9C
330
7BFA
102
}
330
1F
100
AcDbEntity
  8
SPOJOVACÍ
  6
Continuous
100
AcDbLine
 10
2761.652365124827
 20
-4140.00029619392
 30
0.0
 11
2759.133449069798
 21
-4140.00029619392
 31
0.0
  0
LINE
  5
6BB8
102
{ACAD_REACTORS
330
7A9C
102
}
330
1F
100
AcDbEntity
  8
SPOJOVACÍ
  6
Continuous
100
AcDbLine
 10
2760.884970093356
 20
-4136.250757561811
 30
0.0
 11
2761.103561405383
 21
-4136.628408932756
 31
0.0
  0
LINE
  5
6BB9
102
{ACAD_REACTORS
330
7A9C
102
}
330
1F
100
AcDbEntity
  8
SPOJOVACÍ
  6
Continuous
100
AcDbLine
 10
2766.285570763684
 20
-4137.300926031184
 30
0.0
 11
2761.342616584755
 21
-4137.300926031184
 31
0.0
  0
LINE
  5
6BBA
102
{ACAD_REACTORS
330
7BFA
102
}
330
1F
100
AcDbEntity
  8
SPOJOVACÍ
  6
Continuous
100
AcDbLine
 10
2751.379503636271
 20
-4137.300926031184
 30
0.0
 11
2748.860587581242
 21
-4137.300926031184
 31
0.0
  0
LINE
  5
6BBB
102
{ACAD_REACTORS
330
7BFA
102
}
330
1F
100
AcDbEntity
  8
SPOJOVACÍ
  6
Continuous
100
AcDbLine
 10
2752.50687670063
 20
-4140.672813292349
 30
0.0
 11
2751.146959687357
 21
-4136.628408932756
 31
0.0
  0
LINE
  5
6BBC
102
{ACAD_REACTORS
330
7BFA
102
}
330
1F
100
AcDbEntity
  8
SPOJOVACÍ
  6
Continuous
100
AcDbLine
 10
2751.525541236187
 20
-4136.250757561811
 30
0.0
 11
2751.146959687357
 21
-4136.628408932756
 31
0.0
  0
LINE
  5
6BBD
102
{ACAD_REACTORS
330
7BFA
102
}
330
1F
100
AcDbEntity
  8
SPOJOVACÍ
  6
Continuous
100
AcDbLine
 10
2753.103119385777
 20
-4140.672813292349
 30
0.0
 11
2751.743202372235
 21
-4136.628408932756
 31
0.0
  0
LINE
  5
6BBE
102
{ACAD_REACTORS
330
7BFA
102
}
330
1F
100
AcDbEntity
  8
SPOJOVACÍ
  6
Continuous
100
AcDbLine
 10
2754.501173606913
 20
-4137.300926031184
 30
0.0
 11
2751.980397200204
 21
-4137.300926031184
 31
0.0
  0
LINE
  5
6BBF
102
{ACAD_REACTORS
330
7BFA
102
}
330
1F
100
AcDbEntity
  8
SPOJOVACÍ
  6
Continuous
100
AcDbLine
 10
2755.626686319592
 20
-4140.672813292349
 30
0.0
 11
2754.266769306326
 21
-4136.628408932756
 31
0.0
  0
LINE
  5
6BC0
102
{ACAD_REACTORS
330
7BFA
102
}
330
1F
100
AcDbEntity
  8
SPOJOVACÍ
  6
Continuous
100
AcDbLine
 10
2754.645350855156
 20
-4136.250757561811
 30
0.0
 11
2754.266769306326
 21
-4136.628408932756
 31
0.0
  0
LINE
  5
6BC1
102
{ACAD_REACTORS
330
7BFA
102
}
330
1F
100
AcDbEntity
  8
SPOJOVACÍ
  6
Continuous
100
AcDbLine
 10
2756.222929004747
 20
-4140.672813292349
 30
0.0
 11
2754.863011991473
 21
-4136.628408932756
 31
0.0
  0
LINE
  5
6BC2
102
{ACAD_REACTORS
330
7BFA
102
}
330
1F
100
AcDbEntity
  8
SPOJOVACÍ
  6
Continuous
100
AcDbLine
 10
2757.623773753257
 20
-4137.300926031184
 30
0.0
 11
2755.095555940387
 21
-4137.300926031184
 31
0.0
  0
LINE
  5
6BC3
102
{ACAD_REACTORS
330
7BFA
102
}
330
1F
100
AcDbEntity
  8
SPOJOVACÍ
  6
Continuous
100
AcDbLine
 10
2758.74649593883
 20
-4140.672813292349
 30
0.0
 11
2757.387509101266
 21
-4136.628408932756
 31
0.0
  0
LINE
  5
6BC4
102
{ACAD_REACTORS
330
7BFA
102
}
330
1F
100
AcDbEntity
  8
SPOJOVACÍ
  6
Continuous
100
AcDbLine
 10
2757.765160474118
 20
-4136.250757561811
 30
0.0
 11
2757.387509101266
 21
-4136.628408932756
 31
0.0
  0
LINE
  5
6BC5
102
{ACAD_REACTORS
330
7BFA
102
}
330
1F
100
AcDbEntity
  8
SPOJOVACÍ
  6
Continuous
100
AcDbLine
 10
2759.342738623985
 20
-4140.672813292349
 30
0.0
 11
2757.983751786145
 21
-4136.628408932756
 31
0.0
  0
LINE
  5
6BC6
102
{ACAD_REACTORS
330
7BFA
102
}
330
1F
100
AcDbEntity
  8
SPOJOVACÍ
  6
Continuous
100
AcDbLine
 10
2760.73893249344
 20
-4137.300926031184
 30
0.0
 11
2758.220016438412
 21
-4137.300926031184
 31
0.0
  0
LINE
  5
6BC7
102
{ACAD_REACTORS
330
7BFA
102
}
330
1F
100
AcDbEntity
  8
SPOJOVACÍ
  6
Continuous
100
AcDbLine
 10
2760.884970093356
 20
-4136.250757561811
 30
0.0
 11
2760.507318720228
 21
-4136.628408932756
 31
0.0
  0
LINE
  5
6BC8
102
{ACAD_REACTORS
330
7BFA
102
}
330
1F
100
AcDbEntity
  8
SPOJOVACÍ
  6
Continuous
100
AcDbLine
 10
2758.965087250857
 20
-4141.050464667659
 30
0.0
 11
2759.342738623985
 21
-4140.672813292349
 31
0.0
  0
LINE
  5
6BC9
102
{ACAD_REACTORS
330
7BFA
102
}
330
1F
100
AcDbEntity
  8
SPOJOVACÍ
  6
Continuous
100
AcDbLine
 10
2758.529764978483
 20
-4140.00029619392
 30
0.0
 11
2756.008988571775
 21
-4140.00029619392
 31
0.0
  0
LINE
  5
6BCA
102
{ACAD_REACTORS
330
7BFA
102
}
330
1F
100
AcDbEntity
  8
SPOJOVACÍ
  6
Continuous
100
AcDbLine
 10
2755.845277631618
 20
-4141.050464667659
 30
0.0
 11
2756.222929004747
 21
-4140.672813292349
 31
0.0
  0
LINE
  5
6BCB
102
{ACAD_REACTORS
330
7BFA
102
}
330
1F
100
AcDbEntity
  8
SPOJOVACÍ
  6
Continuous
100
AcDbLine
 10
2755.4146062383
 20
-4140.00029619392
 30
0.0
 11
2752.886388425431
 21
-4140.00029619392
 31
0.0
  0
LINE
  5
6BCC
102
{ACAD_REACTORS
330
7BFA
102
}
330
1F
100
AcDbEntity
  8
SPOJOVACÍ
  6
Continuous
100
AcDbLine
 10
2752.725468012649
 20
-4141.050464667659
 30
0.0
 11
2753.103119385777
 21
-4140.672813292349
 31
0.0
  0
LINE
  5
6BCD
102
{ACAD_REACTORS
330
7BFA
102
}
330
1F
100
AcDbEntity
  8
SPOJOVACÍ
  6
Continuous
100
AcDbLine
 10
2752.281774158145
 20
-4140.00029619392
 30
0.0
 11
2749.763788278818
 21
-4140.00029619392
 31
0.0
  0
LINE
  5
6BCE
102
{ACAD_REACTORS
330
7BFA
102
}
330
1F
100
AcDbEntity
  8
SPOJOVACÍ
  6
Continuous
100
AcDbLine
 10
2749.983309766816
 20
-4140.672813292349
 30
0.0
 11
2748.623392753273
 21
-4136.628408932756
 31
0.0
  0
LINE
  5
6BCF
102
{ACAD_REACTORS
330
7BFA
102
}
330
1F
100
AcDbEntity
  8
SPOJOVACÍ
  6
Continuous
100
AcDbLine
 10
2749.604728217709
 20
-4141.050464667659
 30
0.0
 11
2749.983309766816
 21
-4140.672813292349
 31
0.0
  0
LINE
  5
6BD0
102
{ACAD_REACTORS
330
7BFA
102
}
330
1F
100
AcDbEntity
  8
SPOJOVACÍ
  6
Continuous
100
AcDbLine
 10
2749.387067081661
 20
-4140.672813292349
 30
0.0
 11
2748.027150068118
 21
-4136.628408932756
 31
0.0
  0
LINE
  5
6BD1
102
{ACAD_REACTORS
330
7BFA
102
}
330
1F
100
AcDbEntity
  8
SPOJOVACÍ
  6
Continuous
100
AcDbLine
 10
2749.167545593663
 20
-4140.00029619392
 30
0.0
 11
2747.920179851774
 21
-4140.00029619392
 31
0.0
  0
LINE
  5
6BD2
330
1F
100
AcDbEntity
  8
SPOJOVACÍ
  6
Continuous
100
AcDbLine
 10
2749.604728217709
 20
-4141.050464667659
 30
0.0
 11
2748.404801441246
 21
-4136.250757561811
 31
0.0
  0
LINE
  5
6BD3
330
1F
100
AcDbEntity
  8
SPOJOVACÍ
  6
Continuous
100
AcDbLine
 10
2754.645350855156
 20
-4136.250757561811
 30
0.0
 11
2754.863011991473
 21
-4136.628408932756
 31
0.0
  0
LINE
  5
6BD4
330
1F
100
AcDbEntity
  8
SPOJOVACÍ
  6
Continuous
100
AcDbLine
 10
2752.725468012649
 20
-4141.050464667659
 30
0.0
 11
2751.525541236187
 21
-4136.250757561811
 31
0.0
  0
LINE
  5
6BD5
330
1F
100
AcDbEntity
  8
SPOJOVACÍ
  6
Continuous
100
AcDbLine
 10
2752.725468012649
 20
-4141.050464667659
 30
0.0
 11
2752.50687670063
 21
-4140.672813292349
 31
0.0
  0
LINE
  5
6BD6
330
1F
100
AcDbEntity
  8
SPOJOVACÍ
  6
Continuous
100
AcDbLine
 10
2751.525541236187
 20
-4136.250757561811
 30
0.0
 11
2751.743202372235
 21
-4136.628408932756
 31
0.0
  0
LINE
  5
6BD7
330
1F
100
AcDbEntity
  8
SPOJOVACÍ
  6
Continuous
100
AcDbLine
 10
2749.604728217709
 20
-4141.050464667659
 30
0.0
 11
2749.387067081661
 21
-4140.672813292349
 31
0.0
  0
LINE
  5
6BD8
330
1F
100
AcDbEntity
  8
SPOJOVACÍ
  6
Continuous
100
AcDbLine
 10
2748.256903489658
 20
-4137.300926031184
 30
0.0
 11
2747.920179851774
 21
-4137.300926031184
 31
0.0
  0
LINE
  5
6BD9
330
1F
100
AcDbEntity
  8
SPOJOVACÍ
  6
Continuous
100
AcDbLine
 10
2747.920179851774
 20
-4140.00029619392
 30
0.0
 11
2746.723043602418
 21
-4139.850537891198
 31
0.0
  0
LINE
  5
6BDA
330
1F
100
AcDbEntity
  8
SPOJOVACÍ
  6
Continuous
100
AcDbLine
 10
2737.119908686821
 20
-4138.650611114735
 30
0.0
 11
2739.95601468809
 21
-4138.296214133606
 31
0.0
  0
LINE
  5
6BDB
330
1F
100
AcDbEntity
  8
SPOJOVACÍ
  6
Continuous
100
AcDbLine
 10
2746.102616346564
 20
-4139.773333298672
 30
0.0
 11
2743.780897560499
 21
-4139.483118449152
 31
0.0
  0
LINE
  5
6BDC
330
1F
100
AcDbEntity
  8
SPOJOVACÍ
  6
Continuous
100
AcDbLine
 10
2743.150238370835
 20
-4139.404053506313
 30
0.0
 11
2740.82944976048
 21
-4139.11383866116
 31
0.0
  0
LINE
  5
6BDD
330
1F
100
AcDbEntity
  8
SPOJOVACÍ
  6
Continuous
100
AcDbLine
 10
2740.209022504626
 20
-4139.036634068633
 30
0.0
 11
2737.119908686821
 21
-4138.650611114735
 31
0.0
  0
LINE
  5
6BDE
330
1F
100
AcDbEntity
  8
SPOJOVACÍ
  6
Continuous
100
AcDbLine
 10
2740.525282275156
 20
-4138.224590596382
 30
0.0
 11
2742.670267660141
 21
-4137.956699968071
 31
0.0
  0
LINE
  5
6BDF
330
1F
100
AcDbEntity
  8
SPOJOVACÍ
  6
Continuous
100
AcDbLine
 10
2743.242325774589
 20
-4137.885076435213
 30
0.0
 11
2745.378939577443
 21
-4137.618115979876
 31
0.0
  0
LINE
  5
6BE0
330
1F
100
AcDbEntity
  8
SPOJOVACÍ
  6
Continuous
100
AcDbLine
 10
2745.949137340488
 20
-4137.546492442652
 30
0.0
 11
2747.920179851774
 21
-4137.300926031184
 31
0.0
  0
LINE
  5
6BE1
330
1F
100
AcDbEntity
  8
SPOJOVACÍ
  6
Continuous
100
AcDbLine
 10
2746.527706685395
 20
-4140.796526673239
 30
0.0
 11
2746.309115373369
 21
-4140.417945124954
 31
0.0
  0
LINE
  5
6BE2
330
1F
100
AcDbEntity
  8
SPOJOVACÍ
  6
Continuous
100
AcDbLine
 10
2746.527706685395
 20
-4140.796526673239
 30
0.0
 11
2746.905358058524
 21
-4140.417945124954
 31
0.0
  0
LINE
  5
6BE3
330
1F
100
AcDbEntity
  8
SPOJOVACÍ
  6
Continuous
100
AcDbLine
 10
2745.554742803091
 20
-4136.671197020496
 30
0.0
 11
2745.176161253984
 21
-4137.048848391441
 31
0.0
  0
LINE
  5
6BE4
330
1F
100
AcDbEntity
  8
SPOJOVACÍ
  6
Continuous
100
AcDbLine
 10
2745.554742803091
 20
-4136.671197020496
 30
0.0
 11
2745.772403939139
 21
-4137.048848391441
 31
0.0
  0
LINE
  5
6BE5
330
1F
100
AcDbEntity
  8
SPOJOVACÍ
  6
Continuous
100
AcDbLine
 10
2746.309115373369
 20
-4140.417945124954
 30
0.0
 11
2745.176161253984
 21
-4137.048848391441
 31
0.0
  0
LINE
  5
6BE6
330
1F
100
AcDbEntity
  8
SPOJOVACÍ
  6
Continuous
100
AcDbLine
 10
2746.905358058524
 20
-4140.417945124954
 30
0.0
 11
2745.772403939139
 21
-4137.048848391441
 31
0.0
  0
LINE
  5
6BE7
330
1F
100
AcDbEntity
  8
SPOJOVACÍ
  6
Continuous
100
AcDbLine
 10
2746.527706685395
 20
-4140.796526673239
 30
0.0
 11
2745.554742803091
 21
-4136.671197020496
 31
0.0
  0
LINE
  5
6BE8
330
1F
100
AcDbEntity
  8
SPOJOVACÍ
  6
Continuous
100
AcDbLine
 10
2743.513006931097
 20
-4140.231909967133
 30
0.0
 11
2743.295345795049
 21
-4139.854258591822
 31
0.0
  0
LINE
  5
6BE9
330
1F
100
AcDbEntity
  8
SPOJOVACÍ
  6
Continuous
100
AcDbLine
 10
2743.513006931097
 20
-4140.231909967133
 30
0.0
 11
2743.891588480204
 21
-4139.854258591822
 31
0.0
  0
LINE
  5
6BEA
330
1F
100
AcDbEntity
  8
SPOJOVACÍ
  6
Continuous
100
AcDbLine
 10
2742.879557214327
 20
-4137.115821050701
 30
0.0
 11
2742.500975665497
 21
-4137.493472421647
 31
0.0
  0
LINE
  5
6BEB
330
1F
100
AcDbEntity
  8
SPOJOVACÍ
  6
Continuous
100
AcDbLine
 10
2742.879557214327
 20
-4137.115821050701
 30
0.0
 11
2743.097218350376
 21
-4137.493472421647
 31
0.0
  0
LINE
  5
6BEC
330
1F
100
AcDbEntity
  8
SPOJOVACÍ
  6
Continuous
100
AcDbLine
 10
2743.295345795049
 20
-4139.854258591822
 30
0.0
 11
2742.500975665497
 21
-4137.493472421647
 31
0.0
  0
LINE
  5
6BED
330
1F
100
AcDbEntity
  8
SPOJOVACÍ
  6
Continuous
100
AcDbLine
 10
2743.891588480204
 20
-4139.854258591822
 30
0.0
 11
2743.097218350376
 21
-4137.493472421647
 31
0.0
  0
LINE
  5
6BEE
330
1F
100
AcDbEntity
  8
SPOJOVACÍ
  6
Continuous
100
AcDbLine
 10
2743.513006931097
 20
-4140.231909967133
 30
0.0
 11
2742.879557214327
 21
-4137.115821050701
 31
0.0
  0
LINE
  5
6BEF
330
1F
100
AcDbEntity
  8
SPOJOVACÍ
  6
Continuous
100
AcDbLine
 10
2740.499237352778
 20
-4139.667293256661
 30
0.0
 11
2740.280646040758
 21
-4139.289641885716
 31
0.0
  0
LINE
  5
6BF0
330
1F
100
AcDbEntity
  8
SPOJOVACÍ
  6
Continuous
100
AcDbLine
 10
2740.499237352778
 20
-4139.667293256661
 30
0.0
 11
2740.876888725906
 21
-4139.289641885716
 31
0.0
  0
LINE
  5
6BF1
330
1F
100
AcDbEntity
  8
SPOJOVACÍ
  6
Continuous
100
AcDbLine
 10
2740.188558637004
 20
-4137.513006115205
 30
0.0
 11
2739.809977088174
 21
-4137.89065748615
 31
0.0
  0
LINE
  5
6BF2
330
1F
100
AcDbEntity
  8
SPOJOVACÍ
  6
Continuous
100
AcDbLine
 10
2740.188558637004
 20
-4137.513006115205
 30
0.0
 11
2740.406219773321
 21
-4137.89065748615
 31
0.0
  0
LINE
  5
6BF3
330
1F
100
AcDbEntity
  8
SPOJOVACÍ
  6
Continuous
100
AcDbLine
 10
2740.280646040758
 20
-4139.289641885716
 30
0.0
 11
2739.809977088174
 21
-4137.89065748615
 31
0.0
  0
LINE
  5
6BF4
330
1F
100
AcDbEntity
  8
SPOJOVACÍ
  6
Continuous
100
AcDbLine
 10
2740.876888725906
 20
-4139.289641885716
 30
0.0
 11
2740.406219773321
 21
-4137.89065748615
 31
0.0
  0
LINE
  5
6BF5
330
1F
100
AcDbEntity
  8
SPOJOVACÍ
  6
Continuous
100
AcDbLine
 10
2740.499237352778
 20
-4139.667293256661
 30
0.0
 11
2740.188558637004
 21
-4137.513006115205
 31
0.0
  0
LINE
  5
6BF6
330
1F
100
AcDbEntity
  8
SPOJOVACÍ
  6
Continuous
100
AcDbLine
 10
2748.404801441246
 20
-4136.250757561811
 30
0.0
 11
2748.027150068118
 21
-4136.628408932756
 31
0.0
  0
LINE
  5
6BF7
330
1F
100
AcDbEntity
  8
SPOJOVACÍ
  6
Continuous
100
AcDbLine
 10
2748.404801441246
 20
-4136.250757561811
 30
0.0
 11
2748.623392753273
 21
-4136.628408932756
 31
0.0
  0
LINE
  5
6BF8
330
1F
100
AcDbEntity
  8
SPOJOVACÍ
  6
Continuous
100
AcDbLine
 10
2762.084896869819
 20
-4141.050464667659
 30
0.0
 11
2760.884970093356
 21
-4136.250757561811
 31
0.0
  0
LINE
  5
6BF9
330
1F
100
AcDbEntity
  8
SPOJOVACÍ
  6
Continuous
100
AcDbLine
 10
2762.084896869819
 20
-4141.050464667659
 30
0.0
 11
2761.86723573377
 21
-4140.672813292349
 31
0.0
  0
LINE
  5
6BFA
330
1F
100
AcDbEntity
  8
SPOJOVACÍ
  6
Continuous
100
AcDbLine
 10
2758.965087250857
 20
-4141.050464667659
 30
0.0
 11
2757.765160474118
 21
-4136.250757561811
 31
0.0
  0
LINE
  5
6BFB
330
1F
100
AcDbEntity
  8
SPOJOVACÍ
  6
Continuous
100
AcDbLine
 10
2758.965087250857
 20
-4141.050464667659
 30
0.0
 11
2758.74649593883
 21
-4140.672813292349
 31
0.0
  0
LINE
  5
6BFC
330
1F
100
AcDbEntity
  8
SPOJOVACÍ
  6
Continuous
100
AcDbLine
 10
2757.765160474118
 20
-4136.250757561811
 30
0.0
 11
2757.983751786145
 21
-4136.628408932756
 31
0.0
  0
LINE
  5
6BFD
330
1F
100
AcDbEntity
  8
SPOJOVACÍ
  6
Continuous
100
AcDbLine
 10
2755.845277631618
 20
-4141.050464667659
 30
0.0
 11
2755.626686319592
 21
-4140.672813292349
 31
0.0
  0
LINE
  5
6BFE
330
1F
100
AcDbEntity
  8
SPOJOVACÍ
  6
Continuous
100
AcDbLine
 10
2755.845277631618
 20
-4141.050464667659
 30
0.0
 11
2754.645350855156
 21
-4136.250757561811
 31
0.0
  0
LINE
  5
6BFF
102
{ACAD_REACTORS
330
7BFA
102
}
330
1F
100
AcDbEntity
  8
SPOJOVACÍ
  6
Continuous
100
AcDbLine
 10
2748.884970093364
 20
-4152.601421455529
 30
0.0
 11
2749.103561405391
 21
-4152.979072826474
 31
0.0
  0
LINE
  5
6C00
102
{ACAD_REACTORS
330
7BFA
102
}
330
1F
100
AcDbEntity
  8
SPOJOVACÍ
  6
Continuous
100
AcDbLine
 10
2750.463478418656
 20
-4157.023477186068
 30
0.0
 11
2749.103561405391
 21
-4152.979072826474
 31
0.0
  0
LINE
  5
6C01
102
{ACAD_REACTORS
330
7BFA
102
}
330
1F
100
AcDbEntity
  8
SPOJOVACÍ
  6
Continuous
100
AcDbLine
 10
2754.285570763691
 20
-4153.651589924903
 30
0.0
 11
2749.342616584763
 21
-4153.651589924903
 31
0.0
  0
LINE
  5
6C02
102
{ACAD_REACTORS
330
7BFA
102
}
330
1F
100
AcDbEntity
  8
SPOJOVACÍ
  6
Continuous
100
AcDbLine
 10
2754.285570763691
 20
-4153.651589924903
 30
0.0
 11
2755.809198717121
 21
-4153.424627034019
 31
0.0
  0
LINE
  5
6C03
102
{ACAD_REACTORS
330
7BFA
102
}
330
1F
100
AcDbEntity
  8
SPOJOVACÍ
  6
Continuous
100
AcDbLine
 10
2755.809198717121
 20
-4153.424627034019
 30
0.0
 11
2757.223065926824
 21
-4152.811641184872
 31
0.0
  0
LINE
  5
6C04
102
{ACAD_REACTORS
330
7BFA
102
}
330
1F
100
AcDbEntity
  8
SPOJOVACÍ
  6
Continuous
100
AcDbLine
 10
2757.223065926824
 20
-4152.811641184872
 30
0.0
 11
2758.430434109723
 21
-4151.853560114887
 31
0.0
  0
LINE
  5
6C05
102
{ACAD_REACTORS
330
7BFA
102
}
330
1F
100
AcDbEntity
  8
SPOJOVACÍ
  6
Continuous
100
AcDbLine
 10
2758.430434109723
 20
-4151.853560114887
 30
0.0
 11
2759.348517620165
 21
-4150.616426305988
 31
0.0
  0
LINE
  5
6C06
102
{ACAD_REACTORS
330
7BFA
102
}
330
1F
100
AcDbEntity
  8
SPOJOVACÍ
  6
Continuous
100
AcDbLine
 10
2759.348517620165
 20
-4150.616426305988
 30
0.0
 11
2759.685241258048
 21
-4149.90112111982
 31
0.0
  0
LINE
  5
6C07
102
{ACAD_REACTORS
330
7BFA
102
}
330
1F
100
AcDbEntity
  8
SPOJOVACÍ
  6
Continuous
100
AcDbLine
 10
2760.885168034779
 20
-4149.90112111982
 30
0.0
 11
2759.685241258048
 21
-4149.90112111982
 31
0.0
  0
LINE
  5
6C08
102
{ACAD_REACTORS
330
7BFA
102
}
330
1F
100
AcDbEntity
  8
SPOJOVACÍ
  6
Continuous
100
AcDbLine
 10
2760.885168034779
 20
-4160.101428897088
 30
0.0
 11
2759.685241258048
 21
-4160.101428897088
 31
0.0
  0
LINE
  5
6C09
102
{ACAD_REACTORS
330
7BFA
102
}
330
1F
100
AcDbEntity
  8
SPOJOVACÍ
  6
Continuous
100
AcDbLine
 10
2759.685241258048
 20
-4160.101428897088
 30
0.0
 11
2758.941100621574
 21
-4158.751743813537
 31
0.0
  0
LINE
  5
6C0A
102
{ACAD_REACTORS
330
7BFA
102
}
330
1F
100
AcDbEntity
  8
SPOJOVACÍ
  6
Continuous
100
AcDbLine
 10
2758.941100621574
 20
-4158.751743813537
 30
0.0
 11
2757.872328632162
 21
-4157.641113913178
 31
0.0
  0
LINE
  5
6C0B
102
{ACAD_REACTORS
330
7BFA
102
}
330
1F
100
AcDbEntity
  8
SPOJOVACÍ
  6
Continuous
100
AcDbLine
 10
2757.872328632162
 20
-4157.641113913178
 30
0.0
 11
2756.553339353864
 21
-4156.84488343386
 31
0.0
  0
LINE
  5
6C0C
102
{ACAD_REACTORS
330
7BFA
102
}
330
1F
100
AcDbEntity
  8
SPOJOVACÍ
  6
Continuous
100
AcDbLine
 10
2756.553339353864
 20
-4156.84488343386
 30
0.0
 11
2755.072499486814
 21
-4156.41700256956
 31
0.0
  0
LINE
  5
6C0D
102
{ACAD_REACTORS
330
7BFA
102
}
330
1F
100
AcDbEntity
  8
SPOJOVACÍ
  6
Continuous
100
AcDbLine
 10
2755.072499486814
 20
-4156.41700256956
 30
0.0
 11
2754.285570763691
 21
-4156.350960087639
 31
0.0
  0
LINE
  5
6C0E
102
{ACAD_REACTORS
330
7BFA
102
}
330
1F
100
AcDbEntity
  8
SPOJOVACÍ
  6
Continuous
100
AcDbLine
 10
2754.285570763691
 20
-4156.350960087639
 30
0.0
 11
2750.247677634011
 21
-4156.350960087639
 31
0.0
  0
LINE
  5
6C0F
102
{ACAD_REACTORS
330
7BFA
102
}
330
1F
100
AcDbEntity
  8
SPOJOVACÍ
  6
Continuous
100
AcDbLine
 10
2750.084896869826
 20
-4157.401128561378
 30
0.0
 11
2750.463478418656
 21
-4157.023477186068
 31
0.0
  0
LINE
  5
6C10
102
{ACAD_REACTORS
330
7BFA
102
}
330
1F
100
AcDbEntity
  8
SPOJOVACÍ
  6
Continuous
100
AcDbLine
 10
2749.867235733778
 20
-4157.023477186068
 30
0.0
 11
2748.507318720236
 21
-4152.979072826474
 31
0.0
  0
LINE
  5
6C11
102
{ACAD_REACTORS
330
7BFA
102
}
330
1F
100
AcDbEntity
  8
SPOJOVACÍ
  6
Continuous
100
AcDbLine
 10
2749.652365124835
 20
-4156.350960087639
 30
0.0
 11
2747.133449069806
 21
-4156.350960087639
 31
0.0
  0
LINE
  5
6C12
330
1F
100
AcDbEntity
  8
SPOJOVACÍ
  6
Continuous
100
AcDbLine
 10
2744.222929004754
 20
-4157.023477186068
 30
0.0
 11
2742.863011991481
 21
-4152.979072826474
 31
0.0
  0
LINE
  5
6C13
330
1F
100
AcDbEntity
  8
SPOJOVACÍ
  6
Continuous
100
AcDbLine
 10
2743.626686319599
 20
-4157.023477186068
 30
0.0
 11
2742.266769306334
 21
-4152.979072826474
 31
0.0
  0
LINE
  5
6C14
330
1F
100
AcDbEntity
  8
SPOJOVACÍ
  6
Continuous
100
AcDbLine
 10
2743.845277631626
 20
-4157.401128561378
 30
0.0
 11
2742.645350855164
 21
-4152.601421455529
 31
0.0
  0
LINE
  5
6C15
330
1F
100
AcDbEntity
  8
SPOJOVACÍ
  6
Continuous
100
AcDbLine
 10
2745.623773753264
 20
-4153.651589924903
 30
0.0
 11
2743.095555940395
 21
-4153.651589924903
 31
0.0
  0
LINE
  5
6C16
330
1F
100
AcDbEntity
  8
SPOJOVACÍ
  6
Continuous
100
AcDbLine
 10
2743.845277631626
 20
-4157.401128561378
 30
0.0
 11
2744.222929004754
 21
-4157.023477186068
 31
0.0
  0
LINE
  5
6C17
330
1F
100
AcDbEntity
  8
SPOJOVACÍ
  6
Continuous
100
AcDbLine
 10
2743.845277631626
 20
-4157.401128561378
 30
0.0
 11
2743.626686319599
 21
-4157.023477186068
 31
0.0
  0
LINE
  5
6C18
330
1F
100
AcDbEntity
  8
SPOJOVACÍ
  6
Continuous
100
AcDbLine
 10
2747.342738623993
 20
-4157.023477186068
 30
0.0
 11
2745.983751786152
 21
-4152.979072826474
 31
0.0
  0
LINE
  5
6C19
330
1F
100
AcDbEntity
  8
SPOJOVACÍ
  6
Continuous
100
AcDbLine
 10
2746.746495938838
 20
-4157.023477186068
 30
0.0
 11
2745.387509101274
 21
-4152.979072826474
 31
0.0
  0
LINE
  5
6C1A
330
1F
100
AcDbEntity
  8
SPOJOVACÍ
  6
Continuous
100
AcDbLine
 10
2745.765160474125
 20
-4152.601421455529
 30
0.0
 11
2745.983751786152
 21
-4152.979072826474
 31
0.0
  0
LINE
  5
6C1B
330
1F
100
AcDbEntity
  8
SPOJOVACÍ
  6
Continuous
100
AcDbLine
 10
2745.765160474125
 20
-4152.601421455529
 30
0.0
 11
2745.387509101274
 21
-4152.979072826474
 31
0.0
  0
LINE
  5
6C1C
330
1F
100
AcDbEntity
  8
SPOJOVACÍ
  6
Continuous
100
AcDbLine
 10
2746.965087250865
 20
-4157.401128561378
 30
0.0
 11
2747.342738623993
 21
-4157.023477186068
 31
0.0
  0
LINE
  5
6C1D
330
1F
100
AcDbEntity
  8
SPOJOVACÍ
  6
Continuous
100
AcDbLine
 10
2746.965087250865
 20
-4157.401128561378
 30
0.0
 11
2746.746495938838
 21
-4157.023477186068
 31
0.0
  0
LINE
  5
6C1E
330
1F
100
AcDbEntity
  8
SPOJOVACÍ
  6
Continuous
100
AcDbLine
 10
2746.965087250865
 20
-4157.401128561378
 30
0.0
 11
2745.765160474125
 21
-4152.601421455529
 31
0.0
  0
LINE
  5
6C1F
330
1F
100
AcDbEntity
  8
SPOJOVACÍ
  6
Continuous
100
AcDbLine
 10
2748.884970093364
 20
-4152.601421455529
 30
0.0
 11
2748.507318720236
 21
-4152.979072826474
 31
0.0
  0
LINE
  5
6C20
330
1F
100
AcDbEntity
  8
SPOJOVACÍ
  6
Continuous
100
AcDbLine
 10
2750.084896869826
 20
-4157.401128561378
 30
0.0
 11
2749.867235733778
 21
-4157.023477186068
 31
0.0
  0
LINE
  5
6C21
330
1F
100
AcDbEntity
  8
SPOJOVACÍ
  6
Continuous
100
AcDbLine
 10
2750.084896869826
 20
-4157.401128561378
 30
0.0
 11
2748.884970093364
 21
-4152.601421455529
 31
0.0
  0
LINE
  5
6C22
330
1F
100
AcDbEntity
  8
SPOJOVACÍ
  6
Continuous
100
AcDbLine
 10
2748.738932493448
 20
-4153.651589924903
 30
0.0
 11
2746.220016438419
 21
-4153.651589924903
 31
0.0
  0
LINE
  5
6C23
330
1F
100
AcDbEntity
  8
SPOJOVACÍ
  6
Continuous
100
AcDbLine
 10
2746.529764978491
 20
-4156.350960087639
 30
0.0
 11
2744.008988571782
 21
-4156.350960087639
 31
0.0
  0
LINE
  5
6C24
330
1F
100
AcDbEntity
  8
SPOJOVACÍ
  6
Continuous
100
AcDbLine
 10
2736.404801441254
 20
-4152.601421455529
 30
0.0
 11
2736.623392753281
 21
-4152.979072826474
 31
0.0
  0
LINE
  5
6C25
330
1F
100
AcDbEntity
  8
SPOJOVACÍ
  6
Continuous
100
AcDbLine
 10
2736.404801441254
 20
-4152.601421455529
 30
0.0
 11
2736.027150068126
 21
-4152.979072826474
 31
0.0
  0
LINE
  5
6C26
330
1F
100
AcDbEntity
  8
SPOJOVACÍ
  6
Continuous
100
AcDbLine
 10
2728.499237352785
 20
-4156.01795715038
 30
0.0
 11
2728.188558637012
 21
-4153.863670008923
 31
0.0
  0
LINE
  5
6C27
330
1F
100
AcDbEntity
  8
SPOJOVACÍ
  6
Continuous
100
AcDbLine
 10
2728.876888725913
 20
-4155.640305779434
 30
0.0
 11
2728.406219773329
 21
-4154.241321379869
 31
0.0
  0
LINE
  5
6C28
330
1F
100
AcDbEntity
  8
SPOJOVACÍ
  6
Continuous
100
AcDbLine
 10
2728.280646040766
 20
-4155.640305779434
 30
0.0
 11
2727.809977088182
 21
-4154.241321379869
 31
0.0
  0
LINE
  5
6C29
330
1F
100
AcDbEntity
  8
SPOJOVACÍ
  6
Continuous
100
AcDbLine
 10
2728.188558637012
 20
-4153.863670008923
 30
0.0
 11
2728.406219773329
 21
-4154.241321379869
 31
0.0
  0
LINE
  5
6C2A
330
1F
100
AcDbEntity
  8
SPOJOVACÍ
  6
Continuous
100
AcDbLine
 10
2728.188558637012
 20
-4153.863670008923
 30
0.0
 11
2727.809977088182
 21
-4154.241321379869
 31
0.0
  0
LINE
  5
6C2B
330
1F
100
AcDbEntity
  8
SPOJOVACÍ
  6
Continuous
100
AcDbLine
 10
2728.499237352785
 20
-4156.01795715038
 30
0.0
 11
2728.876888725913
 21
-4155.640305779434
 31
0.0
  0
LINE
  5
6C2C
330
1F
100
AcDbEntity
  8
SPOJOVACÍ
  6
Continuous
100
AcDbLine
 10
2728.499237352785
 20
-4156.01795715038
 30
0.0
 11
2728.280646040766
 21
-4155.640305779434
 31
0.0
  0
LINE
  5
6C2D
330
1F
100
AcDbEntity
  8
SPOJOVACÍ
  6
Continuous
100
AcDbLine
 10
2731.513006931105
 20
-4156.582573860851
 30
0.0
 11
2730.879557214335
 21
-4153.46648494442
 31
0.0
  0
LINE
  5
6C2E
330
1F
100
AcDbEntity
  8
SPOJOVACÍ
  6
Continuous
100
AcDbLine
 10
2731.891588480212
 20
-4156.204922485541
 30
0.0
 11
2731.097218350383
 21
-4153.844136315366
 31
0.0
  0
LINE
  5
6C2F
330
1F
100
AcDbEntity
  8
SPOJOVACÍ
  6
Continuous
100
AcDbLine
 10
2731.295345795057
 20
-4156.204922485541
 30
0.0
 11
2730.500975665505
 21
-4153.844136315366
 31
0.0
  0
LINE
  5
6C30
330
1F
100
AcDbEntity
  8
SPOJOVACÍ
  6
Continuous
100
AcDbLine
 10
2730.879557214335
 20
-4153.46648494442
 30
0.0
 11
2731.097218350383
 21
-4153.844136315366
 31
0.0
  0
LINE
  5
6C31
330
1F
100
AcDbEntity
  8
SPOJOVACÍ
  6
Continuous
100
AcDbLine
 10
2730.879557214335
 20
-4153.46648494442
 30
0.0
 11
2730.500975665505
 21
-4153.844136315366
 31
0.0
  0
LINE
  5
6C32
330
1F
100
AcDbEntity
  8
SPOJOVACÍ
  6
Continuous
100
AcDbLine
 10
2731.513006931105
 20
-4156.582573860851
 30
0.0
 11
2731.891588480212
 21
-4156.204922485541
 31
0.0
  0
LINE
  5
6C33
330
1F
100
AcDbEntity
  8
SPOJOVACÍ
  6
Continuous
100
AcDbLine
 10
2731.513006931105
 20
-4156.582573860851
 30
0.0
 11
2731.295345795057
 21
-4156.204922485541
 31
0.0
  0
LINE
  5
6C34
330
1F
100
AcDbEntity
  8
SPOJOVACÍ
  6
Continuous
100
AcDbLine
 10
2734.527706685403
 20
-4157.147190566957
 30
0.0
 11
2733.554742803098
 21
-4153.021860914214
 31
0.0
  0
LINE
  5
6C35
330
1F
100
AcDbEntity
  8
SPOJOVACÍ
  6
Continuous
100
AcDbLine
 10
2734.905358058531
 20
-4156.768609018673
 30
0.0
 11
2733.772403939147
 21
-4153.39951228516
 31
0.0
  0
LINE
  5
6C36
330
1F
100
AcDbEntity
  8
SPOJOVACÍ
  6
Continuous
100
AcDbLine
 10
2734.309115373376
 20
-4156.768609018673
 30
0.0
 11
2733.176161253992
 21
-4153.39951228516
 31
0.0
  0
LINE
  5
6C37
330
1F
100
AcDbEntity
  8
SPOJOVACÍ
  6
Continuous
100
AcDbLine
 10
2733.554742803098
 20
-4153.021860914214
 30
0.0
 11
2733.772403939147
 21
-4153.39951228516
 31
0.0
  0
LINE
  5
6C38
330
1F
100
AcDbEntity
  8
SPOJOVACÍ
  6
Continuous
100
AcDbLine
 10
2733.554742803098
 20
-4153.021860914214
 30
0.0
 11
2733.176161253992
 21
-4153.39951228516
 31
0.0
  0
LINE
  5
6C39
330
1F
100
AcDbEntity
  8
SPOJOVACÍ
  6
Continuous
100
AcDbLine
 10
2734.527706685403
 20
-4157.147190566957
 30
0.0
 11
2734.905358058531
 21
-4156.768609018673
 31
0.0
  0
LINE
  5
6C3A
330
1F
100
AcDbEntity
  8
SPOJOVACÍ
  6
Continuous
100
AcDbLine
 10
2734.527706685403
 20
-4157.147190566957
 30
0.0
 11
2734.309115373376
 21
-4156.768609018673
 31
0.0
  0
LINE
  5
6C3B
330
1F
100
AcDbEntity
  8
SPOJOVACÍ
  6
Continuous
100
AcDbLine
 10
2733.949137340496
 20
-4153.897156336371
 30
0.0
 11
2735.920179851782
 21
-4153.651589924903
 31
0.0
  0
LINE
  5
6C3C
330
1F
100
AcDbEntity
  8
SPOJOVACÍ
  6
Continuous
100
AcDbLine
 10
2731.242325774597
 20
-4154.235740328932
 30
0.0
 11
2733.378939577451
 21
-4153.968779873594
 31
0.0
  0
LINE
  5
6C3D
330
1F
100
AcDbEntity
  8
SPOJOVACÍ
  6
Continuous
100
AcDbLine
 10
2728.525282275164
 20
-4154.575254490101
 30
0.0
 11
2730.670267660149
 21
-4154.30736386179
 31
0.0
  0
LINE
  5
6C3E
330
1F
100
AcDbEntity
  8
SPOJOVACÍ
  6
Continuous
100
AcDbLine
 10
2728.209022504634
 20
-4155.387297962352
 30
0.0
 11
2725.119908686829
 21
-4155.001275008454
 31
0.0
  0
LINE
  5
6C3F
330
1F
100
AcDbEntity
  8
SPOJOVACÍ
  6
Continuous
100
AcDbLine
 10
2731.150238370843
 20
-4155.754717400032
 30
0.0
 11
2728.829449760487
 21
-4155.464502554878
 31
0.0
  0
LINE
  5
6C40
330
1F
100
AcDbEntity
  8
SPOJOVACÍ
  6
Continuous
100
AcDbLine
 10
2734.102616346572
 20
-4156.12399719239
 30
0.0
 11
2731.780897560507
 21
-4155.83378234287
 31
0.0
  0
LINE
  5
6C41
330
1F
100
AcDbEntity
  8
SPOJOVACÍ
  6
Continuous
100
AcDbLine
 10
2725.119908686829
 20
-4155.001275008454
 30
0.0
 11
2727.956014688098
 21
-4154.646878027325
 31
0.0
  0
LINE
  5
6C42
330
1F
100
AcDbEntity
  8
SPOJOVACÍ
  6
Continuous
100
AcDbLine
 10
2735.920179851782
 20
-4156.350960087639
 30
0.0
 11
2734.723043602425
 21
-4156.201201784916
 31
0.0
  0
LINE
  5
6C43
330
1F
100
AcDbEntity
  8
SPOJOVACÍ
  6
Continuous
100
AcDbLine
 10
2736.256903489666
 20
-4153.651589924903
 30
0.0
 11
2735.920179851782
 21
-4153.651589924903
 31
0.0
  0
LINE
  5
6C44
330
1F
100
AcDbEntity
  8
SPOJOVACÍ
  6
Continuous
100
AcDbLine
 10
2737.167545593671
 20
-4156.350960087639
 30
0.0
 11
2735.920179851782
 21
-4156.350960087639
 31
0.0
  0
LINE
  5
6C45
330
1F
100
AcDbEntity
  8
SPOJOVACÍ
  6
Continuous
100
AcDbLine
 10
2737.604728217716
 20
-4157.401128561378
 30
0.0
 11
2737.983309766823
 21
-4157.023477186068
 31
0.0
  0
LINE
  5
6C46
330
1F
100
AcDbEntity
  8
SPOJOVACÍ
  6
Continuous
100
AcDbLine
 10
2737.604728217716
 20
-4157.401128561378
 30
0.0
 11
2737.387067081668
 21
-4157.023477186068
 31
0.0
  0
LINE
  5
6C47
330
1F
100
AcDbEntity
  8
SPOJOVACÍ
  6
Continuous
100
AcDbLine
 10
2741.103119385785
 20
-4157.023477186068
 30
0.0
 11
2739.743202372243
 21
-4152.979072826474
 31
0.0
  0
LINE
  5
6C48
330
1F
100
AcDbEntity
  8
SPOJOVACÍ
  6
Continuous
100
AcDbLine
 10
2740.506876700638
 20
-4157.023477186068
 30
0.0
 11
2739.146959687364
 21
-4152.979072826474
 31
0.0
  0
LINE
  5
6C49
330
1F
100
AcDbEntity
  8
SPOJOVACÍ
  6
Continuous
100
AcDbLine
 10
2739.525541236194
 20
-4152.601421455529
 30
0.0
 11
2739.743202372243
 21
-4152.979072826474
 31
0.0
  0
LINE
  5
6C4A
330
1F
100
AcDbEntity
  8
SPOJOVACÍ
  6
Continuous
100
AcDbLine
 10
2739.525541236194
 20
-4152.601421455529
 30
0.0
 11
2739.146959687364
 21
-4152.979072826474
 31
0.0
  0
LINE
  5
6C4B
330
1F
100
AcDbEntity
  8
SPOJOVACÍ
  6
Continuous
100
AcDbLine
 10
2740.725468012657
 20
-4157.401128561378
 30
0.0
 11
2741.103119385785
 21
-4157.023477186068
 31
0.0
  0
LINE
  5
6C4C
330
1F
100
AcDbEntity
  8
SPOJOVACÍ
  6
Continuous
100
AcDbLine
 10
2740.725468012657
 20
-4157.401128561378
 30
0.0
 11
2740.506876700638
 21
-4157.023477186068
 31
0.0
  0
LINE
  5
6C4D
330
1F
100
AcDbEntity
  8
SPOJOVACÍ
  6
Continuous
100
AcDbLine
 10
2740.725468012657
 20
-4157.401128561378
 30
0.0
 11
2739.525541236194
 21
-4152.601421455529
 31
0.0
  0
LINE
  5
6C4E
330
1F
100
AcDbEntity
  8
SPOJOVACÍ
  6
Continuous
100
AcDbLine
 10
2742.645350855164
 20
-4152.601421455529
 30
0.0
 11
2742.863011991481
 21
-4152.979072826474
 31
0.0
  0
LINE
  5
6C4F
330
1F
100
AcDbEntity
  8
SPOJOVACÍ
  6
Continuous
100
AcDbLine
 10
2742.645350855164
 20
-4152.601421455529
 30
0.0
 11
2742.266769306334
 21
-4152.979072826474
 31
0.0
  0
LINE
  5
6C50
330
1F
100
AcDbEntity
  8
SPOJOVACÍ
  6
Continuous
100
AcDbLine
 10
2740.281774158153
 20
-4156.350960087639
 30
0.0
 11
2737.763788278826
 21
-4156.350960087639
 31
0.0
  0
LINE
  5
6C51
330
1F
100
AcDbEntity
  8
SPOJOVACÍ
  6
Continuous
100
AcDbLine
 10
2742.501173606921
 20
-4153.651589924903
 30
0.0
 11
2739.980397200211
 21
-4153.651589924903
 31
0.0
  0
LINE
  5
6C52
330
1F
100
AcDbEntity
  8
SPOJOVACÍ
  6
Continuous
100
AcDbLine
 10
2743.414606238308
 20
-4156.350960087639
 30
0.0
 11
2740.886388425439
 21
-4156.350960087639
 31
0.0
  0
LINE
  5
6C53
330
1F
100
AcDbEntity
  8
SPOJOVACÍ
  6
Continuous
100
AcDbLine
 10
2737.983309766823
 20
-4157.023477186068
 30
0.0
 11
2736.623392753281
 21
-4152.979072826474
 31
0.0
  0
LINE
  5
6C54
330
1F
100
AcDbEntity
  8
SPOJOVACÍ
  6
Continuous
100
AcDbLine
 10
2737.387067081668
 20
-4157.023477186068
 30
0.0
 11
2736.027150068126
 21
-4152.979072826474
 31
0.0
  0
LINE
  5
6C55
330
1F
100
AcDbEntity
  8
SPOJOVACÍ
  6
Continuous
100
AcDbLine
 10
2737.604728217716
 20
-4157.401128561378
 30
0.0
 11
2736.404801441254
 21
-4152.601421455529
 31
0.0
  0
LINE
  5
6C56
330
1F
100
AcDbEntity
  8
SPOJOVACÍ
  6
Continuous
100
AcDbLine
 10
2739.379503636278
 20
-4153.651589924903
 30
0.0
 11
2736.86058758125
 21
-4153.651589924903
 31
0.0
  0
LINE
  5
6C57
330
1F
100
AcDbEntity
  8
SPOJOVACÍ
  6
Continuous
100
AcDbLine
 10
2759.685241258048
 20
-4160.101428897088
 30
0.0
 11
2759.685241258048
 21
-4149.90112111982
 31
0.0
  0
LINE
  5
6C58
330
1F
100
AcDbEntity
  8
SPOJOVACÍ
  6
Continuous
100
AcDbLine
 10
2760.885168034779
 20
-4160.101428897088
 30
0.0
 11
2760.885168034779
 21
-4149.90112111982
 31
0.0
  0
INSERT
  5
6C59
330
1F
100
AcDbEntity
  8
POPIS
100
AcDbBlockReference
  2
E_PUNKT
 10
2745.411187471457
 20
-4174.204457113073
 30
0.0
 50
270.0
  0
INSERT
  5
6C5A
330
1F
100
AcDbEntity
  8
POPIS
100
AcDbBlockReference
  2
E_PUNKT
 10
2728.134309243472
 20
-4036.769334415651
 30
0.0
 50
270.0
  0
TEXT
  5
6C5B
330
1F
100
AcDbEntity
  8
POPIS
100
AcDbText
 10
2848.123724150238
 20
-4174.553077806789
 30
0.0
 40
25.0
  1
06
 41
0.85
  7
SIMPLEX7
100
AcDbText
  0
LWPOLYLINE
  5
6C5C
330
1F
100
AcDbEntity
  8
STAVBA OBRYS
100
AcDbPolyline
 90
        4
 70
     1
 43
0.0
 10
2776.097052579067
 20
-4204.491100214485
 10
2781.142177104228
 20
-4204.491100214485
 10
2781.142177104228
 20
-4172.493475963126
 10
2776.097052579067
 20
-4172.493475963126
  0
HATCH
  5
6C5D
330
1F
100
AcDbEntity
  8
STAVBA OBRYS
100
AcDbHatch
 10
0.0
 20
0.0
 30
0.0
210
0.0
220
0.0
230
1.0
  2
AR-SAND
 70
     0
 71
     0
 91
        3
 92
        7
 72
     0
 73
     1
 93
        4
 10
2776.097052579067
 20
-4172.493475963126
 10
2772.885168034772
 20
-4172.493475963126
 10
2772.885168034771
 20
-4204.100389054639
 10
2776.097052579067
 20
-4202.098311000077
 97
        0
 92
        7
 72
     0
 73
     1
 93
       12
 10
2776.036699474576
 20
-4206.767827298686
 10
2781.142177104228
 20
-4206.767827298686
 10
2781.142177104228
 20
-4204.491100214485
 10
2776.097052579067
 20
-4204.491100214485
 10
2776.097052579066
 20
-4202.098311000077
 10
2772.885168034771
 20
-4204.100389054639
 10
2772.885168034771
 20
-4208.61070823551
 10
2772.885168034776
 20
-4213.828753216696
 10
2899.142087520249
 20
-4213.828753216696
 10
2903.645030785932
 20
-4213.828753216696
 10
2903.645030785932
 20
-4211.767827298687
 10
2776.036699474576
 20
-4211.767827298687
 97
        0
 92
       23
 72
     0
 73
     1
 93
        4
 10
2879.750238071616
 20
-4206.767827298686
 10
2876.036699474576
 20
-4206.767827298686
 10
2876.036699474576
 20
-4211.767827298687
 10
2879.750238071616
 20
-4211.767827298687
 97
        0
 75
     0
 76
     1
 52
90.0
 41
0.05
 77
     0
 78
     4
 53
127.5
 43
0.0
 44
-1468.525777534545
 45
-2.447066186646711
 46
-0.0800015647992021
 79
     6
 49
0.0
 49
-1.9304
 49
0.0
 49
-2.159
 49
0.0
 49
-2.06375
 53
97.5
 43
0.0
 44
-1468.525777534545
 45
-3.584125502841771
 46
2.247616415690013
 79
     6
 49
0.0
 49
-1.0414
 49
0.0
 49
-1.7399
 49
0.0
 49
-0.6667500000000001
 53
57.5
 43
-0.0000000000000001
 44
-1470.087877534545
 45
-0.0071859233927282
 46
3.95496185120729
 79
     6
 49
0.0
 49
-0.635
 49
0.0
 49
-2.286
 49
0.0
 49
-2.9845
 53
47.5
 43
-0.0000000000000001
 44
-1470.087877534545
 45
-1.11464661628608
 46
3.817782262361486
 79
     6
 49
0.0
 49
-0.3175
 49
0.0
 49
-1.498599999999999
 49
0.0
 49
-1.7145
 47
0.1968437183465031
 98
        3
 10
2774.300934560095
 20
-4196.272741104858
 10
2774.300934560095
 20
-4207.295987561714
 10
2878.311475717211
 20
-4209.658114837695
  0
TEXT
  5
6C5E
330
1F
100
AcDbEntity
  8
POPIS
100
AcDbText
 10
2814.96070573607
 20
-4281.007846908766
 30
0.0
 40
25.0
  1
08
 41
0.85
  7
SIMPLEX7
100
AcDbText
  0
LWPOLYLINE
  5
6C5F
330
1F
100
AcDbEntity
  8
STAVBA OBRYS
100
AcDbPolyline
 90
        4
 70
     1
 43
0.0
 10
2776.036699474576
 20
-4211.767827298687
 10
2876.036699474576
 20
-4211.767827298687
 10
2876.036699474576
 20
-4206.767827298686
 10
2776.036699474576
 20
-4206.767827298686
  0
LINE
  5
6C60
330
1F
100
AcDbEntity
  8
STAVBA OBRYS
100
AcDbLine
 10
2903.645030785932
 20
-4211.767827298687
 30
0.0
 11
2776.036699474576
 21
-4211.767827298687
 31
0.0
  0
LINE
  5
6C61
330
1F
100
AcDbEntity
  8
STAVBA OBRYS
100
AcDbLine
 10
2781.142177104228
 20
-4204.491100214485
 30
0.0
 11
2781.142177104228
 21
-4206.767827298686
 31
0.0
  0
LINE
  5
6C62
330
1F
100
AcDbEntity
  8
STAVBA OBRYS
100
AcDbLine
 10
2879.750238071616
 20
-4206.767827298686
 30
0.0
 11
2876.036699474576
 21
-4206.767827298686
 31
0.0
  0
LWPOLYLINE
  5
6C63
330
1F
100
AcDbEntity
  8
STAVBA OBRYS
100
AcDbPolyline
 90
        4
 70
     0
 43
0.0
 10
2903.645030785932
 20
-4206.767827298686
 10
2879.750238071616
 20
-4206.767827298686
 10
2879.750238071616
 20
-4211.767827298687
 10
2903.645030785932
 20
-4211.767827298687
  0
TEXT
  5
6C64
330
1F
100
AcDbEntity
  8
POPIS
100
AcDbText
 10
2848.123724150238
 20
-4135.419666432912
 30
0.0
 40
25.0
  1
05
 41
0.85
  7
SIMPLEX7
100
AcDbText
  0
LINE
  5
6C65
102
{ACAD_REACTORS
330
7A9C
102
}
330
1F
100
AcDbEntity
  8
SPOJOVACÍ
  6
Continuous
100
AcDbLine
 10
2770.941100621566
 20
-4142.401079919818
 30
0.0
 11
2769.872328632154
 21
-4141.29045001946
 31
0.0
  0
LINE
  5
6C66
102
{ACAD_REACTORS
330
7A9C
102
}
330
1F
100
AcDbEntity
  8
SPOJOVACÍ
  6
Continuous
100
AcDbLine
 10
2769.872328632154
 20
-4141.29045001946
 30
0.0
 11
2768.553339353856
 21
-4140.494219540141
 31
0.0
  0
LINE
  5
6C67
102
{ACAD_REACTORS
330
7A9C
102
}
330
1F
100
AcDbEntity
  8
SPOJOVACÍ
  6
Continuous
100
AcDbLine
 10
2768.553339353856
 20
-4140.494219540141
 30
0.0
 11
2767.072499486806
 21
-4140.066338675842
 31
0.0
  0
LINE
  5
6C68
102
{ACAD_REACTORS
330
7A9C
102
}
330
1F
100
AcDbEntity
  8
SPOJOVACÍ
  6
Continuous
100
AcDbLine
 10
2767.809198717113
 20
-4137.073963140301
 30
0.0
 11
2769.223065926816
 21
-4136.460977291153
 31
0.0
  0
LINE
  5
6C69
102
{ACAD_REACTORS
330
7A9C
102
}
330
1F
100
AcDbEntity
  8
SPOJOVACÍ
  6
Continuous
100
AcDbLine
 10
2769.223065926816
 20
-4136.460977291153
 30
0.0
 11
2770.430434109715
 21
-4135.502896221169
 31
0.0
  0
LINE
  5
6C6A
102
{ACAD_REACTORS
330
7A9C
102
}
330
1F
100
AcDbEntity
  8
SPOJOVACÍ
  6
Continuous
100
AcDbLine
 10
2770.430434109715
 20
-4135.502896221169
 30
0.0
 11
2771.348517620157
 21
-4134.265762412269
 31
0.0
  0
LINE
  5
6C6B
102
{ACAD_REACTORS
330
7A9C
102
}
330
1F
100
AcDbEntity
  8
SPOJOVACÍ
  6
Continuous
100
AcDbLine
 10
2771.348517620157
 20
-4134.265762412269
 30
0.0
 11
2771.68524125804
 21
-4133.550457226101
 31
0.0
  0
LINE
  5
6C6C
102
{ACAD_REACTORS
330
7A9C
102
}
330
1F
100
AcDbEntity
  8
SPOJOVACÍ
  6
Continuous
100
AcDbLine
 10
2772.885168034772
 20
-4133.550457226101
 30
0.0
 11
2771.68524125804
 21
-4133.550457226101
 31
0.0
  0
LINE
  5
6C6D
102
{ACAD_REACTORS
330
7A9C
102
}
330
1F
100
AcDbEntity
  8
SPOJOVACÍ
  6
Continuous
100
AcDbLine
 10
2772.885168034772
 20
-4143.750765003369
 30
0.0
 11
2771.68524125804
 21
-4143.750765003369
 31
0.0
  0
LINE
  5
6C6E
330
1F
100
AcDbEntity
  8
STAVBA OBRYS
100
AcDbLine
 10
2776.097052579067
 20
-4172.493475963126
 30
0.0
 11
2772.885168034772
 21
-4172.493475963126
 31
0.0
  0
LINE
  5
6C6F
102
{ACAD_REACTORS
330
7A9C
102
}
330
1F
100
AcDbEntity
  8
SPOJOVACÍ
  6
Continuous
100
AcDbLine
 10
2771.68524125804
 20
-4143.750765003369
 30
0.0
 11
2770.941100621566
 21
-4142.401079919818
 31
0.0
  0
LINE
  5
6C70
330
1F
100
AcDbEntity
  8
SPOJOVACÍ
  6
Continuous
100
AcDbLine
 10
2772.885168034772
 20
-4143.750765003369
 30
0.0
 11
2772.885168034772
 21
-4133.550457226101
 31
0.0
  0
LINE
  5
6C71
330
1F
100
AcDbEntity
  8
SPOJOVACÍ
  6
Continuous
100
AcDbLine
 10
2771.68524125804
 20
-4143.750765003369
 30
0.0
 11
2771.68524125804
 21
-4133.550457226101
 31
0.0
  0
TEXT
  5
6C72
330
1F
100
AcDbEntity
  8
POPIS
100
AcDbText
 10
2848.123724150238
 20
-4047.30063262581
 30
0.0
 40
25.0
  1
04
 41
0.85
  7
SIMPLEX7
100
AcDbText
  0
CIRCLE
  5
6C73
330
1F
100
AcDbEntity
  8
STAVBA OBRYS
100
AcDbCircle
 10
2844.211063591709
 20
-3316.125388666298
 30
0.0
 40
30.75920541038431
  0
LINE
  5
6C75
330
1F
100
AcDbEntity
  8
CETRIS
100
AcDbLine
 10
2772.885168034779
 20
-3401.401199996911
 30
0.0
 11
2748.88516803478
 21
-3401.401199996915
 31
0.0
  0
LWPOLYLINE
  5
6C76
102
{ACAD_REACTORS
330
7A9C
330
7BFA
330
7C04
102
}
330
1F
100
AcDbEntity
  8
izolace
100
AcDbPolyline
 90
        4
 70
     1
 43
0.0
 10
2772.885168034779
 20
-3401.401199996914
 10
2772.885168034779
 20
-3396.183155015725
 10
2748.88516803478
 20
-3396.183155015725
 10
2748.88516803478
 20
-3401.401199996915
  0
LINE
  5
6C77
102
{ACAD_REACTORS
330
7A9C
102
}
330
1F
100
AcDbEntity
  8
SPOJOVACÍ
  6
Continuous
100
AcDbLine
 10
2767.072499486806
 20
-3439.132052759866
 30
0.0
 11
2766.285570763684
 21
-3439.066010277944
 31
0.0
  0
LINE
  5
6C78
102
{ACAD_REACTORS
330
7A9C
102
}
330
1F
100
AcDbEntity
  8
SPOJOVACÍ
  6
Continuous
100
AcDbLine
 10
2766.285570763684
 20
-3436.366640115208
 30
0.0
 11
2767.809198717113
 21
-3436.139677224324
 31
0.0
  0
LINE
  5
6C79
102
{ACAD_REACTORS
330
7A9C
102
}
330
1F
100
AcDbEntity
  8
SPOJOVACÍ
  6
Continuous
100
AcDbLine
 10
2767.072499486806
 20
-3625.486522417902
 30
0.0
 11
2766.285570763684
 21
-3625.42047993598
 31
0.0
  0
LINE
  5
6C7A
102
{ACAD_REACTORS
330
7A9C
102
}
330
1F
100
AcDbEntity
  8
SPOJOVACÍ
  6
Continuous
100
AcDbLine
 10
2766.285570763684
 20
-3622.721109773244
 30
0.0
 11
2767.809198717113
 21
-3622.494146882361
 31
0.0
  0
INSERT
  5
6C7B
102
{ACAD_REACTORS
330
7A9C
102
}
330
1F
100
AcDbEntity
  8
POPIS
100
AcDbBlockReference
  2
E_PUNKT
 10
2766.18126926568
 20
-3503.709645023104
 30
0.0
 50
270.0
  0
LINE
  5
6C7D
102
{ACAD_REACTORS
330
7A9C
102
}
330
1F
100
AcDbEntity
  8
SPOJOVACÍ
  6
Continuous
100
AcDbLine
 10
2766.285570763684
 20
-3777.023206674818
 30
0.0
 11
2767.809198717113
 21
-3777.250169565702
 31
0.0
  0
LWPOLYLINE
  5
6C7E
330
1F
100
AcDbEntity
  8
izolace
100
AcDbPolyline
 90
        2
 70
     0
 43
0.0
 10
2760.885168034773
 20
-3754.026515794687
 10
2772.885168034773
 20
-3754.026515794687
  0
LINE
  5
6C7F
102
{ACAD_REACTORS
330
7A9C
102
}
330
1F
100
AcDbEntity
  8
SPOJOVACÍ
  6
Continuous
100
AcDbLine
 10
2767.072499486806
 20
-3774.257794030161
 30
0.0
 11
2766.285570763684
 21
-3774.323836512082
 31
0.0
  0
LINE
  5
6C80
102
{ACAD_REACTORS
330
7A9C
102
}
330
1F
100
AcDbEntity
  8
SPOJOVACÍ
  6
Continuous
100
AcDbLine
 10
2767.072499486806
 20
-3728.741260398117
 30
0.0
 11
2766.285570763684
 21
-3728.675217916196
 31
0.0
  0
LINE
  5
6C81
330
1F
100
AcDbEntity
  8
CETRIS
100
AcDbLine
 10
2772.88516803478
 20
-3749.026515794684
 30
0.0
 11
2760.885168034776
 21
-3749.026515794684
 31
0.0
  0
LINE
  5
6C82
102
{ACAD_REACTORS
330
7A9C
102
}
330
1F
100
AcDbEntity
  8
SPOJOVACÍ
  6
Continuous
100
AcDbLine
 10
2766.285570763684
 20
-3725.975847753459
 30
0.0
 11
2767.809198717113
 21
-3725.748884862576
 31
0.0
  0
LINE
  5
6C83
102
{ACAD_REACTORS
330
7A9C
102
}
330
1F
100
AcDbEntity
  8
CETRIS
100
AcDbLine
 10
2772.88516803478
 20
-3754.026515794687
 30
0.0
 11
2760.885168034773
 21
-3754.026515794687
 31
0.0
  0
LWPOLYLINE
  5
6C84
102
{ACAD_REACTORS
330
7A9C
102
}
330
1F
100
AcDbEntity
  8
izolace
100
AcDbPolyline
 90
        2
 70
     0
 43
0.0
 10
2772.885168034776
 20
-3749.026515794684
 10
2760.885168034776
 20
-3749.026515794684
  0
HATCH
  5
6C85
330
1F
100
AcDbEntity
  8
izolace
100
AcDbHatch
 10
0.0
 20
0.0
 30
0.0
210
0.0
220
0.0
230
1.0
  2
AR-SAND
 70
     0
 71
     0
 91
        1
 92
        7
 72
     1
 73
     1
 93
       10
 10
2772.885168034773
 20
-3749.026515794684
 42
0.0
 10
2760.885168034784
 20
-3749.026515794684
 42
0.0
 10
2760.885168034773
 20
-3754.026515794687
 42
0.0
 10
2772.885168034773
 20
-3754.026515794687
 42
0.0
 10
2772.885168034773
 20
-3751.970935822714
 42
0.0
 10
2769.443258284697
 20
-3751.970935822714
 42
-0.3323956162604791
 10
2768.244446979534
 20
-3752.866885749112
 42
-1.0
 10
2768.244446979534
 20
-3750.366885749112
 42
-0.5010556741505267
 10
2769.443258284697
 20
-3751.970935822714
 42
0.0
 10
2772.885168034773
 20
-3751.970935822714
 42
0.0
 97
        0
 75
     0
 76
     1
 52
90.0
 41
0.05
 77
     0
 78
     4
 53
127.5
 43
-26492.6980885081
 44
-7704.994843038185
 45
-2.447066186646711
 46
-0.0800015647992021
 79
     6
 49
0.0
 49
-1.9304
 49
0.0
 49
-2.159
 49
0.0
 49
-2.06375
 53
97.49999999999989
 43
-26492.6980885081
 44
-7704.994843038185
 45
-3.584125502841771
 46
2.247616415690013
 79
     6
 49
0.0
 49
-1.041399999999999
 49
0.0
 49
-1.7399
 49
0.0
 49
-0.66675
 53
57.5
 43
-26492.6980885081
 44
-7706.556943038184
 45
-0.0071859233927282
 46
3.95496185120729
 79
     6
 49
0.0
 49
-0.635
 49
0.0
 49
-2.286
 49
0.0
 49
-2.9845
 53
47.5
 43
-26492.6980885081
 44
-7706.556943038184
 45
-1.11464661628608
 46
3.817782262361486
 79
     6
 49
0.0
 49
-0.3175
 49
0.0
 49
-1.498599999999999
 49
0.0
 49
-1.7145
 47
0.0759700453980155
 98
        1
 10
2771.457367540687
 20
-3750.19866693111
  0
INSERT
  5
6C86
330
1F
100
AcDbEntity
  8
POPIS
100
AcDbBlockReference
  2
E_PUNKT
 10
2768.21537864866
 20
-3751.589275373485
 30
0.0
 50
270.0
  0
LINE
  5
6C87
102
{ACAD_REACTORS
330
7A9C
102
}
330
1F
100
AcDbEntity
  8
SPOJOVACÍ
  6
Continuous
100
AcDbLine
 10
2767.072499486806
 20
-3912.897845059891
 30
0.0
 11
2766.285570763684
 21
-3912.83180257797
 31
0.0
  0
LINE
  5
6C88
102
{ACAD_REACTORS
330
7A9C
102
}
330
1F
100
AcDbEntity
  8
SPOJOVACÍ
  6
Continuous
100
AcDbLine
 10
2766.285570763684
 20
-3910.132432415233
 30
0.0
 11
2767.809198717113
 21
-3909.90546952435
 31
0.0
  0
LINE
  5
6C89
102
{ACAD_REACTORS
330
7A9C
330
7BFA
102
}
330
1F
100
AcDbEntity
  8
STAVBA OBRYS
100
AcDbLine
 10
2791.076044547835
 20
-3707.295001588102
 30
0.0
 11
2636.598676656634
 21
-3678.843343514203
 31
0.0
  0
LINE
  5
6C8A
102
{ACAD_REACTORS
330
7A9C
330
7BFA
102
}
330
1F
100
AcDbEntity
  8
STAVBA OBRYS
100
AcDbLine
 10
2791.076044547835
 20
-3712.234139303235
 30
0.0
 11
2636.598676656634
 21
-3683.782481229336
 31
0.0
  0
LINE
  5
6C8B
102
{ACAD_REACTORS
330
7A9C
330
7BFA
102
}
330
1F
100
AcDbEntity
  8
STAVBA OBRYS
100
AcDbLine
 10
2791.076044547835
 20
-3887.783301150414
 30
0.0
 11
2636.598676656634
 21
-3859.331643076515
 31
0.0
  0
LINE
  5
6C8C
102
{ACAD_REACTORS
330
7A9C
330
7BFA
102
}
330
1F
100
AcDbEntity
  8
STAVBA OBRYS
100
AcDbLine
 10
2791.076044547835
 20
-3892.722438865547
 30
0.0
 11
2636.598676656634
 21
-3864.270780791648
 31
0.0
  0
LINE
  5
6C91
330
1F
100
AcDbEntity
  8
STAVBA OBRYS
100
AcDbLine
 10
2903.645030785932
 20
-3383.683155015726
 30
0.0
 11
2675.189791402791
 21
-3383.683155015725
 31
0.0
  0
LINE
  5
6C92
102
{ACAD_REACTORS
330
7C04
102
}
330
1F
100
AcDbEntity
  8
STAVBA OBRYS
100
AcDbLine
 10
2757.100132429013
 20
-3396.183155015727
 30
0.0
 11
2903.645030785932
 21
-3396.183155015727
 31
0.0
  0
LINE
  5
6C94
330
1F
100
AcDbEntity
  8
STAVBA OBRYS
100
AcDbLine
 10
2903.645030785932
 20
-3217.350266801298
 30
0.0
 11
2675.189791402791
 21
-3217.350266801297
 31
0.0
  0
LINE
  5
6C95
330
1F
100
AcDbEntity
  8
STAVBA OBRYS
100
AcDbLine
 10
2903.645030785932
 20
-3257.350266801299
 30
0.0
 11
2676.017641835609
 21
-3257.350266801298
 31
0.0
  0
LINE
  5
6C96
330
1F
100
AcDbEntity
  8
STAVBA OBRYS
100
AcDbLine
 10
2903.645030785932
 20
-3371.419251874609
 30
0.0
 11
2676.017641835609
 21
-3371.419251874609
 31
0.0
  0
LINE
  5
6C9C
102
{ACAD_REACTORS
330
7BFA
102
}
330
1F
100
AcDbEntity
  8
CETRIS
100
AcDbLine
 10
2748.88516803478
 20
-3401.401199996911
 30
0.0
 11
2748.88516803478
 21
-3699.524281457545
 31
0.0
  0
LINE
  5
6C9D
102
{ACAD_REACTORS
330
7A9C
330
7BFA
102
}
330
1F
100
AcDbEntity
  8
CETRIS
100
AcDbLine
 10
2760.885168034779
 20
-3401.401199996911
 30
0.0
 11
2760.885168034776
 21
-3701.734442735844
 31
0.0
  0
LINE
  5
6C9F
330
1F
100
AcDbEntity
  8
NOSNÉ KONSTRUKCE
100
AcDbLine
 10
2747.185376416899
 20
-3387.955642662186
 30
0.0
 11
2747.185376416906
 21
-3699.211213656295
 31
0.0
  0
LINE
  5
6CA0
330
1F
100
AcDbEntity
  8
NOSNÉ KONSTRUKCE
100
AcDbLine
 10
2736.583172266743
 20
-3388.976944705511
 30
0.0
 11
2736.58317226675
 21
-3697.258498566519
 31
0.0
  0
LINE
  5
6CA1
330
1F
100
AcDbEntity
  8
NOSNÉ KONSTRUKCE
100
AcDbLine
 10
2728.161397562496
 20
-3388.976944705511
 30
0.0
 11
2728.161397562503
 21
-3695.707375204362
 31
0.0
  0
LINE
  5
6CA2
330
1F
100
AcDbEntity
  8
NOSNÉ KONSTRUKCE
100
AcDbLine
 10
2685.664757359182
 20
-3388.976944705511
 30
0.0
 11
2685.664757359169
 21
-3687.880339484759
 31
0.0
  0
LINE
  5
6CA3
330
1F
100
AcDbEntity
  8
NOSNÉ KONSTRUKCE
100
AcDbLine
 10
2676.017641835606
 20
-3389.317380291895
 30
0.0
 11
2676.017641835609
 21
-3685.678894632914
 31
0.0
  0
LINE
  5
6CA4
330
1F
100
AcDbEntity
  8
NOSNÉ KONSTRUKCE
100
AcDbLine
 10
2693.510380318266
 20
-3388.976944705511
 30
0.0
 11
2693.510380318254
 21
-3689.325347157117
 31
0.0
  0
LINE
  5
6CAC
102
{ACAD_REACTORS
330
7A9C
330
7BFA
102
}
330
1F
100
AcDbEntity
  8
CETRIS
100
AcDbLine
 10
2760.885168034777
 20
-3882.222742298156
 30
0.0
 11
2760.885168034776
 21
-3749.026515794684
 31
0.0
  0
LINE
  5
6CAD
102
{ACAD_REACTORS
330
7BFA
102
}
330
1F
100
AcDbEntity
  8
CETRIS
100
AcDbLine
 10
2748.885168034777
 20
-3880.012581019857
 30
0.0
 11
2748.885168034776
 21
-3704.463419172677
 31
0.0
  0
LINE
  5
6CAE
330
1F
100
AcDbEntity
  8
NOSNÉ KONSTRUKCE
100
AcDbLine
 10
2693.510380318254
 20
-3694.264484872251
 30
0.0
 11
2693.510380318246
 21
-3868.723618296943
 31
0.0
  0
LINE
  5
6CB1
330
1F
100
AcDbEntity
  8
NOSNÉ KONSTRUKCE
100
AcDbLine
 10
2747.185376416906
 20
-3704.150351371428
 30
0.0
 11
2747.185376416909
 21
-3879.699513218607
 31
0.0
  0
LINE
  5
6CB2
330
1F
100
AcDbEntity
  8
NOSNÉ KONSTRUKCE
100
AcDbLine
 10
2736.58317226675
 20
-3702.197636281653
 30
0.0
 11
2736.583172266754
 21
-3877.746798128832
 31
0.0
  0
LINE
  5
6CB3
330
1F
100
AcDbEntity
  8
NOSNÉ KONSTRUKCE
100
AcDbLine
 10
2728.161397562503
 20
-3700.646512919496
 30
0.0
 11
2728.161397562507
 21
-3876.195674766675
 31
0.0
  0
LINE
  5
6CB4
330
1F
100
AcDbEntity
  8
NOSNÉ KONSTRUKCE
100
AcDbLine
 10
2676.017656696676
 20
-3690.618032348048
 30
0.0
 11
2676.017656696678
 21
-3866.167194195226
 31
0.0
  0
LINE
  5
6CB5
330
1F
100
AcDbEntity
  8
NOSNÉ KONSTRUKCE
100
AcDbLine
 10
2685.664757359169
 20
-3692.819477199892
 30
0.0
 11
2685.664757359162
 21
-3864.139459831683
 31
0.0
  0
LINE
  5
6D76
102
{ACAD_REACTORS
330
7A9C
102
}
330
1F
100
AcDbEntity
  8
SPOJOVACÍ
  6
Continuous
100
AcDbLine
 10
2766.285570763684
 20
-3912.83180257797
 30
0.0
 11
2762.247677634004
 21
-3912.83180257797
 31
0.0
  0
LINE
  5
6D77
102
{ACAD_REACTORS
330
7A9C
102
}
330
1F
100
AcDbEntity
  8
SPOJOVACÍ
  6
Continuous
100
AcDbLine
 10
2762.463478418649
 20
-3913.504319676398
 30
0.0
 11
2761.103561405383
 21
-3909.459915316805
 31
0.0
  0
LINE
  5
6D78
102
{ACAD_REACTORS
330
7A9C
102
}
330
1F
100
AcDbEntity
  8
SPOJOVACÍ
  6
Continuous
100
AcDbLine
 10
2762.084896869819
 20
-3913.881971051709
 30
0.0
 11
2762.463478418649
 21
-3913.504319676398
 31
0.0
  0
LINE
  5
6D79
102
{ACAD_REACTORS
330
7A9C
330
7BFA
102
}
330
1F
100
AcDbEntity
  8
SPOJOVACÍ
  6
Continuous
100
AcDbLine
 10
2761.86723573377
 20
-3913.504319676398
 30
0.0
 11
2760.507318720228
 21
-3909.459915316805
 31
0.0
  0
LINE
  5
6D7A
102
{ACAD_REACTORS
330
7A9C
330
7BFA
102
}
330
1F
100
AcDbEntity
  8
SPOJOVACÍ
  6
Continuous
100
AcDbLine
 10
2761.652365124827
 20
-3912.83180257797
 30
0.0
 11
2759.133449069798
 21
-3912.83180257797
 31
0.0
  0
LINE
  5
6D7B
102
{ACAD_REACTORS
330
7A9C
102
}
330
1F
100
AcDbEntity
  8
SPOJOVACÍ
  6
Continuous
100
AcDbLine
 10
2760.884970093356
 20
-3909.08226394586
 30
0.0
 11
2761.103561405383
 21
-3909.459915316805
 31
0.0
  0
LINE
  5
6D7C
102
{ACAD_REACTORS
330
7A9C
102
}
330
1F
100
AcDbEntity
  8
SPOJOVACÍ
  6
Continuous
100
AcDbLine
 10
2766.285570763684
 20
-3910.132432415233
 30
0.0
 11
2761.342616584755
 21
-3910.132432415233
 31
0.0
  0
LINE
  5
6D7D
102
{ACAD_REACTORS
330
7BFA
102
}
330
1F
100
AcDbEntity
  8
SPOJOVACÍ
  6
Continuous
100
AcDbLine
 10
2751.379503636271
 20
-3910.132432415233
 30
0.0
 11
2748.860587581242
 21
-3910.132432415233
 31
0.0
  0
LINE
  5
6D7E
102
{ACAD_REACTORS
330
7BFA
102
}
330
1F
100
AcDbEntity
  8
SPOJOVACÍ
  6
Continuous
100
AcDbLine
 10
2752.50687670063
 20
-3913.504319676398
 30
0.0
 11
2751.146959687357
 21
-3909.459915316805
 31
0.0
  0
LINE
  5
6D7F
102
{ACAD_REACTORS
330
7BFA
102
}
330
1F
100
AcDbEntity
  8
SPOJOVACÍ
  6
Continuous
100
AcDbLine
 10
2751.525541236187
 20
-3909.08226394586
 30
0.0
 11
2751.146959687357
 21
-3909.459915316805
 31
0.0
  0
LINE
  5
6D80
102
{ACAD_REACTORS
330
7BFA
102
}
330
1F
100
AcDbEntity
  8
SPOJOVACÍ
  6
Continuous
100
AcDbLine
 10
2753.103119385777
 20
-3913.504319676398
 30
0.0
 11
2751.743202372235
 21
-3909.459915316805
 31
0.0
  0
LINE
  5
6D81
102
{ACAD_REACTORS
330
7BFA
102
}
330
1F
100
AcDbEntity
  8
SPOJOVACÍ
  6
Continuous
100
AcDbLine
 10
2754.501173606913
 20
-3910.132432415233
 30
0.0
 11
2751.980397200204
 21
-3910.132432415233
 31
0.0
  0
LINE
  5
6D82
102
{ACAD_REACTORS
330
7BFA
102
}
330
1F
100
AcDbEntity
  8
SPOJOVACÍ
  6
Continuous
100
AcDbLine
 10
2755.626686319592
 20
-3913.504319676398
 30
0.0
 11
2754.266769306326
 21
-3909.459915316805
 31
0.0
  0
LINE
  5
6D83
102
{ACAD_REACTORS
330
7BFA
102
}
330
1F
100
AcDbEntity
  8
SPOJOVACÍ
  6
Continuous
100
AcDbLine
 10
2754.645350855156
 20
-3909.08226394586
 30
0.0
 11
2754.266769306326
 21
-3909.459915316805
 31
0.0
  0
LINE
  5
6D84
102
{ACAD_REACTORS
330
7BFA
102
}
330
1F
100
AcDbEntity
  8
SPOJOVACÍ
  6
Continuous
100
AcDbLine
 10
2756.222929004747
 20
-3913.504319676398
 30
0.0
 11
2754.863011991473
 21
-3909.459915316805
 31
0.0
  0
LINE
  5
6D85
102
{ACAD_REACTORS
330
7BFA
102
}
330
1F
100
AcDbEntity
  8
SPOJOVACÍ
  6
Continuous
100
AcDbLine
 10
2757.623773753257
 20
-3910.132432415233
 30
0.0
 11
2755.095555940387
 21
-3910.132432415233
 31
0.0
  0
LINE
  5
6D86
102
{ACAD_REACTORS
330
7BFA
102
}
330
1F
100
AcDbEntity
  8
SPOJOVACÍ
  6
Continuous
100
AcDbLine
 10
2758.74649593883
 20
-3913.504319676398
 30
0.0
 11
2757.387509101266
 21
-3909.459915316805
 31
0.0
  0
LINE
  5
6D87
102
{ACAD_REACTORS
330
7BFA
102
}
330
1F
100
AcDbEntity
  8
SPOJOVACÍ
  6
Continuous
100
AcDbLine
 10
2757.765160474118
 20
-3909.08226394586
 30
0.0
 11
2757.387509101266
 21
-3909.459915316805
 31
0.0
  0
LINE
  5
6D88
102
{ACAD_REACTORS
330
7BFA
102
}
330
1F
100
AcDbEntity
  8
SPOJOVACÍ
  6
Continuous
100
AcDbLine
 10
2759.342738623985
 20
-3913.504319676398
 30
0.0
 11
2757.983751786145
 21
-3909.459915316805
 31
0.0
  0
LINE
  5
6D89
102
{ACAD_REACTORS
330
7BFA
102
}
330
1F
100
AcDbEntity
  8
SPOJOVACÍ
  6
Continuous
100
AcDbLine
 10
2760.73893249344
 20
-3910.132432415233
 30
0.0
 11
2758.220016438412
 21
-3910.132432415233
 31
0.0
  0
LINE
  5
6D8A
102
{ACAD_REACTORS
330
7BFA
102
}
330
1F
100
AcDbEntity
  8
SPOJOVACÍ
  6
Continuous
100
AcDbLine
 10
2760.884970093356
 20
-3909.08226394586
 30
0.0
 11
2760.507318720228
 21
-3909.459915316805
 31
0.0
  0
LINE
  5
6D8B
102
{ACAD_REACTORS
330
7BFA
102
}
330
1F
100
AcDbEntity
  8
SPOJOVACÍ
  6
Continuous
100
AcDbLine
 10
2758.965087250857
 20
-3913.881971051709
 30
0.0
 11
2759.342738623985
 21
-3913.504319676398
 31
0.0
  0
LINE
  5
6D8C
102
{ACAD_REACTORS
330
7BFA
102
}
330
1F
100
AcDbEntity
  8
SPOJOVACÍ
  6
Continuous
100
AcDbLine
 10
2758.529764978483
 20
-3912.83180257797
 30
0.0
 11
2756.008988571775
 21
-3912.83180257797
 31
0.0
  0
LINE
  5
6D8D
102
{ACAD_REACTORS
330
7BFA
102
}
330
1F
100
AcDbEntity
  8
SPOJOVACÍ
  6
Continuous
100
AcDbLine
 10
2755.845277631618
 20
-3913.881971051709
 30
0.0
 11
2756.222929004747
 21
-3913.504319676398
 31
0.0
  0
LINE
  5
6D8E
102
{ACAD_REACTORS
330
7BFA
102
}
330
1F
100
AcDbEntity
  8
SPOJOVACÍ
  6
Continuous
100
AcDbLine
 10
2755.4146062383
 20
-3912.83180257797
 30
0.0
 11
2752.886388425431
 21
-3912.83180257797
 31
0.0
  0
LINE
  5
6D8F
102
{ACAD_REACTORS
330
7BFA
102
}
330
1F
100
AcDbEntity
  8
SPOJOVACÍ
  6
Continuous
100
AcDbLine
 10
2752.725468012649
 20
-3913.881971051709
 30
0.0
 11
2753.103119385777
 21
-3913.504319676398
 31
0.0
  0
LINE
  5
6D90
102
{ACAD_REACTORS
330
7BFA
102
}
330
1F
100
AcDbEntity
  8
SPOJOVACÍ
  6
Continuous
100
AcDbLine
 10
2752.281774158145
 20
-3912.83180257797
 30
0.0
 11
2749.763788278818
 21
-3912.83180257797
 31
0.0
  0
LINE
  5
6D91
102
{ACAD_REACTORS
330
7BFA
102
}
330
1F
100
AcDbEntity
  8
SPOJOVACÍ
  6
Continuous
100
AcDbLine
 10
2749.983309766816
 20
-3913.504319676398
 30
0.0
 11
2748.623392753273
 21
-3909.459915316805
 31
0.0
  0
LINE
  5
6D92
102
{ACAD_REACTORS
330
7BFA
102
}
330
1F
100
AcDbEntity
  8
SPOJOVACÍ
  6
Continuous
100
AcDbLine
 10
2749.604728217709
 20
-3913.881971051709
 30
0.0
 11
2749.983309766816
 21
-3913.504319676398
 31
0.0
  0
LINE
  5
6D93
102
{ACAD_REACTORS
330
7BFA
102
}
330
1F
100
AcDbEntity
  8
SPOJOVACÍ
  6
Continuous
100
AcDbLine
 10
2749.387067081661
 20
-3913.504319676398
 30
0.0
 11
2748.027150068118
 21
-3909.459915316805
 31
0.0
  0
LINE
  5
6D94
102
{ACAD_REACTORS
330
7BFA
102
}
330
1F
100
AcDbEntity
  8
SPOJOVACÍ
  6
Continuous
100
AcDbLine
 10
2749.167545593663
 20
-3912.83180257797
 30
0.0
 11
2747.920179851774
 21
-3912.83180257797
 31
0.0
  0
LINE
  5
6D95
102
{ACAD_REACTORS
330
7BFA
102
}
330
1F
100
AcDbEntity
  8
SPOJOVACÍ
  6
Continuous
100
AcDbLine
 10
2748.884970093364
 20
-3924.411347868687
 30
0.0
 11
2749.103561405391
 21
-3924.788999239632
 31
0.0
  0
LINE
  5
6D96
102
{ACAD_REACTORS
330
7BFA
102
}
330
1F
100
AcDbEntity
  8
SPOJOVACÍ
  6
Continuous
100
AcDbLine
 10
2750.463478418656
 20
-3928.833403599225
 30
0.0
 11
2749.103561405391
 21
-3924.788999239632
 31
0.0
  0
LINE
  5
6D97
102
{ACAD_REACTORS
330
7BFA
102
}
330
1F
100
AcDbEntity
  8
SPOJOVACÍ
  6
Continuous
100
AcDbLine
 10
2754.285570763691
 20
-3925.46151633806
 30
0.0
 11
2749.342616584763
 21
-3925.46151633806
 31
0.0
  0
LINE
  5
6D98
102
{ACAD_REACTORS
330
7BFA
102
}
330
1F
100
AcDbEntity
  8
SPOJOVACÍ
  6
Continuous
100
AcDbLine
 10
2754.285570763691
 20
-3925.46151633806
 30
0.0
 11
2755.809198717121
 21
-3925.234553447177
 31
0.0
  0
LINE
  5
6D99
102
{ACAD_REACTORS
330
7BFA
102
}
330
1F
100
AcDbEntity
  8
SPOJOVACÍ
  6
Continuous
100
AcDbLine
 10
2755.809198717121
 20
-3925.234553447177
 30
0.0
 11
2757.223065926824
 21
-3924.621567598029
 31
0.0
  0
LINE
  5
6D9A
102
{ACAD_REACTORS
330
7BFA
102
}
330
1F
100
AcDbEntity
  8
SPOJOVACÍ
  6
Continuous
100
AcDbLine
 10
2757.223065926824
 20
-3924.621567598029
 30
0.0
 11
2758.430434109723
 21
-3923.663486528045
 31
0.0
  0
LINE
  5
6D9B
102
{ACAD_REACTORS
330
7BFA
102
}
330
1F
100
AcDbEntity
  8
SPOJOVACÍ
  6
Continuous
100
AcDbLine
 10
2758.430434109723
 20
-3923.663486528045
 30
0.0
 11
2759.348517620165
 21
-3922.426352719145
 31
0.0
  0
LINE
  5
6D9C
102
{ACAD_REACTORS
330
7BFA
102
}
330
1F
100
AcDbEntity
  8
SPOJOVACÍ
  6
Continuous
100
AcDbLine
 10
2759.348517620165
 20
-3922.426352719145
 30
0.0
 11
2759.685241258048
 21
-3921.711047532977
 31
0.0
  0
LINE
  5
6D9D
102
{ACAD_REACTORS
330
7BFA
102
}
330
1F
100
AcDbEntity
  8
SPOJOVACÍ
  6
Continuous
100
AcDbLine
 10
2760.885168034779
 20
-3921.711047532977
 30
0.0
 11
2759.685241258048
 21
-3921.711047532977
 31
0.0
  0
LINE
  5
6D9E
102
{ACAD_REACTORS
330
7BFA
102
}
330
1F
100
AcDbEntity
  8
SPOJOVACÍ
  6
Continuous
100
AcDbLine
 10
2756.553339353864
 20
-3928.654809847017
 30
0.0
 11
2755.072499486814
 21
-3928.226928982718
 31
0.0
  0
LINE
  5
6D9F
102
{ACAD_REACTORS
330
7BFA
102
}
330
1F
100
AcDbEntity
  8
SPOJOVACÍ
  6
Continuous
100
AcDbLine
 10
2755.072499486814
 20
-3928.226928982718
 30
0.0
 11
2754.285570763691
 21
-3928.160886500796
 31
0.0
  0
LINE
  5
6DA0
102
{ACAD_REACTORS
330
7BFA
102
}
330
1F
100
AcDbEntity
  8
SPOJOVACÍ
  6
Continuous
100
AcDbLine
 10
2754.285570763691
 20
-3928.160886500796
 30
0.0
 11
2750.247677634011
 21
-3928.160886500796
 31
0.0
  0
LINE
  5
6DA1
102
{ACAD_REACTORS
330
7BFA
102
}
330
1F
100
AcDbEntity
  8
SPOJOVACÍ
  6
Continuous
100
AcDbLine
 10
2749.867235733778
 20
-3928.833403599225
 30
0.0
 11
2748.507318720236
 21
-3924.788999239632
 31
0.0
  0
LINE
  5
6DA2
102
{ACAD_REACTORS
330
7BFA
102
}
330
1F
100
AcDbEntity
  8
SPOJOVACÍ
  6
Continuous
100
AcDbLine
 10
2749.652365124835
 20
-3928.160886500796
 30
0.0
 11
2747.133449069806
 21
-3928.160886500796
 31
0.0
  0
LINE
  5
6DA3
330
1F
100
AcDbEntity
  8
SPOJOVACÍ
  6
Continuous
100
AcDbLine
 10
2739.379503636278
 20
-3925.46151633806
 30
0.0
 11
2736.86058758125
 21
-3925.46151633806
 31
0.0
  0
LINE
  5
6DA4
330
1F
100
AcDbEntity
  8
SPOJOVACÍ
  6
Continuous
100
AcDbLine
 10
2737.387067081668
 20
-3928.833403599225
 30
0.0
 11
2736.027150068126
 21
-3924.788999239632
 31
0.0
  0
LINE
  5
6DA5
330
1F
100
AcDbEntity
  8
SPOJOVACÍ
  6
Continuous
100
AcDbLine
 10
2737.983309766823
 20
-3928.833403599225
 30
0.0
 11
2736.623392753281
 21
-3924.788999239632
 31
0.0
  0
LINE
  5
6DA6
330
1F
100
AcDbEntity
  8
SPOJOVACÍ
  6
Continuous
100
AcDbLine
 10
2743.414606238308
 20
-3928.160886500796
 30
0.0
 11
2740.886388425439
 21
-3928.160886500796
 31
0.0
  0
LINE
  5
6DA7
330
1F
100
AcDbEntity
  8
SPOJOVACÍ
  6
Continuous
100
AcDbLine
 10
2742.501173606921
 20
-3925.46151633806
 30
0.0
 11
2739.980397200211
 21
-3925.46151633806
 31
0.0
  0
LINE
  5
6DA8
330
1F
100
AcDbEntity
  8
SPOJOVACÍ
  6
Continuous
100
AcDbLine
 10
2740.281774158153
 20
-3928.160886500796
 30
0.0
 11
2737.763788278826
 21
-3928.160886500796
 31
0.0
  0
LINE
  5
6DA9
330
1F
100
AcDbEntity
  8
SPOJOVACÍ
  6
Continuous
100
AcDbLine
 10
2742.645350855164
 20
-3924.411347868687
 30
0.0
 11
2742.266769306334
 21
-3924.788999239632
 31
0.0
  0
LINE
  5
6DAA
330
1F
100
AcDbEntity
  8
SPOJOVACÍ
  6
Continuous
100
AcDbLine
 10
2742.645350855164
 20
-3924.411347868687
 30
0.0
 11
2742.863011991481
 21
-3924.788999239632
 31
0.0
  0
LINE
  5
6DAB
330
1F
100
AcDbEntity
  8
SPOJOVACÍ
  6
Continuous
100
AcDbLine
 10
2739.525541236194
 20
-3924.411347868687
 30
0.0
 11
2739.146959687364
 21
-3924.788999239632
 31
0.0
  0
LINE
  5
6DAC
330
1F
100
AcDbEntity
  8
SPOJOVACÍ
  6
Continuous
100
AcDbLine
 10
2739.525541236194
 20
-3924.411347868687
 30
0.0
 11
2739.743202372243
 21
-3924.788999239632
 31
0.0
  0
LINE
  5
6DAD
330
1F
100
AcDbEntity
  8
SPOJOVACÍ
  6
Continuous
100
AcDbLine
 10
2740.506876700638
 20
-3928.833403599225
 30
0.0
 11
2739.146959687364
 21
-3924.788999239632
 31
0.0
  0
LINE
  5
6DAE
330
1F
100
AcDbEntity
  8
SPOJOVACÍ
  6
Continuous
100
AcDbLine
 10
2741.103119385785
 20
-3928.833403599225
 30
0.0
 11
2739.743202372243
 21
-3924.788999239632
 31
0.0
  0
LINE
  5
6DAF
330
1F
100
AcDbEntity
  8
SPOJOVACÍ
  6
Continuous
100
AcDbLine
 10
2737.167545593671
 20
-3928.160886500796
 30
0.0
 11
2735.920179851782
 21
-3928.160886500796
 31
0.0
  0
LINE
  5
6DB0
330
1F
100
AcDbEntity
  8
SPOJOVACÍ
  6
Continuous
100
AcDbLine
 10
2736.256903489666
 20
-3925.46151633806
 30
0.0
 11
2735.920179851782
 21
-3925.46151633806
 31
0.0
  0
LINE
  5
6DB1
330
1F
100
AcDbEntity
  8
SPOJOVACÍ
  6
Continuous
100
AcDbLine
 10
2735.920179851782
 20
-3928.160886500796
 30
0.0
 11
2734.723043602425
 21
-3928.011128198074
 31
0.0
  0
LINE
  5
6DB2
330
1F
100
AcDbEntity
  8
SPOJOVACÍ
  6
Continuous
100
AcDbLine
 10
2725.119908686829
 20
-3926.811201421611
 30
0.0
 11
2727.956014688098
 21
-3926.456804440482
 31
0.0
  0
LINE
  5
6DB3
330
1F
100
AcDbEntity
  8
SPOJOVACÍ
  6
Continuous
100
AcDbLine
 10
2734.102616346572
 20
-3927.933923605547
 30
0.0
 11
2731.780897560507
 21
-3927.643708756028
 31
0.0
  0
LINE
  5
6DB4
330
1F
100
AcDbEntity
  8
SPOJOVACÍ
  6
Continuous
100
AcDbLine
 10
2731.150238370843
 20
-3927.56464381319
 30
0.0
 11
2728.829449760487
 21
-3927.274428968036
 31
0.0
  0
LINE
  5
6DB5
330
1F
100
AcDbEntity
  8
SPOJOVACÍ
  6
Continuous
100
AcDbLine
 10
2728.209022504634
 20
-3927.19722437551
 30
0.0
 11
2725.119908686829
 21
-3926.811201421611
 31
0.0
  0
LINE
  5
6DB6
330
1F
100
AcDbEntity
  8
SPOJOVACÍ
  6
Continuous
100
AcDbLine
 10
2728.525282275164
 20
-3926.385180903258
 30
0.0
 11
2730.670267660149
 21
-3926.117290274948
 31
0.0
  0
LINE
  5
6DB7
330
1F
100
AcDbEntity
  8
SPOJOVACÍ
  6
Continuous
100
AcDbLine
 10
2731.242325774597
 20
-3926.045666742089
 30
0.0
 11
2733.378939577451
 21
-3925.778706286752
 31
0.0
  0
LINE
  5
6DB8
330
1F
100
AcDbEntity
  8
SPOJOVACÍ
  6
Continuous
100
AcDbLine
 10
2733.949137340496
 20
-3925.707082749528
 30
0.0
 11
2735.920179851782
 21
-3925.46151633806
 31
0.0
  0
LINE
  5
6DB9
330
1F
100
AcDbEntity
  8
SPOJOVACÍ
  6
Continuous
100
AcDbLine
 10
2734.527706685403
 20
-3928.957116980114
 30
0.0
 11
2734.309115373376
 21
-3928.57853543183
 31
0.0
  0
LINE
  5
6DBA
330
1F
100
AcDbEntity
  8
SPOJOVACÍ
  6
Continuous
100
AcDbLine
 10
2734.527706685403
 20
-3928.957116980114
 30
0.0
 11
2734.905358058531
 21
-3928.57853543183
 31
0.0
  0
LINE
  5
6DBB
330
1F
100
AcDbEntity
  8
SPOJOVACÍ
  6
Continuous
100
AcDbLine
 10
2733.554742803098
 20
-3924.831787327372
 30
0.0
 11
2733.176161253992
 21
-3925.209438698317
 31
0.0
  0
LINE
  5
6DBC
330
1F
100
AcDbEntity
  8
SPOJOVACÍ
  6
Continuous
100
AcDbLine
 10
2733.554742803098
 20
-3924.831787327372
 30
0.0
 11
2733.772403939147
 21
-3925.209438698317
 31
0.0
  0
LINE
  5
6DBD
330
1F
100
AcDbEntity
  8
SPOJOVACÍ
  6
Continuous
100
AcDbLine
 10
2734.309115373376
 20
-3928.57853543183
 30
0.0
 11
2733.176161253992
 21
-3925.209438698317
 31
0.0
  0
LINE
  5
6DBE
330
1F
100
AcDbEntity
  8
SPOJOVACÍ
  6
Continuous
100
AcDbLine
 10
2734.905358058531
 20
-3928.57853543183
 30
0.0
 11
2733.772403939147
 21
-3925.209438698317
 31
0.0
  0
LINE
  5
6DBF
330
1F
100
AcDbEntity
  8
SPOJOVACÍ
  6
Continuous
100
AcDbLine
 10
2734.527706685403
 20
-3928.957116980114
 30
0.0
 11
2733.554742803098
 21
-3924.831787327372
 31
0.0
  0
LINE
  5
6DC0
330
1F
100
AcDbEntity
  8
SPOJOVACÍ
  6
Continuous
100
AcDbLine
 10
2731.513006931105
 20
-3928.392500274009
 30
0.0
 11
2731.295345795057
 21
-3928.014848898698
 31
0.0
  0
LINE
  5
6DC1
330
1F
100
AcDbEntity
  8
SPOJOVACÍ
  6
Continuous
100
AcDbLine
 10
2731.513006931105
 20
-3928.392500274009
 30
0.0
 11
2731.891588480212
 21
-3928.014848898698
 31
0.0
  0
LINE
  5
6DC2
330
1F
100
AcDbEntity
  8
SPOJOVACÍ
  6
Continuous
100
AcDbLine
 10
2730.879557214335
 20
-3925.276411357577
 30
0.0
 11
2730.500975665505
 21
-3925.654062728523
 31
0.0
  0
LINE
  5
6DC3
330
1F
100
AcDbEntity
  8
SPOJOVACÍ
  6
Continuous
100
AcDbLine
 10
2730.879557214335
 20
-3925.276411357577
 30
0.0
 11
2731.097218350383
 21
-3925.654062728523
 31
0.0
  0
LINE
  5
6DC4
330
1F
100
AcDbEntity
  8
SPOJOVACÍ
  6
Continuous
100
AcDbLine
 10
2731.295345795057
 20
-3928.014848898698
 30
0.0
 11
2730.500975665505
 21
-3925.654062728523
 31
0.0
  0
LINE
  5
6DC5
330
1F
100
AcDbEntity
  8
SPOJOVACÍ
  6
Continuous
100
AcDbLine
 10
2731.891588480212
 20
-3928.014848898698
 30
0.0
 11
2731.097218350383
 21
-3925.654062728523
 31
0.0
  0
LINE
  5
6DC6
330
1F
100
AcDbEntity
  8
SPOJOVACÍ
  6
Continuous
100
AcDbLine
 10
2731.513006931105
 20
-3928.392500274009
 30
0.0
 11
2730.879557214335
 21
-3925.276411357577
 31
0.0
  0
LINE
  5
6DC7
330
1F
100
AcDbEntity
  8
SPOJOVACÍ
  6
Continuous
100
AcDbLine
 10
2728.499237352785
 20
-3927.827883563537
 30
0.0
 11
2728.280646040766
 21
-3927.450232192592
 31
0.0
  0
LINE
  5
6DC8
330
1F
100
AcDbEntity
  8
SPOJOVACÍ
  6
Continuous
100
AcDbLine
 10
2728.499237352785
 20
-3927.827883563537
 30
0.0
 11
2728.876888725913
 21
-3927.450232192592
 31
0.0
  0
LINE
  5
6DC9
330
1F
100
AcDbEntity
  8
SPOJOVACÍ
  6
Continuous
100
AcDbLine
 10
2728.188558637012
 20
-3925.673596422081
 30
0.0
 11
2727.809977088182
 21
-3926.051247793026
 31
0.0
  0
LINE
  5
6DCA
330
1F
100
AcDbEntity
  8
SPOJOVACÍ
  6
Continuous
100
AcDbLine
 10
2728.188558637012
 20
-3925.673596422081
 30
0.0
 11
2728.406219773329
 21
-3926.051247793026
 31
0.0
  0
LINE
  5
6DCB
330
1F
100
AcDbEntity
  8
SPOJOVACÍ
  6
Continuous
100
AcDbLine
 10
2728.280646040766
 20
-3927.450232192592
 30
0.0
 11
2727.809977088182
 21
-3926.051247793026
 31
0.0
  0
LINE
  5
6DCC
330
1F
100
AcDbEntity
  8
SPOJOVACÍ
  6
Continuous
100
AcDbLine
 10
2728.876888725913
 20
-3927.450232192592
 30
0.0
 11
2728.406219773329
 21
-3926.051247793026
 31
0.0
  0
LINE
  5
6DCD
330
1F
100
AcDbEntity
  8
SPOJOVACÍ
  6
Continuous
100
AcDbLine
 10
2728.499237352785
 20
-3927.827883563537
 30
0.0
 11
2728.188558637012
 21
-3925.673596422081
 31
0.0
  0
LINE
  5
6DCE
330
1F
100
AcDbEntity
  8
SPOJOVACÍ
  6
Continuous
100
AcDbLine
 10
2736.404801441254
 20
-3924.411347868687
 30
0.0
 11
2736.027150068126
 21
-3924.788999239632
 31
0.0
  0
LINE
  5
6DCF
330
1F
100
AcDbEntity
  8
SPOJOVACÍ
  6
Continuous
100
AcDbLine
 10
2736.404801441254
 20
-3924.411347868687
 30
0.0
 11
2736.623392753281
 21
-3924.788999239632
 31
0.0
  0
LINE
  5
6DD0
330
1F
100
AcDbEntity
  8
SPOJOVACÍ
  6
Continuous
100
AcDbLine
 10
2746.529764978491
 20
-3928.160886500796
 30
0.0
 11
2744.008988571782
 21
-3928.160886500796
 31
0.0
  0
LINE
  5
6DD1
330
1F
100
AcDbEntity
  8
SPOJOVACÍ
  6
Continuous
100
AcDbLine
 10
2748.738932493448
 20
-3925.46151633806
 30
0.0
 11
2746.220016438419
 21
-3925.46151633806
 31
0.0
  0
LINE
  5
6DD2
330
1F
100
AcDbEntity
  8
SPOJOVACÍ
  6
Continuous
100
AcDbLine
 10
2748.884970093364
 20
-3924.411347868687
 30
0.0
 11
2748.507318720236
 21
-3924.788999239632
 31
0.0
  0
LINE
  5
6DD3
330
1F
100
AcDbEntity
  8
SPOJOVACÍ
  6
Continuous
100
AcDbLine
 10
2745.765160474125
 20
-3924.411347868687
 30
0.0
 11
2745.387509101274
 21
-3924.788999239632
 31
0.0
  0
LINE
  5
6DD4
330
1F
100
AcDbEntity
  8
SPOJOVACÍ
  6
Continuous
100
AcDbLine
 10
2745.765160474125
 20
-3924.411347868687
 30
0.0
 11
2745.983751786152
 21
-3924.788999239632
 31
0.0
  0
LINE
  5
6DD5
330
1F
100
AcDbEntity
  8
SPOJOVACÍ
  6
Continuous
100
AcDbLine
 10
2746.746495938838
 20
-3928.833403599225
 30
0.0
 11
2745.387509101274
 21
-3924.788999239632
 31
0.0
  0
LINE
  5
6DD6
330
1F
100
AcDbEntity
  8
SPOJOVACÍ
  6
Continuous
100
AcDbLine
 10
2747.342738623993
 20
-3928.833403599225
 30
0.0
 11
2745.983751786152
 21
-3924.788999239632
 31
0.0
  0
LINE
  5
6DD7
330
1F
100
AcDbEntity
  8
SPOJOVACÍ
  6
Continuous
100
AcDbLine
 10
2745.623773753264
 20
-3925.46151633806
 30
0.0
 11
2743.095555940395
 21
-3925.46151633806
 31
0.0
  0
LINE
  5
6DD8
330
1F
100
AcDbEntity
  8
SPOJOVACÍ
  6
Continuous
100
AcDbLine
 10
2743.626686319599
 20
-3928.833403599225
 30
0.0
 11
2742.266769306334
 21
-3924.788999239632
 31
0.0
  0
LINE
  5
6DD9
330
1F
100
AcDbEntity
  8
SPOJOVACÍ
  6
Continuous
100
AcDbLine
 10
2744.222929004754
 20
-3928.833403599225
 30
0.0
 11
2742.863011991481
 21
-3924.788999239632
 31
0.0
  0
LINE
  5
6DDA
330
1F
100
AcDbEntity
  8
SPOJOVACÍ
  6
Continuous
100
AcDbLine
 10
2749.604728217709
 20
-3913.881971051709
 30
0.0
 11
2748.404801441246
 21
-3909.08226394586
 31
0.0
  0
LINE
  5
6DDB
330
1F
100
AcDbEntity
  8
SPOJOVACÍ
  6
Continuous
100
AcDbLine
 10
2754.645350855156
 20
-3909.08226394586
 30
0.0
 11
2754.863011991473
 21
-3909.459915316805
 31
0.0
  0
LINE
  5
6DDC
330
1F
100
AcDbEntity
  8
SPOJOVACÍ
  6
Continuous
100
AcDbLine
 10
2752.725468012649
 20
-3913.881971051709
 30
0.0
 11
2751.525541236187
 21
-3909.08226394586
 31
0.0
  0
LINE
  5
6DDD
330
1F
100
AcDbEntity
  8
SPOJOVACÍ
  6
Continuous
100
AcDbLine
 10
2752.725468012649
 20
-3913.881971051709
 30
0.0
 11
2752.50687670063
 21
-3913.504319676398
 31
0.0
  0
LINE
  5
6DDE
330
1F
100
AcDbEntity
  8
SPOJOVACÍ
  6
Continuous
100
AcDbLine
 10
2751.525541236187
 20
-3909.08226394586
 30
0.0
 11
2751.743202372235
 21
-3909.459915316805
 31
0.0
  0
LINE
  5
6DDF
330
1F
100
AcDbEntity
  8
SPOJOVACÍ
  6
Continuous
100
AcDbLine
 10
2749.604728217709
 20
-3913.881971051709
 30
0.0
 11
2749.387067081661
 21
-3913.504319676398
 31
0.0
  0
LINE
  5
6DE0
330
1F
100
AcDbEntity
  8
SPOJOVACÍ
  6
Continuous
100
AcDbLine
 10
2748.256903489658
 20
-3910.132432415233
 30
0.0
 11
2747.920179851774
 21
-3910.132432415233
 31
0.0
  0
LINE
  5
6DE1
330
1F
100
AcDbEntity
  8
SPOJOVACÍ
  6
Continuous
100
AcDbLine
 10
2747.920179851774
 20
-3912.83180257797
 30
0.0
 11
2746.723043602418
 21
-3912.682044275246
 31
0.0
  0
LINE
  5
6DE2
330
1F
100
AcDbEntity
  8
SPOJOVACÍ
  6
Continuous
100
AcDbLine
 10
2737.119908686821
 20
-3911.482117498784
 30
0.0
 11
2739.95601468809
 21
-3911.127720517655
 31
0.0
  0
LINE
  5
6DE3
330
1F
100
AcDbEntity
  8
SPOJOVACÍ
  6
Continuous
100
AcDbLine
 10
2746.102616346564
 20
-3912.604839682721
 30
0.0
 11
2743.780897560499
 21
-3912.314624833201
 31
0.0
  0
LINE
  5
6DE4
330
1F
100
AcDbEntity
  8
SPOJOVACÍ
  6
Continuous
100
AcDbLine
 10
2743.150238370835
 20
-3912.235559890363
 30
0.0
 11
2740.82944976048
 21
-3911.945345045209
 31
0.0
  0
LINE
  5
6DE5
330
1F
100
AcDbEntity
  8
SPOJOVACÍ
  6
Continuous
100
AcDbLine
 10
2740.209022504626
 20
-3911.868140452683
 30
0.0
 11
2737.119908686821
 21
-3911.482117498784
 31
0.0
  0
LINE
  5
6DE6
330
1F
100
AcDbEntity
  8
SPOJOVACÍ
  6
Continuous
100
AcDbLine
 10
2740.525282275156
 20
-3911.056096980431
 30
0.0
 11
2742.670267660141
 21
-3910.788206352121
 31
0.0
  0
LINE
  5
6DE7
330
1F
100
AcDbEntity
  8
SPOJOVACÍ
  6
Continuous
100
AcDbLine
 10
2743.242325774589
 20
-3910.716582819262
 30
0.0
 11
2745.378939577443
 21
-3910.449622363925
 31
0.0
  0
LINE
  5
6DE8
330
1F
100
AcDbEntity
  8
SPOJOVACÍ
  6
Continuous
100
AcDbLine
 10
2745.949137340488
 20
-3910.377998826701
 30
0.0
 11
2747.920179851774
 21
-3910.132432415233
 31
0.0
  0
LINE
  5
6DE9
330
1F
100
AcDbEntity
  8
SPOJOVACÍ
  6
Continuous
100
AcDbLine
 10
2746.527706685395
 20
-3913.628033057288
 30
0.0
 11
2746.309115373369
 21
-3913.249451509003
 31
0.0
  0
LINE
  5
6DEA
330
1F
100
AcDbEntity
  8
SPOJOVACÍ
  6
Continuous
100
AcDbLine
 10
2746.527706685395
 20
-3913.628033057288
 30
0.0
 11
2746.905358058524
 21
-3913.249451509003
 31
0.0
  0
LINE
  5
6DEB
330
1F
100
AcDbEntity
  8
SPOJOVACÍ
  6
Continuous
100
AcDbLine
 10
2745.554742803091
 20
-3909.502703404545
 30
0.0
 11
2745.176161253984
 21
-3909.88035477549
 31
0.0
  0
LINE
  5
6DEC
330
1F
100
AcDbEntity
  8
SPOJOVACÍ
  6
Continuous
100
AcDbLine
 10
2745.554742803091
 20
-3909.502703404545
 30
0.0
 11
2745.772403939139
 21
-3909.88035477549
 31
0.0
  0
LINE
  5
6DED
330
1F
100
AcDbEntity
  8
SPOJOVACÍ
  6
Continuous
100
AcDbLine
 10
2746.309115373369
 20
-3913.249451509003
 30
0.0
 11
2745.176161253984
 21
-3909.88035477549
 31
0.0
  0
LINE
  5
6DEE
330
1F
100
AcDbEntity
  8
SPOJOVACÍ
  6
Continuous
100
AcDbLine
 10
2746.905358058524
 20
-3913.249451509003
 30
0.0
 11
2745.772403939139
 21
-3909.88035477549
 31
0.0
  0
LINE
  5
6DEF
330
1F
100
AcDbEntity
  8
SPOJOVACÍ
  6
Continuous
100
AcDbLine
 10
2746.527706685395
 20
-3913.628033057288
 30
0.0
 11
2745.554742803091
 21
-3909.502703404545
 31
0.0
  0
LINE
  5
6DF0
330
1F
100
AcDbEntity
  8
SPOJOVACÍ
  6
Continuous
100
AcDbLine
 10
2743.513006931097
 20
-3913.063416351182
 30
0.0
 11
2743.295345795049
 21
-3912.685764975871
 31
0.0
  0
LINE
  5
6DF1
330
1F
100
AcDbEntity
  8
SPOJOVACÍ
  6
Continuous
100
AcDbLine
 10
2743.513006931097
 20
-3913.063416351182
 30
0.0
 11
2743.891588480204
 21
-3912.685764975871
 31
0.0
  0
LINE
  5
6DF2
330
1F
100
AcDbEntity
  8
SPOJOVACÍ
  6
Continuous
100
AcDbLine
 10
2742.879557214327
 20
-3909.947327434751
 30
0.0
 11
2742.500975665497
 21
-3910.324978805696
 31
0.0
  0
LINE
  5
6DF3
330
1F
100
AcDbEntity
  8
SPOJOVACÍ
  6
Continuous
100
AcDbLine
 10
2742.879557214327
 20
-3909.947327434751
 30
0.0
 11
2743.097218350376
 21
-3910.324978805696
 31
0.0
  0
LINE
  5
6DF4
330
1F
100
AcDbEntity
  8
SPOJOVACÍ
  6
Continuous
100
AcDbLine
 10
2743.295345795049
 20
-3912.685764975871
 30
0.0
 11
2742.500975665497
 21
-3910.324978805696
 31
0.0
  0
LINE
  5
6DF5
330
1F
100
AcDbEntity
  8
SPOJOVACÍ
  6
Continuous
100
AcDbLine
 10
2743.891588480204
 20
-3912.685764975871
 30
0.0
 11
2743.097218350376
 21
-3910.324978805696
 31
0.0
  0
LINE
  5
6DF6
330
1F
100
AcDbEntity
  8
SPOJOVACÍ
  6
Continuous
100
AcDbLine
 10
2743.513006931097
 20
-3913.063416351182
 30
0.0
 11
2742.879557214327
 21
-3909.947327434751
 31
0.0
  0
LINE
  5
6DF7
330
1F
100
AcDbEntity
  8
SPOJOVACÍ
  6
Continuous
100
AcDbLine
 10
2740.499237352778
 20
-3912.49879964071
 30
0.0
 11
2740.280646040758
 21
-3912.121148269765
 31
0.0
  0
LINE
  5
6DF8
330
1F
100
AcDbEntity
  8
SPOJOVACÍ
  6
Continuous
100
AcDbLine
 10
2740.499237352778
 20
-3912.49879964071
 30
0.0
 11
2740.876888725906
 21
-3912.121148269765
 31
0.0
  0
LINE
  5
6DF9
330
1F
100
AcDbEntity
  8
SPOJOVACÍ
  6
Continuous
100
AcDbLine
 10
2740.188558637004
 20
-3910.344512499253
 30
0.0
 11
2739.809977088174
 21
-3910.722163870199
 31
0.0
  0
LINE
  5
6DFA
330
1F
100
AcDbEntity
  8
SPOJOVACÍ
  6
Continuous
100
AcDbLine
 10
2740.188558637004
 20
-3910.344512499253
 30
0.0
 11
2740.406219773321
 21
-3910.722163870199
 31
0.0
  0
LINE
  5
6DFB
330
1F
100
AcDbEntity
  8
SPOJOVACÍ
  6
Continuous
100
AcDbLine
 10
2740.280646040758
 20
-3912.121148269765
 30
0.0
 11
2739.809977088174
 21
-3910.722163870199
 31
0.0
  0
LINE
  5
6DFC
330
1F
100
AcDbEntity
  8
SPOJOVACÍ
  6
Continuous
100
AcDbLine
 10
2740.876888725906
 20
-3912.121148269765
 30
0.0
 11
2740.406219773321
 21
-3910.722163870199
 31
0.0
  0
LINE
  5
6DFD
330
1F
100
AcDbEntity
  8
SPOJOVACÍ
  6
Continuous
100
AcDbLine
 10
2740.499237352778
 20
-3912.49879964071
 30
0.0
 11
2740.188558637004
 21
-3910.344512499253
 31
0.0
  0
LINE
  5
6DFE
330
1F
100
AcDbEntity
  8
SPOJOVACÍ
  6
Continuous
100
AcDbLine
 10
2748.404801441246
 20
-3909.08226394586
 30
0.0
 11
2748.027150068118
 21
-3909.459915316805
 31
0.0
  0
LINE
  5
6DFF
330
1F
100
AcDbEntity
  8
SPOJOVACÍ
  6
Continuous
100
AcDbLine
 10
2748.404801441246
 20
-3909.08226394586
 30
0.0
 11
2748.623392753273
 21
-3909.459915316805
 31
0.0
  0
LINE
  5
6E00
330
1F
100
AcDbEntity
  8
SPOJOVACÍ
  6
Continuous
100
AcDbLine
 10
2762.084896869819
 20
-3913.881971051709
 30
0.0
 11
2760.884970093356
 21
-3909.08226394586
 31
0.0
  0
LINE
  5
6E01
330
1F
100
AcDbEntity
  8
SPOJOVACÍ
  6
Continuous
100
AcDbLine
 10
2762.084896869819
 20
-3913.881971051709
 30
0.0
 11
2761.86723573377
 21
-3913.504319676398
 31
0.0
  0
LINE
  5
6E02
330
1F
100
AcDbEntity
  8
SPOJOVACÍ
  6
Continuous
100
AcDbLine
 10
2758.965087250857
 20
-3913.881971051709
 30
0.0
 11
2757.765160474118
 21
-3909.08226394586
 31
0.0
  0
LINE
  5
6E03
330
1F
100
AcDbEntity
  8
SPOJOVACÍ
  6
Continuous
100
AcDbLine
 10
2758.965087250857
 20
-3913.881971051709
 30
0.0
 11
2758.74649593883
 21
-3913.504319676398
 31
0.0
  0
LINE
  5
6E04
330
1F
100
AcDbEntity
  8
SPOJOVACÍ
  6
Continuous
100
AcDbLine
 10
2757.765160474118
 20
-3909.08226394586
 30
0.0
 11
2757.983751786145
 21
-3909.459915316805
 31
0.0
  0
LINE
  5
6E05
330
1F
100
AcDbEntity
  8
SPOJOVACÍ
  6
Continuous
100
AcDbLine
 10
2755.845277631618
 20
-3913.881971051709
 30
0.0
 11
2755.626686319592
 21
-3913.504319676398
 31
0.0
  0
LINE
  5
6E06
330
1F
100
AcDbEntity
  8
SPOJOVACÍ
  6
Continuous
100
AcDbLine
 10
2755.845277631618
 20
-3913.881971051709
 30
0.0
 11
2754.645350855156
 21
-3909.08226394586
 31
0.0
  0
LINE
  5
6E07
102
{ACAD_REACTORS
330
7BFA
102
}
330
1F
100
AcDbEntity
  8
SPOJOVACÍ
  6
Continuous
100
AcDbLine
 10
2760.885168034779
 20
-3931.911355310245
 30
0.0
 11
2759.685241258048
 21
-3931.911355310245
 31
0.0
  0
LINE
  5
6E08
102
{ACAD_REACTORS
330
7BFA
102
}
330
1F
100
AcDbEntity
  8
SPOJOVACÍ
  6
Continuous
100
AcDbLine
 10
2759.685241258048
 20
-3931.911355310245
 30
0.0
 11
2758.941100621574
 21
-3930.561670226694
 31
0.0
  0
LINE
  5
6E09
102
{ACAD_REACTORS
330
7BFA
102
}
330
1F
100
AcDbEntity
  8
SPOJOVACÍ
  6
Continuous
100
AcDbLine
 10
2758.941100621574
 20
-3930.561670226694
 30
0.0
 11
2757.872328632162
 21
-3929.451040326336
 31
0.0
  0
LINE
  5
6E0A
102
{ACAD_REACTORS
330
7BFA
102
}
330
1F
100
AcDbEntity
  8
SPOJOVACÍ
  6
Continuous
100
AcDbLine
 10
2757.872328632162
 20
-3929.451040326336
 30
0.0
 11
2756.553339353864
 21
-3928.654809847017
 31
0.0
  0
LINE
  5
6E0B
102
{ACAD_REACTORS
330
7BFA
102
}
330
1F
100
AcDbEntity
  8
SPOJOVACÍ
  6
Continuous
100
AcDbLine
 10
2750.084896869826
 20
-3929.211054974535
 30
0.0
 11
2750.463478418656
 21
-3928.833403599225
 31
0.0
  0
LINE
  5
6E0C
330
1F
100
AcDbEntity
  8
SPOJOVACÍ
  6
Continuous
100
AcDbLine
 10
2737.604728217716
 20
-3929.211054974535
 30
0.0
 11
2736.404801441254
 21
-3924.411347868687
 31
0.0
  0
LINE
  5
6E0D
330
1F
100
AcDbEntity
  8
SPOJOVACÍ
  6
Continuous
100
AcDbLine
 10
2740.725468012657
 20
-3929.211054974535
 30
0.0
 11
2739.525541236194
 21
-3924.411347868687
 31
0.0
  0
LINE
  5
6E0E
330
1F
100
AcDbEntity
  8
SPOJOVACÍ
  6
Continuous
100
AcDbLine
 10
2740.725468012657
 20
-3929.211054974535
 30
0.0
 11
2740.506876700638
 21
-3928.833403599225
 31
0.0
  0
LINE
  5
6E0F
330
1F
100
AcDbEntity
  8
SPOJOVACÍ
  6
Continuous
100
AcDbLine
 10
2740.725468012657
 20
-3929.211054974535
 30
0.0
 11
2741.103119385785
 21
-3928.833403599225
 31
0.0
  0
LINE
  5
6E10
330
1F
100
AcDbEntity
  8
SPOJOVACÍ
  6
Continuous
100
AcDbLine
 10
2737.604728217716
 20
-3929.211054974535
 30
0.0
 11
2737.387067081668
 21
-3928.833403599225
 31
0.0
  0
LINE
  5
6E11
330
1F
100
AcDbEntity
  8
SPOJOVACÍ
  6
Continuous
100
AcDbLine
 10
2737.604728217716
 20
-3929.211054974535
 30
0.0
 11
2737.983309766823
 21
-3928.833403599225
 31
0.0
  0
LINE
  5
6E12
330
1F
100
AcDbEntity
  8
SPOJOVACÍ
  6
Continuous
100
AcDbLine
 10
2750.084896869826
 20
-3929.211054974535
 30
0.0
 11
2748.884970093364
 21
-3924.411347868687
 31
0.0
  0
LINE
  5
6E13
330
1F
100
AcDbEntity
  8
SPOJOVACÍ
  6
Continuous
100
AcDbLine
 10
2750.084896869826
 20
-3929.211054974535
 30
0.0
 11
2749.867235733778
 21
-3928.833403599225
 31
0.0
  0
LINE
  5
6E14
330
1F
100
AcDbEntity
  8
SPOJOVACÍ
  6
Continuous
100
AcDbLine
 10
2746.965087250865
 20
-3929.211054974535
 30
0.0
 11
2745.765160474125
 21
-3924.411347868687
 31
0.0
  0
LINE
  5
6E15
330
1F
100
AcDbEntity
  8
SPOJOVACÍ
  6
Continuous
100
AcDbLine
 10
2746.965087250865
 20
-3929.211054974535
 30
0.0
 11
2746.746495938838
 21
-3928.833403599225
 31
0.0
  0
LINE
  5
6E16
330
1F
100
AcDbEntity
  8
SPOJOVACÍ
  6
Continuous
100
AcDbLine
 10
2746.965087250865
 20
-3929.211054974535
 30
0.0
 11
2747.342738623993
 21
-3928.833403599225
 31
0.0
  0
LINE
  5
6E17
330
1F
100
AcDbEntity
  8
SPOJOVACÍ
  6
Continuous
100
AcDbLine
 10
2743.845277631626
 20
-3929.211054974535
 30
0.0
 11
2743.626686319599
 21
-3928.833403599225
 31
0.0
  0
LINE
  5
6E18
330
1F
100
AcDbEntity
  8
SPOJOVACÍ
  6
Continuous
100
AcDbLine
 10
2743.845277631626
 20
-3929.211054974535
 30
0.0
 11
2744.222929004754
 21
-3928.833403599225
 31
0.0
  0
LINE
  5
6E19
330
1F
100
AcDbEntity
  8
SPOJOVACÍ
  6
Continuous
100
AcDbLine
 10
2743.845277631626
 20
-3929.211054974535
 30
0.0
 11
2742.645350855164
 21
-3924.411347868687
 31
0.0
  0
LINE
  5
6E1A
330
1F
100
AcDbEntity
  8
SPOJOVACÍ
  6
Continuous
100
AcDbLine
 10
2760.885168034779
 20
-3931.911355310245
 30
0.0
 11
2760.885168034779
 21
-3921.711047532977
 31
0.0
  0
LINE
  5
6E1B
330
1F
100
AcDbEntity
  8
SPOJOVACÍ
  6
Continuous
100
AcDbLine
 10
2759.685241258048
 20
-3931.911355310245
 30
0.0
 11
2759.685241258048
 21
-3921.711047532977
 31
0.0
  0
LINE
  5
6E78
102
{ACAD_REACTORS
330
7BFA
102
}
330
1F
100
AcDbEntity
  8
SPOJOVACÍ
  6
Continuous
100
AcDbLine
 10
2749.652365124835
 20
-3831.288757812489
 30
0.0
 11
2747.133449069806
 21
-3831.288757812489
 31
0.0
  0
LINE
  5
6E79
102
{ACAD_REACTORS
330
7BFA
102
}
330
1F
100
AcDbEntity
  8
SPOJOVACÍ
  6
Continuous
100
AcDbLine
 10
2749.867235733778
 20
-3830.616240714061
 30
0.0
 11
2748.507318720236
 21
-3834.660645073654
 31
0.0
  0
LINE
  5
6E7A
102
{ACAD_REACTORS
330
7BFA
102
}
330
1F
100
AcDbEntity
  8
SPOJOVACÍ
  6
Continuous
100
AcDbLine
 10
2750.084896869826
 20
-3830.23858933875
 30
0.0
 11
2750.463478418656
 21
-3830.616240714061
 31
0.0
  0
LINE
  5
6E7B
102
{ACAD_REACTORS
330
7BFA
102
}
330
1F
100
AcDbEntity
  8
SPOJOVACÍ
  6
Continuous
100
AcDbLine
 10
2750.463478418656
 20
-3830.616240714061
 30
0.0
 11
2749.103561405391
 21
-3834.660645073654
 31
0.0
  0
LINE
  5
6E7C
102
{ACAD_REACTORS
330
7BFA
102
}
330
1F
100
AcDbEntity
  8
SPOJOVACÍ
  6
Continuous
100
AcDbLine
 10
2754.285570763691
 20
-3831.288757812489
 30
0.0
 11
2750.247677634011
 21
-3831.288757812489
 31
0.0
  0
LINE
  5
6E7D
102
{ACAD_REACTORS
330
7BFA
102
}
330
1F
100
AcDbEntity
  8
SPOJOVACÍ
  6
Continuous
100
AcDbLine
 10
2755.072499486814
 20
-3831.222715330568
 30
0.0
 11
2754.285570763691
 21
-3831.288757812489
 31
0.0
  0
LINE
  5
6E7E
102
{ACAD_REACTORS
330
7BFA
102
}
330
1F
100
AcDbEntity
  8
SPOJOVACÍ
  6
Continuous
100
AcDbLine
 10
2756.553339353864
 20
-3830.794834466268
 30
0.0
 11
2755.072499486814
 21
-3831.222715330568
 31
0.0
  0
LINE
  5
6E7F
102
{ACAD_REACTORS
330
7BFA
102
}
330
1F
100
AcDbEntity
  8
SPOJOVACÍ
  6
Continuous
100
AcDbLine
 10
2757.872328632162
 20
-3829.99860398695
 30
0.0
 11
2756.553339353864
 21
-3830.794834466268
 31
0.0
  0
LINE
  5
6E80
102
{ACAD_REACTORS
330
7BFA
102
}
330
1F
100
AcDbEntity
  8
SPOJOVACÍ
  6
Continuous
100
AcDbLine
 10
2758.941100621574
 20
-3828.887974086591
 30
0.0
 11
2757.872328632162
 21
-3829.99860398695
 31
0.0
  0
LINE
  5
6E81
102
{ACAD_REACTORS
330
7BFA
102
}
330
1F
100
AcDbEntity
  8
SPOJOVACÍ
  6
Continuous
100
AcDbLine
 10
2759.685241258048
 20
-3827.53828900304
 30
0.0
 11
2758.941100621574
 21
-3828.887974086591
 31
0.0
  0
LINE
  5
6E82
102
{ACAD_REACTORS
330
7BFA
102
}
330
1F
100
AcDbEntity
  8
SPOJOVACÍ
  6
Continuous
100
AcDbLine
 10
2760.885168034779
 20
-3827.53828900304
 30
0.0
 11
2759.685241258048
 21
-3827.53828900304
 31
0.0
  0
LINE
  5
6E83
102
{ACAD_REACTORS
330
7BFA
102
}
330
1F
100
AcDbEntity
  8
SPOJOVACÍ
  6
Continuous
100
AcDbLine
 10
2760.885168034779
 20
-3837.738596780308
 30
0.0
 11
2759.685241258048
 21
-3837.738596780308
 31
0.0
  0
LINE
  5
6E84
102
{ACAD_REACTORS
330
7BFA
102
}
330
1F
100
AcDbEntity
  8
SPOJOVACÍ
  6
Continuous
100
AcDbLine
 10
2759.348517620165
 20
-3837.023291594141
 30
0.0
 11
2759.685241258048
 21
-3837.738596780308
 31
0.0
  0
LINE
  5
6E85
102
{ACAD_REACTORS
330
7BFA
102
}
330
1F
100
AcDbEntity
  8
SPOJOVACÍ
  6
Continuous
100
AcDbLine
 10
2758.430434109723
 20
-3835.786157785241
 30
0.0
 11
2759.348517620165
 21
-3837.023291594141
 31
0.0
  0
LINE
  5
6E86
102
{ACAD_REACTORS
330
7BFA
102
}
330
1F
100
AcDbEntity
  8
SPOJOVACÍ
  6
Continuous
100
AcDbLine
 10
2757.223065926824
 20
-3834.828076715256
 30
0.0
 11
2758.430434109723
 21
-3835.786157785241
 31
0.0
  0
LINE
  5
6E87
102
{ACAD_REACTORS
330
7BFA
102
}
330
1F
100
AcDbEntity
  8
SPOJOVACÍ
  6
Continuous
100
AcDbLine
 10
2755.809198717121
 20
-3834.215090866109
 30
0.0
 11
2757.223065926824
 21
-3834.828076715256
 31
0.0
  0
LINE
  5
6E88
102
{ACAD_REACTORS
330
7BFA
102
}
330
1F
100
AcDbEntity
  8
SPOJOVACÍ
  6
Continuous
100
AcDbLine
 10
2754.285570763691
 20
-3833.988127975225
 30
0.0
 11
2755.809198717121
 21
-3834.215090866109
 31
0.0
  0
LINE
  5
6E89
102
{ACAD_REACTORS
330
7BFA
102
}
330
1F
100
AcDbEntity
  8
SPOJOVACÍ
  6
Continuous
100
AcDbLine
 10
2754.285570763691
 20
-3833.988127975225
 30
0.0
 11
2749.342616584763
 21
-3833.988127975225
 31
0.0
  0
LINE
  5
6E8A
102
{ACAD_REACTORS
330
7BFA
102
}
330
1F
100
AcDbEntity
  8
SPOJOVACÍ
  6
Continuous
100
AcDbLine
 10
2748.884970093364
 20
-3835.038296444599
 30
0.0
 11
2748.507318720236
 21
-3834.660645073654
 31
0.0
  0
LINE
  5
6E8B
330
1F
100
AcDbEntity
  8
SPOJOVACÍ
  6
Continuous
100
AcDbLine
 10
2759.685241258048
 20
-3827.53828900304
 30
0.0
 11
2759.685241258048
 21
-3837.738596780308
 31
0.0
  0
LINE
  5
6E8C
330
1F
100
AcDbEntity
  8
SPOJOVACÍ
  6
Continuous
100
AcDbLine
 10
2760.885168034779
 20
-3827.53828900304
 30
0.0
 11
2760.885168034779
 21
-3837.738596780308
 31
0.0
  0
LINE
  5
6E8D
330
1F
100
AcDbEntity
  8
SPOJOVACÍ
  6
Continuous
100
AcDbLine
 10
2744.222929004754
 20
-3830.616240714061
 30
0.0
 11
2742.863011991481
 21
-3834.660645073654
 31
0.0
  0
LINE
  5
6E8E
330
1F
100
AcDbEntity
  8
SPOJOVACÍ
  6
Continuous
100
AcDbLine
 10
2743.626686319599
 20
-3830.616240714061
 30
0.0
 11
2742.266769306334
 21
-3834.660645073654
 31
0.0
  0
LINE
  5
6E8F
330
1F
100
AcDbEntity
  8
SPOJOVACÍ
  6
Continuous
100
AcDbLine
 10
2743.845277631626
 20
-3830.23858933875
 30
0.0
 11
2742.645350855164
 21
-3835.038296444599
 31
0.0
  0
LINE
  5
6E90
330
1F
100
AcDbEntity
  8
SPOJOVACÍ
  6
Continuous
100
AcDbLine
 10
2745.623773753264
 20
-3833.988127975225
 30
0.0
 11
2743.095555940395
 21
-3833.988127975225
 31
0.0
  0
LINE
  5
6E91
330
1F
100
AcDbEntity
  8
SPOJOVACÍ
  6
Continuous
100
AcDbLine
 10
2743.845277631626
 20
-3830.23858933875
 30
0.0
 11
2744.222929004754
 21
-3830.616240714061
 31
0.0
  0
LINE
  5
6E92
330
1F
100
AcDbEntity
  8
SPOJOVACÍ
  6
Continuous
100
AcDbLine
 10
2743.845277631626
 20
-3830.23858933875
 30
0.0
 11
2743.626686319599
 21
-3830.616240714061
 31
0.0
  0
LINE
  5
6E93
330
1F
100
AcDbEntity
  8
SPOJOVACÍ
  6
Continuous
100
AcDbLine
 10
2747.342738623993
 20
-3830.616240714061
 30
0.0
 11
2745.983751786152
 21
-3834.660645073654
 31
0.0
  0
LINE
  5
6E94
330
1F
100
AcDbEntity
  8
SPOJOVACÍ
  6
Continuous
100
AcDbLine
 10
2746.746495938838
 20
-3830.616240714061
 30
0.0
 11
2745.387509101274
 21
-3834.660645073654
 31
0.0
  0
LINE
  5
6E95
330
1F
100
AcDbEntity
  8
SPOJOVACÍ
  6
Continuous
100
AcDbLine
 10
2745.765160474125
 20
-3835.038296444599
 30
0.0
 11
2745.983751786152
 21
-3834.660645073654
 31
0.0
  0
LINE
  5
6E96
330
1F
100
AcDbEntity
  8
SPOJOVACÍ
  6
Continuous
100
AcDbLine
 10
2745.765160474125
 20
-3835.038296444599
 30
0.0
 11
2745.387509101274
 21
-3834.660645073654
 31
0.0
  0
LINE
  5
6E97
330
1F
100
AcDbEntity
  8
SPOJOVACÍ
  6
Continuous
100
AcDbLine
 10
2746.965087250865
 20
-3830.23858933875
 30
0.0
 11
2747.342738623993
 21
-3830.616240714061
 31
0.0
  0
LINE
  5
6E98
330
1F
100
AcDbEntity
  8
SPOJOVACÍ
  6
Continuous
100
AcDbLine
 10
2746.965087250865
 20
-3830.23858933875
 30
0.0
 11
2746.746495938838
 21
-3830.616240714061
 31
0.0
  0
LINE
  5
6E99
330
1F
100
AcDbEntity
  8
SPOJOVACÍ
  6
Continuous
100
AcDbLine
 10
2746.965087250865
 20
-3830.23858933875
 30
0.0
 11
2745.765160474125
 21
-3835.038296444599
 31
0.0
  0
LINE
  5
6E9A
330
1F
100
AcDbEntity
  8
SPOJOVACÍ
  6
Continuous
100
AcDbLine
 10
2748.884970093364
 20
-3835.038296444599
 30
0.0
 11
2749.103561405391
 21
-3834.660645073654
 31
0.0
  0
LINE
  5
6E9B
330
1F
100
AcDbEntity
  8
SPOJOVACÍ
  6
Continuous
100
AcDbLine
 10
2750.084896869826
 20
-3830.23858933875
 30
0.0
 11
2749.867235733778
 21
-3830.616240714061
 31
0.0
  0
LINE
  5
6E9C
330
1F
100
AcDbEntity
  8
SPOJOVACÍ
  6
Continuous
100
AcDbLine
 10
2750.084896869826
 20
-3830.23858933875
 30
0.0
 11
2748.884970093364
 21
-3835.038296444599
 31
0.0
  0
LINE
  5
6E9D
330
1F
100
AcDbEntity
  8
SPOJOVACÍ
  6
Continuous
100
AcDbLine
 10
2748.738932493448
 20
-3833.988127975225
 30
0.0
 11
2746.220016438419
 21
-3833.988127975225
 31
0.0
  0
LINE
  5
6E9E
330
1F
100
AcDbEntity
  8
SPOJOVACÍ
  6
Continuous
100
AcDbLine
 10
2746.529764978491
 20
-3831.288757812489
 30
0.0
 11
2744.008988571782
 21
-3831.288757812489
 31
0.0
  0
LINE
  5
6E9F
330
1F
100
AcDbEntity
  8
SPOJOVACÍ
  6
Continuous
100
AcDbLine
 10
2736.404801441254
 20
-3835.038296444599
 30
0.0
 11
2736.623392753281
 21
-3834.660645073654
 31
0.0
  0
LINE
  5
6EA0
330
1F
100
AcDbEntity
  8
SPOJOVACÍ
  6
Continuous
100
AcDbLine
 10
2736.404801441254
 20
-3835.038296444599
 30
0.0
 11
2736.027150068126
 21
-3834.660645073654
 31
0.0
  0
LINE
  5
6EA1
330
1F
100
AcDbEntity
  8
SPOJOVACÍ
  6
Continuous
100
AcDbLine
 10
2728.499237352785
 20
-3831.621760749748
 30
0.0
 11
2728.188558637012
 21
-3833.776047891205
 31
0.0
  0
LINE
  5
6EA2
330
1F
100
AcDbEntity
  8
SPOJOVACÍ
  6
Continuous
100
AcDbLine
 10
2728.876888725913
 20
-3831.999412120694
 30
0.0
 11
2728.406219773329
 21
-3833.39839652026
 31
0.0
  0
LINE
  5
6EA3
330
1F
100
AcDbEntity
  8
SPOJOVACÍ
  6
Continuous
100
AcDbLine
 10
2728.280646040766
 20
-3831.999412120694
 30
0.0
 11
2727.809977088182
 21
-3833.39839652026
 31
0.0
  0
LINE
  5
6EA4
330
1F
100
AcDbEntity
  8
SPOJOVACÍ
  6
Continuous
100
AcDbLine
 10
2728.188558637012
 20
-3833.776047891205
 30
0.0
 11
2728.406219773329
 21
-3833.39839652026
 31
0.0
  0
LINE
  5
6EA5
330
1F
100
AcDbEntity
  8
SPOJOVACÍ
  6
Continuous
100
AcDbLine
 10
2728.188558637012
 20
-3833.776047891205
 30
0.0
 11
2727.809977088182
 21
-3833.39839652026
 31
0.0
  0
LINE
  5
6EA6
330
1F
100
AcDbEntity
  8
SPOJOVACÍ
  6
Continuous
100
AcDbLine
 10
2728.499237352785
 20
-3831.621760749748
 30
0.0
 11
2728.876888725913
 21
-3831.999412120694
 31
0.0
  0
LINE
  5
6EA7
330
1F
100
AcDbEntity
  8
SPOJOVACÍ
  6
Continuous
100
AcDbLine
 10
2728.499237352785
 20
-3831.621760749748
 30
0.0
 11
2728.280646040766
 21
-3831.999412120694
 31
0.0
  0
LINE
  5
6EA8
330
1F
100
AcDbEntity
  8
SPOJOVACÍ
  6
Continuous
100
AcDbLine
 10
2731.513006931105
 20
-3831.057144039277
 30
0.0
 11
2730.879557214335
 21
-3834.173232955708
 31
0.0
  0
LINE
  5
6EA9
330
1F
100
AcDbEntity
  8
SPOJOVACÍ
  6
Continuous
100
AcDbLine
 10
2731.891588480212
 20
-3831.434795414588
 30
0.0
 11
2731.097218350383
 21
-3833.795581584762
 31
0.0
  0
LINE
  5
6EAA
330
1F
100
AcDbEntity
  8
SPOJOVACÍ
  6
Continuous
100
AcDbLine
 10
2731.295345795057
 20
-3831.434795414588
 30
0.0
 11
2730.500975665505
 21
-3833.795581584762
 31
0.0
  0
LINE
  5
6EAB
330
1F
100
AcDbEntity
  8
SPOJOVACÍ
  6
Continuous
100
AcDbLine
 10
2730.879557214335
 20
-3834.173232955708
 30
0.0
 11
2731.097218350383
 21
-3833.795581584762
 31
0.0
  0
LINE
  5
6EAC
330
1F
100
AcDbEntity
  8
SPOJOVACÍ
  6
Continuous
100
AcDbLine
 10
2730.879557214335
 20
-3834.173232955708
 30
0.0
 11
2730.500975665505
 21
-3833.795581584762
 31
0.0
  0
LINE
  5
6EAD
330
1F
100
AcDbEntity
  8
SPOJOVACÍ
  6
Continuous
100
AcDbLine
 10
2731.513006931105
 20
-3831.057144039277
 30
0.0
 11
2731.891588480212
 21
-3831.434795414588
 31
0.0
  0
LINE
  5
6EAE
330
1F
100
AcDbEntity
  8
SPOJOVACÍ
  6
Continuous
100
AcDbLine
 10
2731.513006931105
 20
-3831.057144039277
 30
0.0
 11
2731.295345795057
 21
-3831.434795414588
 31
0.0
  0
LINE
  5
6EAF
330
1F
100
AcDbEntity
  8
SPOJOVACÍ
  6
Continuous
100
AcDbLine
 10
2734.527706685403
 20
-3830.492527333171
 30
0.0
 11
2733.554742803098
 21
-3834.617856985914
 31
0.0
  0
LINE
  5
6EB0
330
1F
100
AcDbEntity
  8
SPOJOVACÍ
  6
Continuous
100
AcDbLine
 10
2734.905358058531
 20
-3830.871108881455
 30
0.0
 11
2733.772403939147
 21
-3834.240205614968
 31
0.0
  0
LINE
  5
6EB1
330
1F
100
AcDbEntity
  8
SPOJOVACÍ
  6
Continuous
100
AcDbLine
 10
2734.309115373376
 20
-3830.871108881455
 30
0.0
 11
2733.176161253992
 21
-3834.240205614968
 31
0.0
  0
LINE
  5
6EB2
330
1F
100
AcDbEntity
  8
SPOJOVACÍ
  6
Continuous
100
AcDbLine
 10
2733.554742803098
 20
-3834.617856985914
 30
0.0
 11
2733.772403939147
 21
-3834.240205614968
 31
0.0
  0
LINE
  5
6EB3
330
1F
100
AcDbEntity
  8
SPOJOVACÍ
  6
Continuous
100
AcDbLine
 10
2733.554742803098
 20
-3834.617856985914
 30
0.0
 11
2733.176161253992
 21
-3834.240205614968
 31
0.0
  0
LINE
  5
6EB4
330
1F
100
AcDbEntity
  8
SPOJOVACÍ
  6
Continuous
100
AcDbLine
 10
2734.527706685403
 20
-3830.492527333171
 30
0.0
 11
2734.905358058531
 21
-3830.871108881455
 31
0.0
  0
LINE
  5
6EB5
330
1F
100
AcDbEntity
  8
SPOJOVACÍ
  6
Continuous
100
AcDbLine
 10
2734.527706685403
 20
-3830.492527333171
 30
0.0
 11
2734.309115373376
 21
-3830.871108881455
 31
0.0
  0
LINE
  5
6EB6
330
1F
100
AcDbEntity
  8
SPOJOVACÍ
  6
Continuous
100
AcDbLine
 10
2733.949137340496
 20
-3833.742561563758
 30
0.0
 11
2735.920179851782
 21
-3833.988127975225
 31
0.0
  0
LINE
  5
6EB7
330
1F
100
AcDbEntity
  8
SPOJOVACÍ
  6
Continuous
100
AcDbLine
 10
2731.242325774597
 20
-3833.403977571196
 30
0.0
 11
2733.378939577451
 21
-3833.670938026534
 31
0.0
  0
LINE
  5
6EB8
330
1F
100
AcDbEntity
  8
SPOJOVACÍ
  6
Continuous
100
AcDbLine
 10
2728.525282275164
 20
-3833.064463410027
 30
0.0
 11
2730.670267660149
 21
-3833.332354038338
 31
0.0
  0
LINE
  5
6EB9
330
1F
100
AcDbEntity
  8
SPOJOVACÍ
  6
Continuous
100
AcDbLine
 10
2728.209022504634
 20
-3832.252419937776
 30
0.0
 11
2725.119908686829
 21
-3832.638442891674
 31
0.0
  0
LINE
  5
6EBA
330
1F
100
AcDbEntity
  8
SPOJOVACÍ
  6
Continuous
100
AcDbLine
 10
2731.150238370843
 20
-3831.885000500096
 30
0.0
 11
2728.829449760487
 21
-3832.17521534525
 31
0.0
  0
LINE
  5
6EBB
330
1F
100
AcDbEntity
  8
SPOJOVACÍ
  6
Continuous
100
AcDbLine
 10
2734.102616346572
 20
-3831.515720707738
 30
0.0
 11
2731.780897560507
 21
-3831.805935557257
 31
0.0
  0
LINE
  5
6EBC
330
1F
100
AcDbEntity
  8
SPOJOVACÍ
  6
Continuous
100
AcDbLine
 10
2725.119908686829
 20
-3832.638442891674
 30
0.0
 11
2727.956014688098
 21
-3832.992839872803
 31
0.0
  0
LINE
  5
6EBD
330
1F
100
AcDbEntity
  8
SPOJOVACÍ
  6
Continuous
100
AcDbLine
 10
2735.920179851782
 20
-3831.288757812489
 30
0.0
 11
2734.723043602425
 21
-3831.438516115212
 31
0.0
  0
LINE
  5
6EBE
330
1F
100
AcDbEntity
  8
SPOJOVACÍ
  6
Continuous
100
AcDbLine
 10
2736.256903489666
 20
-3833.988127975225
 30
0.0
 11
2735.920179851782
 21
-3833.988127975225
 31
0.0
  0
LINE
  5
6EBF
330
1F
100
AcDbEntity
  8
SPOJOVACÍ
  6
Continuous
100
AcDbLine
 10
2737.167545593671
 20
-3831.288757812489
 30
0.0
 11
2735.920179851782
 21
-3831.288757812489
 31
0.0
  0
LINE
  5
6EC0
330
1F
100
AcDbEntity
  8
SPOJOVACÍ
  6
Continuous
100
AcDbLine
 10
2737.604728217716
 20
-3830.23858933875
 30
0.0
 11
2737.983309766823
 21
-3830.616240714061
 31
0.0
  0
LINE
  5
6EC1
330
1F
100
AcDbEntity
  8
SPOJOVACÍ
  6
Continuous
100
AcDbLine
 10
2737.604728217716
 20
-3830.23858933875
 30
0.0
 11
2737.387067081668
 21
-3830.616240714061
 31
0.0
  0
LINE
  5
6EC2
330
1F
100
AcDbEntity
  8
SPOJOVACÍ
  6
Continuous
100
AcDbLine
 10
2741.103119385785
 20
-3830.616240714061
 30
0.0
 11
2739.743202372243
 21
-3834.660645073654
 31
0.0
  0
LINE
  5
6EC3
330
1F
100
AcDbEntity
  8
SPOJOVACÍ
  6
Continuous
100
AcDbLine
 10
2740.506876700638
 20
-3830.616240714061
 30
0.0
 11
2739.146959687364
 21
-3834.660645073654
 31
0.0
  0
LINE
  5
6EC4
330
1F
100
AcDbEntity
  8
SPOJOVACÍ
  6
Continuous
100
AcDbLine
 10
2739.525541236194
 20
-3835.038296444599
 30
0.0
 11
2739.743202372243
 21
-3834.660645073654
 31
0.0
  0
LINE
  5
6EC5
330
1F
100
AcDbEntity
  8
SPOJOVACÍ
  6
Continuous
100
AcDbLine
 10
2739.525541236194
 20
-3835.038296444599
 30
0.0
 11
2739.146959687364
 21
-3834.660645073654
 31
0.0
  0
LINE
  5
6EC6
330
1F
100
AcDbEntity
  8
SPOJOVACÍ
  6
Continuous
100
AcDbLine
 10
2740.725468012657
 20
-3830.23858933875
 30
0.0
 11
2741.103119385785
 21
-3830.616240714061
 31
0.0
  0
LINE
  5
6EC7
330
1F
100
AcDbEntity
  8
SPOJOVACÍ
  6
Continuous
100
AcDbLine
 10
2740.725468012657
 20
-3830.23858933875
 30
0.0
 11
2740.506876700638
 21
-3830.616240714061
 31
0.0
  0
LINE
  5
6EC8
330
1F
100
AcDbEntity
  8
SPOJOVACÍ
  6
Continuous
100
AcDbLine
 10
2740.725468012657
 20
-3830.23858933875
 30
0.0
 11
2739.525541236194
 21
-3835.038296444599
 31
0.0
  0
LINE
  5
6EC9
330
1F
100
AcDbEntity
  8
SPOJOVACÍ
  6
Continuous
100
AcDbLine
 10
2742.645350855164
 20
-3835.038296444599
 30
0.0
 11
2742.863011991481
 21
-3834.660645073654
 31
0.0
  0
LINE
  5
6ECA
330
1F
100
AcDbEntity
  8
SPOJOVACÍ
  6
Continuous
100
AcDbLine
 10
2742.645350855164
 20
-3835.038296444599
 30
0.0
 11
2742.266769306334
 21
-3834.660645073654
 31
0.0
  0
LINE
  5
6ECB
330
1F
100
AcDbEntity
  8
SPOJOVACÍ
  6
Continuous
100
AcDbLine
 10
2740.281774158153
 20
-3831.288757812489
 30
0.0
 11
2737.763788278826
 21
-3831.288757812489
 31
0.0
  0
LINE
  5
6ECC
330
1F
100
AcDbEntity
  8
SPOJOVACÍ
  6
Continuous
100
AcDbLine
 10
2742.501173606921
 20
-3833.988127975225
 30
0.0
 11
2739.980397200211
 21
-3833.988127975225
 31
0.0
  0
LINE
  5
6ECD
330
1F
100
AcDbEntity
  8
SPOJOVACÍ
  6
Continuous
100
AcDbLine
 10
2743.414606238308
 20
-3831.288757812489
 30
0.0
 11
2740.886388425439
 21
-3831.288757812489
 31
0.0
  0
LINE
  5
6ECE
330
1F
100
AcDbEntity
  8
SPOJOVACÍ
  6
Continuous
100
AcDbLine
 10
2737.983309766823
 20
-3830.616240714061
 30
0.0
 11
2736.623392753281
 21
-3834.660645073654
 31
0.0
  0
LINE
  5
6ECF
330
1F
100
AcDbEntity
  8
SPOJOVACÍ
  6
Continuous
100
AcDbLine
 10
2737.387067081668
 20
-3830.616240714061
 30
0.0
 11
2736.027150068126
 21
-3834.660645073654
 31
0.0
  0
LINE
  5
6ED0
330
1F
100
AcDbEntity
  8
SPOJOVACÍ
  6
Continuous
100
AcDbLine
 10
2737.604728217716
 20
-3830.23858933875
 30
0.0
 11
2736.404801441254
 21
-3835.038296444599
 31
0.0
  0
LINE
  5
6ED1
330
1F
100
AcDbEntity
  8
SPOJOVACÍ
  6
Continuous
100
AcDbLine
 10
2739.379503636278
 20
-3833.988127975225
 30
0.0
 11
2736.86058758125
 21
-3833.988127975225
 31
0.0
  0
LINE
  5
6F90
102
{ACAD_REACTORS
330
7A9C
102
}
330
1F
100
AcDbEntity
  8
SPOJOVACÍ
  6
Continuous
100
AcDbLine
 10
2766.285570763684
 20
-3777.023206674818
 30
0.0
 11
2761.342616584755
 21
-3777.023206674818
 31
0.0
  0
LINE
  5
6F91
102
{ACAD_REACTORS
330
7A9C
102
}
330
1F
100
AcDbEntity
  8
SPOJOVACÍ
  6
Continuous
100
AcDbLine
 10
2762.463478418649
 20
-3773.651319413654
 30
0.0
 11
2761.103561405383
 21
-3777.695723773247
 31
0.0
  0
LINE
  5
6F92
102
{ACAD_REACTORS
330
7A9C
330
7BFA
102
}
330
1F
100
AcDbEntity
  8
SPOJOVACÍ
  6
Continuous
100
AcDbLine
 10
2760.884970093356
 20
-3778.073375144192
 30
0.0
 11
2760.507318720228
 21
-3777.695723773247
 31
0.0
  0
LINE
  5
6F93
102
{ACAD_REACTORS
330
7A9C
330
7BFA
102
}
330
1F
100
AcDbEntity
  8
SPOJOVACÍ
  6
Continuous
100
AcDbLine
 10
2761.652365124827
 20
-3774.323836512082
 30
0.0
 11
2759.133449069798
 21
-3774.323836512082
 31
0.0
  0
LINE
  5
6F94
102
{ACAD_REACTORS
330
7A9C
330
7BFA
102
}
330
1F
100
AcDbEntity
  8
SPOJOVACÍ
  6
Continuous
100
AcDbLine
 10
2761.86723573377
 20
-3773.651319413654
 30
0.0
 11
2760.507318720228
 21
-3777.695723773247
 31
0.0
  0
LINE
  5
6F95
102
{ACAD_REACTORS
330
7A9C
102
}
330
1F
100
AcDbEntity
  8
SPOJOVACÍ
  6
Continuous
100
AcDbLine
 10
2762.084896869819
 20
-3773.273668038343
 30
0.0
 11
2762.463478418649
 21
-3773.651319413654
 31
0.0
  0
LINE
  5
6F96
102
{ACAD_REACTORS
330
7A9C
102
}
330
1F
100
AcDbEntity
  8
SPOJOVACÍ
  6
Continuous
100
AcDbLine
 10
2766.285570763684
 20
-3774.323836512082
 30
0.0
 11
2762.247677634004
 21
-3774.323836512082
 31
0.0
  0
LINE
  5
6F97
102
{ACAD_REACTORS
330
7A9C
102
}
330
1F
100
AcDbEntity
  8
SPOJOVACÍ
  6
Continuous
100
AcDbLine
 10
2766.285570763684
 20
-3728.675217916196
 30
0.0
 11
2762.247677634004
 21
-3728.675217916196
 31
0.0
  0
LINE
  5
6F98
102
{ACAD_REACTORS
330
7A9C
102
}
330
1F
100
AcDbEntity
  8
SPOJOVACÍ
  6
Continuous
100
AcDbLine
 10
2762.463478418649
 20
-3729.347735014624
 30
0.0
 11
2761.103561405383
 21
-3725.303330655031
 31
0.0
  0
LINE
  5
6F99
102
{ACAD_REACTORS
330
7A9C
102
}
330
1F
100
AcDbEntity
  8
SPOJOVACÍ
  6
Continuous
100
AcDbLine
 10
2762.084896869819
 20
-3729.725386389935
 30
0.0
 11
2762.463478418649
 21
-3729.347735014624
 31
0.0
  0
LINE
  5
6F9A
102
{ACAD_REACTORS
330
7A9C
330
7BFA
102
}
330
1F
100
AcDbEntity
  8
SPOJOVACÍ
  6
Continuous
100
AcDbLine
 10
2761.86723573377
 20
-3729.347735014624
 30
0.0
 11
2760.507318720228
 21
-3725.303330655031
 31
0.0
  0
LINE
  5
6F9B
102
{ACAD_REACTORS
330
7A9C
330
7BFA
102
}
330
1F
100
AcDbEntity
  8
SPOJOVACÍ
  6
Continuous
100
AcDbLine
 10
2761.652365124827
 20
-3728.675217916196
 30
0.0
 11
2759.133449069798
 21
-3728.675217916196
 31
0.0
  0
LINE
  5
6F9C
102
{ACAD_REACTORS
330
7A9C
102
}
330
1F
100
AcDbEntity
  8
SPOJOVACÍ
  6
Continuous
100
AcDbLine
 10
2760.884970093356
 20
-3724.925679284086
 30
0.0
 11
2761.103561405383
 21
-3725.303330655031
 31
0.0
  0
LINE
  5
6F9D
102
{ACAD_REACTORS
330
7A9C
102
}
330
1F
100
AcDbEntity
  8
SPOJOVACÍ
  6
Continuous
100
AcDbLine
 10
2766.285570763684
 20
-3725.975847753459
 30
0.0
 11
2761.342616584755
 21
-3725.975847753459
 31
0.0
  0
LINE
  5
6F9E
102
{ACAD_REACTORS
330
7BFA
102
}
330
1F
100
AcDbEntity
  8
SPOJOVACÍ
  6
Continuous
100
AcDbLine
 10
2751.379503636271
 20
-3725.975847753459
 30
0.0
 11
2748.860587581242
 21
-3725.975847753459
 31
0.0
  0
LINE
  5
6F9F
102
{ACAD_REACTORS
330
7BFA
102
}
330
1F
100
AcDbEntity
  8
SPOJOVACÍ
  6
Continuous
100
AcDbLine
 10
2752.50687670063
 20
-3729.347735014624
 30
0.0
 11
2751.146959687357
 21
-3725.303330655031
 31
0.0
  0
LINE
  5
6FA0
102
{ACAD_REACTORS
330
7BFA
102
}
330
1F
100
AcDbEntity
  8
SPOJOVACÍ
  6
Continuous
100
AcDbLine
 10
2751.525541236187
 20
-3724.925679284086
 30
0.0
 11
2751.146959687357
 21
-3725.303330655031
 31
0.0
  0
LINE
  5
6FA1
102
{ACAD_REACTORS
330
7BFA
102
}
330
1F
100
AcDbEntity
  8
SPOJOVACÍ
  6
Continuous
100
AcDbLine
 10
2753.103119385777
 20
-3729.347735014624
 30
0.0
 11
2751.743202372235
 21
-3725.303330655031
 31
0.0
  0
LINE
  5
6FA2
102
{ACAD_REACTORS
330
7BFA
102
}
330
1F
100
AcDbEntity
  8
SPOJOVACÍ
  6
Continuous
100
AcDbLine
 10
2754.501173606913
 20
-3725.975847753459
 30
0.0
 11
2751.980397200204
 21
-3725.975847753459
 31
0.0
  0
LINE
  5
6FA3
102
{ACAD_REACTORS
330
7BFA
102
}
330
1F
100
AcDbEntity
  8
SPOJOVACÍ
  6
Continuous
100
AcDbLine
 10
2755.626686319592
 20
-3729.347735014624
 30
0.0
 11
2754.266769306326
 21
-3725.303330655031
 31
0.0
  0
LINE
  5
6FA4
102
{ACAD_REACTORS
330
7BFA
102
}
330
1F
100
AcDbEntity
  8
SPOJOVACÍ
  6
Continuous
100
AcDbLine
 10
2754.645350855156
 20
-3724.925679284086
 30
0.0
 11
2754.266769306326
 21
-3725.303330655031
 31
0.0
  0
LINE
  5
6FA5
102
{ACAD_REACTORS
330
7BFA
102
}
330
1F
100
AcDbEntity
  8
SPOJOVACÍ
  6
Continuous
100
AcDbLine
 10
2756.222929004747
 20
-3729.347735014624
 30
0.0
 11
2754.863011991473
 21
-3725.303330655031
 31
0.0
  0
LINE
  5
6FA6
102
{ACAD_REACTORS
330
7BFA
102
}
330
1F
100
AcDbEntity
  8
SPOJOVACÍ
  6
Continuous
100
AcDbLine
 10
2757.623773753257
 20
-3725.975847753459
 30
0.0
 11
2755.095555940387
 21
-3725.975847753459
 31
0.0
  0
LINE
  5
6FA7
102
{ACAD_REACTORS
330
7BFA
102
}
330
1F
100
AcDbEntity
  8
SPOJOVACÍ
  6
Continuous
100
AcDbLine
 10
2758.74649593883
 20
-3729.347735014624
 30
0.0
 11
2757.387509101266
 21
-3725.303330655031
 31
0.0
  0
LINE
  5
6FA8
102
{ACAD_REACTORS
330
7BFA
102
}
330
1F
100
AcDbEntity
  8
SPOJOVACÍ
  6
Continuous
100
AcDbLine
 10
2757.765160474118
 20
-3724.925679284086
 30
0.0
 11
2757.387509101266
 21
-3725.303330655031
 31
0.0
  0
LINE
  5
6FA9
102
{ACAD_REACTORS
330
7BFA
102
}
330
1F
100
AcDbEntity
  8
SPOJOVACÍ
  6
Continuous
100
AcDbLine
 10
2759.342738623985
 20
-3729.347735014624
 30
0.0
 11
2757.983751786145
 21
-3725.303330655031
 31
0.0
  0
LINE
  5
6FAA
102
{ACAD_REACTORS
330
7BFA
102
}
330
1F
100
AcDbEntity
  8
SPOJOVACÍ
  6
Continuous
100
AcDbLine
 10
2760.73893249344
 20
-3725.975847753459
 30
0.0
 11
2758.220016438412
 21
-3725.975847753459
 31
0.0
  0
LINE
  5
6FAB
102
{ACAD_REACTORS
330
7BFA
102
}
330
1F
100
AcDbEntity
  8
SPOJOVACÍ
  6
Continuous
100
AcDbLine
 10
2760.884970093356
 20
-3724.925679284086
 30
0.0
 11
2760.507318720228
 21
-3725.303330655031
 31
0.0
  0
LINE
  5
6FAC
102
{ACAD_REACTORS
330
7BFA
102
}
330
1F
100
AcDbEntity
  8
SPOJOVACÍ
  6
Continuous
100
AcDbLine
 10
2758.965087250857
 20
-3729.725386389935
 30
0.0
 11
2759.342738623985
 21
-3729.347735014624
 31
0.0
  0
LINE
  5
6FAD
102
{ACAD_REACTORS
330
7BFA
102
}
330
1F
100
AcDbEntity
  8
SPOJOVACÍ
  6
Continuous
100
AcDbLine
 10
2758.529764978483
 20
-3728.675217916196
 30
0.0
 11
2756.008988571775
 21
-3728.675217916196
 31
0.0
  0
LINE
  5
6FAE
102
{ACAD_REACTORS
330
7BFA
102
}
330
1F
100
AcDbEntity
  8
SPOJOVACÍ
  6
Continuous
100
AcDbLine
 10
2755.845277631618
 20
-3729.725386389935
 30
0.0
 11
2756.222929004747
 21
-3729.347735014624
 31
0.0
  0
LINE
  5
6FAF
102
{ACAD_REACTORS
330
7BFA
102
}
330
1F
100
AcDbEntity
  8
SPOJOVACÍ
  6
Continuous
100
AcDbLine
 10
2755.4146062383
 20
-3728.675217916196
 30
0.0
 11
2752.886388425431
 21
-3728.675217916196
 31
0.0
  0
LINE
  5
6FB0
102
{ACAD_REACTORS
330
7BFA
102
}
330
1F
100
AcDbEntity
  8
SPOJOVACÍ
  6
Continuous
100
AcDbLine
 10
2752.725468012649
 20
-3729.725386389935
 30
0.0
 11
2753.103119385777
 21
-3729.347735014624
 31
0.0
  0
LINE
  5
6FB1
102
{ACAD_REACTORS
330
7BFA
102
}
330
1F
100
AcDbEntity
  8
SPOJOVACÍ
  6
Continuous
100
AcDbLine
 10
2752.281774158145
 20
-3728.675217916196
 30
0.0
 11
2749.763788278818
 21
-3728.675217916196
 31
0.0
  0
LINE
  5
6FB2
102
{ACAD_REACTORS
330
7BFA
102
}
330
1F
100
AcDbEntity
  8
SPOJOVACÍ
  6
Continuous
100
AcDbLine
 10
2749.983309766816
 20
-3729.347735014624
 30
0.0
 11
2748.623392753273
 21
-3725.303330655031
 31
0.0
  0
LINE
  5
6FB3
102
{ACAD_REACTORS
330
7BFA
102
}
330
1F
100
AcDbEntity
  8
SPOJOVACÍ
  6
Continuous
100
AcDbLine
 10
2749.604728217709
 20
-3729.725386389935
 30
0.0
 11
2749.983309766816
 21
-3729.347735014624
 31
0.0
  0
LINE
  5
6FB4
102
{ACAD_REACTORS
330
7BFA
102
}
330
1F
100
AcDbEntity
  8
SPOJOVACÍ
  6
Continuous
100
AcDbLine
 10
2749.387067081661
 20
-3729.347735014624
 30
0.0
 11
2748.027150068118
 21
-3725.303330655031
 31
0.0
  0
LINE
  5
6FB5
102
{ACAD_REACTORS
330
7BFA
102
}
330
1F
100
AcDbEntity
  8
SPOJOVACÍ
  6
Continuous
100
AcDbLine
 10
2749.167545593663
 20
-3728.675217916196
 30
0.0
 11
2747.920179851774
 21
-3728.675217916196
 31
0.0
  0
LINE
  5
6FB6
102
{ACAD_REACTORS
330
7BFA
102
}
330
1F
100
AcDbEntity
  8
SPOJOVACÍ
  6
Continuous
100
AcDbLine
 10
2749.167545593663
 20
-3774.323836512082
 30
0.0
 11
2747.920179851774
 21
-3774.323836512082
 31
0.0
  0
LINE
  5
6FB7
102
{ACAD_REACTORS
330
7BFA
102
}
330
1F
100
AcDbEntity
  8
SPOJOVACÍ
  6
Continuous
100
AcDbLine
 10
2749.387067081661
 20
-3773.651319413654
 30
0.0
 11
2748.027150068118
 21
-3777.695723773247
 31
0.0
  0
LINE
  5
6FB8
102
{ACAD_REACTORS
330
7BFA
102
}
330
1F
100
AcDbEntity
  8
SPOJOVACÍ
  6
Continuous
100
AcDbLine
 10
2749.604728217709
 20
-3773.273668038343
 30
0.0
 11
2749.983309766816
 21
-3773.651319413654
 31
0.0
  0
LINE
  5
6FB9
102
{ACAD_REACTORS
330
7BFA
102
}
330
1F
100
AcDbEntity
  8
SPOJOVACÍ
  6
Continuous
100
AcDbLine
 10
2749.983309766816
 20
-3773.651319413654
 30
0.0
 11
2748.623392753273
 21
-3777.695723773247
 31
0.0
  0
LINE
  5
6FBA
102
{ACAD_REACTORS
330
7BFA
102
}
330
1F
100
AcDbEntity
  8
SPOJOVACÍ
  6
Continuous
100
AcDbLine
 10
2752.281774158145
 20
-3774.323836512082
 30
0.0
 11
2749.763788278818
 21
-3774.323836512082
 31
0.0
  0
LINE
  5
6FBB
102
{ACAD_REACTORS
330
7BFA
102
}
330
1F
100
AcDbEntity
  8
SPOJOVACÍ
  6
Continuous
100
AcDbLine
 10
2752.50687670063
 20
-3773.651319413654
 30
0.0
 11
2751.146959687357
 21
-3777.695723773247
 31
0.0
  0
LINE
  5
6FBC
102
{ACAD_REACTORS
330
7BFA
102
}
330
1F
100
AcDbEntity
  8
SPOJOVACÍ
  6
Continuous
100
AcDbLine
 10
2752.725468012649
 20
-3773.273668038343
 30
0.0
 11
2753.103119385777
 21
-3773.651319413654
 31
0.0
  0
LINE
  5
6FBD
102
{ACAD_REACTORS
330
7BFA
102
}
330
1F
100
AcDbEntity
  8
SPOJOVACÍ
  6
Continuous
100
AcDbLine
 10
2753.103119385777
 20
-3773.651319413654
 30
0.0
 11
2751.743202372235
 21
-3777.695723773247
 31
0.0
  0
LINE
  5
6FBE
102
{ACAD_REACTORS
330
7BFA
102
}
330
1F
100
AcDbEntity
  8
SPOJOVACÍ
  6
Continuous
100
AcDbLine
 10
2755.4146062383
 20
-3774.323836512082
 30
0.0
 11
2752.886388425431
 21
-3774.323836512082
 31
0.0
  0
LINE
  5
6FBF
102
{ACAD_REACTORS
330
7BFA
102
}
330
1F
100
AcDbEntity
  8
SPOJOVACÍ
  6
Continuous
100
AcDbLine
 10
2755.626686319592
 20
-3773.651319413654
 30
0.0
 11
2754.266769306326
 21
-3777.695723773247
 31
0.0
  0
LINE
  5
6FC0
102
{ACAD_REACTORS
330
7BFA
102
}
330
1F
100
AcDbEntity
  8
SPOJOVACÍ
  6
Continuous
100
AcDbLine
 10
2755.845277631618
 20
-3773.273668038343
 30
0.0
 11
2756.222929004747
 21
-3773.651319413654
 31
0.0
  0
LINE
  5
6FC1
102
{ACAD_REACTORS
330
7BFA
102
}
330
1F
100
AcDbEntity
  8
SPOJOVACÍ
  6
Continuous
100
AcDbLine
 10
2756.222929004747
 20
-3773.651319413654
 30
0.0
 11
2754.863011991473
 21
-3777.695723773247
 31
0.0
  0
LINE
  5
6FC2
102
{ACAD_REACTORS
330
7BFA
102
}
330
1F
100
AcDbEntity
  8
SPOJOVACÍ
  6
Continuous
100
AcDbLine
 10
2758.529764978483
 20
-3774.323836512082
 30
0.0
 11
2756.008988571775
 21
-3774.323836512082
 31
0.0
  0
LINE
  5
6FC3
102
{ACAD_REACTORS
330
7BFA
102
}
330
1F
100
AcDbEntity
  8
SPOJOVACÍ
  6
Continuous
100
AcDbLine
 10
2758.74649593883
 20
-3773.651319413654
 30
0.0
 11
2757.387509101266
 21
-3777.695723773247
 31
0.0
  0
LINE
  5
6FC4
102
{ACAD_REACTORS
330
7BFA
102
}
330
1F
100
AcDbEntity
  8
SPOJOVACÍ
  6
Continuous
100
AcDbLine
 10
2758.965087250857
 20
-3773.273668038343
 30
0.0
 11
2759.342738623985
 21
-3773.651319413654
 31
0.0
  0
LINE
  5
6FC5
102
{ACAD_REACTORS
330
7BFA
102
}
330
1F
100
AcDbEntity
  8
SPOJOVACÍ
  6
Continuous
100
AcDbLine
 10
2759.342738623985
 20
-3773.651319413654
 30
0.0
 11
2757.983751786145
 21
-3777.695723773247
 31
0.0
  0
LINE
  5
6FC6
102
{ACAD_REACTORS
330
7BFA
102
}
330
1F
100
AcDbEntity
  8
SPOJOVACÍ
  6
Continuous
100
AcDbLine
 10
2760.73893249344
 20
-3777.023206674818
 30
0.0
 11
2758.220016438412
 21
-3777.023206674818
 31
0.0
  0
LINE
  5
6FC7
102
{ACAD_REACTORS
330
7BFA
102
}
330
1F
100
AcDbEntity
  8
SPOJOVACÍ
  6
Continuous
100
AcDbLine
 10
2757.765160474118
 20
-3778.073375144192
 30
0.0
 11
2757.387509101266
 21
-3777.695723773247
 31
0.0
  0
LINE
  5
6FC8
102
{ACAD_REACTORS
330
7BFA
102
}
330
1F
100
AcDbEntity
  8
SPOJOVACÍ
  6
Continuous
100
AcDbLine
 10
2757.623773753257
 20
-3777.023206674818
 30
0.0
 11
2755.095555940387
 21
-3777.023206674818
 31
0.0
  0
LINE
  5
6FC9
102
{ACAD_REACTORS
330
7BFA
102
}
330
1F
100
AcDbEntity
  8
SPOJOVACÍ
  6
Continuous
100
AcDbLine
 10
2754.645350855156
 20
-3778.073375144192
 30
0.0
 11
2754.266769306326
 21
-3777.695723773247
 31
0.0
  0
LINE
  5
6FCA
102
{ACAD_REACTORS
330
7BFA
102
}
330
1F
100
AcDbEntity
  8
SPOJOVACÍ
  6
Continuous
100
AcDbLine
 10
2754.501173606913
 20
-3777.023206674818
 30
0.0
 11
2751.980397200204
 21
-3777.023206674818
 31
0.0
  0
LINE
  5
6FCB
102
{ACAD_REACTORS
330
7BFA
102
}
330
1F
100
AcDbEntity
  8
SPOJOVACÍ
  6
Continuous
100
AcDbLine
 10
2751.525541236187
 20
-3778.073375144192
 30
0.0
 11
2751.146959687357
 21
-3777.695723773247
 31
0.0
  0
LINE
  5
6FCC
102
{ACAD_REACTORS
330
7BFA
102
}
330
1F
100
AcDbEntity
  8
SPOJOVACÍ
  6
Continuous
100
AcDbLine
 10
2751.379503636271
 20
-3777.023206674818
 30
0.0
 11
2748.860587581242
 21
-3777.023206674818
 31
0.0
  0
LINE
  5
6FCD
330
1F
100
AcDbEntity
  8
SPOJOVACÍ
  6
Continuous
100
AcDbLine
 10
2755.845277631618
 20
-3729.725386389935
 30
0.0
 11
2754.645350855156
 21
-3724.925679284086
 31
0.0
  0
LINE
  5
6FCE
330
1F
100
AcDbEntity
  8
SPOJOVACÍ
  6
Continuous
100
AcDbLine
 10
2755.845277631618
 20
-3729.725386389935
 30
0.0
 11
2755.626686319592
 21
-3729.347735014624
 31
0.0
  0
LINE
  5
6FCF
330
1F
100
AcDbEntity
  8
SPOJOVACÍ
  6
Continuous
100
AcDbLine
 10
2757.765160474118
 20
-3724.925679284086
 30
0.0
 11
2757.983751786145
 21
-3725.303330655031
 31
0.0
  0
LINE
  5
6FD0
330
1F
100
AcDbEntity
  8
SPOJOVACÍ
  6
Continuous
100
AcDbLine
 10
2758.965087250857
 20
-3729.725386389935
 30
0.0
 11
2758.74649593883
 21
-3729.347735014624
 31
0.0
  0
LINE
  5
6FD1
330
1F
100
AcDbEntity
  8
SPOJOVACÍ
  6
Continuous
100
AcDbLine
 10
2758.965087250857
 20
-3729.725386389935
 30
0.0
 11
2757.765160474118
 21
-3724.925679284086
 31
0.0
  0
LINE
  5
6FD2
330
1F
100
AcDbEntity
  8
SPOJOVACÍ
  6
Continuous
100
AcDbLine
 10
2762.084896869819
 20
-3729.725386389935
 30
0.0
 11
2761.86723573377
 21
-3729.347735014624
 31
0.0
  0
LINE
  5
6FD3
330
1F
100
AcDbEntity
  8
SPOJOVACÍ
  6
Continuous
100
AcDbLine
 10
2762.084896869819
 20
-3729.725386389935
 30
0.0
 11
2760.884970093356
 21
-3724.925679284086
 31
0.0
  0
LINE
  5
6FD4
330
1F
100
AcDbEntity
  8
SPOJOVACÍ
  6
Continuous
100
AcDbLine
 10
2748.404801441246
 20
-3724.925679284086
 30
0.0
 11
2748.623392753273
 21
-3725.303330655031
 31
0.0
  0
LINE
  5
6FD5
330
1F
100
AcDbEntity
  8
SPOJOVACÍ
  6
Continuous
100
AcDbLine
 10
2748.404801441246
 20
-3724.925679284086
 30
0.0
 11
2748.027150068118
 21
-3725.303330655031
 31
0.0
  0
LINE
  5
6FD6
330
1F
100
AcDbEntity
  8
SPOJOVACÍ
  6
Continuous
100
AcDbLine
 10
2740.499237352778
 20
-3728.342214978936
 30
0.0
 11
2740.188558637004
 21
-3726.18792783748
 31
0.0
  0
LINE
  5
6FD7
330
1F
100
AcDbEntity
  8
SPOJOVACÍ
  6
Continuous
100
AcDbLine
 10
2740.876888725906
 20
-3727.964563607991
 30
0.0
 11
2740.406219773321
 21
-3726.565579208425
 31
0.0
  0
LINE
  5
6FD8
330
1F
100
AcDbEntity
  8
SPOJOVACÍ
  6
Continuous
100
AcDbLine
 10
2740.280646040758
 20
-3727.964563607991
 30
0.0
 11
2739.809977088174
 21
-3726.565579208425
 31
0.0
  0
LINE
  5
6FD9
330
1F
100
AcDbEntity
  8
SPOJOVACÍ
  6
Continuous
100
AcDbLine
 10
2740.188558637004
 20
-3726.18792783748
 30
0.0
 11
2740.406219773321
 21
-3726.565579208425
 31
0.0
  0
LINE
  5
6FDA
330
1F
100
AcDbEntity
  8
SPOJOVACÍ
  6
Continuous
100
AcDbLine
 10
2740.188558637004
 20
-3726.18792783748
 30
0.0
 11
2739.809977088174
 21
-3726.565579208425
 31
0.0
  0
LINE
  5
6FDB
330
1F
100
AcDbEntity
  8
SPOJOVACÍ
  6
Continuous
100
AcDbLine
 10
2740.499237352778
 20
-3728.342214978936
 30
0.0
 11
2740.876888725906
 21
-3727.964563607991
 31
0.0
  0
LINE
  5
6FDC
330
1F
100
AcDbEntity
  8
SPOJOVACÍ
  6
Continuous
100
AcDbLine
 10
2740.499237352778
 20
-3728.342214978936
 30
0.0
 11
2740.280646040758
 21
-3727.964563607991
 31
0.0
  0
LINE
  5
6FDD
330
1F
100
AcDbEntity
  8
SPOJOVACÍ
  6
Continuous
100
AcDbLine
 10
2743.513006931097
 20
-3728.906831689408
 30
0.0
 11
2742.879557214327
 21
-3725.790742772977
 31
0.0
  0
LINE
  5
6FDE
330
1F
100
AcDbEntity
  8
SPOJOVACÍ
  6
Continuous
100
AcDbLine
 10
2743.891588480204
 20
-3728.529180314097
 30
0.0
 11
2743.097218350376
 21
-3726.168394143922
 31
0.0
  0
LINE
  5
6FDF
330
1F
100
AcDbEntity
  8
SPOJOVACÍ
  6
Continuous
100
AcDbLine
 10
2743.295345795049
 20
-3728.529180314097
 30
0.0
 11
2742.500975665497
 21
-3726.168394143922
 31
0.0
  0
LINE
  5
6FE0
330
1F
100
AcDbEntity
  8
SPOJOVACÍ
  6
Continuous
100
AcDbLine
 10
2742.879557214327
 20
-3725.790742772977
 30
0.0
 11
2743.097218350376
 21
-3726.168394143922
 31
0.0
  0
LINE
  5
6FE1
330
1F
100
AcDbEntity
  8
SPOJOVACÍ
  6
Continuous
100
AcDbLine
 10
2742.879557214327
 20
-3725.790742772977
 30
0.0
 11
2742.500975665497
 21
-3726.168394143922
 31
0.0
  0
LINE
  5
6FE2
330
1F
100
AcDbEntity
  8
SPOJOVACÍ
  6
Continuous
100
AcDbLine
 10
2743.513006931097
 20
-3728.906831689408
 30
0.0
 11
2743.891588480204
 21
-3728.529180314097
 31
0.0
  0
LINE
  5
6FE3
330
1F
100
AcDbEntity
  8
SPOJOVACÍ
  6
Continuous
100
AcDbLine
 10
2743.513006931097
 20
-3728.906831689408
 30
0.0
 11
2743.295345795049
 21
-3728.529180314097
 31
0.0
  0
LINE
  5
6FE4
330
1F
100
AcDbEntity
  8
SPOJOVACÍ
  6
Continuous
100
AcDbLine
 10
2746.527706685395
 20
-3729.471448395514
 30
0.0
 11
2745.554742803091
 21
-3725.346118742771
 31
0.0
  0
LINE
  5
6FE5
330
1F
100
AcDbEntity
  8
SPOJOVACÍ
  6
Continuous
100
AcDbLine
 10
2746.905358058524
 20
-3729.09286684723
 30
0.0
 11
2745.772403939139
 21
-3725.723770113716
 31
0.0
  0
LINE
  5
6FE6
330
1F
100
AcDbEntity
  8
SPOJOVACÍ
  6
Continuous
100
AcDbLine
 10
2746.309115373369
 20
-3729.09286684723
 30
0.0
 11
2745.176161253984
 21
-3725.723770113716
 31
0.0
  0
LINE
  5
6FE7
330
1F
100
AcDbEntity
  8
SPOJOVACÍ
  6
Continuous
100
AcDbLine
 10
2745.554742803091
 20
-3725.346118742771
 30
0.0
 11
2745.772403939139
 21
-3725.723770113716
 31
0.0
  0
LINE
  5
6FE8
330
1F
100
AcDbEntity
  8
SPOJOVACÍ
  6
Continuous
100
AcDbLine
 10
2745.554742803091
 20
-3725.346118742771
 30
0.0
 11
2745.176161253984
 21
-3725.723770113716
 31
0.0
  0
LINE
  5
6FE9
330
1F
100
AcDbEntity
  8
SPOJOVACÍ
  6
Continuous
100
AcDbLine
 10
2746.527706685395
 20
-3729.471448395514
 30
0.0
 11
2746.905358058524
 21
-3729.09286684723
 31
0.0
  0
LINE
  5
6FEA
330
1F
100
AcDbEntity
  8
SPOJOVACÍ
  6
Continuous
100
AcDbLine
 10
2746.527706685395
 20
-3729.471448395514
 30
0.0
 11
2746.309115373369
 21
-3729.09286684723
 31
0.0
  0
LINE
  5
6FEB
330
1F
100
AcDbEntity
  8
SPOJOVACÍ
  6
Continuous
100
AcDbLine
 10
2745.949137340488
 20
-3726.221414164927
 30
0.0
 11
2747.920179851774
 21
-3725.975847753459
 31
0.0
  0
LINE
  5
6FEC
330
1F
100
AcDbEntity
  8
SPOJOVACÍ
  6
Continuous
100
AcDbLine
 10
2743.242325774589
 20
-3726.559998157489
 30
0.0
 11
2745.378939577443
 21
-3726.293037702151
 31
0.0
  0
LINE
  5
6FED
330
1F
100
AcDbEntity
  8
SPOJOVACÍ
  6
Continuous
100
AcDbLine
 10
2740.525282275156
 20
-3726.899512318658
 30
0.0
 11
2742.670267660141
 21
-3726.631621690347
 31
0.0
  0
LINE
  5
6FEE
330
1F
100
AcDbEntity
  8
SPOJOVACÍ
  6
Continuous
100
AcDbLine
 10
2740.209022504626
 20
-3727.711555790909
 30
0.0
 11
2737.119908686821
 21
-3727.32553283701
 31
0.0
  0
LINE
  5
6FEF
330
1F
100
AcDbEntity
  8
SPOJOVACÍ
  6
Continuous
100
AcDbLine
 10
2743.150238370835
 20
-3728.078975228589
 30
0.0
 11
2740.82944976048
 21
-3727.788760383435
 31
0.0
  0
LINE
  5
6FF0
330
1F
100
AcDbEntity
  8
SPOJOVACÍ
  6
Continuous
100
AcDbLine
 10
2746.102616346564
 20
-3728.448255020946
 30
0.0
 11
2743.780897560499
 21
-3728.158040171427
 31
0.0
  0
LINE
  5
6FF1
330
1F
100
AcDbEntity
  8
SPOJOVACÍ
  6
Continuous
100
AcDbLine
 10
2737.119908686821
 20
-3727.32553283701
 30
0.0
 11
2739.95601468809
 21
-3726.971135855881
 31
0.0
  0
LINE
  5
6FF2
330
1F
100
AcDbEntity
  8
SPOJOVACÍ
  6
Continuous
100
AcDbLine
 10
2747.920179851774
 20
-3728.675217916196
 30
0.0
 11
2746.723043602418
 21
-3728.525459613472
 31
0.0
  0
LINE
  5
6FF3
330
1F
100
AcDbEntity
  8
SPOJOVACÍ
  6
Continuous
100
AcDbLine
 10
2748.256903489658
 20
-3725.975847753459
 30
0.0
 11
2747.920179851774
 21
-3725.975847753459
 31
0.0
  0
LINE
  5
6FF4
330
1F
100
AcDbEntity
  8
SPOJOVACÍ
  6
Continuous
100
AcDbLine
 10
2749.604728217709
 20
-3729.725386389935
 30
0.0
 11
2749.387067081661
 21
-3729.347735014624
 31
0.0
  0
LINE
  5
6FF5
330
1F
100
AcDbEntity
  8
SPOJOVACÍ
  6
Continuous
100
AcDbLine
 10
2751.525541236187
 20
-3724.925679284086
 30
0.0
 11
2751.743202372235
 21
-3725.303330655031
 31
0.0
  0
LINE
  5
6FF6
330
1F
100
AcDbEntity
  8
SPOJOVACÍ
  6
Continuous
100
AcDbLine
 10
2752.725468012649
 20
-3729.725386389935
 30
0.0
 11
2752.50687670063
 21
-3729.347735014624
 31
0.0
  0
LINE
  5
6FF7
330
1F
100
AcDbEntity
  8
SPOJOVACÍ
  6
Continuous
100
AcDbLine
 10
2752.725468012649
 20
-3729.725386389935
 30
0.0
 11
2751.525541236187
 21
-3724.925679284086
 31
0.0
  0
LINE
  5
6FF8
330
1F
100
AcDbEntity
  8
SPOJOVACÍ
  6
Continuous
100
AcDbLine
 10
2754.645350855156
 20
-3724.925679284086
 30
0.0
 11
2754.863011991473
 21
-3725.303330655031
 31
0.0
  0
LINE
  5
6FF9
330
1F
100
AcDbEntity
  8
SPOJOVACÍ
  6
Continuous
100
AcDbLine
 10
2749.604728217709
 20
-3729.725386389935
 30
0.0
 11
2748.404801441246
 21
-3724.925679284086
 31
0.0
  0
LINE
  5
6FFA
330
1F
100
AcDbEntity
  8
SPOJOVACÍ
  6
Continuous
100
AcDbLine
 10
2755.845277631618
 20
-3773.273668038343
 30
0.0
 11
2754.645350855156
 21
-3778.073375144192
 31
0.0
  0
LINE
  5
6FFB
330
1F
100
AcDbEntity
  8
SPOJOVACÍ
  6
Continuous
100
AcDbLine
 10
2755.845277631618
 20
-3773.273668038343
 30
0.0
 11
2755.626686319592
 21
-3773.651319413654
 31
0.0
  0
LINE
  5
6FFC
330
1F
100
AcDbEntity
  8
SPOJOVACÍ
  6
Continuous
100
AcDbLine
 10
2757.765160474118
 20
-3778.073375144192
 30
0.0
 11
2757.983751786145
 21
-3777.695723773247
 31
0.0
  0
LINE
  5
6FFD
330
1F
100
AcDbEntity
  8
SPOJOVACÍ
  6
Continuous
100
AcDbLine
 10
2758.965087250857
 20
-3773.273668038343
 30
0.0
 11
2758.74649593883
 21
-3773.651319413654
 31
0.0
  0
LINE
  5
6FFE
330
1F
100
AcDbEntity
  8
SPOJOVACÍ
  6
Continuous
100
AcDbLine
 10
2758.965087250857
 20
-3773.273668038343
 30
0.0
 11
2757.765160474118
 21
-3778.073375144192
 31
0.0
  0
LINE
  5
6FFF
330
1F
100
AcDbEntity
  8
SPOJOVACÍ
  6
Continuous
100
AcDbLine
 10
2760.884970093356
 20
-3778.073375144192
 30
0.0
 11
2761.103561405383
 21
-3777.695723773247
 31
0.0
  0
LINE
  5
7000
330
1F
100
AcDbEntity
  8
SPOJOVACÍ
  6
Continuous
100
AcDbLine
 10
2762.084896869819
 20
-3773.273668038343
 30
0.0
 11
2761.86723573377
 21
-3773.651319413654
 31
0.0
  0
LINE
  5
7001
330
1F
100
AcDbEntity
  8
SPOJOVACÍ
  6
Continuous
100
AcDbLine
 10
2762.084896869819
 20
-3773.273668038343
 30
0.0
 11
2760.884970093356
 21
-3778.073375144192
 31
0.0
  0
LINE
  5
7002
330
1F
100
AcDbEntity
  8
SPOJOVACÍ
  6
Continuous
100
AcDbLine
 10
2748.404801441246
 20
-3778.073375144192
 30
0.0
 11
2748.623392753273
 21
-3777.695723773247
 31
0.0
  0
LINE
  5
7003
330
1F
100
AcDbEntity
  8
SPOJOVACÍ
  6
Continuous
100
AcDbLine
 10
2748.404801441246
 20
-3778.073375144192
 30
0.0
 11
2748.027150068118
 21
-3777.695723773247
 31
0.0
  0
LINE
  5
7004
330
1F
100
AcDbEntity
  8
SPOJOVACÍ
  6
Continuous
100
AcDbLine
 10
2740.499237352778
 20
-3774.656839449341
 30
0.0
 11
2740.188558637004
 21
-3776.811126590798
 31
0.0
  0
LINE
  5
7005
330
1F
100
AcDbEntity
  8
SPOJOVACÍ
  6
Continuous
100
AcDbLine
 10
2740.876888725906
 20
-3775.034490820287
 30
0.0
 11
2740.406219773321
 21
-3776.433475219853
 31
0.0
  0
LINE
  5
7006
330
1F
100
AcDbEntity
  8
SPOJOVACÍ
  6
Continuous
100
AcDbLine
 10
2740.280646040758
 20
-3775.034490820287
 30
0.0
 11
2739.809977088174
 21
-3776.433475219853
 31
0.0
  0
LINE
  5
7007
330
1F
100
AcDbEntity
  8
SPOJOVACÍ
  6
Continuous
100
AcDbLine
 10
2740.188558637004
 20
-3776.811126590798
 30
0.0
 11
2740.406219773321
 21
-3776.433475219853
 31
0.0
  0
LINE
  5
7008
330
1F
100
AcDbEntity
  8
SPOJOVACÍ
  6
Continuous
100
AcDbLine
 10
2740.188558637004
 20
-3776.811126590798
 30
0.0
 11
2739.809977088174
 21
-3776.433475219853
 31
0.0
  0
LINE
  5
7009
330
1F
100
AcDbEntity
  8
SPOJOVACÍ
  6
Continuous
100
AcDbLine
 10
2740.499237352778
 20
-3774.656839449341
 30
0.0
 11
2740.876888725906
 21
-3775.034490820287
 31
0.0
  0
LINE
  5
700A
330
1F
100
AcDbEntity
  8
SPOJOVACÍ
  6
Continuous
100
AcDbLine
 10
2740.499237352778
 20
-3774.656839449341
 30
0.0
 11
2740.280646040758
 21
-3775.034490820287
 31
0.0
  0
LINE
  5
700B
330
1F
100
AcDbEntity
  8
SPOJOVACÍ
  6
Continuous
100
AcDbLine
 10
2743.513006931097
 20
-3774.09222273887
 30
0.0
 11
2742.879557214327
 21
-3777.208311655301
 31
0.0
  0
LINE
  5
700C
330
1F
100
AcDbEntity
  8
SPOJOVACÍ
  6
Continuous
100
AcDbLine
 10
2743.891588480204
 20
-3774.469874114181
 30
0.0
 11
2743.097218350376
 21
-3776.830660284355
 31
0.0
  0
LINE
  5
700D
330
1F
100
AcDbEntity
  8
SPOJOVACÍ
  6
Continuous
100
AcDbLine
 10
2743.295345795049
 20
-3774.469874114181
 30
0.0
 11
2742.500975665497
 21
-3776.830660284355
 31
0.0
  0
LINE
  5
700E
330
1F
100
AcDbEntity
  8
SPOJOVACÍ
  6
Continuous
100
AcDbLine
 10
2742.879557214327
 20
-3777.208311655301
 30
0.0
 11
2743.097218350376
 21
-3776.830660284355
 31
0.0
  0
LINE
  5
700F
330
1F
100
AcDbEntity
  8
SPOJOVACÍ
  6
Continuous
100
AcDbLine
 10
2742.879557214327
 20
-3777.208311655301
 30
0.0
 11
2742.500975665497
 21
-3776.830660284355
 31
0.0
  0
LINE
  5
7010
330
1F
100
AcDbEntity
  8
SPOJOVACÍ
  6
Continuous
100
AcDbLine
 10
2743.513006931097
 20
-3774.09222273887
 30
0.0
 11
2743.891588480204
 21
-3774.469874114181
 31
0.0
  0
LINE
  5
7011
330
1F
100
AcDbEntity
  8
SPOJOVACÍ
  6
Continuous
100
AcDbLine
 10
2743.513006931097
 20
-3774.09222273887
 30
0.0
 11
2743.295345795049
 21
-3774.469874114181
 31
0.0
  0
LINE
  5
7012
330
1F
100
AcDbEntity
  8
SPOJOVACÍ
  6
Continuous
100
AcDbLine
 10
2746.527706685395
 20
-3773.527606032764
 30
0.0
 11
2745.554742803091
 21
-3777.652935685507
 31
0.0
  0
LINE
  5
7013
330
1F
100
AcDbEntity
  8
SPOJOVACÍ
  6
Continuous
100
AcDbLine
 10
2746.905358058524
 20
-3773.906187581048
 30
0.0
 11
2745.772403939139
 21
-3777.275284314562
 31
0.0
  0
LINE
  5
7014
330
1F
100
AcDbEntity
  8
SPOJOVACÍ
  6
Continuous
100
AcDbLine
 10
2746.309115373369
 20
-3773.906187581048
 30
0.0
 11
2745.176161253984
 21
-3777.275284314562
 31
0.0
  0
LINE
  5
7015
330
1F
100
AcDbEntity
  8
SPOJOVACÍ
  6
Continuous
100
AcDbLine
 10
2745.554742803091
 20
-3777.652935685507
 30
0.0
 11
2745.772403939139
 21
-3777.275284314562
 31
0.0
  0
LINE
  5
7016
330
1F
100
AcDbEntity
  8
SPOJOVACÍ
  6
Continuous
100
AcDbLine
 10
2745.554742803091
 20
-3777.652935685507
 30
0.0
 11
2745.176161253984
 21
-3777.275284314562
 31
0.0
  0
LINE
  5
7017
330
1F
100
AcDbEntity
  8
SPOJOVACÍ
  6
Continuous
100
AcDbLine
 10
2746.527706685395
 20
-3773.527606032764
 30
0.0
 11
2746.905358058524
 21
-3773.906187581048
 31
0.0
  0
LINE
  5
7018
330
1F
100
AcDbEntity
  8
SPOJOVACÍ
  6
Continuous
100
AcDbLine
 10
2746.527706685395
 20
-3773.527606032764
 30
0.0
 11
2746.309115373369
 21
-3773.906187581048
 31
0.0
  0
LINE
  5
7019
330
1F
100
AcDbEntity
  8
SPOJOVACÍ
  6
Continuous
100
AcDbLine
 10
2745.949137340488
 20
-3776.77764026335
 30
0.0
 11
2747.920179851774
 21
-3777.023206674818
 31
0.0
  0
LINE
  5
701A
330
1F
100
AcDbEntity
  8
SPOJOVACÍ
  6
Continuous
100
AcDbLine
 10
2743.242325774589
 20
-3776.439056270789
 30
0.0
 11
2745.378939577443
 21
-3776.706016726127
 31
0.0
  0
LINE
  5
701B
330
1F
100
AcDbEntity
  8
SPOJOVACÍ
  6
Continuous
100
AcDbLine
 10
2740.525282275156
 20
-3776.09954210962
 30
0.0
 11
2742.670267660141
 21
-3776.367432737931
 31
0.0
  0
LINE
  5
701C
330
1F
100
AcDbEntity
  8
SPOJOVACÍ
  6
Continuous
100
AcDbLine
 10
2740.209022504626
 20
-3775.287498637369
 30
0.0
 11
2737.119908686821
 21
-3775.673521591267
 31
0.0
  0
LINE
  5
701D
330
1F
100
AcDbEntity
  8
SPOJOVACÍ
  6
Continuous
100
AcDbLine
 10
2743.150238370835
 20
-3774.920079199689
 30
0.0
 11
2740.82944976048
 21
-3775.210294044843
 31
0.0
  0
LINE
  5
701E
330
1F
100
AcDbEntity
  8
SPOJOVACÍ
  6
Continuous
100
AcDbLine
 10
2746.102616346564
 20
-3774.550799407331
 30
0.0
 11
2743.780897560499
 21
-3774.841014256851
 31
0.0
  0
LINE
  5
701F
330
1F
100
AcDbEntity
  8
SPOJOVACÍ
  6
Continuous
100
AcDbLine
 10
2737.119908686821
 20
-3775.673521591267
 30
0.0
 11
2739.95601468809
 21
-3776.027918572396
 31
0.0
  0
LINE
  5
7020
330
1F
100
AcDbEntity
  8
SPOJOVACÍ
  6
Continuous
100
AcDbLine
 10
2747.920179851774
 20
-3774.323836512082
 30
0.0
 11
2746.723043602418
 21
-3774.473594814805
 31
0.0
  0
LINE
  5
7021
330
1F
100
AcDbEntity
  8
SPOJOVACÍ
  6
Continuous
100
AcDbLine
 10
2748.256903489658
 20
-3777.023206674818
 30
0.0
 11
2747.920179851774
 21
-3777.023206674818
 31
0.0
  0
LINE
  5
7022
330
1F
100
AcDbEntity
  8
SPOJOVACÍ
  6
Continuous
100
AcDbLine
 10
2749.604728217709
 20
-3773.273668038343
 30
0.0
 11
2749.387067081661
 21
-3773.651319413654
 31
0.0
  0
LINE
  5
7023
330
1F
100
AcDbEntity
  8
SPOJOVACÍ
  6
Continuous
100
AcDbLine
 10
2751.525541236187
 20
-3778.073375144192
 30
0.0
 11
2751.743202372235
 21
-3777.695723773247
 31
0.0
  0
LINE
  5
7024
330
1F
100
AcDbEntity
  8
SPOJOVACÍ
  6
Continuous
100
AcDbLine
 10
2752.725468012649
 20
-3773.273668038343
 30
0.0
 11
2752.50687670063
 21
-3773.651319413654
 31
0.0
  0
LINE
  5
7025
330
1F
100
AcDbEntity
  8
SPOJOVACÍ
  6
Continuous
100
AcDbLine
 10
2752.725468012649
 20
-3773.273668038343
 30
0.0
 11
2751.525541236187
 21
-3778.073375144192
 31
0.0
  0
LINE
  5
7026
330
1F
100
AcDbEntity
  8
SPOJOVACÍ
  6
Continuous
100
AcDbLine
 10
2754.645350855156
 20
-3778.073375144192
 30
0.0
 11
2754.863011991473
 21
-3777.695723773247
 31
0.0
  0
LINE
  5
7027
330
1F
100
AcDbEntity
  8
SPOJOVACÍ
  6
Continuous
100
AcDbLine
 10
2749.604728217709
 20
-3773.273668038343
 30
0.0
 11
2748.404801441246
 21
-3778.073375144192
 31
0.0
  0
LINE
  5
7028
102
{ACAD_REACTORS
330
7A9C
330
7BFA
102
}
330
1F
100
AcDbEntity
  8
CETRIS
100
AcDbLine
 10
2760.885168034776
 20
-3749.026515794684
 30
0.0
 11
2760.885168034776
 21
-3706.673580450978
 31
0.0
  0
LINE
  5
70DE
102
{ACAD_REACTORS
330
7A9C
330
7BFA
102
}
330
1F
100
AcDbEntity
  8
SPOJOVACÍ
  6
Continuous
100
AcDbLine
 10
2761.652365124827
 20
-3625.42047993598
 30
0.0
 11
2759.133449069798
 21
-3625.42047993598
 31
0.0
  0
LINE
  5
70DF
102
{ACAD_REACTORS
330
7BFA
102
}
330
1F
100
AcDbEntity
  8
SPOJOVACÍ
  6
Continuous
100
AcDbLine
 10
2759.342738623985
 20
-3626.092997034408
 30
0.0
 11
2757.983751786145
 21
-3622.048592674816
 31
0.0
  0
LINE
  5
70E0
102
{ACAD_REACTORS
330
7BFA
102
}
330
1F
100
AcDbEntity
  8
SPOJOVACÍ
  6
Continuous
100
AcDbLine
 10
2758.965087250857
 20
-3626.470648409719
 30
0.0
 11
2759.342738623985
 21
-3626.092997034408
 31
0.0
  0
LINE
  5
70E1
330
1F
100
AcDbEntity
  8
SPOJOVACÍ
  6
Continuous
100
AcDbLine
 10
2758.965087250857
 20
-3626.470648409719
 30
0.0
 11
2758.74649593883
 21
-3626.092997034408
 31
0.0
  0
LINE
  5
70E2
102
{ACAD_REACTORS
330
7BFA
102
}
330
1F
100
AcDbEntity
  8
SPOJOVACÍ
  6
Continuous
100
AcDbLine
 10
2758.74649593883
 20
-3626.092997034408
 30
0.0
 11
2757.387509101266
 21
-3622.048592674816
 31
0.0
  0
LINE
  5
70E3
102
{ACAD_REACTORS
330
7BFA
102
}
330
1F
100
AcDbEntity
  8
SPOJOVACÍ
  6
Continuous
100
AcDbLine
 10
2758.529764978483
 20
-3625.42047993598
 30
0.0
 11
2756.008988571775
 21
-3625.42047993598
 31
0.0
  0
LINE
  5
70E4
102
{ACAD_REACTORS
330
7BFA
102
}
330
1F
100
AcDbEntity
  8
SPOJOVACÍ
  6
Continuous
100
AcDbLine
 10
2756.222929004747
 20
-3626.092997034408
 30
0.0
 11
2754.863011991473
 21
-3622.048592674816
 31
0.0
  0
LINE
  5
70E5
102
{ACAD_REACTORS
330
7BFA
102
}
330
1F
100
AcDbEntity
  8
SPOJOVACÍ
  6
Continuous
100
AcDbLine
 10
2755.845277631618
 20
-3626.470648409719
 30
0.0
 11
2756.222929004747
 21
-3626.092997034408
 31
0.0
  0
LINE
  5
70E6
330
1F
100
AcDbEntity
  8
SPOJOVACÍ
  6
Continuous
100
AcDbLine
 10
2755.845277631618
 20
-3626.470648409719
 30
0.0
 11
2755.626686319592
 21
-3626.092997034408
 31
0.0
  0
LINE
  5
70E7
102
{ACAD_REACTORS
330
7BFA
102
}
330
1F
100
AcDbEntity
  8
SPOJOVACÍ
  6
Continuous
100
AcDbLine
 10
2755.626686319592
 20
-3626.092997034408
 30
0.0
 11
2754.266769306326
 21
-3622.048592674816
 31
0.0
  0
LINE
  5
70E8
102
{ACAD_REACTORS
330
7BFA
102
}
330
1F
100
AcDbEntity
  8
SPOJOVACÍ
  6
Continuous
100
AcDbLine
 10
2755.4146062383
 20
-3625.42047993598
 30
0.0
 11
2752.886388425431
 21
-3625.42047993598
 31
0.0
  0
LINE
  5
70E9
102
{ACAD_REACTORS
330
7BFA
102
}
330
1F
100
AcDbEntity
  8
SPOJOVACÍ
  6
Continuous
100
AcDbLine
 10
2753.103119385777
 20
-3626.092997034408
 30
0.0
 11
2751.743202372235
 21
-3622.048592674816
 31
0.0
  0
LINE
  5
70EA
102
{ACAD_REACTORS
330
7BFA
102
}
330
1F
100
AcDbEntity
  8
SPOJOVACÍ
  6
Continuous
100
AcDbLine
 10
2752.725468012649
 20
-3626.470648409719
 30
0.0
 11
2753.103119385777
 21
-3626.092997034408
 31
0.0
  0
LINE
  5
70EB
330
1F
100
AcDbEntity
  8
SPOJOVACÍ
  6
Continuous
100
AcDbLine
 10
2752.725468012649
 20
-3626.470648409719
 30
0.0
 11
2752.50687670063
 21
-3626.092997034408
 31
0.0
  0
LINE
  5
70EC
102
{ACAD_REACTORS
330
7BFA
102
}
330
1F
100
AcDbEntity
  8
SPOJOVACÍ
  6
Continuous
100
AcDbLine
 10
2752.50687670063
 20
-3626.092997034408
 30
0.0
 11
2751.146959687357
 21
-3622.048592674816
 31
0.0
  0
LINE
  5
70ED
102
{ACAD_REACTORS
330
7BFA
102
}
330
1F
100
AcDbEntity
  8
SPOJOVACÍ
  6
Continuous
100
AcDbLine
 10
2752.281774158145
 20
-3625.42047993598
 30
0.0
 11
2749.763788278818
 21
-3625.42047993598
 31
0.0
  0
LINE
  5
70EE
102
{ACAD_REACTORS
330
7BFA
102
}
330
1F
100
AcDbEntity
  8
SPOJOVACÍ
  6
Continuous
100
AcDbLine
 10
2749.983309766816
 20
-3626.092997034408
 30
0.0
 11
2748.623392753273
 21
-3622.048592674816
 31
0.0
  0
LINE
  5
70EF
102
{ACAD_REACTORS
330
7BFA
102
}
330
1F
100
AcDbEntity
  8
SPOJOVACÍ
  6
Continuous
100
AcDbLine
 10
2749.604728217709
 20
-3626.470648409719
 30
0.0
 11
2749.983309766816
 21
-3626.092997034408
 31
0.0
  0
LINE
  5
70F0
330
1F
100
AcDbEntity
  8
SPOJOVACÍ
  6
Continuous
100
AcDbLine
 10
2749.604728217709
 20
-3626.470648409719
 30
0.0
 11
2749.387067081661
 21
-3626.092997034408
 31
0.0
  0
LINE
  5
70F1
102
{ACAD_REACTORS
330
7BFA
102
}
330
1F
100
AcDbEntity
  8
SPOJOVACÍ
  6
Continuous
100
AcDbLine
 10
2749.387067081661
 20
-3626.092997034408
 30
0.0
 11
2748.027150068118
 21
-3622.048592674816
 31
0.0
  0
LINE
  5
70F2
102
{ACAD_REACTORS
330
7BFA
102
}
330
1F
100
AcDbEntity
  8
SPOJOVACÍ
  6
Continuous
100
AcDbLine
 10
2749.167545593663
 20
-3625.42047993598
 30
0.0
 11
2747.920179851774
 21
-3625.42047993598
 31
0.0
  0
LINE
  5
70F3
102
{ACAD_REACTORS
330
7BFA
102
}
330
1F
100
AcDbEntity
  8
SPOJOVACÍ
  6
Continuous
100
AcDbLine
 10
2760.885168034779
 20
-3614.379140045352
 30
0.0
 11
2759.685241258048
 21
-3614.379140045352
 31
0.0
  0
LINE
  5
70F4
102
{ACAD_REACTORS
330
7BFA
102
}
330
1F
100
AcDbEntity
  8
SPOJOVACÍ
  6
Continuous
100
AcDbLine
 10
2759.685241258048
 20
-3614.379140045352
 30
0.0
 11
2758.941100621574
 21
-3613.029454961801
 31
0.0
  0
LINE
  5
70F5
102
{ACAD_REACTORS
330
7BFA
102
}
330
1F
100
AcDbEntity
  8
SPOJOVACÍ
  6
Continuous
100
AcDbLine
 10
2758.941100621574
 20
-3613.029454961801
 30
0.0
 11
2757.872328632162
 21
-3611.918825061442
 31
0.0
  0
LINE
  5
70F6
102
{ACAD_REACTORS
330
7BFA
102
}
330
1F
100
AcDbEntity
  8
SPOJOVACÍ
  6
Continuous
100
AcDbLine
 10
2757.872328632162
 20
-3611.918825061442
 30
0.0
 11
2756.553339353864
 21
-3611.122594582124
 31
0.0
  0
LINE
  5
70F7
102
{ACAD_REACTORS
330
7BFA
102
}
330
1F
100
AcDbEntity
  8
SPOJOVACÍ
  6
Continuous
100
AcDbLine
 10
2756.553339353864
 20
-3611.122594582124
 30
0.0
 11
2755.072499486814
 21
-3610.694713717825
 31
0.0
  0
LINE
  5
70F8
102
{ACAD_REACTORS
330
7BFA
102
}
330
1F
100
AcDbEntity
  8
SPOJOVACÍ
  6
Continuous
100
AcDbLine
 10
2755.072499486814
 20
-3610.694713717825
 30
0.0
 11
2754.285570763691
 21
-3610.628671235903
 31
0.0
  0
LINE
  5
70F9
102
{ACAD_REACTORS
330
7BFA
102
}
330
1F
100
AcDbEntity
  8
SPOJOVACÍ
  6
Continuous
100
AcDbLine
 10
2754.285570763691
 20
-3610.628671235903
 30
0.0
 11
2750.247677634011
 21
-3610.628671235903
 31
0.0
  0
LINE
  5
70FA
102
{ACAD_REACTORS
330
7BFA
102
}
330
1F
100
AcDbEntity
  8
SPOJOVACÍ
  6
Continuous
100
AcDbLine
 10
2750.463478418656
 20
-3611.301188334332
 30
0.0
 11
2749.103561405391
 21
-3607.256783974739
 31
0.0
  0
LINE
  5
70FB
102
{ACAD_REACTORS
330
7BFA
102
}
330
1F
100
AcDbEntity
  8
SPOJOVACÍ
  6
Continuous
100
AcDbLine
 10
2750.084896869826
 20
-3611.678839709643
 30
0.0
 11
2750.463478418656
 21
-3611.301188334332
 31
0.0
  0
LINE
  5
70FC
330
1F
100
AcDbEntity
  8
SPOJOVACÍ
  6
Continuous
100
AcDbLine
 10
2750.084896869826
 20
-3611.678839709643
 30
0.0
 11
2749.867235733778
 21
-3611.301188334332
 31
0.0
  0
LINE
  5
70FD
102
{ACAD_REACTORS
330
7BFA
102
}
330
1F
100
AcDbEntity
  8
SPOJOVACÍ
  6
Continuous
100
AcDbLine
 10
2749.867235733778
 20
-3611.301188334332
 30
0.0
 11
2748.507318720236
 21
-3607.256783974739
 31
0.0
  0
LINE
  5
70FE
102
{ACAD_REACTORS
330
7BFA
102
}
330
1F
100
AcDbEntity
  8
SPOJOVACÍ
  6
Continuous
100
AcDbLine
 10
2749.652365124835
 20
-3610.628671235903
 30
0.0
 11
2747.133449069806
 21
-3610.628671235903
 31
0.0
  0
LINE
  5
70FF
102
{ACAD_REACTORS
330
7BFA
102
}
330
1F
100
AcDbEntity
  8
SPOJOVACÍ
  6
Continuous
100
AcDbLine
 10
2751.379503636271
 20
-3622.721109773244
 30
0.0
 11
2748.860587581242
 21
-3622.721109773244
 31
0.0
  0
LINE
  5
7100
102
{ACAD_REACTORS
330
7BFA
102
}
330
1F
100
AcDbEntity
  8
SPOJOVACÍ
  6
Continuous
100
AcDbLine
 10
2751.525541236187
 20
-3621.67094130387
 30
0.0
 11
2751.146959687357
 21
-3622.048592674816
 31
0.0
  0
LINE
  5
7101
330
1F
100
AcDbEntity
  8
SPOJOVACÍ
  6
Continuous
100
AcDbLine
 10
2751.525541236187
 20
-3621.67094130387
 30
0.0
 11
2751.743202372235
 21
-3622.048592674816
 31
0.0
  0
LINE
  5
7102
102
{ACAD_REACTORS
330
7BFA
102
}
330
1F
100
AcDbEntity
  8
SPOJOVACÍ
  6
Continuous
100
AcDbLine
 10
2754.501173606913
 20
-3622.721109773244
 30
0.0
 11
2751.980397200204
 21
-3622.721109773244
 31
0.0
  0
LINE
  5
7103
102
{ACAD_REACTORS
330
7BFA
102
}
330
1F
100
AcDbEntity
  8
SPOJOVACÍ
  6
Continuous
100
AcDbLine
 10
2754.645350855156
 20
-3621.67094130387
 30
0.0
 11
2754.266769306326
 21
-3622.048592674816
 31
0.0
  0
LINE
  5
7104
330
1F
100
AcDbEntity
  8
SPOJOVACÍ
  6
Continuous
100
AcDbLine
 10
2754.645350855156
 20
-3621.67094130387
 30
0.0
 11
2754.863011991473
 21
-3622.048592674816
 31
0.0
  0
LINE
  5
7105
102
{ACAD_REACTORS
330
7BFA
102
}
330
1F
100
AcDbEntity
  8
SPOJOVACÍ
  6
Continuous
100
AcDbLine
 10
2757.623773753257
 20
-3622.721109773244
 30
0.0
 11
2755.095555940387
 21
-3622.721109773244
 31
0.0
  0
LINE
  5
7106
102
{ACAD_REACTORS
330
7BFA
102
}
330
1F
100
AcDbEntity
  8
SPOJOVACÍ
  6
Continuous
100
AcDbLine
 10
2757.765160474118
 20
-3621.67094130387
 30
0.0
 11
2757.387509101266
 21
-3622.048592674816
 31
0.0
  0
LINE
  5
7107
330
1F
100
AcDbEntity
  8
SPOJOVACÍ
  6
Continuous
100
AcDbLine
 10
2757.765160474118
 20
-3621.67094130387
 30
0.0
 11
2757.983751786145
 21
-3622.048592674816
 31
0.0
  0
LINE
  5
7108
102
{ACAD_REACTORS
330
7BFA
102
}
330
1F
100
AcDbEntity
  8
SPOJOVACÍ
  6
Continuous
100
AcDbLine
 10
2760.73893249344
 20
-3622.721109773244
 30
0.0
 11
2758.220016438412
 21
-3622.721109773244
 31
0.0
  0
LINE
  5
7109
102
{ACAD_REACTORS
330
7A9C
330
7BFA
102
}
330
1F
100
AcDbEntity
  8
SPOJOVACÍ
  6
Continuous
100
AcDbLine
 10
2761.86723573377
 20
-3626.092997034408
 30
0.0
 11
2760.507318720228
 21
-3622.048592674816
 31
0.0
  0
LINE
  5
710A
102
{ACAD_REACTORS
330
7BFA
102
}
330
1F
100
AcDbEntity
  8
SPOJOVACÍ
  6
Continuous
100
AcDbLine
 10
2760.884970093356
 20
-3621.67094130387
 30
0.0
 11
2760.507318720228
 21
-3622.048592674816
 31
0.0
  0
LINE
  5
710B
102
{ACAD_REACTORS
330
7BFA
102
}
330
1F
100
AcDbEntity
  8
SPOJOVACÍ
  6
Continuous
100
AcDbLine
 10
2748.884970093364
 20
-3606.879132603793
 30
0.0
 11
2749.103561405391
 21
-3607.256783974739
 31
0.0
  0
LINE
  5
710C
102
{ACAD_REACTORS
330
7BFA
102
}
330
1F
100
AcDbEntity
  8
SPOJOVACÍ
  6
Continuous
100
AcDbLine
 10
2754.285570763691
 20
-3607.929301073167
 30
0.0
 11
2749.342616584763
 21
-3607.929301073167
 31
0.0
  0
LINE
  5
710D
102
{ACAD_REACTORS
330
7BFA
102
}
330
1F
100
AcDbEntity
  8
SPOJOVACÍ
  6
Continuous
100
AcDbLine
 10
2754.285570763691
 20
-3607.929301073167
 30
0.0
 11
2755.809198717121
 21
-3607.702338182284
 31
0.0
  0
LINE
  5
710E
102
{ACAD_REACTORS
330
7BFA
102
}
330
1F
100
AcDbEntity
  8
SPOJOVACÍ
  6
Continuous
100
AcDbLine
 10
2755.809198717121
 20
-3607.702338182284
 30
0.0
 11
2757.223065926824
 21
-3607.089352333136
 31
0.0
  0
LINE
  5
710F
102
{ACAD_REACTORS
330
7BFA
102
}
330
1F
100
AcDbEntity
  8
SPOJOVACÍ
  6
Continuous
100
AcDbLine
 10
2757.223065926824
 20
-3607.089352333136
 30
0.0
 11
2758.430434109723
 21
-3606.131271263151
 31
0.0
  0
LINE
  5
7110
102
{ACAD_REACTORS
330
7BFA
102
}
330
1F
100
AcDbEntity
  8
SPOJOVACÍ
  6
Continuous
100
AcDbLine
 10
2758.430434109723
 20
-3606.131271263151
 30
0.0
 11
2759.348517620165
 21
-3604.894137454252
 31
0.0
  0
LINE
  5
7111
102
{ACAD_REACTORS
330
7BFA
102
}
330
1F
100
AcDbEntity
  8
SPOJOVACÍ
  6
Continuous
100
AcDbLine
 10
2759.348517620165
 20
-3604.894137454252
 30
0.0
 11
2759.685241258048
 21
-3604.178832268084
 31
0.0
  0
LINE
  5
7112
102
{ACAD_REACTORS
330
7BFA
102
}
330
1F
100
AcDbEntity
  8
SPOJOVACÍ
  6
Continuous
100
AcDbLine
 10
2760.885168034779
 20
-3604.178832268084
 30
0.0
 11
2759.685241258048
 21
-3604.178832268084
 31
0.0
  0
LINE
  5
7113
102
{ACAD_REACTORS
330
7A9C
102
}
330
1F
100
AcDbEntity
  8
SPOJOVACÍ
  6
Continuous
100
AcDbLine
 10
2766.285570763684
 20
-3625.42047993598
 30
0.0
 11
2762.247677634004
 21
-3625.42047993598
 31
0.0
  0
LINE
  5
7114
102
{ACAD_REACTORS
330
7A9C
102
}
330
1F
100
AcDbEntity
  8
SPOJOVACÍ
  6
Continuous
100
AcDbLine
 10
2762.463478418649
 20
-3626.092997034408
 30
0.0
 11
2761.103561405383
 21
-3622.048592674816
 31
0.0
  0
LINE
  5
7115
102
{ACAD_REACTORS
330
7A9C
102
}
330
1F
100
AcDbEntity
  8
SPOJOVACÍ
  6
Continuous
100
AcDbLine
 10
2762.084896869819
 20
-3626.470648409719
 30
0.0
 11
2762.463478418649
 21
-3626.092997034408
 31
0.0
  0
LINE
  5
7116
330
1F
100
AcDbEntity
  8
SPOJOVACÍ
  6
Continuous
100
AcDbLine
 10
2762.084896869819
 20
-3626.470648409719
 30
0.0
 11
2761.86723573377
 21
-3626.092997034408
 31
0.0
  0
LINE
  5
7117
102
{ACAD_REACTORS
330
7A9C
102
}
330
1F
100
AcDbEntity
  8
SPOJOVACÍ
  6
Continuous
100
AcDbLine
 10
2760.884970093356
 20
-3621.67094130387
 30
0.0
 11
2761.103561405383
 21
-3622.048592674816
 31
0.0
  0
LINE
  5
7118
102
{ACAD_REACTORS
330
7A9C
102
}
330
1F
100
AcDbEntity
  8
SPOJOVACÍ
  6
Continuous
100
AcDbLine
 10
2766.285570763684
 20
-3622.721109773244
 30
0.0
 11
2761.342616584755
 21
-3622.721109773244
 31
0.0
  0
LINE
  5
7119
330
1F
100
AcDbEntity
  8
SPOJOVACÍ
  6
Continuous
100
AcDbLine
 10
2749.604728217709
 20
-3626.470648409719
 30
0.0
 11
2748.404801441246
 21
-3621.67094130387
 31
0.0
  0
LINE
  5
711A
330
1F
100
AcDbEntity
  8
SPOJOVACÍ
  6
Continuous
100
AcDbLine
 10
2752.725468012649
 20
-3626.470648409719
 30
0.0
 11
2751.525541236187
 21
-3621.67094130387
 31
0.0
  0
LINE
  5
711B
330
1F
100
AcDbEntity
  8
SPOJOVACÍ
  6
Continuous
100
AcDbLine
 10
2748.256903489658
 20
-3622.721109773244
 30
0.0
 11
2747.920179851774
 21
-3622.721109773244
 31
0.0
  0
LINE
  5
711C
330
1F
100
AcDbEntity
  8
SPOJOVACÍ
  6
Continuous
100
AcDbLine
 10
2747.920179851774
 20
-3625.42047993598
 30
0.0
 11
2746.723043602418
 21
-3625.270721633257
 31
0.0
  0
LINE
  5
711D
330
1F
100
AcDbEntity
  8
SPOJOVACÍ
  6
Continuous
100
AcDbLine
 10
2737.119908686821
 20
-3624.070794856795
 30
0.0
 11
2739.95601468809
 21
-3623.716397875666
 31
0.0
  0
LINE
  5
711E
330
1F
100
AcDbEntity
  8
SPOJOVACÍ
  6
Continuous
100
AcDbLine
 10
2746.102616346564
 20
-3625.193517040731
 30
0.0
 11
2743.780897560499
 21
-3624.903302191212
 31
0.0
  0
LINE
  5
711F
330
1F
100
AcDbEntity
  8
SPOJOVACÍ
  6
Continuous
100
AcDbLine
 10
2743.150238370835
 20
-3624.824237248374
 30
0.0
 11
2740.82944976048
 21
-3624.534022403219
 31
0.0
  0
LINE
  5
7120
330
1F
100
AcDbEntity
  8
SPOJOVACÍ
  6
Continuous
100
AcDbLine
 10
2740.209022504626
 20
-3624.456817810694
 30
0.0
 11
2737.119908686821
 21
-3624.070794856795
 31
0.0
  0
LINE
  5
7121
330
1F
100
AcDbEntity
  8
SPOJOVACÍ
  6
Continuous
100
AcDbLine
 10
2740.525282275156
 20
-3623.644774338442
 30
0.0
 11
2742.670267660141
 21
-3623.376883710131
 31
0.0
  0
LINE
  5
7122
330
1F
100
AcDbEntity
  8
SPOJOVACÍ
  6
Continuous
100
AcDbLine
 10
2743.242325774589
 20
-3623.305260177273
 30
0.0
 11
2745.378939577443
 21
-3623.038299721935
 31
0.0
  0
LINE
  5
7123
330
1F
100
AcDbEntity
  8
SPOJOVACÍ
  6
Continuous
100
AcDbLine
 10
2745.949137340488
 20
-3622.966676184712
 30
0.0
 11
2747.920179851774
 21
-3622.721109773244
 31
0.0
  0
LINE
  5
7124
330
1F
100
AcDbEntity
  8
SPOJOVACÍ
  6
Continuous
100
AcDbLine
 10
2746.527706685395
 20
-3626.216710415298
 30
0.0
 11
2746.309115373369
 21
-3625.838128867014
 31
0.0
  0
LINE
  5
7125
330
1F
100
AcDbEntity
  8
SPOJOVACÍ
  6
Continuous
100
AcDbLine
 10
2746.527706685395
 20
-3626.216710415298
 30
0.0
 11
2746.905358058524
 21
-3625.838128867014
 31
0.0
  0
LINE
  5
7126
330
1F
100
AcDbEntity
  8
SPOJOVACÍ
  6
Continuous
100
AcDbLine
 10
2745.554742803091
 20
-3622.091380762555
 30
0.0
 11
2745.176161253984
 21
-3622.469032133501
 31
0.0
  0
LINE
  5
7127
330
1F
100
AcDbEntity
  8
SPOJOVACÍ
  6
Continuous
100
AcDbLine
 10
2745.554742803091
 20
-3622.091380762555
 30
0.0
 11
2745.772403939139
 21
-3622.469032133501
 31
0.0
  0
LINE
  5
7128
330
1F
100
AcDbEntity
  8
SPOJOVACÍ
  6
Continuous
100
AcDbLine
 10
2746.309115373369
 20
-3625.838128867014
 30
0.0
 11
2745.176161253984
 21
-3622.469032133501
 31
0.0
  0
LINE
  5
7129
330
1F
100
AcDbEntity
  8
SPOJOVACÍ
  6
Continuous
100
AcDbLine
 10
2746.905358058524
 20
-3625.838128867014
 30
0.0
 11
2745.772403939139
 21
-3622.469032133501
 31
0.0
  0
LINE
  5
712A
330
1F
100
AcDbEntity
  8
SPOJOVACÍ
  6
Continuous
100
AcDbLine
 10
2746.527706685395
 20
-3626.216710415298
 30
0.0
 11
2745.554742803091
 21
-3622.091380762555
 31
0.0
  0
LINE
  5
712B
330
1F
100
AcDbEntity
  8
SPOJOVACÍ
  6
Continuous
100
AcDbLine
 10
2743.513006931097
 20
-3625.652093709192
 30
0.0
 11
2743.295345795049
 21
-3625.274442333882
 31
0.0
  0
LINE
  5
712C
330
1F
100
AcDbEntity
  8
SPOJOVACÍ
  6
Continuous
100
AcDbLine
 10
2743.513006931097
 20
-3625.652093709192
 30
0.0
 11
2743.891588480204
 21
-3625.274442333882
 31
0.0
  0
LINE
  5
712D
330
1F
100
AcDbEntity
  8
SPOJOVACÍ
  6
Continuous
100
AcDbLine
 10
2742.879557214327
 20
-3622.536004792761
 30
0.0
 11
2742.500975665497
 21
-3622.913656163706
 31
0.0
  0
LINE
  5
712E
330
1F
100
AcDbEntity
  8
SPOJOVACÍ
  6
Continuous
100
AcDbLine
 10
2742.879557214327
 20
-3622.536004792761
 30
0.0
 11
2743.097218350376
 21
-3622.913656163706
 31
0.0
  0
LINE
  5
712F
330
1F
100
AcDbEntity
  8
SPOJOVACÍ
  6
Continuous
100
AcDbLine
 10
2743.295345795049
 20
-3625.274442333882
 30
0.0
 11
2742.500975665497
 21
-3622.913656163706
 31
0.0
  0
LINE
  5
7130
330
1F
100
AcDbEntity
  8
SPOJOVACÍ
  6
Continuous
100
AcDbLine
 10
2743.891588480204
 20
-3625.274442333882
 30
0.0
 11
2743.097218350376
 21
-3622.913656163706
 31
0.0
  0
LINE
  5
7131
330
1F
100
AcDbEntity
  8
SPOJOVACÍ
  6
Continuous
100
AcDbLine
 10
2743.513006931097
 20
-3625.652093709192
 30
0.0
 11
2742.879557214327
 21
-3622.536004792761
 31
0.0
  0
LINE
  5
7132
330
1F
100
AcDbEntity
  8
SPOJOVACÍ
  6
Continuous
100
AcDbLine
 10
2740.499237352778
 20
-3625.087476998721
 30
0.0
 11
2740.280646040758
 21
-3624.709825627776
 31
0.0
  0
LINE
  5
7133
330
1F
100
AcDbEntity
  8
SPOJOVACÍ
  6
Continuous
100
AcDbLine
 10
2740.499237352778
 20
-3625.087476998721
 30
0.0
 11
2740.876888725906
 21
-3624.709825627776
 31
0.0
  0
LINE
  5
7134
330
1F
100
AcDbEntity
  8
SPOJOVACÍ
  6
Continuous
100
AcDbLine
 10
2740.188558637004
 20
-3622.933189857264
 30
0.0
 11
2739.809977088174
 21
-3623.31084122821
 31
0.0
  0
LINE
  5
7135
330
1F
100
AcDbEntity
  8
SPOJOVACÍ
  6
Continuous
100
AcDbLine
 10
2740.188558637004
 20
-3622.933189857264
 30
0.0
 11
2740.406219773321
 21
-3623.31084122821
 31
0.0
  0
LINE
  5
7136
330
1F
100
AcDbEntity
  8
SPOJOVACÍ
  6
Continuous
100
AcDbLine
 10
2740.280646040758
 20
-3624.709825627776
 30
0.0
 11
2739.809977088174
 21
-3623.31084122821
 31
0.0
  0
LINE
  5
7137
330
1F
100
AcDbEntity
  8
SPOJOVACÍ
  6
Continuous
100
AcDbLine
 10
2740.876888725906
 20
-3624.709825627776
 30
0.0
 11
2740.406219773321
 21
-3623.31084122821
 31
0.0
  0
LINE
  5
7138
330
1F
100
AcDbEntity
  8
SPOJOVACÍ
  6
Continuous
100
AcDbLine
 10
2740.499237352778
 20
-3625.087476998721
 30
0.0
 11
2740.188558637004
 21
-3622.933189857264
 31
0.0
  0
LINE
  5
7139
330
1F
100
AcDbEntity
  8
SPOJOVACÍ
  6
Continuous
100
AcDbLine
 10
2748.404801441246
 20
-3621.67094130387
 30
0.0
 11
2748.027150068118
 21
-3622.048592674816
 31
0.0
  0
LINE
  5
713A
330
1F
100
AcDbEntity
  8
SPOJOVACÍ
  6
Continuous
100
AcDbLine
 10
2748.404801441246
 20
-3621.67094130387
 30
0.0
 11
2748.623392753273
 21
-3622.048592674816
 31
0.0
  0
LINE
  5
713B
330
1F
100
AcDbEntity
  8
SPOJOVACÍ
  6
Continuous
100
AcDbLine
 10
2762.084896869819
 20
-3626.470648409719
 30
0.0
 11
2760.884970093356
 21
-3621.67094130387
 31
0.0
  0
LINE
  5
713C
330
1F
100
AcDbEntity
  8
SPOJOVACÍ
  6
Continuous
100
AcDbLine
 10
2758.965087250857
 20
-3626.470648409719
 30
0.0
 11
2757.765160474118
 21
-3621.67094130387
 31
0.0
  0
LINE
  5
713D
330
1F
100
AcDbEntity
  8
SPOJOVACÍ
  6
Continuous
100
AcDbLine
 10
2755.845277631618
 20
-3626.470648409719
 30
0.0
 11
2754.645350855156
 21
-3621.67094130387
 31
0.0
  0
LINE
  5
713E
330
1F
100
AcDbEntity
  8
SPOJOVACÍ
  6
Continuous
100
AcDbLine
 10
2745.623773753264
 20
-3607.929301073167
 30
0.0
 11
2743.095555940395
 21
-3607.929301073167
 31
0.0
  0
LINE
  5
713F
330
1F
100
AcDbEntity
  8
SPOJOVACÍ
  6
Continuous
100
AcDbLine
 10
2744.222929004754
 20
-3611.301188334332
 30
0.0
 11
2742.863011991481
 21
-3607.256783974739
 31
0.0
  0
LINE
  5
7140
330
1F
100
AcDbEntity
  8
SPOJOVACÍ
  6
Continuous
100
AcDbLine
 10
2743.626686319599
 20
-3611.301188334332
 30
0.0
 11
2742.266769306334
 21
-3607.256783974739
 31
0.0
  0
LINE
  5
7141
330
1F
100
AcDbEntity
  8
SPOJOVACÍ
  6
Continuous
100
AcDbLine
 10
2743.845277631626
 20
-3611.678839709643
 30
0.0
 11
2742.645350855164
 21
-3606.879132603793
 31
0.0
  0
LINE
  5
7142
330
1F
100
AcDbEntity
  8
SPOJOVACÍ
  6
Continuous
100
AcDbLine
 10
2746.529764978491
 20
-3610.628671235903
 30
0.0
 11
2744.008988571782
 21
-3610.628671235903
 31
0.0
  0
LINE
  5
7143
330
1F
100
AcDbEntity
  8
SPOJOVACÍ
  6
Continuous
100
AcDbLine
 10
2747.342738623993
 20
-3611.301188334332
 30
0.0
 11
2745.983751786152
 21
-3607.256783974739
 31
0.0
  0
LINE
  5
7144
330
1F
100
AcDbEntity
  8
SPOJOVACÍ
  6
Continuous
100
AcDbLine
 10
2746.746495938838
 20
-3611.301188334332
 30
0.0
 11
2745.387509101274
 21
-3607.256783974739
 31
0.0
  0
LINE
  5
7145
330
1F
100
AcDbEntity
  8
SPOJOVACÍ
  6
Continuous
100
AcDbLine
 10
2745.765160474125
 20
-3606.879132603793
 30
0.0
 11
2745.983751786152
 21
-3607.256783974739
 31
0.0
  0
LINE
  5
7146
330
1F
100
AcDbEntity
  8
SPOJOVACÍ
  6
Continuous
100
AcDbLine
 10
2745.765160474125
 20
-3606.879132603793
 30
0.0
 11
2745.387509101274
 21
-3607.256783974739
 31
0.0
  0
LINE
  5
7147
330
1F
100
AcDbEntity
  8
SPOJOVACÍ
  6
Continuous
100
AcDbLine
 10
2746.965087250865
 20
-3611.678839709643
 30
0.0
 11
2747.342738623993
 21
-3611.301188334332
 31
0.0
  0
LINE
  5
7148
330
1F
100
AcDbEntity
  8
SPOJOVACÍ
  6
Continuous
100
AcDbLine
 10
2746.965087250865
 20
-3611.678839709643
 30
0.0
 11
2746.746495938838
 21
-3611.301188334332
 31
0.0
  0
LINE
  5
7149
330
1F
100
AcDbEntity
  8
SPOJOVACÍ
  6
Continuous
100
AcDbLine
 10
2746.965087250865
 20
-3611.678839709643
 30
0.0
 11
2745.765160474125
 21
-3606.879132603793
 31
0.0
  0
LINE
  5
714A
330
1F
100
AcDbEntity
  8
SPOJOVACÍ
  6
Continuous
100
AcDbLine
 10
2748.884970093364
 20
-3606.879132603793
 30
0.0
 11
2748.507318720236
 21
-3607.256783974739
 31
0.0
  0
LINE
  5
714B
330
1F
100
AcDbEntity
  8
SPOJOVACÍ
  6
Continuous
100
AcDbLine
 10
2750.084896869826
 20
-3611.678839709643
 30
0.0
 11
2748.884970093364
 21
-3606.879132603793
 31
0.0
  0
LINE
  5
714C
330
1F
100
AcDbEntity
  8
SPOJOVACÍ
  6
Continuous
100
AcDbLine
 10
2748.738932493448
 20
-3607.929301073167
 30
0.0
 11
2746.220016438419
 21
-3607.929301073167
 31
0.0
  0
LINE
  5
714D
330
1F
100
AcDbEntity
  8
SPOJOVACÍ
  6
Continuous
100
AcDbLine
 10
2743.845277631626
 20
-3611.678839709643
 30
0.0
 11
2744.222929004754
 21
-3611.301188334332
 31
0.0
  0
LINE
  5
714E
330
1F
100
AcDbEntity
  8
SPOJOVACÍ
  6
Continuous
100
AcDbLine
 10
2743.845277631626
 20
-3611.678839709643
 30
0.0
 11
2743.626686319599
 21
-3611.301188334332
 31
0.0
  0
LINE
  5
714F
330
1F
100
AcDbEntity
  8
SPOJOVACÍ
  6
Continuous
100
AcDbLine
 10
2736.404801441254
 20
-3606.879132603793
 30
0.0
 11
2736.623392753281
 21
-3607.256783974739
 31
0.0
  0
LINE
  5
7150
330
1F
100
AcDbEntity
  8
SPOJOVACÍ
  6
Continuous
100
AcDbLine
 10
2736.404801441254
 20
-3606.879132603793
 30
0.0
 11
2736.027150068126
 21
-3607.256783974739
 31
0.0
  0
LINE
  5
7151
330
1F
100
AcDbEntity
  8
SPOJOVACÍ
  6
Continuous
100
AcDbLine
 10
2728.499237352785
 20
-3610.295668298644
 30
0.0
 11
2728.188558637012
 21
-3608.141381157187
 31
0.0
  0
LINE
  5
7152
330
1F
100
AcDbEntity
  8
SPOJOVACÍ
  6
Continuous
100
AcDbLine
 10
2728.876888725913
 20
-3609.918016927699
 30
0.0
 11
2728.406219773329
 21
-3608.519032528133
 31
0.0
  0
LINE
  5
7153
330
1F
100
AcDbEntity
  8
SPOJOVACÍ
  6
Continuous
100
AcDbLine
 10
2728.280646040766
 20
-3609.918016927699
 30
0.0
 11
2727.809977088182
 21
-3608.519032528133
 31
0.0
  0
LINE
  5
7154
330
1F
100
AcDbEntity
  8
SPOJOVACÍ
  6
Continuous
100
AcDbLine
 10
2728.188558637012
 20
-3608.141381157187
 30
0.0
 11
2728.406219773329
 21
-3608.519032528133
 31
0.0
  0
LINE
  5
7155
330
1F
100
AcDbEntity
  8
SPOJOVACÍ
  6
Continuous
100
AcDbLine
 10
2728.188558637012
 20
-3608.141381157187
 30
0.0
 11
2727.809977088182
 21
-3608.519032528133
 31
0.0
  0
LINE
  5
7156
330
1F
100
AcDbEntity
  8
SPOJOVACÍ
  6
Continuous
100
AcDbLine
 10
2728.499237352785
 20
-3610.295668298644
 30
0.0
 11
2728.876888725913
 21
-3609.918016927699
 31
0.0
  0
LINE
  5
7157
330
1F
100
AcDbEntity
  8
SPOJOVACÍ
  6
Continuous
100
AcDbLine
 10
2728.499237352785
 20
-3610.295668298644
 30
0.0
 11
2728.280646040766
 21
-3609.918016927699
 31
0.0
  0
LINE
  5
7158
330
1F
100
AcDbEntity
  8
SPOJOVACÍ
  6
Continuous
100
AcDbLine
 10
2731.513006931105
 20
-3610.860285009116
 30
0.0
 11
2730.879557214335
 21
-3607.744196092685
 31
0.0
  0
LINE
  5
7159
330
1F
100
AcDbEntity
  8
SPOJOVACÍ
  6
Continuous
100
AcDbLine
 10
2731.891588480212
 20
-3610.482633633805
 30
0.0
 11
2731.097218350383
 21
-3608.12184746363
 31
0.0
  0
LINE
  5
715A
330
1F
100
AcDbEntity
  8
SPOJOVACÍ
  6
Continuous
100
AcDbLine
 10
2731.295345795057
 20
-3610.482633633805
 30
0.0
 11
2730.500975665505
 21
-3608.12184746363
 31
0.0
  0
LINE
  5
715B
330
1F
100
AcDbEntity
  8
SPOJOVACÍ
  6
Continuous
100
AcDbLine
 10
2730.879557214335
 20
-3607.744196092685
 30
0.0
 11
2731.097218350383
 21
-3608.12184746363
 31
0.0
  0
LINE
  5
715C
330
1F
100
AcDbEntity
  8
SPOJOVACÍ
  6
Continuous
100
AcDbLine
 10
2730.879557214335
 20
-3607.744196092685
 30
0.0
 11
2730.500975665505
 21
-3608.12184746363
 31
0.0
  0
LINE
  5
715D
330
1F
100
AcDbEntity
  8
SPOJOVACÍ
  6
Continuous
100
AcDbLine
 10
2731.513006931105
 20
-3610.860285009116
 30
0.0
 11
2731.891588480212
 21
-3610.482633633805
 31
0.0
  0
LINE
  5
715E
330
1F
100
AcDbEntity
  8
SPOJOVACÍ
  6
Continuous
100
AcDbLine
 10
2731.513006931105
 20
-3610.860285009116
 30
0.0
 11
2731.295345795057
 21
-3610.482633633805
 31
0.0
  0
LINE
  5
715F
330
1F
100
AcDbEntity
  8
SPOJOVACÍ
  6
Continuous
100
AcDbLine
 10
2734.527706685403
 20
-3611.424901715222
 30
0.0
 11
2733.554742803098
 21
-3607.299572062478
 31
0.0
  0
LINE
  5
7160
330
1F
100
AcDbEntity
  8
SPOJOVACÍ
  6
Continuous
100
AcDbLine
 10
2734.905358058531
 20
-3611.046320166937
 30
0.0
 11
2733.772403939147
 21
-3607.677223433424
 31
0.0
  0
LINE
  5
7161
330
1F
100
AcDbEntity
  8
SPOJOVACÍ
  6
Continuous
100
AcDbLine
 10
2734.309115373376
 20
-3611.046320166937
 30
0.0
 11
2733.176161253992
 21
-3607.677223433424
 31
0.0
  0
LINE
  5
7162
330
1F
100
AcDbEntity
  8
SPOJOVACÍ
  6
Continuous
100
AcDbLine
 10
2733.554742803098
 20
-3607.299572062478
 30
0.0
 11
2733.772403939147
 21
-3607.677223433424
 31
0.0
  0
LINE
  5
7163
330
1F
100
AcDbEntity
  8
SPOJOVACÍ
  6
Continuous
100
AcDbLine
 10
2733.554742803098
 20
-3607.299572062478
 30
0.0
 11
2733.176161253992
 21
-3607.677223433424
 31
0.0
  0
LINE
  5
7164
330
1F
100
AcDbEntity
  8
SPOJOVACÍ
  6
Continuous
100
AcDbLine
 10
2734.527706685403
 20
-3611.424901715222
 30
0.0
 11
2734.905358058531
 21
-3611.046320166937
 31
0.0
  0
LINE
  5
7165
330
1F
100
AcDbEntity
  8
SPOJOVACÍ
  6
Continuous
100
AcDbLine
 10
2734.527706685403
 20
-3611.424901715222
 30
0.0
 11
2734.309115373376
 21
-3611.046320166937
 31
0.0
  0
LINE
  5
7166
330
1F
100
AcDbEntity
  8
SPOJOVACÍ
  6
Continuous
100
AcDbLine
 10
2733.949137340496
 20
-3608.174867484635
 30
0.0
 11
2735.920179851782
 21
-3607.929301073167
 31
0.0
  0
LINE
  5
7167
330
1F
100
AcDbEntity
  8
SPOJOVACÍ
  6
Continuous
100
AcDbLine
 10
2731.242325774597
 20
-3608.513451477196
 30
0.0
 11
2733.378939577451
 21
-3608.246491021859
 31
0.0
  0
LINE
  5
7168
330
1F
100
AcDbEntity
  8
SPOJOVACÍ
  6
Continuous
100
AcDbLine
 10
2728.525282275164
 20
-3608.852965638365
 30
0.0
 11
2730.670267660149
 21
-3608.585075010054
 31
0.0
  0
LINE
  5
7169
330
1F
100
AcDbEntity
  8
SPOJOVACÍ
  6
Continuous
100
AcDbLine
 10
2728.209022504634
 20
-3609.665009110617
 30
0.0
 11
2725.119908686829
 21
-3609.278986156718
 31
0.0
  0
LINE
  5
716A
330
1F
100
AcDbEntity
  8
SPOJOVACÍ
  6
Continuous
100
AcDbLine
 10
2731.150238370843
 20
-3610.032428548297
 30
0.0
 11
2728.829449760487
 21
-3609.742213703142
 31
0.0
  0
LINE
  5
716B
330
1F
100
AcDbEntity
  8
SPOJOVACÍ
  6
Continuous
100
AcDbLine
 10
2734.102616346572
 20
-3610.401708340654
 30
0.0
 11
2731.780897560507
 21
-3610.111493491135
 31
0.0
  0
LINE
  5
716C
330
1F
100
AcDbEntity
  8
SPOJOVACÍ
  6
Continuous
100
AcDbLine
 10
2725.119908686829
 20
-3609.278986156718
 30
0.0
 11
2727.956014688098
 21
-3608.924589175589
 31
0.0
  0
LINE
  5
716D
330
1F
100
AcDbEntity
  8
SPOJOVACÍ
  6
Continuous
100
AcDbLine
 10
2735.920179851782
 20
-3610.628671235903
 30
0.0
 11
2734.723043602425
 21
-3610.47891293318
 31
0.0
  0
LINE
  5
716E
330
1F
100
AcDbEntity
  8
SPOJOVACÍ
  6
Continuous
100
AcDbLine
 10
2736.256903489666
 20
-3607.929301073167
 30
0.0
 11
2735.920179851782
 21
-3607.929301073167
 31
0.0
  0
LINE
  5
716F
330
1F
100
AcDbEntity
  8
SPOJOVACÍ
  6
Continuous
100
AcDbLine
 10
2737.167545593671
 20
-3610.628671235903
 30
0.0
 11
2735.920179851782
 21
-3610.628671235903
 31
0.0
  0
LINE
  5
7170
330
1F
100
AcDbEntity
  8
SPOJOVACÍ
  6
Continuous
100
AcDbLine
 10
2737.604728217716
 20
-3611.678839709643
 30
0.0
 11
2737.983309766823
 21
-3611.301188334332
 31
0.0
  0
LINE
  5
7171
330
1F
100
AcDbEntity
  8
SPOJOVACÍ
  6
Continuous
100
AcDbLine
 10
2737.604728217716
 20
-3611.678839709643
 30
0.0
 11
2737.387067081668
 21
-3611.301188334332
 31
0.0
  0
LINE
  5
7172
330
1F
100
AcDbEntity
  8
SPOJOVACÍ
  6
Continuous
100
AcDbLine
 10
2741.103119385785
 20
-3611.301188334332
 30
0.0
 11
2739.743202372243
 21
-3607.256783974739
 31
0.0
  0
LINE
  5
7173
330
1F
100
AcDbEntity
  8
SPOJOVACÍ
  6
Continuous
100
AcDbLine
 10
2740.506876700638
 20
-3611.301188334332
 30
0.0
 11
2739.146959687364
 21
-3607.256783974739
 31
0.0
  0
LINE
  5
7174
330
1F
100
AcDbEntity
  8
SPOJOVACÍ
  6
Continuous
100
AcDbLine
 10
2739.525541236194
 20
-3606.879132603793
 30
0.0
 11
2739.743202372243
 21
-3607.256783974739
 31
0.0
  0
LINE
  5
7175
330
1F
100
AcDbEntity
  8
SPOJOVACÍ
  6
Continuous
100
AcDbLine
 10
2739.525541236194
 20
-3606.879132603793
 30
0.0
 11
2739.146959687364
 21
-3607.256783974739
 31
0.0
  0
LINE
  5
7176
330
1F
100
AcDbEntity
  8
SPOJOVACÍ
  6
Continuous
100
AcDbLine
 10
2740.725468012657
 20
-3611.678839709643
 30
0.0
 11
2741.103119385785
 21
-3611.301188334332
 31
0.0
  0
LINE
  5
7177
330
1F
100
AcDbEntity
  8
SPOJOVACÍ
  6
Continuous
100
AcDbLine
 10
2740.725468012657
 20
-3611.678839709643
 30
0.0
 11
2740.506876700638
 21
-3611.301188334332
 31
0.0
  0
LINE
  5
7178
330
1F
100
AcDbEntity
  8
SPOJOVACÍ
  6
Continuous
100
AcDbLine
 10
2740.725468012657
 20
-3611.678839709643
 30
0.0
 11
2739.525541236194
 21
-3606.879132603793
 31
0.0
  0
LINE
  5
7179
330
1F
100
AcDbEntity
  8
SPOJOVACÍ
  6
Continuous
100
AcDbLine
 10
2742.645350855164
 20
-3606.879132603793
 30
0.0
 11
2742.863011991481
 21
-3607.256783974739
 31
0.0
  0
LINE
  5
717A
330
1F
100
AcDbEntity
  8
SPOJOVACÍ
  6
Continuous
100
AcDbLine
 10
2742.645350855164
 20
-3606.879132603793
 30
0.0
 11
2742.266769306334
 21
-3607.256783974739
 31
0.0
  0
LINE
  5
717B
330
1F
100
AcDbEntity
  8
SPOJOVACÍ
  6
Continuous
100
AcDbLine
 10
2740.281774158153
 20
-3610.628671235903
 30
0.0
 11
2737.763788278826
 21
-3610.628671235903
 31
0.0
  0
LINE
  5
717C
330
1F
100
AcDbEntity
  8
SPOJOVACÍ
  6
Continuous
100
AcDbLine
 10
2742.501173606921
 20
-3607.929301073167
 30
0.0
 11
2739.980397200211
 21
-3607.929301073167
 31
0.0
  0
LINE
  5
717D
330
1F
100
AcDbEntity
  8
SPOJOVACÍ
  6
Continuous
100
AcDbLine
 10
2743.414606238308
 20
-3610.628671235903
 30
0.0
 11
2740.886388425439
 21
-3610.628671235903
 31
0.0
  0
LINE
  5
717E
330
1F
100
AcDbEntity
  8
SPOJOVACÍ
  6
Continuous
100
AcDbLine
 10
2737.983309766823
 20
-3611.301188334332
 30
0.0
 11
2736.623392753281
 21
-3607.256783974739
 31
0.0
  0
LINE
  5
717F
330
1F
100
AcDbEntity
  8
SPOJOVACÍ
  6
Continuous
100
AcDbLine
 10
2737.387067081668
 20
-3611.301188334332
 30
0.0
 11
2736.027150068126
 21
-3607.256783974739
 31
0.0
  0
LINE
  5
7180
330
1F
100
AcDbEntity
  8
SPOJOVACÍ
  6
Continuous
100
AcDbLine
 10
2737.604728217716
 20
-3611.678839709643
 30
0.0
 11
2736.404801441254
 21
-3606.879132603793
 31
0.0
  0
LINE
  5
7181
330
1F
100
AcDbEntity
  8
SPOJOVACÍ
  6
Continuous
100
AcDbLine
 10
2739.379503636278
 20
-3607.929301073167
 30
0.0
 11
2736.86058758125
 21
-3607.929301073167
 31
0.0
  0
LINE
  5
7182
330
1F
100
AcDbEntity
  8
SPOJOVACÍ
  6
Continuous
100
AcDbLine
 10
2759.685241258048
 20
-3614.379140045352
 30
0.0
 11
2759.685241258048
 21
-3604.178832268084
 31
0.0
  0
LINE
  5
7183
330
1F
100
AcDbEntity
  8
SPOJOVACÍ
  6
Continuous
100
AcDbLine
 10
2760.885168034779
 20
-3614.379140045352
 30
0.0
 11
2760.885168034779
 21
-3604.178832268084
 31
0.0
  0
LINE
  5
7184
330
1F
100
AcDbEntity
  8
STAVBA OBRYS
100
AcDbLine
 10
2757.100132429013
 20
-3396.183155015727
 30
0.0
 11
2751.840411974496
 21
-3383.683155015727
 31
0.0
  0
LINE
  5
7185
330
1F
100
AcDbEntity
  8
SPOJOVACÍ
  6
DASHED
100
AcDbLine
 10
2703.662861527587
 20
-3391.600566129227
 30
0.0
 11
2708.701924027588
 21
-3388.417931826652
 31
0.0
  0
LINE
  5
7186
330
1F
100
AcDbEntity
  8
SPOJOVACÍ
100
AcDbLine
 10
2717.162861527588
 20
-3391.600566129227
 30
0.0
 11
2712.123799027587
 21
-3388.417931826649
 31
0.0
  0
HATCH
  5
718B
330
1F
100
AcDbEntity
  8
NOSNÉ KONSTRUKCE
100
AcDbHatch
 10
0.0
 20
0.0
 30
0.0
210
0.0
220
0.0
230
1.0
  2
SOLID
 70
     1
 71
     0
 91
        1
 92
        7
 72
     1
 73
     1
 93
       60
 10
2695.040610234281
 20
-3387.475026141526
 42
0.0
 10
2728.745744388046
 20
-3387.475026141527
 42
0.3073346934841183
 10
2730.452228400032
 20
-3388.616375419147
 42
0.0
 10
2734.19436994167
 20
-3388.616375419147
 42
0.307334693483106
 10
2735.900853953649
 20
-3387.475026141526
 42
0.0
 10
2746.189809371673
 20
-3387.475026141527
 42
-0.4142135623730951
 10
2748.149809371672
 20
-3389.435026141526
 42
0.0
 10
2748.149809371672
 20
-3397.469902435802
 42
0.7595816512230912
 10
2748.149809371672
 20
-3400.989515760203
 42
0.0
 10
2748.149809371668
 20
-3409.981867776672
 42
0.7595816493590427
 10
2748.149809371672
 20
-3413.501481133375
 42
0.0
 10
2748.149809371672
 20
-3422.493831156738
 42
0.7767342353201953
 10
2748.226207410843
 20
-3426.033060569282
 42
0.0
 10
2748.226207410843
 20
-3432.469807621028
 42
-0.4142135623730868
 10
2746.266207410843
 20
-3434.429807621028
 42
0.0
 10
2743.497388134981
 20
-3434.429807621028
 42
0.0
 10
2743.497388134981
 20
-3433.449807621028
 42
0.0
 10
2746.266207410842
 20
-3433.449807621028
 42
0.4142135623730951
 10
2747.246207410842
 20
-3432.469807621028
 42
0.0
 10
2747.246207410842
 20
-3426.69006549487
 42
-0.5694936494219963
 10
2747.169809371672
 20
-3421.862639019042
 42
0.0
 10
2747.169809371672
 20
-3414.132675205628
 42
-0.5590616644338513
 10
2747.169809371668
 20
-3409.35067370442
 42
0.0
 10
2747.169809371672
 20
-3401.620709833036
 42
-0.5590616643157284
 10
2747.169809371672
 20
-3396.83870836297
 42
0.0
 10
2747.169809371672
 20
-3389.435026141526
 42
0.4142135623731451
 10
2746.189809371673
 20
-3388.455026141527
 42
0.0
 10
2736.455465264665
 20
-3388.455026141527
 42
-0.2364174637114482
 10
2734.219252600791
 20
-3389.587376046248
 42
0.0
 10
2730.427345740906
 20
-3389.587376046248
 42
-0.2364174637115772
 10
2728.191133077031
 20
-3388.455026141527
 42
0.0
 10
2695.591654678664
 20
-3388.455026141527
 42
-0.2353201211467568
 10
2693.361747473157
 20
-3389.576764102439
 42
0.0
 10
2689.56984123491
 20
-3389.574592843854
 42
-0.2364174637122881
 10
2687.33427732498
 20
-3388.440962661896
 42
0.0
 10
2677.599934813794
 20
-3388.435388743814
 42
0.4142135623730951
 10
2676.619373823166
 20
-3389.414827431869
 42
0.0
 10
2676.615134449896
 20
-3396.818508439572
 42
-0.5590616643157161
 10
2676.612396259816
 20
-3401.600509125689
 42
0.0
 10
2676.607970056583
 20
-3409.330471729844
 42
-0.5590616644338511
 10
2676.605231866482
 20
-3414.112472447104
 42
0.0
 10
2676.600805663278
 20
-3421.842434993288
 42
-0.5694936494220229
 10
2676.521643436041
 20
-3426.669816931948
 42
0.0
 10
2676.518333936316
 20
-3432.44955811059
 42
0.4142135623730951
 10
2677.497772624371
 20
-3433.430119101218
 42
0.0
 10
2680.266591446319
 20
-3433.431704536421
 42
0.0
 10
2680.266030295033
 20
-3434.411704375762
 42
0.0
 10
2677.497211473084
 20
-3434.410118940559
 42
-0.4142135623730618
 10
2675.538334096975
 20
-3432.448996959303
 42
0.0
 10
2675.542019799924
 20
-3426.01225096278
 42
0.7767342353201953
 10
2675.620444401201
 20
-3422.473065876222
 42
0.0
 10
2675.625593450983
 20
-3413.480717327041
 42
0.759581649359043
 10
2675.627608793399
 20
-3409.961104547333
 42
0.0
 10
2675.632757844318
 20
-3400.968754005047
 42
0.7595816512230912
 10
2675.634773186712
 20
-3397.449141257641
 42
0.0
 10
2675.639373983824
 20
-3389.414266280582
 42
-0.4142135623731117
 10
2677.60049596508
 20
-3387.455388904472
 42
0.0
 10
2687.88944969636
 20
-3387.461280394852
 42
0.3073346934834261
 10
2689.595279888161
 20
-3388.60360662383
 42
0.0
 10
2693.337420816323
 20
-3388.605749386627
 42
0.3057747226774016
 97
        0
 75
     0
 76
     1
 47
0.1180065091547201
 98
        1
 10
2704.214761925181
 20
-3387.867676741555
  0
LINE
  5
718E
330
1F
100
AcDbEntity
  8
SPOJOVACÍ
  6
DASHDOT2
100
AcDbLine
 10
2710.412861527587
 20
-3402.939029495964
 30
0.0
 11
2710.412861527587
 21
-3334.533274286995
 31
0.0
  0
LINE
  5
725B
102
{ACAD_REACTORS
330
7BFA
102
}
330
1F
100
AcDbEntity
  8
SPOJOVACÍ
  6
Continuous
100
AcDbLine
 10
2760.885168034779
 20
-3452.739828560607
 30
0.0
 11
2759.685241258048
 21
-3452.739828560607
 31
0.0
  0
LINE
  5
725C
102
{ACAD_REACTORS
330
7BFA
102
}
330
1F
100
AcDbEntity
  8
SPOJOVACÍ
  6
Continuous
100
AcDbLine
 10
2759.348517620165
 20
-3452.024523374439
 30
0.0
 11
2759.685241258048
 21
-3452.739828560607
 31
0.0
  0
LINE
  5
725D
102
{ACAD_REACTORS
330
7BFA
102
}
330
1F
100
AcDbEntity
  8
SPOJOVACÍ
  6
Continuous
100
AcDbLine
 10
2758.430434109723
 20
-3450.78738956554
 30
0.0
 11
2759.348517620165
 21
-3452.024523374439
 31
0.0
  0
LINE
  5
725E
102
{ACAD_REACTORS
330
7BFA
102
}
330
1F
100
AcDbEntity
  8
SPOJOVACÍ
  6
Continuous
100
AcDbLine
 10
2757.223065926824
 20
-3449.829308495555
 30
0.0
 11
2758.430434109723
 21
-3450.78738956554
 31
0.0
  0
LINE
  5
725F
102
{ACAD_REACTORS
330
7BFA
102
}
330
1F
100
AcDbEntity
  8
SPOJOVACÍ
  6
Continuous
100
AcDbLine
 10
2755.809198717121
 20
-3449.216322646408
 30
0.0
 11
2757.223065926824
 21
-3449.829308495555
 31
0.0
  0
LINE
  5
7260
102
{ACAD_REACTORS
330
7BFA
102
}
330
1F
100
AcDbEntity
  8
SPOJOVACÍ
  6
Continuous
100
AcDbLine
 10
2754.285570763691
 20
-3448.989359755524
 30
0.0
 11
2755.809198717121
 21
-3449.216322646408
 31
0.0
  0
LINE
  5
7261
102
{ACAD_REACTORS
330
7BFA
102
}
330
1F
100
AcDbEntity
  8
SPOJOVACÍ
  6
Continuous
100
AcDbLine
 10
2754.285570763691
 20
-3448.989359755524
 30
0.0
 11
2749.342616584763
 21
-3448.989359755524
 31
0.0
  0
LINE
  5
7262
102
{ACAD_REACTORS
330
7BFA
102
}
330
1F
100
AcDbEntity
  8
SPOJOVACÍ
  6
Continuous
100
AcDbLine
 10
2750.463478418656
 20
-3445.61747249436
 30
0.0
 11
2749.103561405391
 21
-3449.661876853952
 31
0.0
  0
LINE
  5
7263
330
1F
100
AcDbEntity
  8
SPOJOVACÍ
  6
Continuous
100
AcDbLine
 10
2748.884970093364
 20
-3450.039528224898
 30
0.0
 11
2749.103561405391
 21
-3449.661876853952
 31
0.0
  0
LINE
  5
7264
102
{ACAD_REACTORS
330
7BFA
102
}
330
1F
100
AcDbEntity
  8
SPOJOVACÍ
  6
Continuous
100
AcDbLine
 10
2760.885168034779
 20
-3442.53952078334
 30
0.0
 11
2759.685241258048
 21
-3442.53952078334
 31
0.0
  0
LINE
  5
7265
102
{ACAD_REACTORS
330
7A9C
330
7BFA
102
}
330
1F
100
AcDbEntity
  8
SPOJOVACÍ
  6
Continuous
100
AcDbLine
 10
2761.652365124827
 20
-3439.066010277944
 30
0.0
 11
2759.133449069798
 21
-3439.066010277944
 31
0.0
  0
LINE
  5
7266
102
{ACAD_REACTORS
330
7BFA
102
}
330
1F
100
AcDbEntity
  8
SPOJOVACÍ
  6
Continuous
100
AcDbLine
 10
2759.342738623985
 20
-3439.738527376372
 30
0.0
 11
2757.983751786145
 21
-3435.69412301678
 31
0.0
  0
LINE
  5
7267
102
{ACAD_REACTORS
330
7BFA
102
}
330
1F
100
AcDbEntity
  8
SPOJOVACÍ
  6
Continuous
100
AcDbLine
 10
2758.965087250857
 20
-3440.116178751683
 30
0.0
 11
2759.342738623985
 21
-3439.738527376372
 31
0.0
  0
LINE
  5
7268
330
1F
100
AcDbEntity
  8
SPOJOVACÍ
  6
Continuous
100
AcDbLine
 10
2758.965087250857
 20
-3440.116178751683
 30
0.0
 11
2758.74649593883
 21
-3439.738527376372
 31
0.0
  0
LINE
  5
7269
102
{ACAD_REACTORS
330
7BFA
102
}
330
1F
100
AcDbEntity
  8
SPOJOVACÍ
  6
Continuous
100
AcDbLine
 10
2758.74649593883
 20
-3439.738527376372
 30
0.0
 11
2757.387509101266
 21
-3435.69412301678
 31
0.0
  0
LINE
  5
726A
102
{ACAD_REACTORS
330
7BFA
102
}
330
1F
100
AcDbEntity
  8
SPOJOVACÍ
  6
Continuous
100
AcDbLine
 10
2758.529764978483
 20
-3439.066010277944
 30
0.0
 11
2756.008988571775
 21
-3439.066010277944
 31
0.0
  0
LINE
  5
726B
102
{ACAD_REACTORS
330
7BFA
102
}
330
1F
100
AcDbEntity
  8
SPOJOVACÍ
  6
Continuous
100
AcDbLine
 10
2756.222929004747
 20
-3439.738527376372
 30
0.0
 11
2754.863011991473
 21
-3435.69412301678
 31
0.0
  0
LINE
  5
726C
102
{ACAD_REACTORS
330
7BFA
102
}
330
1F
100
AcDbEntity
  8
SPOJOVACÍ
  6
Continuous
100
AcDbLine
 10
2755.845277631618
 20
-3440.116178751683
 30
0.0
 11
2756.222929004747
 21
-3439.738527376372
 31
0.0
  0
LINE
  5
726D
330
1F
100
AcDbEntity
  8
SPOJOVACÍ
  6
Continuous
100
AcDbLine
 10
2755.845277631618
 20
-3440.116178751683
 30
0.0
 11
2755.626686319592
 21
-3439.738527376372
 31
0.0
  0
LINE
  5
726E
102
{ACAD_REACTORS
330
7BFA
102
}
330
1F
100
AcDbEntity
  8
SPOJOVACÍ
  6
Continuous
100
AcDbLine
 10
2755.626686319592
 20
-3439.738527376372
 30
0.0
 11
2754.266769306326
 21
-3435.69412301678
 31
0.0
  0
LINE
  5
726F
102
{ACAD_REACTORS
330
7BFA
102
}
330
1F
100
AcDbEntity
  8
SPOJOVACÍ
  6
Continuous
100
AcDbLine
 10
2755.4146062383
 20
-3439.066010277944
 30
0.0
 11
2752.886388425431
 21
-3439.066010277944
 31
0.0
  0
LINE
  5
7270
102
{ACAD_REACTORS
330
7BFA
102
}
330
1F
100
AcDbEntity
  8
SPOJOVACÍ
  6
Continuous
100
AcDbLine
 10
2753.103119385777
 20
-3439.738527376372
 30
0.0
 11
2751.743202372235
 21
-3435.69412301678
 31
0.0
  0
LINE
  5
7271
102
{ACAD_REACTORS
330
7BFA
102
}
330
1F
100
AcDbEntity
  8
SPOJOVACÍ
  6
Continuous
100
AcDbLine
 10
2752.725468012649
 20
-3440.116178751683
 30
0.0
 11
2753.103119385777
 21
-3439.738527376372
 31
0.0
  0
LINE
  5
7272
330
1F
100
AcDbEntity
  8
SPOJOVACÍ
  6
Continuous
100
AcDbLine
 10
2752.725468012649
 20
-3440.116178751683
 30
0.0
 11
2752.50687670063
 21
-3439.738527376372
 31
0.0
  0
LINE
  5
7273
102
{ACAD_REACTORS
330
7BFA
102
}
330
1F
100
AcDbEntity
  8
SPOJOVACÍ
  6
Continuous
100
AcDbLine
 10
2752.50687670063
 20
-3439.738527376372
 30
0.0
 11
2751.146959687357
 21
-3435.69412301678
 31
0.0
  0
LINE
  5
7274
102
{ACAD_REACTORS
330
7BFA
102
}
330
1F
100
AcDbEntity
  8
SPOJOVACÍ
  6
Continuous
100
AcDbLine
 10
2752.281774158145
 20
-3439.066010277944
 30
0.0
 11
2749.763788278818
 21
-3439.066010277944
 31
0.0
  0
LINE
  5
7275
102
{ACAD_REACTORS
330
7BFA
102
}
330
1F
100
AcDbEntity
  8
SPOJOVACÍ
  6
Continuous
100
AcDbLine
 10
2749.983309766816
 20
-3439.738527376372
 30
0.0
 11
2748.623392753273
 21
-3435.69412301678
 31
0.0
  0
LINE
  5
7276
102
{ACAD_REACTORS
330
7BFA
102
}
330
1F
100
AcDbEntity
  8
SPOJOVACÍ
  6
Continuous
100
AcDbLine
 10
2749.604728217709
 20
-3440.116178751683
 30
0.0
 11
2749.983309766816
 21
-3439.738527376372
 31
0.0
  0
LINE
  5
7277
330
1F
100
AcDbEntity
  8
SPOJOVACÍ
  6
Continuous
100
AcDbLine
 10
2749.604728217709
 20
-3440.116178751683
 30
0.0
 11
2749.387067081661
 21
-3439.738527376372
 31
0.0
  0
LINE
  5
7278
102
{ACAD_REACTORS
330
7BFA
102
}
330
1F
100
AcDbEntity
  8
SPOJOVACÍ
  6
Continuous
100
AcDbLine
 10
2749.387067081661
 20
-3439.738527376372
 30
0.0
 11
2748.027150068118
 21
-3435.69412301678
 31
0.0
  0
LINE
  5
7279
102
{ACAD_REACTORS
330
7BFA
102
}
330
1F
100
AcDbEntity
  8
SPOJOVACÍ
  6
Continuous
100
AcDbLine
 10
2749.167545593663
 20
-3439.066010277944
 30
0.0
 11
2747.920179851774
 21
-3439.066010277944
 31
0.0
  0
LINE
  5
727A
102
{ACAD_REACTORS
330
7BFA
102
}
330
1F
100
AcDbEntity
  8
SPOJOVACÍ
  6
Continuous
100
AcDbLine
 10
2749.652365124835
 20
-3446.289989592788
 30
0.0
 11
2747.133449069806
 21
-3446.289989592788
 31
0.0
  0
LINE
  5
727B
102
{ACAD_REACTORS
330
7BFA
102
}
330
1F
100
AcDbEntity
  8
SPOJOVACÍ
  6
Continuous
100
AcDbLine
 10
2749.867235733778
 20
-3445.61747249436
 30
0.0
 11
2748.507318720236
 21
-3449.661876853952
 31
0.0
  0
LINE
  5
727C
330
1F
100
AcDbEntity
  8
SPOJOVACÍ
  6
Continuous
100
AcDbLine
 10
2750.084896869826
 20
-3445.239821119049
 30
0.0
 11
2749.867235733778
 21
-3445.61747249436
 31
0.0
  0
LINE
  5
727D
102
{ACAD_REACTORS
330
7BFA
102
}
330
1F
100
AcDbEntity
  8
SPOJOVACÍ
  6
Continuous
100
AcDbLine
 10
2750.084896869826
 20
-3445.239821119049
 30
0.0
 11
2750.463478418656
 21
-3445.61747249436
 31
0.0
  0
LINE
  5
727E
102
{ACAD_REACTORS
330
7BFA
102
}
330
1F
100
AcDbEntity
  8
SPOJOVACÍ
  6
Continuous
100
AcDbLine
 10
2754.285570763691
 20
-3446.289989592788
 30
0.0
 11
2750.247677634011
 21
-3446.289989592788
 31
0.0
  0
LINE
  5
727F
102
{ACAD_REACTORS
330
7BFA
102
}
330
1F
100
AcDbEntity
  8
SPOJOVACÍ
  6
Continuous
100
AcDbLine
 10
2755.072499486814
 20
-3446.223947110866
 30
0.0
 11
2754.285570763691
 21
-3446.289989592788
 31
0.0
  0
LINE
  5
7280
102
{ACAD_REACTORS
330
7BFA
102
}
330
1F
100
AcDbEntity
  8
SPOJOVACÍ
  6
Continuous
100
AcDbLine
 10
2756.553339353864
 20
-3445.796066246567
 30
0.0
 11
2755.072499486814
 21
-3446.223947110866
 31
0.0
  0
LINE
  5
7281
102
{ACAD_REACTORS
330
7BFA
102
}
330
1F
100
AcDbEntity
  8
SPOJOVACÍ
  6
Continuous
100
AcDbLine
 10
2757.872328632162
 20
-3444.999835767249
 30
0.0
 11
2756.553339353864
 21
-3445.796066246567
 31
0.0
  0
LINE
  5
7282
102
{ACAD_REACTORS
330
7BFA
102
}
330
1F
100
AcDbEntity
  8
SPOJOVACÍ
  6
Continuous
100
AcDbLine
 10
2758.941100621574
 20
-3443.88920586689
 30
0.0
 11
2757.872328632162
 21
-3444.999835767249
 31
0.0
  0
LINE
  5
7283
102
{ACAD_REACTORS
330
7BFA
102
}
330
1F
100
AcDbEntity
  8
SPOJOVACÍ
  6
Continuous
100
AcDbLine
 10
2759.685241258048
 20
-3442.53952078334
 30
0.0
 11
2758.941100621574
 21
-3443.88920586689
 31
0.0
  0
LINE
  5
7284
102
{ACAD_REACTORS
330
7BFA
102
}
330
1F
100
AcDbEntity
  8
SPOJOVACÍ
  6
Continuous
100
AcDbLine
 10
2751.379503636271
 20
-3436.366640115208
 30
0.0
 11
2748.860587581242
 21
-3436.366640115208
 31
0.0
  0
LINE
  5
7285
102
{ACAD_REACTORS
330
7BFA
102
}
330
1F
100
AcDbEntity
  8
SPOJOVACÍ
  6
Continuous
100
AcDbLine
 10
2751.525541236187
 20
-3435.316471645834
 30
0.0
 11
2751.146959687357
 21
-3435.69412301678
 31
0.0
  0
LINE
  5
7286
330
1F
100
AcDbEntity
  8
SPOJOVACÍ
  6
Continuous
100
AcDbLine
 10
2751.525541236187
 20
-3435.316471645834
 30
0.0
 11
2751.743202372235
 21
-3435.69412301678
 31
0.0
  0
LINE
  5
7287
102
{ACAD_REACTORS
330
7BFA
102
}
330
1F
100
AcDbEntity
  8
SPOJOVACÍ
  6
Continuous
100
AcDbLine
 10
2754.501173606913
 20
-3436.366640115208
 30
0.0
 11
2751.980397200204
 21
-3436.366640115208
 31
0.0
  0
LINE
  5
7288
102
{ACAD_REACTORS
330
7BFA
102
}
330
1F
100
AcDbEntity
  8
SPOJOVACÍ
  6
Continuous
100
AcDbLine
 10
2754.645350855156
 20
-3435.316471645834
 30
0.0
 11
2754.266769306326
 21
-3435.69412301678
 31
0.0
  0
LINE
  5
7289
330
1F
100
AcDbEntity
  8
SPOJOVACÍ
  6
Continuous
100
AcDbLine
 10
2754.645350855156
 20
-3435.316471645834
 30
0.0
 11
2754.863011991473
 21
-3435.69412301678
 31
0.0
  0
LINE
  5
728A
102
{ACAD_REACTORS
330
7BFA
102
}
330
1F
100
AcDbEntity
  8
SPOJOVACÍ
  6
Continuous
100
AcDbLine
 10
2757.623773753257
 20
-3436.366640115208
 30
0.0
 11
2755.095555940387
 21
-3436.366640115208
 31
0.0
  0
LINE
  5
728B
102
{ACAD_REACTORS
330
7BFA
102
}
330
1F
100
AcDbEntity
  8
SPOJOVACÍ
  6
Continuous
100
AcDbLine
 10
2757.765160474118
 20
-3435.316471645834
 30
0.0
 11
2757.387509101266
 21
-3435.69412301678
 31
0.0
  0
LINE
  5
728C
330
1F
100
AcDbEntity
  8
SPOJOVACÍ
  6
Continuous
100
AcDbLine
 10
2757.765160474118
 20
-3435.316471645834
 30
0.0
 11
2757.983751786145
 21
-3435.69412301678
 31
0.0
  0
LINE
  5
728D
102
{ACAD_REACTORS
330
7BFA
102
}
330
1F
100
AcDbEntity
  8
SPOJOVACÍ
  6
Continuous
100
AcDbLine
 10
2760.73893249344
 20
-3436.366640115208
 30
0.0
 11
2758.220016438412
 21
-3436.366640115208
 31
0.0
  0
LINE
  5
728E
102
{ACAD_REACTORS
330
7A9C
330
7BFA
102
}
330
1F
100
AcDbEntity
  8
SPOJOVACÍ
  6
Continuous
100
AcDbLine
 10
2761.86723573377
 20
-3439.738527376372
 30
0.0
 11
2760.507318720228
 21
-3435.69412301678
 31
0.0
  0
LINE
  5
728F
102
{ACAD_REACTORS
330
7BFA
102
}
330
1F
100
AcDbEntity
  8
SPOJOVACÍ
  6
Continuous
100
AcDbLine
 10
2760.884970093356
 20
-3435.316471645834
 30
0.0
 11
2760.507318720228
 21
-3435.69412301678
 31
0.0
  0
LINE
  5
7290
102
{ACAD_REACTORS
330
7A9C
102
}
330
1F
100
AcDbEntity
  8
SPOJOVACÍ
  6
Continuous
100
AcDbLine
 10
2766.285570763684
 20
-3439.066010277944
 30
0.0
 11
2762.247677634004
 21
-3439.066010277944
 31
0.0
  0
LINE
  5
7291
102
{ACAD_REACTORS
330
7A9C
102
}
330
1F
100
AcDbEntity
  8
SPOJOVACÍ
  6
Continuous
100
AcDbLine
 10
2762.463478418649
 20
-3439.738527376372
 30
0.0
 11
2761.103561405383
 21
-3435.69412301678
 31
0.0
  0
LINE
  5
7292
102
{ACAD_REACTORS
330
7A9C
102
}
330
1F
100
AcDbEntity
  8
SPOJOVACÍ
  6
Continuous
100
AcDbLine
 10
2762.084896869819
 20
-3440.116178751683
 30
0.0
 11
2762.463478418649
 21
-3439.738527376372
 31
0.0
  0
LINE
  5
7293
330
1F
100
AcDbEntity
  8
SPOJOVACÍ
  6
Continuous
100
AcDbLine
 10
2762.084896869819
 20
-3440.116178751683
 30
0.0
 11
2761.86723573377
 21
-3439.738527376372
 31
0.0
  0
LINE
  5
7294
102
{ACAD_REACTORS
330
7A9C
102
}
330
1F
100
AcDbEntity
  8
SPOJOVACÍ
  6
Continuous
100
AcDbLine
 10
2760.884970093356
 20
-3435.316471645834
 30
0.0
 11
2761.103561405383
 21
-3435.69412301678
 31
0.0
  0
LINE
  5
7295
102
{ACAD_REACTORS
330
7A9C
102
}
330
1F
100
AcDbEntity
  8
SPOJOVACÍ
  6
Continuous
100
AcDbLine
 10
2766.285570763684
 20
-3436.366640115208
 30
0.0
 11
2761.342616584755
 21
-3436.366640115208
 31
0.0
  0
LINE
  5
7296
330
1F
100
AcDbEntity
  8
SPOJOVACÍ
  6
Continuous
100
AcDbLine
 10
2749.604728217709
 20
-3440.116178751683
 30
0.0
 11
2748.404801441246
 21
-3435.316471645834
 31
0.0
  0
LINE
  5
7297
330
1F
100
AcDbEntity
  8
SPOJOVACÍ
  6
Continuous
100
AcDbLine
 10
2752.725468012649
 20
-3440.116178751683
 30
0.0
 11
2751.525541236187
 21
-3435.316471645834
 31
0.0
  0
LINE
  5
7298
330
1F
100
AcDbEntity
  8
SPOJOVACÍ
  6
Continuous
100
AcDbLine
 10
2748.256903489658
 20
-3436.366640115208
 30
0.0
 11
2747.920179851774
 21
-3436.366640115208
 31
0.0
  0
LINE
  5
7299
330
1F
100
AcDbEntity
  8
SPOJOVACÍ
  6
Continuous
100
AcDbLine
 10
2747.920179851774
 20
-3439.066010277944
 30
0.0
 11
2746.723043602418
 21
-3438.916251975221
 31
0.0
  0
LINE
  5
729A
330
1F
100
AcDbEntity
  8
SPOJOVACÍ
  6
Continuous
100
AcDbLine
 10
2737.119908686821
 20
-3437.716325198759
 30
0.0
 11
2739.95601468809
 21
-3437.361928217629
 31
0.0
  0
LINE
  5
729B
330
1F
100
AcDbEntity
  8
SPOJOVACÍ
  6
Continuous
100
AcDbLine
 10
2746.102616346564
 20
-3438.839047382695
 30
0.0
 11
2743.780897560499
 21
-3438.548832533175
 31
0.0
  0
LINE
  5
729C
330
1F
100
AcDbEntity
  8
SPOJOVACÍ
  6
Continuous
100
AcDbLine
 10
2743.150238370835
 20
-3438.469767590337
 30
0.0
 11
2740.82944976048
 21
-3438.179552745183
 31
0.0
  0
LINE
  5
729D
330
1F
100
AcDbEntity
  8
SPOJOVACÍ
  6
Continuous
100
AcDbLine
 10
2740.209022504626
 20
-3438.102348152657
 30
0.0
 11
2737.119908686821
 21
-3437.716325198759
 31
0.0
  0
LINE
  5
729E
330
1F
100
AcDbEntity
  8
SPOJOVACÍ
  6
Continuous
100
AcDbLine
 10
2740.525282275156
 20
-3437.290304680406
 30
0.0
 11
2742.670267660141
 21
-3437.022414052095
 31
0.0
  0
LINE
  5
729F
330
1F
100
AcDbEntity
  8
SPOJOVACÍ
  6
Continuous
100
AcDbLine
 10
2743.242325774589
 20
-3436.950790519237
 30
0.0
 11
2745.378939577443
 21
-3436.683830063899
 31
0.0
  0
LINE
  5
72A0
330
1F
100
AcDbEntity
  8
SPOJOVACÍ
  6
Continuous
100
AcDbLine
 10
2745.949137340488
 20
-3436.612206526675
 30
0.0
 11
2747.920179851774
 21
-3436.366640115208
 31
0.0
  0
LINE
  5
72A1
330
1F
100
AcDbEntity
  8
SPOJOVACÍ
  6
Continuous
100
AcDbLine
 10
2746.527706685395
 20
-3439.862240757262
 30
0.0
 11
2746.309115373369
 21
-3439.483659208978
 31
0.0
  0
LINE
  5
72A2
330
1F
100
AcDbEntity
  8
SPOJOVACÍ
  6
Continuous
100
AcDbLine
 10
2746.527706685395
 20
-3439.862240757262
 30
0.0
 11
2746.905358058524
 21
-3439.483659208978
 31
0.0
  0
LINE
  5
72A3
330
1F
100
AcDbEntity
  8
SPOJOVACÍ
  6
Continuous
100
AcDbLine
 10
2745.554742803091
 20
-3435.736911104519
 30
0.0
 11
2745.176161253984
 21
-3436.114562475465
 31
0.0
  0
LINE
  5
72A4
330
1F
100
AcDbEntity
  8
SPOJOVACÍ
  6
Continuous
100
AcDbLine
 10
2745.554742803091
 20
-3435.736911104519
 30
0.0
 11
2745.772403939139
 21
-3436.114562475465
 31
0.0
  0
LINE
  5
72A5
330
1F
100
AcDbEntity
  8
SPOJOVACÍ
  6
Continuous
100
AcDbLine
 10
2746.309115373369
 20
-3439.483659208978
 30
0.0
 11
2745.176161253984
 21
-3436.114562475465
 31
0.0
  0
LINE
  5
72A6
330
1F
100
AcDbEntity
  8
SPOJOVACÍ
  6
Continuous
100
AcDbLine
 10
2746.905358058524
 20
-3439.483659208978
 30
0.0
 11
2745.772403939139
 21
-3436.114562475465
 31
0.0
  0
LINE
  5
72A7
330
1F
100
AcDbEntity
  8
SPOJOVACÍ
  6
Continuous
100
AcDbLine
 10
2746.527706685395
 20
-3439.862240757262
 30
0.0
 11
2745.554742803091
 21
-3435.736911104519
 31
0.0
  0
LINE
  5
72A8
330
1F
100
AcDbEntity
  8
SPOJOVACÍ
  6
Continuous
100
AcDbLine
 10
2743.513006931097
 20
-3439.297624051156
 30
0.0
 11
2743.295345795049
 21
-3438.919972675845
 31
0.0
  0
LINE
  5
72A9
330
1F
100
AcDbEntity
  8
SPOJOVACÍ
  6
Continuous
100
AcDbLine
 10
2743.513006931097
 20
-3439.297624051156
 30
0.0
 11
2743.891588480204
 21
-3438.919972675845
 31
0.0
  0
LINE
  5
72AA
330
1F
100
AcDbEntity
  8
SPOJOVACÍ
  6
Continuous
100
AcDbLine
 10
2742.879557214327
 20
-3436.181535134725
 30
0.0
 11
2742.500975665497
 21
-3436.55918650567
 31
0.0
  0
LINE
  5
72AB
330
1F
100
AcDbEntity
  8
SPOJOVACÍ
  6
Continuous
100
AcDbLine
 10
2742.879557214327
 20
-3436.181535134725
 30
0.0
 11
2743.097218350376
 21
-3436.55918650567
 31
0.0
  0
LINE
  5
72AC
330
1F
100
AcDbEntity
  8
SPOJOVACÍ
  6
Continuous
100
AcDbLine
 10
2743.295345795049
 20
-3438.919972675845
 30
0.0
 11
2742.500975665497
 21
-3436.55918650567
 31
0.0
  0
LINE
  5
72AD
330
1F
100
AcDbEntity
  8
SPOJOVACÍ
  6
Continuous
100
AcDbLine
 10
2743.891588480204
 20
-3438.919972675845
 30
0.0
 11
2743.097218350376
 21
-3436.55918650567
 31
0.0
  0
LINE
  5
72AE
330
1F
100
AcDbEntity
  8
SPOJOVACÍ
  6
Continuous
100
AcDbLine
 10
2743.513006931097
 20
-3439.297624051156
 30
0.0
 11
2742.879557214327
 21
-3436.181535134725
 31
0.0
  0
LINE
  5
72AF
330
1F
100
AcDbEntity
  8
SPOJOVACÍ
  6
Continuous
100
AcDbLine
 10
2740.499237352778
 20
-3438.733007340685
 30
0.0
 11
2740.280646040758
 21
-3438.355355969739
 31
0.0
  0
LINE
  5
72B0
330
1F
100
AcDbEntity
  8
SPOJOVACÍ
  6
Continuous
100
AcDbLine
 10
2740.499237352778
 20
-3438.733007340685
 30
0.0
 11
2740.876888725906
 21
-3438.355355969739
 31
0.0
  0
LINE
  5
72B1
330
1F
100
AcDbEntity
  8
SPOJOVACÍ
  6
Continuous
100
AcDbLine
 10
2740.188558637004
 20
-3436.578720199228
 30
0.0
 11
2739.809977088174
 21
-3436.956371570174
 31
0.0
  0
LINE
  5
72B2
330
1F
100
AcDbEntity
  8
SPOJOVACÍ
  6
Continuous
100
AcDbLine
 10
2740.188558637004
 20
-3436.578720199228
 30
0.0
 11
2740.406219773321
 21
-3436.956371570174
 31
0.0
  0
LINE
  5
72B3
330
1F
100
AcDbEntity
  8
SPOJOVACÍ
  6
Continuous
100
AcDbLine
 10
2740.280646040758
 20
-3438.355355969739
 30
0.0
 11
2739.809977088174
 21
-3436.956371570174
 31
0.0
  0
LINE
  5
72B4
330
1F
100
AcDbEntity
  8
SPOJOVACÍ
  6
Continuous
100
AcDbLine
 10
2740.876888725906
 20
-3438.355355969739
 30
0.0
 11
2740.406219773321
 21
-3436.956371570174
 31
0.0
  0
LINE
  5
72B5
330
1F
100
AcDbEntity
  8
SPOJOVACÍ
  6
Continuous
100
AcDbLine
 10
2740.499237352778
 20
-3438.733007340685
 30
0.0
 11
2740.188558637004
 21
-3436.578720199228
 31
0.0
  0
LINE
  5
72B6
330
1F
100
AcDbEntity
  8
SPOJOVACÍ
  6
Continuous
100
AcDbLine
 10
2748.404801441246
 20
-3435.316471645834
 30
0.0
 11
2748.027150068118
 21
-3435.69412301678
 31
0.0
  0
LINE
  5
72B7
330
1F
100
AcDbEntity
  8
SPOJOVACÍ
  6
Continuous
100
AcDbLine
 10
2748.404801441246
 20
-3435.316471645834
 30
0.0
 11
2748.623392753273
 21
-3435.69412301678
 31
0.0
  0
LINE
  5
72B8
330
1F
100
AcDbEntity
  8
SPOJOVACÍ
  6
Continuous
100
AcDbLine
 10
2762.084896869819
 20
-3440.116178751683
 30
0.0
 11
2760.884970093356
 21
-3435.316471645834
 31
0.0
  0
LINE
  5
72B9
330
1F
100
AcDbEntity
  8
SPOJOVACÍ
  6
Continuous
100
AcDbLine
 10
2758.965087250857
 20
-3440.116178751683
 30
0.0
 11
2757.765160474118
 21
-3435.316471645834
 31
0.0
  0
LINE
  5
72BA
330
1F
100
AcDbEntity
  8
SPOJOVACÍ
  6
Continuous
100
AcDbLine
 10
2755.845277631618
 20
-3440.116178751683
 30
0.0
 11
2754.645350855156
 21
-3435.316471645834
 31
0.0
  0
LINE
  5
72BB
330
1F
100
AcDbEntity
  8
SPOJOVACÍ
  6
Continuous
100
AcDbLine
 10
2744.222929004754
 20
-3445.61747249436
 30
0.0
 11
2742.863011991481
 21
-3449.661876853952
 31
0.0
  0
LINE
  5
72BC
330
1F
100
AcDbEntity
  8
SPOJOVACÍ
  6
Continuous
100
AcDbLine
 10
2743.626686319599
 20
-3445.61747249436
 30
0.0
 11
2742.266769306334
 21
-3449.661876853952
 31
0.0
  0
LINE
  5
72BD
330
1F
100
AcDbEntity
  8
SPOJOVACÍ
  6
Continuous
100
AcDbLine
 10
2743.845277631626
 20
-3445.239821119049
 30
0.0
 11
2742.645350855164
 21
-3450.039528224898
 31
0.0
  0
LINE
  5
72BE
330
1F
100
AcDbEntity
  8
SPOJOVACÍ
  6
Continuous
100
AcDbLine
 10
2745.623773753264
 20
-3448.989359755524
 30
0.0
 11
2743.095555940395
 21
-3448.989359755524
 31
0.0
  0
LINE
  5
72BF
330
1F
100
AcDbEntity
  8
SPOJOVACÍ
  6
Continuous
100
AcDbLine
 10
2743.845277631626
 20
-3445.239821119049
 30
0.0
 11
2744.222929004754
 21
-3445.61747249436
 31
0.0
  0
LINE
  5
72C0
330
1F
100
AcDbEntity
  8
SPOJOVACÍ
  6
Continuous
100
AcDbLine
 10
2743.845277631626
 20
-3445.239821119049
 30
0.0
 11
2743.626686319599
 21
-3445.61747249436
 31
0.0
  0
LINE
  5
72C1
330
1F
100
AcDbEntity
  8
SPOJOVACÍ
  6
Continuous
100
AcDbLine
 10
2747.342738623993
 20
-3445.61747249436
 30
0.0
 11
2745.983751786152
 21
-3449.661876853952
 31
0.0
  0
LINE
  5
72C2
330
1F
100
AcDbEntity
  8
SPOJOVACÍ
  6
Continuous
100
AcDbLine
 10
2746.746495938838
 20
-3445.61747249436
 30
0.0
 11
2745.387509101274
 21
-3449.661876853952
 31
0.0
  0
LINE
  5
72C3
330
1F
100
AcDbEntity
  8
SPOJOVACÍ
  6
Continuous
100
AcDbLine
 10
2745.765160474125
 20
-3450.039528224898
 30
0.0
 11
2745.983751786152
 21
-3449.661876853952
 31
0.0
  0
LINE
  5
72C4
330
1F
100
AcDbEntity
  8
SPOJOVACÍ
  6
Continuous
100
AcDbLine
 10
2745.765160474125
 20
-3450.039528224898
 30
0.0
 11
2745.387509101274
 21
-3449.661876853952
 31
0.0
  0
LINE
  5
72C5
330
1F
100
AcDbEntity
  8
SPOJOVACÍ
  6
Continuous
100
AcDbLine
 10
2746.965087250865
 20
-3445.239821119049
 30
0.0
 11
2747.342738623993
 21
-3445.61747249436
 31
0.0
  0
LINE
  5
72C6
330
1F
100
AcDbEntity
  8
SPOJOVACÍ
  6
Continuous
100
AcDbLine
 10
2746.965087250865
 20
-3445.239821119049
 30
0.0
 11
2746.746495938838
 21
-3445.61747249436
 31
0.0
  0
LINE
  5
72C7
330
1F
100
AcDbEntity
  8
SPOJOVACÍ
  6
Continuous
100
AcDbLine
 10
2746.965087250865
 20
-3445.239821119049
 30
0.0
 11
2745.765160474125
 21
-3450.039528224898
 31
0.0
  0
LINE
  5
72C8
102
{ACAD_REACTORS
330
7BFA
102
}
330
1F
100
AcDbEntity
  8
SPOJOVACÍ
  6
Continuous
100
AcDbLine
 10
2748.884970093364
 20
-3450.039528224898
 30
0.0
 11
2748.507318720236
 21
-3449.661876853952
 31
0.0
  0
LINE
  5
72C9
330
1F
100
AcDbEntity
  8
SPOJOVACÍ
  6
Continuous
100
AcDbLine
 10
2750.084896869826
 20
-3445.239821119049
 30
0.0
 11
2748.884970093364
 21
-3450.039528224898
 31
0.0
  0
LINE
  5
72CA
330
1F
100
AcDbEntity
  8
SPOJOVACÍ
  6
Continuous
100
AcDbLine
 10
2748.738932493448
 20
-3448.989359755524
 30
0.0
 11
2746.220016438419
 21
-3448.989359755524
 31
0.0
  0
LINE
  5
72CB
330
1F
100
AcDbEntity
  8
SPOJOVACÍ
  6
Continuous
100
AcDbLine
 10
2746.529764978491
 20
-3446.289989592788
 30
0.0
 11
2744.008988571782
 21
-3446.289989592788
 31
0.0
  0
LINE
  5
72CC
330
1F
100
AcDbEntity
  8
SPOJOVACÍ
  6
Continuous
100
AcDbLine
 10
2736.404801441254
 20
-3450.039528224898
 30
0.0
 11
2736.623392753281
 21
-3449.661876853952
 31
0.0
  0
LINE
  5
72CD
330
1F
100
AcDbEntity
  8
SPOJOVACÍ
  6
Continuous
100
AcDbLine
 10
2736.404801441254
 20
-3450.039528224898
 30
0.0
 11
2736.027150068126
 21
-3449.661876853952
 31
0.0
  0
LINE
  5
72CE
330
1F
100
AcDbEntity
  8
SPOJOVACÍ
  6
Continuous
100
AcDbLine
 10
2728.499237352785
 20
-3446.622992530047
 30
0.0
 11
2728.188558637012
 21
-3448.777279671504
 31
0.0
  0
LINE
  5
72CF
330
1F
100
AcDbEntity
  8
SPOJOVACÍ
  6
Continuous
100
AcDbLine
 10
2728.876888725913
 20
-3447.000643900993
 30
0.0
 11
2728.406219773329
 21
-3448.399628300558
 31
0.0
  0
LINE
  5
72D0
330
1F
100
AcDbEntity
  8
SPOJOVACÍ
  6
Continuous
100
AcDbLine
 10
2728.280646040766
 20
-3447.000643900993
 30
0.0
 11
2727.809977088182
 21
-3448.399628300558
 31
0.0
  0
LINE
  5
72D1
330
1F
100
AcDbEntity
  8
SPOJOVACÍ
  6
Continuous
100
AcDbLine
 10
2728.188558637012
 20
-3448.777279671504
 30
0.0
 11
2728.406219773329
 21
-3448.399628300558
 31
0.0
  0
LINE
  5
72D2
330
1F
100
AcDbEntity
  8
SPOJOVACÍ
  6
Continuous
100
AcDbLine
 10
2728.188558637012
 20
-3448.777279671504
 30
0.0
 11
2727.809977088182
 21
-3448.399628300558
 31
0.0
  0
LINE
  5
72D3
330
1F
100
AcDbEntity
  8
SPOJOVACÍ
  6
Continuous
100
AcDbLine
 10
2728.499237352785
 20
-3446.622992530047
 30
0.0
 11
2728.876888725913
 21
-3447.000643900993
 31
0.0
  0
LINE
  5
72D4
330
1F
100
AcDbEntity
  8
SPOJOVACÍ
  6
Continuous
100
AcDbLine
 10
2728.499237352785
 20
-3446.622992530047
 30
0.0
 11
2728.280646040766
 21
-3447.000643900993
 31
0.0
  0
LINE
  5
72D5
330
1F
100
AcDbEntity
  8
SPOJOVACÍ
  6
Continuous
100
AcDbLine
 10
2731.513006931105
 20
-3446.058375819576
 30
0.0
 11
2730.879557214335
 21
-3449.174464736007
 31
0.0
  0
LINE
  5
72D6
330
1F
100
AcDbEntity
  8
SPOJOVACÍ
  6
Continuous
100
AcDbLine
 10
2731.891588480212
 20
-3446.436027194887
 30
0.0
 11
2731.097218350383
 21
-3448.796813365062
 31
0.0
  0
LINE
  5
72D7
330
1F
100
AcDbEntity
  8
SPOJOVACÍ
  6
Continuous
100
AcDbLine
 10
2731.295345795057
 20
-3446.436027194887
 30
0.0
 11
2730.500975665505
 21
-3448.796813365062
 31
0.0
  0
LINE
  5
72D8
330
1F
100
AcDbEntity
  8
SPOJOVACÍ
  6
Continuous
100
AcDbLine
 10
2730.879557214335
 20
-3449.174464736007
 30
0.0
 11
2731.097218350383
 21
-3448.796813365062
 31
0.0
  0
LINE
  5
72D9
330
1F
100
AcDbEntity
  8
SPOJOVACÍ
  6
Continuous
100
AcDbLine
 10
2730.879557214335
 20
-3449.174464736007
 30
0.0
 11
2730.500975665505
 21
-3448.796813365062
 31
0.0
  0
LINE
  5
72DA
330
1F
100
AcDbEntity
  8
SPOJOVACÍ
  6
Continuous
100
AcDbLine
 10
2731.513006931105
 20
-3446.058375819576
 30
0.0
 11
2731.891588480212
 21
-3446.436027194887
 31
0.0
  0
LINE
  5
72DB
330
1F
100
AcDbEntity
  8
SPOJOVACÍ
  6
Continuous
100
AcDbLine
 10
2731.513006931105
 20
-3446.058375819576
 30
0.0
 11
2731.295345795057
 21
-3446.436027194887
 31
0.0
  0
LINE
  5
72DC
330
1F
100
AcDbEntity
  8
SPOJOVACÍ
  6
Continuous
100
AcDbLine
 10
2734.527706685403
 20
-3445.49375911347
 30
0.0
 11
2733.554742803098
 21
-3449.619088766213
 31
0.0
  0
LINE
  5
72DD
330
1F
100
AcDbEntity
  8
SPOJOVACÍ
  6
Continuous
100
AcDbLine
 10
2734.905358058531
 20
-3445.872340661754
 30
0.0
 11
2733.772403939147
 21
-3449.241437395267
 31
0.0
  0
LINE
  5
72DE
330
1F
100
AcDbEntity
  8
SPOJOVACÍ
  6
Continuous
100
AcDbLine
 10
2734.309115373376
 20
-3445.872340661754
 30
0.0
 11
2733.176161253992
 21
-3449.241437395267
 31
0.0
  0
LINE
  5
72DF
330
1F
100
AcDbEntity
  8
SPOJOVACÍ
  6
Continuous
100
AcDbLine
 10
2733.554742803098
 20
-3449.619088766213
 30
0.0
 11
2733.772403939147
 21
-3449.241437395267
 31
0.0
  0
LINE
  5
72E0
330
1F
100
AcDbEntity
  8
SPOJOVACÍ
  6
Continuous
100
AcDbLine
 10
2733.554742803098
 20
-3449.619088766213
 30
0.0
 11
2733.176161253992
 21
-3449.241437395267
 31
0.0
  0
LINE
  5
72E1
330
1F
100
AcDbEntity
  8
SPOJOVACÍ
  6
Continuous
100
AcDbLine
 10
2734.527706685403
 20
-3445.49375911347
 30
0.0
 11
2734.905358058531
 21
-3445.872340661754
 31
0.0
  0
LINE
  5
72E2
330
1F
100
AcDbEntity
  8
SPOJOVACÍ
  6
Continuous
100
AcDbLine
 10
2734.527706685403
 20
-3445.49375911347
 30
0.0
 11
2734.309115373376
 21
-3445.872340661754
 31
0.0
  0
LINE
  5
72E3
330
1F
100
AcDbEntity
  8
SPOJOVACÍ
  6
Continuous
100
AcDbLine
 10
2733.949137340496
 20
-3448.743793344057
 30
0.0
 11
2735.920179851782
 21
-3448.989359755524
 31
0.0
  0
LINE
  5
72E4
330
1F
100
AcDbEntity
  8
SPOJOVACÍ
  6
Continuous
100
AcDbLine
 10
2731.242325774597
 20
-3448.405209351495
 30
0.0
 11
2733.378939577451
 21
-3448.672169806833
 31
0.0
  0
LINE
  5
72E5
330
1F
100
AcDbEntity
  8
SPOJOVACÍ
  6
Continuous
100
AcDbLine
 10
2728.525282275164
 20
-3448.065695190326
 30
0.0
 11
2730.670267660149
 21
-3448.333585818637
 31
0.0
  0
LINE
  5
72E6
330
1F
100
AcDbEntity
  8
SPOJOVACÍ
  6
Continuous
100
AcDbLine
 10
2728.209022504634
 20
-3447.253651718074
 30
0.0
 11
2725.119908686829
 21
-3447.639674671973
 31
0.0
  0
LINE
  5
72E7
330
1F
100
AcDbEntity
  8
SPOJOVACÍ
  6
Continuous
100
AcDbLine
 10
2731.150238370843
 20
-3446.886232280395
 30
0.0
 11
2728.829449760487
 21
-3447.176447125549
 31
0.0
  0
LINE
  5
72E8
330
1F
100
AcDbEntity
  8
SPOJOVACÍ
  6
Continuous
100
AcDbLine
 10
2734.102616346572
 20
-3446.516952488037
 30
0.0
 11
2731.780897560507
 21
-3446.807167337556
 31
0.0
  0
LINE
  5
72E9
330
1F
100
AcDbEntity
  8
SPOJOVACÍ
  6
Continuous
100
AcDbLine
 10
2725.119908686829
 20
-3447.639674671973
 30
0.0
 11
2727.956014688098
 21
-3447.994071653102
 31
0.0
  0
LINE
  5
72EA
330
1F
100
AcDbEntity
  8
SPOJOVACÍ
  6
Continuous
100
AcDbLine
 10
2735.920179851782
 20
-3446.289989592788
 30
0.0
 11
2734.723043602425
 21
-3446.439747895511
 31
0.0
  0
LINE
  5
72EB
330
1F
100
AcDbEntity
  8
SPOJOVACÍ
  6
Continuous
100
AcDbLine
 10
2736.256903489666
 20
-3448.989359755524
 30
0.0
 11
2735.920179851782
 21
-3448.989359755524
 31
0.0
  0
LINE
  5
72EC
330
1F
100
AcDbEntity
  8
SPOJOVACÍ
  6
Continuous
100
AcDbLine
 10
2737.167545593671
 20
-3446.289989592788
 30
0.0
 11
2735.920179851782
 21
-3446.289989592788
 31
0.0
  0
LINE
  5
72ED
330
1F
100
AcDbEntity
  8
SPOJOVACÍ
  6
Continuous
100
AcDbLine
 10
2737.604728217716
 20
-3445.239821119049
 30
0.0
 11
2737.983309766823
 21
-3445.61747249436
 31
0.0
  0
LINE
  5
72EE
330
1F
100
AcDbEntity
  8
SPOJOVACÍ
  6
Continuous
100
AcDbLine
 10
2737.604728217716
 20
-3445.239821119049
 30
0.0
 11
2737.387067081668
 21
-3445.61747249436
 31
0.0
  0
LINE
  5
72EF
330
1F
100
AcDbEntity
  8
SPOJOVACÍ
  6
Continuous
100
AcDbLine
 10
2741.103119385785
 20
-3445.61747249436
 30
0.0
 11
2739.743202372243
 21
-3449.661876853952
 31
0.0
  0
LINE
  5
72F0
330
1F
100
AcDbEntity
  8
SPOJOVACÍ
  6
Continuous
100
AcDbLine
 10
2740.506876700638
 20
-3445.61747249436
 30
0.0
 11
2739.146959687364
 21
-3449.661876853952
 31
0.0
  0
LINE
  5
72F1
330
1F
100
AcDbEntity
  8
SPOJOVACÍ
  6
Continuous
100
AcDbLine
 10
2739.525541236194
 20
-3450.039528224898
 30
0.0
 11
2739.743202372243
 21
-3449.661876853952
 31
0.0
  0
LINE
  5
72F2
330
1F
100
AcDbEntity
  8
SPOJOVACÍ
  6
Continuous
100
AcDbLine
 10
2739.525541236194
 20
-3450.039528224898
 30
0.0
 11
2739.146959687364
 21
-3449.661876853952
 31
0.0
  0
LINE
  5
72F3
330
1F
100
AcDbEntity
  8
SPOJOVACÍ
  6
Continuous
100
AcDbLine
 10
2740.725468012657
 20
-3445.239821119049
 30
0.0
 11
2741.103119385785
 21
-3445.61747249436
 31
0.0
  0
LINE
  5
72F4
330
1F
100
AcDbEntity
  8
SPOJOVACÍ
  6
Continuous
100
AcDbLine
 10
2740.725468012657
 20
-3445.239821119049
 30
0.0
 11
2740.506876700638
 21
-3445.61747249436
 31
0.0
  0
LINE
  5
72F5
330
1F
100
AcDbEntity
  8
SPOJOVACÍ
  6
Continuous
100
AcDbLine
 10
2740.725468012657
 20
-3445.239821119049
 30
0.0
 11
2739.525541236194
 21
-3450.039528224898
 31
0.0
  0
LINE
  5
72F6
330
1F
100
AcDbEntity
  8
SPOJOVACÍ
  6
Continuous
100
AcDbLine
 10
2742.645350855164
 20
-3450.039528224898
 30
0.0
 11
2742.863011991481
 21
-3449.661876853952
 31
0.0
  0
LINE
  5
72F7
330
1F
100
AcDbEntity
  8
SPOJOVACÍ
  6
Continuous
100
AcDbLine
 10
2742.645350855164
 20
-3450.039528224898
 30
0.0
 11
2742.266769306334
 21
-3449.661876853952
 31
0.0
  0
LINE
  5
72F8
330
1F
100
AcDbEntity
  8
SPOJOVACÍ
  6
Continuous
100
AcDbLine
 10
2740.281774158153
 20
-3446.289989592788
 30
0.0
 11
2737.763788278826
 21
-3446.289989592788
 31
0.0
  0
LINE
  5
72F9
330
1F
100
AcDbEntity
  8
SPOJOVACÍ
  6
Continuous
100
AcDbLine
 10
2742.501173606921
 20
-3448.989359755524
 30
0.0
 11
2739.980397200211
 21
-3448.989359755524
 31
0.0
  0
LINE
  5
72FA
330
1F
100
AcDbEntity
  8
SPOJOVACÍ
  6
Continuous
100
AcDbLine
 10
2743.414606238308
 20
-3446.289989592788
 30
0.0
 11
2740.886388425439
 21
-3446.289989592788
 31
0.0
  0
LINE
  5
72FB
330
1F
100
AcDbEntity
  8
SPOJOVACÍ
  6
Continuous
100
AcDbLine
 10
2737.983309766823
 20
-3445.61747249436
 30
0.0
 11
2736.623392753281
 21
-3449.661876853952
 31
0.0
  0
LINE
  5
72FC
330
1F
100
AcDbEntity
  8
SPOJOVACÍ
  6
Continuous
100
AcDbLine
 10
2737.387067081668
 20
-3445.61747249436
 30
0.0
 11
2736.027150068126
 21
-3449.661876853952
 31
0.0
  0
LINE
  5
72FD
330
1F
100
AcDbEntity
  8
SPOJOVACÍ
  6
Continuous
100
AcDbLine
 10
2737.604728217716
 20
-3445.239821119049
 30
0.0
 11
2736.404801441254
 21
-3450.039528224898
 31
0.0
  0
LINE
  5
72FE
330
1F
100
AcDbEntity
  8
SPOJOVACÍ
  6
Continuous
100
AcDbLine
 10
2739.379503636278
 20
-3448.989359755524
 30
0.0
 11
2736.86058758125
 21
-3448.989359755524
 31
0.0
  0
LINE
  5
72FF
330
1F
100
AcDbEntity
  8
SPOJOVACÍ
  6
Continuous
100
AcDbLine
 10
2759.685241258048
 20
-3442.53952078334
 30
0.0
 11
2759.685241258048
 21
-3452.739828560607
 31
0.0
  0
LINE
  5
7300
330
1F
100
AcDbEntity
  8
SPOJOVACÍ
  6
Continuous
100
AcDbLine
 10
2760.885168034779
 20
-3442.53952078334
 30
0.0
 11
2760.885168034779
 21
-3452.739828560607
 31
0.0
  0
LINE
  5
7301
330
1F
100
AcDbEntity
  8
SPOJOVACÍ
100
AcDbLine
 10
2703.662861527587
 20
-3392.477476751361
 30
0.0
 11
2703.662861527587
 21
-3391.600566129227
 31
0.0
  0
LINE
  5
7302
330
1F
100
AcDbEntity
  8
SPOJOVACÍ
100
AcDbLine
 10
2703.662861527587
 20
-3391.600566129227
 30
0.0
 11
2703.662861527587
 21
-3392.477476751361
 31
0.0
  0
LINE
  5
7303
330
1F
100
AcDbEntity
  8
SPOJOVACÍ
100
AcDbLine
 10
2703.662861527587
 20
-3393.042154495697
 30
0.0
 11
2703.662861527587
 21
-3391.600566129227
 31
0.0
  0
LINE
  5
7304
330
1F
100
AcDbEntity
  8
SPOJOVACÍ
100
AcDbLine
 10
2717.162861527588
 20
-3391.600566129227
 30
0.0
 11
2717.162861527588
 21
-3392.477476751361
 31
0.0
  0
LINE
  5
7305
330
1F
100
AcDbEntity
  8
SPOJOVACÍ
100
AcDbLine
 10
2717.162861527588
 20
-3393.042154495697
 30
0.0
 11
2717.162861527588
 21
-3391.600566129227
 31
0.0
  0
LINE
  5
7306
330
1F
100
AcDbEntity
  8
SPOJOVACÍ
100
AcDbLine
 10
2703.662861527587
 20
-3393.042154495697
 30
0.0
 11
2717.162861527588
 21
-3393.042154495697
 31
0.0
  0
LINE
  5
7307
330
1F
100
AcDbEntity
  8
SPOJOVACÍ
100
AcDbLine
 10
2703.662861527587
 20
-3391.600566129227
 30
0.0
 11
2717.162861527588
 21
-3391.600566129227
 31
0.0
  0
LINE
  5
730A
330
1F
100
AcDbEntity
  8
POPIS
100
AcDbLine
 10
2599.503205445627
 20
-3271.758684622192
 30
0.0
 11
2709.747896111739
 21
-3364.771454794552
 31
0.0
  0
LINE
  5
730B
330
1F
100
AcDbEntity
  8
POPIS
100
AcDbLine
 10
2676.063951154519
 20
-3385.634551793208
 30
0.0
 11
2598.09614445849
 21
-3335.92618118212
 31
0.0
  0
TEXT
  5
730E
330
1F
100
AcDbEntity
  8
POPIS
100
AcDbText
 10
2557.930632003769
 20
-3284.594881460014
 30
0.0
 40
25.0
  1
08
 41
0.85
  7
SIMPLEX7
100
AcDbText
  0
TEXT
  5
7310
330
1F
100
AcDbEntity
  8
POPIS
100
AcDbText
 10
2559.119778199645
 20
-3346.515283170915
 30
0.0
 40
25.0
  1
07
 41
0.85
  7
SIMPLEX7
100
AcDbText
  0
CIRCLE
  5
7326
330
1F
100
AcDbEntity
  8
STAVBA OBRYS
100
AcDbCircle
 10
2748.80543442773
 20
-3316.125388666298
 30
0.0
 40
30.75920541038431
  0
LINE
  5
73A4
330
1F
100
AcDbEntity
  8
SPOJOVACÍ
 48
0.25
100
AcDbLine
 10
2706.887395104113
 20
-3339.76567503622
 30
0.0
 11
2710.412861527587
 21
-3334.116234695504
 31
0.0
  0
LINE
  5
73A5
330
1F
100
AcDbEntity
  8
SPOJOVACÍ
 48
0.25
100
AcDbLine
 10
2713.938327951062
 20
-3339.765675036224
 30
0.0
 11
2710.412861527587
 21
-3334.116234695504
 31
0.0
  0
LINE
  5
73A6
330
1F
100
AcDbEntity
  8
SPOJOVACÍ
  6
Continuous
100
AcDbLine
 10
2709.171600066841
 20
-3339.662416927849
 30
0.0
 11
2711.606160804833
 21
-3338.843222731751
 31
0.0
  0
LINE
  5
73A7
330
1F
100
AcDbEntity
  8
SPOJOVACÍ
  6
Continuous
100
AcDbLine
 10
2711.995613781124
 20
-3339.233634953981
 30
0.0
 11
2711.606160804833
 21
-3338.843222731751
 31
0.0
  0
LINE
  5
73A8
330
1F
100
AcDbEntity
  8
SPOJOVACÍ
  6
Continuous
100
AcDbLine
 10
2709.364408068726
 20
-3336.778930096758
 30
0.0
 11
2709.753861045014
 21
-3336.553507806236
 31
0.0
  0
LINE
  5
73A9
330
1F
100
AcDbEntity
  8
SPOJOVACÍ
  6
Continuous
100
AcDbLine
 10
2709.364408068726
 20
-3336.778930096758
 30
0.0
 11
2709.753861045014
 21
-3337.168383075293
 31
0.0
  0
LINE
  5
73AA
330
1F
100
AcDbEntity
  8
SPOJOVACÍ
  6
Continuous
100
AcDbLine
 10
2711.586016683352
 20
-3336.458542671114
 30
0.0
 11
2711.196563707068
 21
-3336.068130448881
 31
0.0
  0
LINE
  5
73AB
330
1F
100
AcDbEntity
  8
SPOJOVACÍ
  6
Continuous
100
AcDbLine
 10
2711.586016683352
 20
-3336.458542671114
 30
0.0
 11
2711.196563707068
 21
-3336.683005717945
 31
0.0
  0
LINE
  5
73AC
330
1F
100
AcDbEntity
  8
SPOJOVACÍ
  6
Continuous
100
AcDbLine
 10
2709.753861045014
 20
-3336.553507806236
 30
0.0
 11
2711.196563707068
 21
-3336.068130448881
 31
0.0
  0
LINE
  5
73AD
330
1F
100
AcDbEntity
  8
SPOJOVACÍ
  6
Continuous
100
AcDbLine
 10
2709.753861045014
 20
-3337.168383075293
 30
0.0
 11
2711.196563707068
 21
-3336.683005717945
 31
0.0
  0
LINE
  5
73AE
330
1F
100
AcDbEntity
  8
SPOJOVACÍ
  6
Continuous
100
AcDbLine
 10
2709.364408068726
 20
-3336.778930096758
 30
0.0
 11
2711.586016683352
 21
-3336.458542671114
 31
0.0
  0
LINE
  5
73AF
330
1F
100
AcDbEntity
  8
SPOJOVACÍ
  6
Continuous
100
AcDbLine
 10
2707.566785204668
 20
-3356.449744130584
 30
0.0
 11
2708.014656132574
 21
-3356.191611627049
 31
0.0
  0
LINE
  5
73B0
330
1F
100
AcDbEntity
  8
SPOJOVACÍ
  6
Continuous
100
AcDbLine
 10
2707.566785204668
 20
-3356.449744130584
 30
0.0
 11
2708.014656132574
 21
-3356.898718186474
 31
0.0
  0
LINE
  5
73B1
330
1F
100
AcDbEntity
  8
SPOJOVACÍ
  6
Continuous
100
AcDbLine
 10
2713.258937850507
 20
-3358.422695883376
 30
0.0
 11
2712.811066927777
 21
-3357.974824958056
 31
0.0
  0
LINE
  5
73B2
330
1F
100
AcDbEntity
  8
SPOJOVACÍ
  6
Continuous
100
AcDbLine
 10
2713.258937850507
 20
-3358.422695883376
 30
0.0
 11
2712.811066927777
 21
-3358.681931517478
 31
0.0
  0
LINE
  5
73B3
330
1F
100
AcDbEntity
  8
SPOJOVACÍ
  6
Continuous
100
AcDbLine
 10
2708.014656132574
 20
-3356.898718186474
 30
0.0
 11
2712.811066927777
 21
-3355.285941603227
 31
0.0
  0
LINE
  5
73B4
330
1F
100
AcDbEntity
  8
SPOJOVACÍ
  6
Continuous
100
AcDbLine
 10
2708.199886107883
 20
-3342.995789096019
 30
0.0
 11
2708.590298329549
 21
-3342.770366805491
 31
0.0
  0
LINE
  5
73B5
330
1F
100
AcDbEntity
  8
SPOJOVACÍ
  6
Continuous
100
AcDbLine
 10
2708.199886107883
 20
-3342.995789096019
 30
0.0
 11
2708.590298329549
 21
-3343.385242074559
 31
0.0
  0
LINE
  5
73B6
330
1F
100
AcDbEntity
  8
SPOJOVACÍ
  6
Continuous
100
AcDbLine
 10
2708.782147086051
 20
-3339.886879974399
 30
0.0
 11
2709.171600066841
 21
-3339.662416927849
 31
0.0
  0
LINE
  5
73B7
330
1F
100
AcDbEntity
  8
SPOJOVACÍ
  6
Continuous
100
AcDbLine
 10
2708.782147086051
 20
-3339.886879974399
 30
0.0
 11
2709.171600066841
 21
-3340.277292196914
 31
0.0
  0
LINE
  5
73B8
330
1F
100
AcDbEntity
  8
SPOJOVACÍ
  6
Continuous
100
AcDbLine
 10
2709.171600066841
 20
-3340.277292196914
 30
0.0
 11
2711.606160804833
 21
-3339.458098000529
 31
0.0
  0
LINE
  5
73B9
330
1F
100
AcDbEntity
  8
SPOJOVACÍ
  6
Continuous
100
AcDbLine
 10
2707.566785204668
 20
-3346.261774387834
 30
0.0
 11
2708.014656132574
 21
-3346.003641884299
 31
0.0
  0
LINE
  5
73BA
330
1F
100
AcDbEntity
  8
SPOJOVACÍ
  6
Continuous
100
AcDbLine
 10
2707.566785204668
 20
-3346.261774387834
 30
0.0
 11
2708.014656132574
 21
-3346.710748443723
 31
0.0
  0
LINE
  5
73BB
330
1F
100
AcDbEntity
  8
SPOJOVACÍ
  6
Continuous
100
AcDbLine
 10
2707.566785204668
 20
-3349.657764302085
 30
0.0
 11
2708.014656132574
 21
-3350.106738357974
 31
0.0
  0
LINE
  5
73BC
330
1F
100
AcDbEntity
  8
SPOJOVACÍ
  6
Continuous
100
AcDbLine
 10
2707.566785204668
 20
-3349.657764302085
 30
0.0
 11
2708.014656132574
 21
-3349.399631798549
 31
0.0
  0
LINE
  5
73BD
330
1F
100
AcDbEntity
  8
SPOJOVACÍ
  6
Continuous
100
AcDbLine
 10
2707.566785204668
 20
-3353.053754216334
 30
0.0
 11
2708.014656132574
 21
-3352.795621712799
 31
0.0
  0
LINE
  5
73BE
330
1F
100
AcDbEntity
  8
SPOJOVACÍ
  6
Continuous
100
AcDbLine
 10
2707.566785204668
 20
-3353.053754216334
 30
0.0
 11
2708.014656132574
 21
-3353.502728272224
 31
0.0
  0
LINE
  5
73BF
330
1F
100
AcDbEntity
  8
SPOJOVACÍ
  6
Continuous
100
AcDbLine
 10
2712.454132312272
 20
-3341.99242009239
 30
0.0
 11
2712.064679335984
 21
-3341.602007869876
 31
0.0
  0
LINE
  5
73C0
330
1F
100
AcDbEntity
  8
SPOJOVACÍ
  6
Continuous
100
AcDbLine
 10
2712.454132312272
 20
-3341.99242009239
 30
0.0
 11
2712.064679335984
 21
-3342.21688313894
 31
0.0
  0
LINE
  5
73C1
330
1F
100
AcDbEntity
  8
SPOJOVACÍ
  6
Continuous
100
AcDbLine
 10
2713.258937850507
 20
-3344.838736226376
 30
0.0
 11
2712.811066927777
 21
-3344.390865301056
 31
0.0
  0
LINE
  5
73C2
330
1F
100
AcDbEntity
  8
SPOJOVACÍ
  6
Continuous
100
AcDbLine
 10
2713.258937850507
 20
-3344.838736226376
 30
0.0
 11
2712.811066927777
 21
-3345.097971860477
 31
0.0
  0
LINE
  5
73C3
330
1F
100
AcDbEntity
  8
SPOJOVACÍ
  6
Continuous
100
AcDbLine
 10
2713.258937850507
 20
-3348.234726140626
 30
0.0
 11
2712.811066927777
 21
-3348.493961774728
 31
0.0
  0
LINE
  5
73C4
330
1F
100
AcDbEntity
  8
SPOJOVACÍ
  6
Continuous
100
AcDbLine
 10
2713.258937850507
 20
-3348.234726140626
 30
0.0
 11
2712.811066927777
 21
-3347.786855215307
 31
0.0
  0
LINE
  5
73C5
330
1F
100
AcDbEntity
  8
SPOJOVACÍ
  6
Continuous
100
AcDbLine
 10
2713.258937850507
 20
-3351.630716054877
 30
0.0
 11
2712.811066927777
 21
-3351.182845129557
 31
0.0
  0
LINE
  5
73C6
330
1F
100
AcDbEntity
  8
SPOJOVACÍ
  6
Continuous
100
AcDbLine
 10
2713.258937850507
 20
-3351.630716054877
 30
0.0
 11
2712.811066927777
 21
-3351.889951688978
 31
0.0
  0
LINE
  5
73C7
330
1F
100
AcDbEntity
  8
SPOJOVACÍ
  6
Continuous
100
AcDbLine
 10
2713.258937850507
 20
-3355.026705969127
 30
0.0
 11
2712.811066927777
 21
-3354.578835043807
 31
0.0
  0
LINE
  5
73C8
330
1F
100
AcDbEntity
  8
SPOJOVACÍ
  6
Continuous
100
AcDbLine
 10
2708.590298329549
 20
-3342.770366805491
 30
0.0
 11
2712.064679335984
 21
-3341.602007869876
 31
0.0
  0
LINE
  5
73C9
330
1F
100
AcDbEntity
  8
SPOJOVACÍ
  6
Continuous
100
AcDbLine
 10
2708.590298329549
 20
-3343.385242074559
 30
0.0
 11
2712.064679335984
 21
-3342.21688313894
 31
0.0
  0
LINE
  5
73CA
330
1F
100
AcDbEntity
  8
SPOJOVACÍ
  6
Continuous
100
AcDbLine
 10
2708.199886107883
 20
-3342.995789096019
 30
0.0
 11
2712.454132312272
 21
-3341.99242009239
 31
0.0
  0
LINE
  5
73CB
330
1F
100
AcDbEntity
  8
SPOJOVACÍ
  6
Continuous
100
AcDbLine
 10
2711.995613781124
 20
-3339.233634953981
 30
0.0
 11
2711.606160804833
 21
-3339.458098000529
 31
0.0
  0
LINE
  5
73CC
330
1F
100
AcDbEntity
  8
SPOJOVACÍ
  6
Continuous
100
AcDbLine
 10
2708.782147086051
 20
-3339.886879974399
 30
0.0
 11
2711.995613781124
 21
-3339.233634953981
 31
0.0
  0
LINE
  5
73CD
330
1F
100
AcDbEntity
  8
SPOJOVACÍ
  6
Continuous
100
AcDbLine
 10
2707.566785204668
 20
-3346.261774387834
 30
0.0
 11
2713.258937850507
 21
-3344.838736226376
 31
0.0
  0
LINE
  5
73CE
330
1F
100
AcDbEntity
  8
SPOJOVACÍ
  6
Continuous
100
AcDbLine
 10
2708.014656132574
 20
-3346.003641884299
 30
0.0
 11
2712.811066927777
 21
-3344.390865301056
 31
0.0
  0
LINE
  5
73CF
330
1F
100
AcDbEntity
  8
SPOJOVACÍ
  6
Continuous
100
AcDbLine
 10
2708.014656132574
 20
-3346.710748443723
 30
0.0
 11
2712.811066927777
 21
-3345.097971860477
 31
0.0
  0
LINE
  5
73D0
330
1F
100
AcDbEntity
  8
SPOJOVACÍ
  6
Continuous
100
AcDbLine
 10
2708.014656132574
 20
-3350.106738357974
 30
0.0
 11
2712.811066927777
 21
-3348.493961774728
 31
0.0
  0
LINE
  5
73D1
330
1F
100
AcDbEntity
  8
SPOJOVACÍ
  6
Continuous
100
AcDbLine
 10
2708.014656132574
 20
-3349.399631798549
 30
0.0
 11
2712.811066927777
 21
-3347.786855215307
 31
0.0
  0
LINE
  5
73D2
330
1F
100
AcDbEntity
  8
SPOJOVACÍ
  6
Continuous
100
AcDbLine
 10
2707.566785204668
 20
-3349.657764302085
 30
0.0
 11
2713.258937850507
 21
-3348.234726140626
 31
0.0
  0
LINE
  5
73D3
330
1F
100
AcDbEntity
  8
SPOJOVACÍ
  6
Continuous
100
AcDbLine
 10
2707.566785204668
 20
-3353.053754216334
 30
0.0
 11
2713.258937850507
 21
-3351.630716054877
 31
0.0
  0
LINE
  5
73D4
330
1F
100
AcDbEntity
  8
SPOJOVACÍ
  6
Continuous
100
AcDbLine
 10
2708.014656132574
 20
-3352.795621712799
 30
0.0
 11
2712.811066927777
 21
-3351.182845129557
 31
0.0
  0
LINE
  5
73D5
330
1F
100
AcDbEntity
  8
SPOJOVACÍ
  6
Continuous
100
AcDbLine
 10
2708.014656132574
 20
-3353.502728272224
 30
0.0
 11
2712.811066927777
 21
-3351.889951688978
 31
0.0
  0
LINE
  5
73D6
330
1F
100
AcDbEntity
  8
SPOJOVACÍ
  6
DASHED
100
AcDbLine
 10
2710.412861527587
 20
-3335.03278527231
 30
0.0
 11
2708.701924027588
 21
-3347.738045396003
 31
0.0
  0
LINE
  5
73D7
330
1F
100
AcDbEntity
  8
SPOJOVACÍ
  6
DASHED
100
AcDbLine
 10
2710.412861527587
 20
-3335.03278527231
 30
0.0
 11
2712.123799027587
 21
-3347.738045396003
 31
0.0
  0
LINE
  5
73D8
330
1F
100
AcDbEntity
  8
SPOJOVACÍ
  6
Continuous
100
AcDbLine
 10
2707.566785204668
 20
-3356.449744130584
 30
0.0
 11
2713.258937850507
 21
-3355.026705969127
 31
0.0
  0
LINE
  5
73D9
330
1F
100
AcDbEntity
  8
SPOJOVACÍ
  6
Continuous
100
AcDbLine
 10
2713.258937850507
 20
-3355.026705969127
 30
0.0
 11
2712.811066927777
 21
-3355.285941603227
 31
0.0
  0
LINE
  5
73DA
330
1F
100
AcDbEntity
  8
SPOJOVACÍ
  6
Continuous
100
AcDbLine
 10
2708.014656132574
 20
-3356.191611627049
 30
0.0
 11
2712.811066927777
 21
-3354.578835043807
 31
0.0
  0
LINE
  5
73DB
330
1F
100
AcDbEntity
  8
SPOJOVACÍ
  6
Continuous
100
AcDbLine
 10
2707.566785204668
 20
-3359.845734044835
 30
0.0
 11
2708.014656132574
 21
-3359.587601541299
 31
0.0
  0
LINE
  5
73DC
330
1F
100
AcDbEntity
  8
SPOJOVACÍ
  6
Continuous
100
AcDbLine
 10
2707.566785204668
 20
-3359.845734044835
 30
0.0
 11
2708.014656132574
 21
-3360.294708100724
 31
0.0
  0
LINE
  5
73DD
330
1F
100
AcDbEntity
  8
SPOJOVACÍ
  6
Continuous
100
AcDbLine
 10
2713.258937850507
 20
-3361.818685797627
 30
0.0
 11
2712.811066927777
 21
-3361.370814872307
 31
0.0
  0
LINE
  5
73DE
330
1F
100
AcDbEntity
  8
SPOJOVACÍ
  6
Continuous
100
AcDbLine
 10
2713.258937850507
 20
-3361.818685797627
 30
0.0
 11
2712.811066927777
 21
-3362.077921431728
 31
0.0
  0
LINE
  5
73DF
330
1F
100
AcDbEntity
  8
SPOJOVACÍ
  6
Continuous
100
AcDbLine
 10
2713.258937850507
 20
-3365.214675711877
 30
0.0
 11
2712.811066927777
 21
-3364.766804786557
 31
0.0
  0
LINE
  5
73E0
330
1F
100
AcDbEntity
  8
SPOJOVACÍ
  6
Continuous
100
AcDbLine
 10
2708.014656132574
 20
-3366.3795813698
 30
0.0
 11
2712.811066927777
 21
-3364.766804786557
 31
0.0
  0
LINE
  5
73E1
330
1F
100
AcDbEntity
  8
SPOJOVACÍ
  6
Continuous
100
AcDbLine
 10
2707.566785204668
 20
-3363.241723959085
 30
0.0
 11
2708.014656132574
 21
-3362.98359145555
 31
0.0
  0
LINE
  5
73E2
330
1F
100
AcDbEntity
  8
SPOJOVACÍ
  6
Continuous
100
AcDbLine
 10
2707.566785204668
 20
-3363.241723959085
 30
0.0
 11
2708.014656132574
 21
-3363.690698014974
 31
0.0
  0
LINE
  5
73E3
330
1F
100
AcDbEntity
  8
SPOJOVACÍ
  6
Continuous
100
AcDbLine
 10
2707.566785207255
 20
-3383.617663443716
 30
0.0
 11
2708.014656135161
 21
-3383.359530940181
 31
0.0
  0
LINE
  5
73E4
330
1F
100
AcDbEntity
  8
SPOJOVACÍ
  6
Continuous
100
AcDbLine
 10
2707.566785207255
 20
-3383.617663443716
 30
0.0
 11
2708.014656135161
 21
-3384.066637499605
 31
0.0
  0
LINE
  5
73E5
330
1F
100
AcDbEntity
  8
SPOJOVACÍ
  6
Continuous
100
AcDbLine
 10
2707.566785207255
 20
-3387.013653357966
 30
0.0
 11
2708.014656135161
 21
-3386.755520854431
 31
0.0
  0
LINE
  5
73E6
330
1F
100
AcDbEntity
  8
SPOJOVACÍ
  6
Continuous
100
AcDbLine
 10
2707.566785207255
 20
-3387.013653357966
 30
0.0
 11
2708.014656135161
 21
-3387.462627413855
 31
0.0
  0
LINE
  5
73E7
330
1F
100
AcDbEntity
  8
SPOJOVACÍ
  6
Continuous
100
AcDbLine
 10
2713.258937853098
 20
-3382.194625282258
 30
0.0
 11
2712.811066930368
 21
-3381.746754356938
 31
0.0
  0
LINE
  5
73E8
330
1F
100
AcDbEntity
  8
SPOJOVACÍ
  6
Continuous
100
AcDbLine
 10
2713.258937853098
 20
-3382.194625282258
 30
0.0
 11
2712.811066930368
 21
-3382.453860916359
 31
0.0
  0
LINE
  5
73E9
330
1F
100
AcDbEntity
  8
SPOJOVACÍ
  6
Continuous
100
AcDbLine
 10
2713.258937853098
 20
-3385.590615196508
 30
0.0
 11
2712.811066930368
 21
-3385.142744271188
 31
0.0
  0
LINE
  5
73EA
330
1F
100
AcDbEntity
  8
SPOJOVACÍ
  6
Continuous
100
AcDbLine
 10
2713.258937853098
 20
-3385.590615196508
 30
0.0
 11
2712.811066930368
 21
-3385.849850830609
 31
0.0
  0
LINE
  5
73EB
330
1F
100
AcDbEntity
  8
SPOJOVACÍ
  6
Continuous
100
AcDbLine
 10
2707.566785207255
 20
-3383.617663443716
 30
0.0
 11
2713.258937853098
 21
-3382.194625282258
 31
0.0
  0
LINE
  5
73EC
330
1F
100
AcDbEntity
  8
SPOJOVACÍ
  6
Continuous
100
AcDbLine
 10
2708.014656135161
 20
-3383.359530940181
 30
0.0
 11
2712.811066930368
 21
-3381.746754356938
 31
0.0
  0
LINE
  5
73ED
330
1F
100
AcDbEntity
  8
SPOJOVACÍ
  6
Continuous
100
AcDbLine
 10
2708.014656135161
 20
-3384.066637499605
 30
0.0
 11
2712.811066930368
 21
-3382.453860916359
 31
0.0
  0
LINE
  5
73EE
330
1F
100
AcDbEntity
  8
SPOJOVACÍ
  6
Continuous
100
AcDbLine
 10
2707.566785207255
 20
-3387.013653357966
 30
0.0
 11
2713.258937853098
 21
-3385.590615196508
 31
0.0
  0
LINE
  5
73EF
330
1F
100
AcDbEntity
  8
SPOJOVACÍ
  6
Continuous
100
AcDbLine
 10
2708.014656135161
 20
-3386.755520854431
 30
0.0
 11
2712.811066930368
 21
-3385.142744271188
 31
0.0
  0
LINE
  5
73F0
330
1F
100
AcDbEntity
  8
SPOJOVACÍ
  6
Continuous
100
AcDbLine
 10
2708.014656135161
 20
-3387.462627413855
 30
0.0
 11
2712.811066930368
 21
-3385.849850830609
 31
0.0
  0
LINE
  5
73F1
330
1F
100
AcDbEntity
  8
SPOJOVACÍ
  6
Continuous
100
AcDbLine
 10
2707.566785204668
 20
-3366.637713873335
 30
0.0
 11
2708.014656132574
 21
-3366.3795813698
 31
0.0
  0
LINE
  5
73F2
330
1F
100
AcDbEntity
  8
SPOJOVACÍ
  6
Continuous
100
AcDbLine
 10
2707.566785204668
 20
-3366.637713873335
 30
0.0
 11
2708.014656132574
 21
-3367.086687929224
 31
0.0
  0
LINE
  5
73F3
330
1F
100
AcDbEntity
  8
SPOJOVACÍ
  6
Continuous
100
AcDbLine
 10
2707.566785204668
 20
-3370.033703787585
 30
0.0
 11
2708.014656132574
 21
-3369.77557128405
 31
0.0
  0
LINE
  5
73F4
330
1F
100
AcDbEntity
  8
SPOJOVACÍ
  6
Continuous
100
AcDbLine
 10
2707.566785204668
 20
-3370.033703787585
 30
0.0
 11
2708.014656132574
 21
-3370.482677843474
 31
0.0
  0
LINE
  5
73F5
330
1F
100
AcDbEntity
  8
SPOJOVACÍ
  6
Continuous
100
AcDbLine
 10
2707.566785204668
 20
-3373.429693701835
 30
0.0
 11
2708.014656132574
 21
-3373.878667757724
 31
0.0
  0
LINE
  5
73F6
330
1F
100
AcDbEntity
  8
SPOJOVACÍ
  6
Continuous
100
AcDbLine
 10
2707.566785204668
 20
-3373.429693701835
 30
0.0
 11
2708.014656132574
 21
-3373.171561198299
 31
0.0
  0
LINE
  5
73F7
330
1F
100
AcDbEntity
  8
SPOJOVACÍ
  6
Continuous
100
AcDbLine
 10
2713.258937850507
 20
-3365.214675711877
 30
0.0
 11
2712.811066927777
 21
-3365.473911345978
 31
0.0
  0
LINE
  5
73F8
330
1F
100
AcDbEntity
  8
SPOJOVACÍ
  6
Continuous
100
AcDbLine
 10
2713.258937850507
 20
-3368.610665626127
 30
0.0
 11
2712.811066927777
 21
-3368.162794700807
 31
0.0
  0
LINE
  5
73F9
330
1F
100
AcDbEntity
  8
SPOJOVACÍ
  6
Continuous
100
AcDbLine
 10
2713.258937850507
 20
-3368.610665626127
 30
0.0
 11
2712.811066927777
 21
-3368.869901260228
 31
0.0
  0
LINE
  5
73FA
330
1F
100
AcDbEntity
  8
SPOJOVACÍ
  6
Continuous
100
AcDbLine
 10
2713.258937850507
 20
-3375.402645454627
 30
0.0
 11
2712.811066927777
 21
-3375.661881088728
 31
0.0
  0
LINE
  5
73FB
330
1F
100
AcDbEntity
  8
SPOJOVACÍ
  6
Continuous
100
AcDbLine
 10
2713.258937850507
 20
-3375.402645454627
 30
0.0
 11
2712.811066927777
 21
-3374.954774529308
 31
0.0
  0
LINE
  5
73FC
330
1F
100
AcDbEntity
  8
SPOJOVACÍ
  6
Continuous
100
AcDbLine
 10
2713.258937850507
 20
-3372.006655540377
 30
0.0
 11
2712.811066927777
 21
-3372.265891174478
 31
0.0
  0
LINE
  5
73FD
330
1F
100
AcDbEntity
  8
SPOJOVACÍ
  6
Continuous
100
AcDbLine
 10
2713.258937850507
 20
-3372.006655540377
 30
0.0
 11
2712.811066927777
 21
-3371.558784615057
 31
0.0
  0
LINE
  5
73FE
330
1F
100
AcDbEntity
  8
SPOJOVACÍ
  6
Continuous
100
AcDbLine
 10
2707.566785204668
 20
-3366.637713873335
 30
0.0
 11
2713.258937850507
 21
-3365.214675711877
 31
0.0
  0
LINE
  5
73FF
330
1F
100
AcDbEntity
  8
SPOJOVACÍ
  6
Continuous
100
AcDbLine
 10
2708.014656132574
 20
-3367.086687929224
 30
0.0
 11
2712.811066927777
 21
-3365.473911345978
 31
0.0
  0
LINE
  5
7400
330
1F
100
AcDbEntity
  8
SPOJOVACÍ
  6
Continuous
100
AcDbLine
 10
2707.566785204668
 20
-3370.033703787585
 30
0.0
 11
2713.258937850507
 21
-3368.610665626127
 31
0.0
  0
LINE
  5
7401
330
1F
100
AcDbEntity
  8
SPOJOVACÍ
  6
Continuous
100
AcDbLine
 10
2708.014656132574
 20
-3369.77557128405
 30
0.0
 11
2712.811066927777
 21
-3368.162794700807
 31
0.0
  0
LINE
  5
7402
330
1F
100
AcDbEntity
  8
SPOJOVACÍ
  6
Continuous
100
AcDbLine
 10
2708.014656132574
 20
-3370.482677843474
 30
0.0
 11
2712.811066927777
 21
-3368.869901260228
 31
0.0
  0
LINE
  5
7403
330
1F
100
AcDbEntity
  8
SPOJOVACÍ
  6
Continuous
100
AcDbLine
 10
2708.014656132574
 20
-3377.274657671974
 30
0.0
 11
2712.811066927777
 21
-3375.661881088728
 31
0.0
  0
LINE
  5
7404
330
1F
100
AcDbEntity
  8
SPOJOVACÍ
  6
Continuous
100
AcDbLine
 10
2708.014656132574
 20
-3376.56755111255
 30
0.0
 11
2712.811066927777
 21
-3374.954774529308
 31
0.0
  0
LINE
  5
7405
330
1F
100
AcDbEntity
  8
SPOJOVACÍ
  6
Continuous
100
AcDbLine
 10
2707.566785204668
 20
-3376.825683616085
 30
0.0
 11
2713.258937850507
 21
-3375.402645454627
 31
0.0
  0
LINE
  5
7406
330
1F
100
AcDbEntity
  8
SPOJOVACÍ
  6
Continuous
100
AcDbLine
 10
2708.014656132574
 20
-3373.878667757724
 30
0.0
 11
2712.811066927777
 21
-3372.265891174478
 31
0.0
  0
LINE
  5
7407
330
1F
100
AcDbEntity
  8
SPOJOVACÍ
  6
Continuous
100
AcDbLine
 10
2708.014656132574
 20
-3373.171561198299
 30
0.0
 11
2712.811066927777
 21
-3371.558784615057
 31
0.0
  0
LINE
  5
7408
330
1F
100
AcDbEntity
  8
SPOJOVACÍ
  6
Continuous
100
AcDbLine
 10
2707.566785204668
 20
-3373.429693701835
 30
0.0
 11
2713.258937850507
 21
-3372.006655540377
 31
0.0
  0
LINE
  5
7409
330
1F
100
AcDbEntity
  8
SPOJOVACÍ
  6
Continuous
100
AcDbLine
 10
2707.566785207255
 20
-3380.221673529466
 30
0.0
 11
2708.014656135161
 21
-3380.670647585355
 31
0.0
  0
LINE
  5
740A
330
1F
100
AcDbEntity
  8
SPOJOVACÍ
  6
Continuous
100
AcDbLine
 10
2707.566785207255
 20
-3380.221673529466
 30
0.0
 11
2708.014656135161
 21
-3379.96354102593
 31
0.0
  0
LINE
  5
740B
330
1F
100
AcDbEntity
  8
SPOJOVACÍ
  6
Continuous
100
AcDbLine
 10
2707.566785204668
 20
-3376.825683616085
 30
0.0
 11
2708.014656132574
 21
-3377.274657671974
 31
0.0
  0
LINE
  5
740C
330
1F
100
AcDbEntity
  8
SPOJOVACÍ
  6
Continuous
100
AcDbLine
 10
2707.566785204668
 20
-3376.825683616085
 30
0.0
 11
2708.014656132574
 21
-3376.56755111255
 31
0.0
  0
LINE
  5
740D
330
1F
100
AcDbEntity
  8
SPOJOVACÍ
  6
Continuous
100
AcDbLine
 10
2713.258937853098
 20
-3378.798635368008
 30
0.0
 11
2712.811066930368
 21
-3379.057871002109
 31
0.0
  0
LINE
  5
740E
330
1F
100
AcDbEntity
  8
SPOJOVACÍ
  6
Continuous
100
AcDbLine
 10
2713.258937853098
 20
-3378.798635368008
 30
0.0
 11
2712.811066930368
 21
-3378.350764442688
 31
0.0
  0
LINE
  5
740F
330
1F
100
AcDbEntity
  8
SPOJOVACÍ
  6
Continuous
100
AcDbLine
 10
2708.014656135161
 20
-3380.670647585355
 30
0.0
 11
2712.811066930368
 21
-3379.057871002109
 31
0.0
  0
LINE
  5
7410
330
1F
100
AcDbEntity
  8
SPOJOVACÍ
  6
Continuous
100
AcDbLine
 10
2708.014656135161
 20
-3379.96354102593
 30
0.0
 11
2712.811066930368
 21
-3378.350764442688
 31
0.0
  0
LINE
  5
7411
330
1F
100
AcDbEntity
  8
SPOJOVACÍ
  6
Continuous
100
AcDbLine
 10
2707.566785207255
 20
-3380.221673529466
 30
0.0
 11
2713.258937853098
 21
-3378.798635368008
 31
0.0
  0
INSERT
  5
7412
330
1F
100
AcDbEntity
  8
POPIS
100
AcDbBlockReference
  2
E_PUNKT
 10
2709.776964442611
 20
-3364.79906517018
 30
0.0
 50
90.0
  0
LINE
  5
7413
330
1F
100
AcDbEntity
  8
SPOJOVACÍ
  6
Continuous
100
AcDbLine
 10
2707.566785204668
 20
-3363.241723959085
 30
0.0
 11
2713.258937850507
 21
-3361.818685797627
 31
0.0
  0
LINE
  5
7414
330
1F
100
AcDbEntity
  8
SPOJOVACÍ
  6
Continuous
100
AcDbLine
 10
2708.014656132574
 20
-3362.98359145555
 30
0.0
 11
2712.811066927777
 21
-3361.370814872307
 31
0.0
  0
LINE
  5
7415
330
1F
100
AcDbEntity
  8
SPOJOVACÍ
  6
Continuous
100
AcDbLine
 10
2708.014656132574
 20
-3363.690698014974
 30
0.0
 11
2712.811066927777
 21
-3362.077921431728
 31
0.0
  0
LINE
  5
7416
330
1F
100
AcDbEntity
  8
izolace
100
AcDbLine
 10
2686.412006890423
 20
-3384.646076280975
 30
0.0
 11
2748.448281746489
 21
-3384.646076280975
 31
0.0
  0
LINE
  5
7417
330
1F
100
AcDbEntity
  8
izolace
100
AcDbLine
 10
2686.412006890423
 20
-3386.646076280979
 30
0.0
 11
2748.448281746489
 21
-3386.646076280979
 31
0.0
  0
HATCH
  5
7418
330
1F
100
AcDbEntity
  8
izolace
100
AcDbHatch
 10
0.0
 20
0.0
 30
0.0
210
0.0
220
0.0
230
1.0
  2
SOLID
 70
     1
 71
     0
 91
        4
 92
        7
 72
     0
 73
     1
 93
        4
 10
2673.885105476587
 20
-3386.646076280979
 10
2686.386182483562
 20
-3386.646076280979
 10
2686.386182483562
 20
-3384.646076280975
 10
2673.885105476587
 20
-3384.646076280975
 97
        0
 92
        7
 72
     0
 73
     1
 93
        4
 10
2694.042893398159
 20
-3386.646076280979
 10
2706.543970405137
 20
-3386.646076280979
 10
2706.543970405137
 20
-3384.646076280975
 10
2694.042893398159
 20
-3384.646076280975
 97
        0
 92
        7
 72
     0
 73
     1
 93
        4
 10
2714.777129419789
 20
-3386.646076280979
 10
2727.278206426767
 20
-3386.646076280979
 10
2727.278206426767
 20
-3384.646076280975
 10
2714.777129419789
 20
-3384.646076280975
 97
        0
 92
        7
 72
     1
 73
     1
 93
        7
 10
2735.921380332653
 20
-3386.167150618858
 42
0.0
 10
2735.921380332653
 20
-3386.646076280979
 42
0.0
 10
2748.422457339628
 20
-3386.646076280979
 42
0.0
 10
2748.422457339628
 20
-3384.646076280975
 42
0.0
 10
2736.157768326907
 20
-3384.646076280975
 42
0.0
 10
2735.921380332653
 20
-3384.804683653056
 42
0.0
 10
2735.921380332653
 20
-3384.880356195045
 42
-0.2771233679601331
 97
        0
 75
     0
 76
     1
 47
0.1334780420591298
 98
        4
 10
2679.105881048064
 20
-3385.344087172432
 10
2694.867967380373
 20
-3385.344087172432
 10
2721.850525016579
 20
-3385.344087172432
 10
2740.150576075489
 20
-3385.344087172432
  0
LINE
  5
7419
330
1F
100
AcDbEntity
  8
SPOJOVACÍ
  6
Continuous
100
AcDbLine
 10
2707.566785204668
 20
-3359.845734044835
 30
0.0
 11
2713.258937850507
 21
-3358.422695883376
 31
0.0
  0
LINE
  5
741A
330
1F
100
AcDbEntity
  8
SPOJOVACÍ
  6
Continuous
100
AcDbLine
 10
2708.014656132574
 20
-3359.587601541299
 30
0.0
 11
2712.811066927777
 21
-3357.974824958056
 31
0.0
  0
LINE
  5
741B
330
1F
100
AcDbEntity
  8
SPOJOVACÍ
  6
Continuous
100
AcDbLine
 10
2708.014656132574
 20
-3360.294708100724
 30
0.0
 11
2712.811066927777
 21
-3358.681931517478
 31
0.0
  0
LINE
  5
741C
330
1F
100
AcDbEntity
  8
SPOJOVACÍ
  6
DASHED
100
AcDbLine
 10
2708.701924027588
 20
-3347.629746454413
 30
0.0
 11
2708.701924027588
 21
-3388.417931826652
 31
0.0
  0
LINE
  5
741D
330
1F
100
AcDbEntity
  8
SPOJOVACÍ
  6
DASHED
100
AcDbLine
 10
2712.123799027587
 20
-3347.629746454413
 30
0.0
 11
2712.123799027587
 21
-3388.417931826649
 31
0.0
  0
LINE
  5
741E
330
1F
100
AcDbEntity
  8
SPOJOVACÍ
  6
CIKCAK
 48
0.25
100
AcDbLine
 10
2706.887395104113
 20
-3387.230060851555
 30
0.0
 11
2706.887395104113
 21
-3339.76567503622
 31
0.0
  0
LINE
  5
741F
330
1F
100
AcDbEntity
  8
SPOJOVACÍ
  6
CIKCAK
 48
0.25
100
AcDbLine
 10
2713.938327951062
 20
-3387.230060851555
 30
0.0
 11
2713.938327951062
 21
-3339.765675036224
 31
0.0
  0
TEXT
  5
744D
330
1F
100
AcDbEntity
  8
POPIS
100
AcDbText
 10
2973.978826918213
 20
-3649.674366522663
 30
0.0
 40
25.0
  1
06
 41
0.85
  7
SIMPLEX7
100
AcDbText
  0
TEXT
  5
744E
330
1F
100
AcDbEntity
  8
POPIS
100
AcDbText
 10
3028.322530077955
 20
-3649.674366522663
 30
0.0
 40
25.0
  1
Tmel DEXAFLAMM - R
 41
0.7
  7
SIMPLEX7
100
AcDbText
  0
LINE
  5
744F
102
{ACAD_REACTORS
330
7A9C
102
}
330
1F
100
AcDbEntity
  8
CETRIS
100
AcDbLine
 10
2772.885168034779
 20
-3401.401199996911
 30
0.0
 11
2772.885168034777
 21
-3703.944604014144
 31
0.0
  0
TEXT
  5
7451
330
1F
100
AcDbEntity
  8
POPIS
100
AcDbText
 10
3028.322530077955
 20
-3683.927759061862
 30
0.0
 40
25.0
  1
Podtmelení profilu (papír SIBRAL)
 41
0.7
  7
SIMPLEX7
100
AcDbText
  0
LINE
  5
7453
102
{ACAD_REACTORS
330
7A9C
102
}
330
1F
100
AcDbEntity
  8
CETRIS
100
AcDbLine
 10
2772.885168034776
 20
-3754.026515794687
 30
0.0
 11
2772.885168034775
 21
-3884.432903576456
 31
0.0
  0
TEXT
  5
7454
330
1F
100
AcDbEntity
  8
POPIS
100
AcDbText
 10
2848.123724150238
 20
-3923.480796753031
 30
0.0
 40
25.0
  1
02
 41
0.85
  7
SIMPLEX7
100
AcDbText
  0
LINE
  5
7455
102
{ACAD_REACTORS
330
7A9C
102
}
330
1F
100
AcDbEntity
  8
SPOJOVACÍ
  6
Continuous
100
AcDbLine
 10
2772.885168034772
 20
-3916.582271387418
 30
0.0
 11
2771.68524125804
 21
-3916.582271387418
 31
0.0
  0
LINE
  5
7456
102
{ACAD_REACTORS
330
7A9C
102
}
330
1F
100
AcDbEntity
  8
SPOJOVACÍ
  6
Continuous
100
AcDbLine
 10
2771.68524125804
 20
-3916.582271387418
 30
0.0
 11
2770.941100621566
 21
-3915.232586303867
 31
0.0
  0
LINE
  5
7457
102
{ACAD_REACTORS
330
7A9C
102
}
330
1F
100
AcDbEntity
  8
SPOJOVACÍ
  6
Continuous
100
AcDbLine
 10
2770.941100621566
 20
-3915.232586303867
 30
0.0
 11
2769.872328632154
 21
-3914.121956403509
 31
0.0
  0
LINE
  5
7458
102
{ACAD_REACTORS
330
7A9C
102
}
330
1F
100
AcDbEntity
  8
SPOJOVACÍ
  6
Continuous
100
AcDbLine
 10
2769.872328632154
 20
-3914.121956403509
 30
0.0
 11
2768.553339353856
 21
-3913.32572592419
 31
0.0
  0
LINE
  5
7459
102
{ACAD_REACTORS
330
7A9C
102
}
330
1F
100
AcDbEntity
  8
SPOJOVACÍ
  6
Continuous
100
AcDbLine
 10
2768.553339353856
 20
-3913.32572592419
 30
0.0
 11
2767.072499486806
 21
-3912.897845059891
 31
0.0
  0
LINE
  5
745A
102
{ACAD_REACTORS
330
7A9C
102
}
330
1F
100
AcDbEntity
  8
SPOJOVACÍ
  6
Continuous
100
AcDbLine
 10
2767.809198717113
 20
-3909.90546952435
 30
0.0
 11
2769.223065926816
 21
-3909.292483675202
 31
0.0
  0
LINE
  5
745B
102
{ACAD_REACTORS
330
7A9C
102
}
330
1F
100
AcDbEntity
  8
SPOJOVACÍ
  6
Continuous
100
AcDbLine
 10
2769.223065926816
 20
-3909.292483675202
 30
0.0
 11
2770.430434109715
 21
-3908.334402605218
 31
0.0
  0
LINE
  5
745C
102
{ACAD_REACTORS
330
7A9C
102
}
330
1F
100
AcDbEntity
  8
SPOJOVACÍ
  6
Continuous
100
AcDbLine
 10
2770.430434109715
 20
-3908.334402605218
 30
0.0
 11
2771.348517620157
 21
-3907.097268796318
 31
0.0
  0
LINE
  5
745D
102
{ACAD_REACTORS
330
7A9C
102
}
330
1F
100
AcDbEntity
  8
SPOJOVACÍ
  6
Continuous
100
AcDbLine
 10
2771.348517620157
 20
-3907.097268796318
 30
0.0
 11
2771.68524125804
 21
-3906.38196361015
 31
0.0
  0
LINE
  5
745E
102
{ACAD_REACTORS
330
7A9C
102
}
330
1F
100
AcDbEntity
  8
SPOJOVACÍ
  6
Continuous
100
AcDbLine
 10
2772.885168034772
 20
-3906.38196361015
 30
0.0
 11
2771.68524125804
 21
-3906.38196361015
 31
0.0
  0
INSERT
  5
745F
330
1F
100
AcDbEntity
  8
POPIS
100
AcDbBlockReference
  2
E_PUNKT
 10
2773.193241826588
 20
-3910.337774150291
 30
0.0
 50
270.0
  0
LINE
  5
7460
330
1F
100
AcDbEntity
  8
SPOJOVACÍ
  6
Continuous
100
AcDbLine
 10
2772.885168034772
 20
-3916.582271387418
 30
0.0
 11
2772.885168034772
 21
-3906.38196361015
 31
0.0
  0
LINE
  5
7461
330
1F
100
AcDbEntity
  8
SPOJOVACÍ
  6
Continuous
100
AcDbLine
 10
2771.68524125804
 20
-3916.582271387418
 30
0.0
 11
2771.68524125804
 21
-3906.38196361015
 31
0.0
  0
LINE
  5
7462
330
1F
100
AcDbEntity
  8
POPIS
100
AcDbLine
 10
2842.967512938946
 20
-3910.204980990614
 30
0.0
 11
2773.273496416633
 21
-3910.204980990614
 31
0.0
  0
TEXT
  5
7463
330
1F
100
AcDbEntity
  8
POPIS
100
AcDbText
 10
2848.123724150238
 20
-3762.171299873894
 30
0.0
 40
25.0
  1
06
 41
0.85
  7
SIMPLEX7
100
AcDbText
  0
LINE
  5
7464
102
{ACAD_REACTORS
330
7A9C
102
}
330
1F
100
AcDbEntity
  8
SPOJOVACÍ
  6
Continuous
100
AcDbLine
 10
2772.885168034772
 20
-3780.773675479901
 30
0.0
 11
2771.68524125804
 21
-3780.773675479901
 31
0.0
  0
LINE
  5
7465
102
{ACAD_REACTORS
330
7A9C
102
}
330
1F
100
AcDbEntity
  8
SPOJOVACÍ
  6
Continuous
100
AcDbLine
 10
2771.348517620157
 20
-3780.058370293733
 30
0.0
 11
2771.68524125804
 21
-3780.773675479901
 31
0.0
  0
LINE
  5
7466
102
{ACAD_REACTORS
330
7A9C
102
}
330
1F
100
AcDbEntity
  8
SPOJOVACÍ
  6
Continuous
100
AcDbLine
 10
2770.430434109715
 20
-3778.821236484834
 30
0.0
 11
2771.348517620157
 21
-3780.058370293733
 31
0.0
  0
LINE
  5
7467
102
{ACAD_REACTORS
330
7A9C
102
}
330
1F
100
AcDbEntity
  8
SPOJOVACÍ
  6
Continuous
100
AcDbLine
 10
2769.223065926816
 20
-3777.863155414849
 30
0.0
 11
2770.430434109715
 21
-3778.821236484834
 31
0.0
  0
LINE
  5
7468
102
{ACAD_REACTORS
330
7A9C
102
}
330
1F
100
AcDbEntity
  8
SPOJOVACÍ
  6
Continuous
100
AcDbLine
 10
2767.809198717113
 20
-3777.250169565702
 30
0.0
 11
2769.223065926816
 21
-3777.863155414849
 31
0.0
  0
LINE
  5
7469
102
{ACAD_REACTORS
330
7A9C
102
}
330
1F
100
AcDbEntity
  8
SPOJOVACÍ
  6
Continuous
100
AcDbLine
 10
2768.553339353856
 20
-3773.829913165861
 30
0.0
 11
2767.072499486806
 21
-3774.257794030161
 31
0.0
  0
LINE
  5
746A
102
{ACAD_REACTORS
330
7A9C
102
}
330
1F
100
AcDbEntity
  8
SPOJOVACÍ
  6
Continuous
100
AcDbLine
 10
2769.872328632154
 20
-3773.033682686543
 30
0.0
 11
2768.553339353856
 21
-3773.829913165861
 31
0.0
  0
LINE
  5
746B
102
{ACAD_REACTORS
330
7A9C
102
}
330
1F
100
AcDbEntity
  8
SPOJOVACÍ
  6
Continuous
100
AcDbLine
 10
2770.941100621566
 20
-3771.923052786184
 30
0.0
 11
2769.872328632154
 21
-3773.033682686543
 31
0.0
  0
LINE
  5
746C
102
{ACAD_REACTORS
330
7A9C
102
}
330
1F
100
AcDbEntity
  8
SPOJOVACÍ
  6
Continuous
100
AcDbLine
 10
2771.68524125804
 20
-3770.573367702633
 30
0.0
 11
2770.941100621566
 21
-3771.923052786184
 31
0.0
  0
LINE
  5
746D
102
{ACAD_REACTORS
330
7A9C
102
}
330
1F
100
AcDbEntity
  8
SPOJOVACÍ
  6
Continuous
100
AcDbLine
 10
2772.885168034772
 20
-3770.573367702633
 30
0.0
 11
2771.68524125804
 21
-3770.573367702633
 31
0.0
  0
LINE
  5
746E
102
{ACAD_REACTORS
330
7A9C
102
}
330
1F
100
AcDbEntity
  8
SPOJOVACÍ
  6
Continuous
100
AcDbLine
 10
2772.885168034772
 20
-3732.425686725644
 30
0.0
 11
2771.68524125804
 21
-3732.425686725644
 31
0.0
  0
LINE
  5
746F
102
{ACAD_REACTORS
330
7A9C
102
}
330
1F
100
AcDbEntity
  8
SPOJOVACÍ
  6
Continuous
100
AcDbLine
 10
2771.68524125804
 20
-3732.425686725644
 30
0.0
 11
2770.941100621566
 21
-3731.076001642093
 31
0.0
  0
LINE
  5
7470
102
{ACAD_REACTORS
330
7A9C
102
}
330
1F
100
AcDbEntity
  8
SPOJOVACÍ
  6
Continuous
100
AcDbLine
 10
2770.941100621566
 20
-3731.076001642093
 30
0.0
 11
2769.872328632154
 21
-3729.965371741735
 31
0.0
  0
LINE
  5
7471
102
{ACAD_REACTORS
330
7A9C
102
}
330
1F
100
AcDbEntity
  8
SPOJOVACÍ
  6
Continuous
100
AcDbLine
 10
2769.872328632154
 20
-3729.965371741735
 30
0.0
 11
2768.553339353856
 21
-3729.169141262417
 31
0.0
  0
LINE
  5
7472
102
{ACAD_REACTORS
330
7A9C
102
}
330
1F
100
AcDbEntity
  8
SPOJOVACÍ
  6
Continuous
100
AcDbLine
 10
2768.553339353856
 20
-3729.169141262417
 30
0.0
 11
2767.072499486806
 21
-3728.741260398117
 31
0.0
  0
LINE
  5
7473
102
{ACAD_REACTORS
330
7A9C
102
}
330
1F
100
AcDbEntity
  8
SPOJOVACÍ
  6
Continuous
100
AcDbLine
 10
2767.809198717113
 20
-3725.748884862576
 30
0.0
 11
2769.223065926816
 21
-3725.135899013428
 31
0.0
  0
LINE
  5
7474
102
{ACAD_REACTORS
330
7A9C
102
}
330
1F
100
AcDbEntity
  8
SPOJOVACÍ
  6
Continuous
100
AcDbLine
 10
2769.223065926816
 20
-3725.135899013428
 30
0.0
 11
2770.430434109715
 21
-3724.177817943444
 31
0.0
  0
LINE
  5
7475
102
{ACAD_REACTORS
330
7A9C
102
}
330
1F
100
AcDbEntity
  8
SPOJOVACÍ
  6
Continuous
100
AcDbLine
 10
2770.430434109715
 20
-3724.177817943444
 30
0.0
 11
2771.348517620157
 21
-3722.940684134544
 31
0.0
  0
LINE
  5
7476
102
{ACAD_REACTORS
330
7A9C
102
}
330
1F
100
AcDbEntity
  8
SPOJOVACÍ
  6
Continuous
100
AcDbLine
 10
2771.348517620157
 20
-3722.940684134544
 30
0.0
 11
2771.68524125804
 21
-3722.225378948376
 31
0.0
  0
LINE
  5
7477
102
{ACAD_REACTORS
330
7A9C
102
}
330
1F
100
AcDbEntity
  8
SPOJOVACÍ
  6
Continuous
100
AcDbLine
 10
2772.885168034772
 20
-3722.225378948376
 30
0.0
 11
2771.68524125804
 21
-3722.225378948376
 31
0.0
  0
LINE
  5
7478
330
1F
100
AcDbEntity
  8
SPOJOVACÍ
  6
Continuous
100
AcDbLine
 10
2771.68524125804
 20
-3732.425686725644
 30
0.0
 11
2771.68524125804
 21
-3722.225378948376
 31
0.0
  0
LINE
  5
7479
330
1F
100
AcDbEntity
  8
SPOJOVACÍ
  6
Continuous
100
AcDbLine
 10
2772.885168034772
 20
-3732.425686725644
 30
0.0
 11
2772.885168034772
 21
-3722.225378948376
 31
0.0
  0
LINE
  5
747A
330
1F
100
AcDbEntity
  8
izolace
100
AcDbLine
 10
2772.88516803478
 20
-3754.026515794687
 30
0.0
 11
2772.88516803478
 21
-3749.026515794684
 31
0.0
  0
LINE
  5
747B
330
1F
100
AcDbEntity
  8
SPOJOVACÍ
  6
Continuous
100
AcDbLine
 10
2771.68524125804
 20
-3770.573367702633
 30
0.0
 11
2771.68524125804
 21
-3780.773675479901
 31
0.0
  0
LINE
  5
747C
330
1F
100
AcDbEntity
  8
SPOJOVACÍ
  6
Continuous
100
AcDbLine
 10
2772.885168034772
 20
-3770.573367702633
 30
0.0
 11
2772.885168034772
 21
-3780.773675479901
 31
0.0
  0
LINE
  5
747D
102
{ACAD_REACTORS
330
7A9C
102
}
330
1F
100
AcDbEntity
  8
CETRIS
100
AcDbLine
 10
2772.885168034777
 20
-3708.883741729277
 30
0.0
 11
2772.885168034776
 21
-3749.026515794684
 31
0.0
  0
LINE
  5
747E
330
1F
100
AcDbEntity
  8
POPIS
100
AcDbLine
 10
2842.967512938946
 20
-3751.478070339822
 30
0.0
 11
2769.4432582847
 21
-3751.478070339822
 31
0.0
  0
LINE
  5
747F
102
{ACAD_REACTORS
330
7A9C
102
}
330
1F
100
AcDbEntity
  8
SPOJOVACÍ
  6
Continuous
100
AcDbLine
 10
2772.885168034772
 20
-3629.170948745429
 30
0.0
 11
2771.68524125804
 21
-3629.170948745429
 31
0.0
  0
LINE
  5
7480
102
{ACAD_REACTORS
330
7A9C
102
}
330
1F
100
AcDbEntity
  8
SPOJOVACÍ
  6
Continuous
100
AcDbLine
 10
2771.68524125804
 20
-3629.170948745429
 30
0.0
 11
2770.941100621566
 21
-3627.821263661878
 31
0.0
  0
LINE
  5
7481
102
{ACAD_REACTORS
330
7A9C
102
}
330
1F
100
AcDbEntity
  8
SPOJOVACÍ
  6
Continuous
100
AcDbLine
 10
2770.941100621566
 20
-3627.821263661878
 30
0.0
 11
2769.872328632154
 21
-3626.710633761519
 31
0.0
  0
LINE
  5
7482
102
{ACAD_REACTORS
330
7A9C
102
}
330
1F
100
AcDbEntity
  8
SPOJOVACÍ
  6
Continuous
100
AcDbLine
 10
2769.872328632154
 20
-3626.710633761519
 30
0.0
 11
2768.553339353856
 21
-3625.914403282201
 31
0.0
  0
LINE
  5
7483
102
{ACAD_REACTORS
330
7A9C
102
}
330
1F
100
AcDbEntity
  8
SPOJOVACÍ
  6
Continuous
100
AcDbLine
 10
2768.553339353856
 20
-3625.914403282201
 30
0.0
 11
2767.072499486806
 21
-3625.486522417902
 31
0.0
  0
LINE
  5
7484
102
{ACAD_REACTORS
330
7A9C
102
}
330
1F
100
AcDbEntity
  8
SPOJOVACÍ
  6
Continuous
100
AcDbLine
 10
2767.809198717113
 20
-3622.494146882361
 30
0.0
 11
2769.223065926816
 21
-3621.881161033213
 31
0.0
  0
LINE
  5
7485
102
{ACAD_REACTORS
330
7A9C
102
}
330
1F
100
AcDbEntity
  8
SPOJOVACÍ
  6
Continuous
100
AcDbLine
 10
2769.223065926816
 20
-3621.881161033213
 30
0.0
 11
2770.430434109715
 21
-3620.923079963228
 31
0.0
  0
LINE
  5
7486
102
{ACAD_REACTORS
330
7A9C
102
}
330
1F
100
AcDbEntity
  8
SPOJOVACÍ
  6
Continuous
100
AcDbLine
 10
2770.430434109715
 20
-3620.923079963228
 30
0.0
 11
2771.348517620157
 21
-3619.685946154329
 31
0.0
  0
LINE
  5
7487
102
{ACAD_REACTORS
330
7A9C
102
}
330
1F
100
AcDbEntity
  8
SPOJOVACÍ
  6
Continuous
100
AcDbLine
 10
2771.348517620157
 20
-3619.685946154329
 30
0.0
 11
2771.68524125804
 21
-3618.970640968161
 31
0.0
  0
LINE
  5
7488
102
{ACAD_REACTORS
330
7A9C
102
}
330
1F
100
AcDbEntity
  8
SPOJOVACÍ
  6
Continuous
100
AcDbLine
 10
2772.885168034772
 20
-3618.970640968161
 30
0.0
 11
2771.68524125804
 21
-3618.970640968161
 31
0.0
  0
LINE
  5
7489
330
1F
100
AcDbEntity
  8
SPOJOVACÍ
  6
Continuous
100
AcDbLine
 10
2772.885168034772
 20
-3629.170948745429
 30
0.0
 11
2772.885168034772
 21
-3618.970640968161
 31
0.0
  0
LINE
  5
748A
330
1F
100
AcDbEntity
  8
SPOJOVACÍ
  6
Continuous
100
AcDbLine
 10
2771.68524125804
 20
-3629.170948745429
 30
0.0
 11
2771.68524125804
 21
-3618.970640968161
 31
0.0
  0
TEXT
  5
748B
330
1F
100
AcDbEntity
  8
POPIS
100
AcDbText
 10
2973.978826918213
 20
-3717.092957425662
 30
0.0
 40
25.0
  1
08
 41
0.85
  7
SIMPLEX7
100
AcDbText
  0
TEXT
  5
748D
330
1F
100
AcDbEntity
  8
POPIS
100
AcDbText
 10
3028.322530077955
 20
-3717.092957425662
 30
0.0
 40
25.0
  1
Hmoždinka
 41
0.7
  7
SIMPLEX7
100
AcDbText
  0
TEXT
  5
748E
330
1F
100
AcDbEntity
  8
POPIS
100
AcDbText
 10
2973.978826918213
 20
-3683.927759061862
 30
0.0
 40
25.0
  1
07
 41
0.85
  7
SIMPLEX7
100
AcDbText
  0
TEXT
  5
748F
330
1F
100
AcDbEntity
  8
POPIS
100
AcDbText
 10
3028.322530077955
 20
-3438.288588971883
 30
0.0
 40
25.0
  1
Deska CETRIS   
 41
0.7
  7
SIMPLEX7
100
AcDbText
  0
TEXT
  5
7490
330
1F
100
AcDbEntity
  8
POPIS
100
AcDbText
 10
3028.322530077955
 20
-3578.953554980486
 30
0.0
 40
25.0
  1
CW profil (ocelový nosník I, U) - stojina
 41
0.7
  7
SIMPLEX7
100
AcDbText
  0
TEXT
  5
7491
330
1F
100
AcDbEntity
  8
POPIS
100
AcDbText
 10
3028.322530077955
 20
-3543.549393762323
 30
0.0
 40
25.0
  1
Vzduchová mezera
 41
0.7
  7
SIMPLEX7
100
AcDbText
  0
TEXT
  5
7492
330
1F
100
AcDbEntity
  8
POPIS
100
AcDbText
 10
3028.322530077955
 20
-3474.883600587511
 30
0.0
 40
25.0
  1
Vrut 4,2x35 (45,55) mm
 41
0.7
  7
SIMPLEX7
100
AcDbText
  0
TEXT
  5
7493
330
1F
100
AcDbEntity
  8
POPIS
100
AcDbText
 10
3028.322530077955
 20
-3612.838826519772
 30
0.0
 40
25.0
  1
UW profil (ocelový nosník I, U)
 41
0.7
  7
SIMPLEX7
100
AcDbText
  0
TEXT
  5
7494
330
1F
100
AcDbEntity
  8
POPIS
100
AcDbText
 10
2845.065062657318
 20
-3516.012524780721
 30
0.0
 40
25.0
  1
01
 41
0.85
  7
SIMPLEX7
100
AcDbText
  0
TEXT
  5
7495
330
1F
100
AcDbEntity
  8
POPIS
100
AcDbText
 10
2845.065062657318
 20
-3577.072192236386
 30
0.0
 40
25.0
  1
03
 41
0.85
  7
SIMPLEX7
100
AcDbText
  0
LINE
  5
7496
102
{ACAD_REACTORS
330
7A9C
102
}
330
1F
100
AcDbEntity
  8
POPIS
100
AcDbLine
 10
2843.01500575575
 20
-3504.015138702874
 30
0.0
 11
2767.42905859386
 21
-3504.015138702874
 31
0.0
  0
TEXT
  5
7497
330
1F
100
AcDbEntity
  8
POPIS
100
AcDbText
 10
2846.075808553203
 20
-3451.312545981728
 30
0.0
 40
25.0
  1
02
 41
0.85
  7
SIMPLEX7
100
AcDbText
  0
LINE
  5
7498
102
{ACAD_REACTORS
330
7A9C
102
}
330
1F
100
AcDbEntity
  8
SPOJOVACÍ
  6
Continuous
100
AcDbLine
 10
2772.885168034772
 20
-3442.816479087392
 30
0.0
 11
2771.68524125804
 21
-3442.816479087392
 31
0.0
  0
LINE
  5
7499
102
{ACAD_REACTORS
330
7A9C
102
}
330
1F
100
AcDbEntity
  8
SPOJOVACÍ
  6
Continuous
100
AcDbLine
 10
2771.68524125804
 20
-3442.816479087392
 30
0.0
 11
2770.941100621566
 21
-3441.466794003842
 31
0.0
  0
LINE
  5
749A
102
{ACAD_REACTORS
330
7A9C
102
}
330
1F
100
AcDbEntity
  8
SPOJOVACÍ
  6
Continuous
100
AcDbLine
 10
2770.941100621566
 20
-3441.466794003842
 30
0.0
 11
2769.872328632154
 21
-3440.356164103483
 31
0.0
  0
LINE
  5
749B
102
{ACAD_REACTORS
330
7A9C
102
}
330
1F
100
AcDbEntity
  8
SPOJOVACÍ
  6
Continuous
100
AcDbLine
 10
2769.872328632154
 20
-3440.356164103483
 30
0.0
 11
2768.553339353856
 21
-3439.559933624165
 31
0.0
  0
LINE
  5
749C
102
{ACAD_REACTORS
330
7A9C
102
}
330
1F
100
AcDbEntity
  8
SPOJOVACÍ
  6
Continuous
100
AcDbLine
 10
2768.553339353856
 20
-3439.559933624165
 30
0.0
 11
2767.072499486806
 21
-3439.132052759866
 31
0.0
  0
LINE
  5
749D
102
{ACAD_REACTORS
330
7A9C
102
}
330
1F
100
AcDbEntity
  8
SPOJOVACÍ
  6
Continuous
100
AcDbLine
 10
2767.809198717113
 20
-3436.139677224324
 30
0.0
 11
2769.223065926816
 21
-3435.526691375176
 31
0.0
  0
LINE
  5
749E
102
{ACAD_REACTORS
330
7A9C
102
}
330
1F
100
AcDbEntity
  8
SPOJOVACÍ
  6
Continuous
100
AcDbLine
 10
2769.223065926816
 20
-3435.526691375176
 30
0.0
 11
2770.430434109715
 21
-3434.568610305192
 31
0.0
  0
LINE
  5
749F
102
{ACAD_REACTORS
330
7A9C
102
}
330
1F
100
AcDbEntity
  8
SPOJOVACÍ
  6
Continuous
100
AcDbLine
 10
2770.430434109715
 20
-3434.568610305192
 30
0.0
 11
2771.348517620157
 21
-3433.331476496292
 31
0.0
  0
LINE
  5
74A0
102
{ACAD_REACTORS
330
7A9C
102
}
330
1F
100
AcDbEntity
  8
SPOJOVACÍ
  6
Continuous
100
AcDbLine
 10
2771.348517620157
 20
-3433.331476496292
 30
0.0
 11
2771.68524125804
 21
-3432.616171310125
 31
0.0
  0
LINE
  5
74A1
102
{ACAD_REACTORS
330
7A9C
102
}
330
1F
100
AcDbEntity
  8
SPOJOVACÍ
  6
Continuous
100
AcDbLine
 10
2772.885168034772
 20
-3432.616171310125
 30
0.0
 11
2771.68524125804
 21
-3432.616171310125
 31
0.0
  0
INSERT
  5
74A2
330
1F
100
AcDbEntity
  8
POPIS
100
AcDbBlockReference
  2
E_PUNKT
 10
2773.193241826588
 20
-3437.145271299195
 30
0.0
 50
270.0
  0
LINE
  5
74A3
330
1F
100
AcDbEntity
  8
SPOJOVACÍ
  6
Continuous
100
AcDbLine
 10
2772.885168034772
 20
-3442.816479087392
 30
0.0
 11
2772.885168034772
 21
-3432.616171310125
 31
0.0
  0
LINE
  5
74A4
330
1F
100
AcDbEntity
  8
SPOJOVACÍ
  6
Continuous
100
AcDbLine
 10
2771.68524125804
 20
-3442.816479087392
 30
0.0
 11
2771.68524125804
 21
-3432.616171310125
 31
0.0
  0
LINE
  5
74A5
330
1F
100
AcDbEntity
  8
POPIS
100
AcDbLine
 10
2844.025751651631
 20
-3437.287792762762
 30
0.0
 11
2771.458250498143
 21
-3437.287792762762
 31
0.0
  0
TEXT
  5
74A6
330
1F
100
AcDbEntity
  8
POPIS
100
AcDbText
 10
2973.978826918213
 20
-3543.549393762323
 30
0.0
 40
25.0
  1
03
 41
0.85
  7
SIMPLEX7
100
AcDbText
  0
TEXT
  5
74A7
330
1F
100
AcDbEntity
  8
POPIS
100
AcDbText
 10
2973.978826918213
 20
-3578.953554980486
 30
0.0
 40
25.0
  1
04
 41
0.85
  7
SIMPLEX7
100
AcDbText
  0
TEXT
  5
74A8
330
1F
100
AcDbEntity
  8
POPIS
100
AcDbText
 10
2973.978826918213
 20
-3612.838826519772
 30
0.0
 40
25.0
  1
05
 41
0.85
  7
SIMPLEX7
100
AcDbText
  0
TEXT
  5
74A9
330
1F
100
AcDbEntity
  8
POPIS
100
AcDbText
 10
2973.978826918213
 20
-3474.883600587511
 30
0.0
 40
25.0
  1
02
 41
0.85
  7
SIMPLEX7
100
AcDbText
  0
TEXT
  5
74AA
330
1F
100
AcDbEntity
  8
POPIS
100
AcDbText
 10
2973.978826918213
 20
-3438.288588971883
 30
0.0
 40
25.0
  1
01
 41
0.85
  7
SIMPLEX7
100
AcDbText
  0
HATCH
  5
79D2
330
1F
100
AcDbEntity
  8
STAVBA OBRYS
100
AcDbHatch
 10
0.0
 20
0.0
 30
0.0
210
0.0
220
0.0
230
1.0
  2
AR-CONC
 70
     0
 71
     0
 91
        1
 92
        7
 72
     0
 73
     1
 93
        4
 10
2903.645030785932
 20
-3217.350266801298
 10
2676.017641835609
 20
-3217.350266801298
 10
2676.017641835609
 20
-3257.350266801299
 10
2903.645030785932
 20
-3257.350266801299
 97
        0
 75
     0
 76
     1
 52
0.0
 41
0.25
 77
     0
 78
    13
 53
50.0
 43
0.0
 44
0.0
 45
45.546167249001
 46
-3.984771384725771
 79
     2
 49
4.7625
 49
-52.3875
 53
355.0
 43
0.0
 44
0.0
 45
-8.810706493916747
 46
47.76416072054499
 79
     2
 49
3.81
 49
-41.90999999999999
 53
100.451
 43
3.7955
 44
-0.3320625
 45
36.73562541648981
 46
43.77917195507296
 79
     2
 49
4.0475
 49
-44.5225
 53
46.1842
 43
0.0
 44
12.7
 45
67.76976022303248
 46
-10.51058198318178
 79
     2
 49
7.143749999999999
 49
-78.58125
 53
96.6356
 43
5.647475
 44
11.824125
 45
59.35105861655928
 46
61.8563889725123
 79
     2
 49
6.07125
 49
-66.78374999999999
 53
351.184
 43
0.0
 44
12.7
 45
59.35115145348348
 46
61.85627946514942
 79
     2
 49
5.714999999999999
 49
-62.865
 53
21.0
 43
6.349999999999999
 44
9.525
 45
37.90371995884582
 46
-25.56637962919062
 79
     2
 49
4.7625
 49
-52.3875
 53
326.0
 43
6.349999999999999
 44
9.525
 45
15.45050708691176
 46
46.04699153057981
 79
     2
 49
3.81
 49
-41.90999999999999
 53
71.45140000000001
 43
9.508625
 44
7.394474999999999
 45
53.35412269253112
 46
20.48071442901436
 79
     2
 49
4.0475
 49
-44.5225
 53
37.5
 43
0.0
 44
0.0
 45
0.7721508126479542
 46
21.13875971828827
 79
     6
 49
0.0
 49
-41.402
 49
0.0
 49
-42.545
 49
0.0
 49
-42.06875
 53
7.499999999999999
 43
0.0
 44
0.0
 45
16.70491562757643
 46
25.04514370452987
 79
     6
 49
0.0
 49
-24.25699999999999
 49
0.0
 49
-40.4495
 49
0.0
 49
-16.03375
 53
327.4999999999999
 43
-14.1605
 44
0.0
 45
33.89764879171784
 46
-1.432185998168366
 79
     6
 49
0.0
 49
-15.875
 49
0.0
 49
-49.53
 49
0.0
 49
-65.7225
 53
317.5
 43
-20.5105
 44
0.0
 45
37.03229534650451
 46
6.356622758333253
 79
     6
 49
0.0
 49
-20.6375
 49
0.0
 49
-32.893
 49
0.0
 49
-46.6725
 47
1.25761118745951
 98
        1
 10
2802.573154532558
 20
-3249.411080211816
  0
LINE
  5
79D3
330
1F
100
AcDbEntity
  8
STAVBA OBRYS
100
AcDbLine
 10
2675.189791402791
 20
-3383.683155015725
 30
0.0
 11
2675.189791402791
 21
-3217.350266801297
 31
0.0
  0
LWPOLYLINE
  5
79D5
330
1F
100
AcDbEntity
  8
izolace
100
AcDbPolyline
 90
        4
 70
     1
 43
0.0
 10
2748.452525207467
 20
-4213.034363865477
 10
2673.850077179675
 20
-4213.034363865477
 10
2673.850077179675
 20
-4210.952271542264
 10
2748.452525207467
 20
-4210.952271542264
  0
LINE
  5
79D8
102
{ACAD_REACTORS
330
7A9C
330
7BFA
102
}
330
1F
100
AcDbEntity
  8
POPIS
100
AcDbLine
 10
2843.01500575575
 20
-3565.978138383561
 30
0.0
 11
2711.322532208207
 21
-3565.978138383561
 31
0.0
  0
INSERT
  5
79D9
330
1F
100
AcDbEntity
  8
POPIS
100
AcDbBlockReference
  2
E_PUNKT
 10
2710.935377188629
 20
-3565.672644703791
 30
0.0
 50
270.0
  0
INSERT
  5
79DA
330
1F
100
AcDbEntity
  8
POPIS
100
AcDbBlockReference
  2
E_PUNKT
 10
2673.554328937381
 20
-4212.196477665623
 30
0.0
 41
-1.0
 50
90.0
  0
INSERT
  5
79DC
330
1F
100
AcDbEntity
  8
POPIS
100
AcDbBlockReference
  2
E_PUNKT
 10
2674.967290406966
 20
-3385.418389006979
 30
0.0
 50
90.0
  0
HATCH
  5
79EA
330
1F
100
AcDbEntity
  8
STAVBA OBRYS
100
AcDbHatch
 10
0.0
 20
0.0
 30
0.0
210
0.0
220
0.0
230
1.0
  2
ANSI35
 70
     0
 71
     0
 91
        2
 92
        7
 72
     0
 73
     1
 93
        9
 10
2902.20048015283
 20
-4213.828753216696
 10
2713.938327951062
 20
-4213.828753216696
 10
2713.938327951062
 20
-4260.464198110991
 10
2710.412861527587
 20
-4266.113638451709
 10
2706.887395104113
 20
-4260.464198110995
 10
2706.887395104113
 20
-4213.828753216696
 10
2676.017641835609
 20
-4213.828753216696
 10
2676.017641835609
 20
-4306.400026855757
 10
2902.200480152831
 20
-4306.400026855757
 97
        0
 92
       24
 93
        4
 72
     1
 10
2808.578543389549
 20
-4287.816339405355
 11
2849.409972448211
 21
-4287.816339405355
 72
     1
 10
2849.409972448211
 20
-4287.816339405355
 11
2849.409972448211
 21
-4249.523365326229
 72
     1
 10
2849.409972448211
 20
-4249.523365326229
 11
2808.578543389549
 21
-4249.523365326229
 72
     1
 10
2808.578543389549
 20
-4249.523365326229
 11
2808.578543389549
 21
-4287.816339405355
 97
        0
 75
     0
 76
     1
 52
0.0
 41
2.5
 77
     0
 78
     2
 53
45.0
 43
0.0
 44
0.0
 45
-11.22532015133643
 46
11.22532015133644
 79
     0
 53
45.0
 43
11.225325
 44
0.0
 45
-11.22532015133643
 46
11.22532015133644
 79
     4
 49
19.84375
 49
-3.96875
 49
0.0
 49
-3.96875
 47
0.6997500763393817
 98
        1
 10
2844.060614918984
 20
-4280.367574417007
  0
HATCH
  5
7A9C
330
1F
100
AcDbEntity
  8
CETRIS
100
AcDbHatch
 10
0.0
 20
0.0
 30
0.0
210
0.0
220
0.0
230
1.0
  2
ANSI31
 70
     0
 71
     1
 91
       13
 92
        7
 72
     0
 73
     1
 93
       12
 10
2772.885168034779
 20
-3401.401199996914
 10
2760.885168034779
 20
-3401.401199996914
 10
2760.885168034779
 20
-3435.316813621224
 10
2761.103561405383
 20
-3435.694123016781
 10
2761.329692959637
 20
-3436.366640115208
 10
2766.285570763685
 20
-3436.366640115206
 10
2767.80919871711
 20
-3436.139677224324
 10
2769.223065926816
 20
-3435.526691375175
 10
2770.430434109714
 20
-3434.568610305193
 10
2771.348517620157
 20
-3433.331476496291
 10
2771.68524125804
 20
-3432.616171310125
 10
2772.885168034779
 20
-3432.616171310124
 97
       12
330
6C76
330
6C9D
330
7294
330
7291
330
7295
330
6C78
330
749D
330
749E
330
749F
330
74A0
330
74A1
330
744F
 92
        7
 72
     1
 73
     1
 93
       20
 10
2772.885168034779
 20
-3442.816479087392
 42
0.0
 10
2771.68524125804
 20
-3442.816479087392
 42
0.0
 10
2770.941100621566
 20
-3441.466794003841
 42
0.0
 10
2769.872328632153
 20
-3440.356164103482
 42
0.0
 10
2768.553339353858
 20
-3439.559933624166
 42
0.0
 10
2767.072499486809
 20
-3439.132052759866
 42
0.0
 10
2766.285570763686
 20
-3439.066010277944
 42
0.0
 10
2762.237346864395
 20
-3439.066010277944
 42
0.0
 10
2762.463478418649
 20
-3439.738527376372
 42
0.0
 10
2762.016995282908
 20
-3440.183913504635
 42
0.0
 10
2761.641104179471
 20
-3439.066010277944
 42
0.0
 10
2760.885168034779
 20
-3439.066010277944
 42
0.0
 10
2760.885168034778
 20
-3565.97813838356
 42
0.0
 10
2772.885168034778
 20
-3565.978138383561
 42
0.0
 10
2772.885168034779
 20
-3504.015138702874
 42
0.0
 10
2767.42905859386
 20
-3504.015138702874
 42
-0.3499768121254232
 10
2766.210337596552
 20
-3504.987255398731
 42
-1.0
 10
2766.210337596552
 20
-3502.487255398731
 42
-0.4815069281457337
 10
2767.42905859386
 20
-3504.015138702874
 42
0.0
 10
2772.885168034779
 20
-3504.015138702874
 42
0.0
 97
       16
330
7498
330
7499
330
749A
330
749B
330
749C
330
6C77
330
7290
330
7291
330
7292
330
728E
330
7265
330
6C9D
330
79D8
330
744F
330
7496
330
6C7B
 92
        7
 72
     0
 73
     1
 93
       12
 10
2772.885168034778
 20
-3565.978138383561
 10
2760.885168034778
 20
-3565.978138383561
 10
2760.885168034777
 20
-3621.671283279258
 10
2761.103561405384
 20
-3622.048592674818
 10
2761.329692959637
 20
-3622.721109773244
 10
2766.285570763688
 20
-3622.721109773243
 10
2767.809198717116
 20
-3622.494146882361
 10
2769.223065926816
 20
-3621.881161033213
 10
2770.430434109715
 20
-3620.923079963229
 10
2771.348517620159
 20
-3619.685946154325
 10
2771.68524125804
 20
-3618.97064096816
 10
2772.885168034778
 20
-3618.970640968161
 97
       12
330
79D8
330
6C9D
330
7117
330
7114
330
7118
330
6C7A
330
7484
330
7485
330
7486
330
7487
330
7488
330
744F
 92
        7
 72
     0
 73
     1
 93
       14
 10
2772.885168034778
 20
-3629.170948745428
 10
2771.68524125804
 20
-3629.170948745428
 10
2770.941100621567
 20
-3627.821263661878
 10
2769.872328632153
 20
-3626.710633761519
 10
2768.553339353857
 20
-3625.914403282201
 10
2767.072499486808
 20
-3625.486522417903
 10
2766.285570763682
 20
-3625.420479935979
 10
2762.237346864396
 20
-3625.42047993598
 10
2762.463478418649
 20
-3626.092997034409
 10
2762.016995282908
 20
-3626.538383162672
 10
2761.641104179471
 20
-3625.42047993598
 10
2760.885168034776
 20
-3625.42047993598
 10
2760.885168034776
 20
-3701.734442735845
 10
2772.885168034777
 20
-3703.944604014145
 97
       14
330
747F
330
7480
330
7481
330
7482
330
7483
330
6C79
330
7113
330
7114
330
7115
330
7109
330
70DE
330
6C9D
330
6C89
330
744F
 92
        7
 72
     0
 73
     1
 93
       12
 10
2772.885168034777
 20
-3708.883741729278
 10
2760.885168034776
 20
-3706.673580450978
 10
2760.885168034776
 20
-3724.926021259473
 10
2761.103561405383
 20
-3725.30333065503
 10
2761.329692959637
 20
-3725.975847753459
 10
2766.285570763681
 20
-3725.975847753459
 10
2767.809198717111
 20
-3725.748884862577
 10
2769.223065926816
 20
-3725.135899013429
 10
2770.430434109716
 20
-3724.177817943443
 10
2771.348517620156
 20
-3722.940684134545
 10
2771.68524125804
 20
-3722.225378948376
 10
2772.885168034777
 20
-3722.225378948376
 97
       12
330
6C8A
330
7028
330
6F9C
330
6F98
330
6F9D
330
6C82
330
7473
330
7474
330
7475
330
7476
330
7477
330
747D
 92
        7
 72
     0
 73
     1
 93
       14
 10
2772.885168034777
 20
-3732.425686725644
 10
2771.68524125804
 20
-3732.425686725644
 10
2770.941100621566
 20
-3731.076001642093
 10
2769.872328632154
 20
-3729.965371741735
 10
2768.553339353855
 20
-3729.169141262417
 10
2767.072499486808
 20
-3728.741260398118
 10
2766.285570763682
 20
-3728.675217916196
 10
2762.237346864395
 20
-3728.675217916196
 10
2762.463478418649
 20
-3729.347735014624
 10
2762.016995282908
 20
-3729.793121142887
 10
2761.641104179471
 20
-3728.675217916196
 10
2760.885168034776
 20
-3728.675217916196
 10
2760.885168034776
 20
-3749.026515794684
 10
2772.885168034776
 20
-3749.026515794684
 97
       14
330
746E
330
746F
330
7470
330
7471
330
7472
330
6C80
330
6F97
330
6F98
330
6F99
330
6F9A
330
6F9B
330
7028
330
6C84
330
747D
 92
        7
 72
     0
 73
     1
 93
       14
 10
2772.885168034776
 20
-3754.026515794687
 10
2760.885168034776
 20
-3754.026515794687
 10
2760.885168034776
 20
-3774.323836512081
 10
2761.641104179471
 20
-3774.323836512081
 10
2762.016995282908
 20
-3773.205933285391
 10
2762.463478418648
 20
-3773.651319413655
 10
2762.237346864395
 20
-3774.323836512082
 10
2766.285570763685
 20
-3774.323836512082
 10
2767.072499486808
 20
-3774.257794030161
 10
2768.553339353855
 20
-3773.829913165861
 10
2769.872328632153
 20
-3773.033682686541
 10
2770.941100621566
 20
-3771.923052786184
 10
2771.685241258041
 20
-3770.573367702633
 10
2772.885168034775
 20
-3770.573367702633
 97
       14
330
6C83
330
6CAC
330
6F93
330
6F94
330
6F95
330
6F91
330
6F96
330
6C7F
330
7469
330
746A
330
746B
330
746C
330
746D
330
7453
 92
        7
 72
     0
 73
     1
 93
       12
 10
2772.885168034776
 20
-3780.773675479901
 10
2771.68524125804
 20
-3780.773675479901
 10
2771.348517620157
 20
-3780.058370293736
 10
2770.430434109716
 20
-3778.821236484835
 10
2769.223065926819
 20
-3777.86315541485
 10
2767.80919871711
 20
-3777.2501695657
 10
2766.285570763681
 20
-3777.023206674818
 10
2761.329692959637
 20
-3777.023206674817
 10
2760.953525811248
 20
-3778.141930861688
 10
2760.885168034777
 20
-3778.073573085612
 10
2760.885168034776
 20
-3882.222742298157
 10
2772.885168034775
 20
-3884.432903576456
 97
       12
330
7464
330
7465
330
7466
330
7467
330
7468
330
6C7D
330
6F90
330
6F91
330
6F92
330
6CAC
330
6C8B
330
7453
 92
        7
 72
     0
 73
     1
 93
       12
 10
2772.885168034775
 20
-3889.37204129159
 10
2760.885168034776
 20
-3887.161880013291
 10
2760.885168034776
 20
-3909.082605921247
 10
2761.103561405383
 20
-3909.459915316807
 10
2761.329692959637
 20
-3910.132432415233
 10
2766.285570763685
 20
-3910.132432415235
 10
2767.809198717113
 20
-3909.90546952435
 10
2769.223065926814
 20
-3909.292483675202
 10
2770.430434109716
 20
-3908.334402605218
 10
2771.348517620157
 20
-3907.097268796317
 10
2771.68524125804
 20
-3906.38196361015
 10
2772.885168034775
 20
-3906.38196361015
 97
       12
330
6C8C
330
69BD
330
6D7B
330
6D77
330
6D7C
330
6C88
330
745A
330
745B
330
745C
330
745D
330
745E
330
69BE
 92
        7
 72
     0
 73
     1
 93
       14
 10
2772.885168034775
 20
-3916.582271387419
 10
2771.68524125804
 20
-3916.582271387418
 10
2770.941100621565
 20
-3915.232586303867
 10
2769.872328632153
 20
-3914.121956403508
 10
2768.553339353858
 20
-3913.325725924191
 10
2767.072499486811
 20
-3912.897845059893
 10
2766.285570763676
 20
-3912.83180257797
 10
2762.237346864395
 20
-3912.83180257797
 10
2762.463478418648
 20
-3913.504319676398
 10
2762.016995282908
 20
-3913.949705804663
 10
2761.641104179471
 20
-3912.83180257797
 10
2760.885168034776
 20
-3912.83180257797
 10
2760.885168034776
 20
-4036.532209548002
 10
2772.885168034773
 20
-4036.532209548002
 97
       14
330
7455
330
7456
330
7457
330
7458
330
7459
330
6C87
330
6D76
330
6D77
330
6D78
330
6D79
330
6D7A
330
69BD
330
69D8
330
69BE
 92
        7
 72
     0
 73
     1
 93
       12
 10
2772.885168034774
 20
-4036.532209548002
 10
2760.885168034776
 20
-4036.532209548002
 10
2760.885168034776
 20
-4136.251099537197
 10
2761.103561405383
 20
-4136.628408932756
 10
2761.329692959637
 20
-4137.300926031184
 10
2766.285570763685
 20
-4137.300926031184
 10
2767.809198717113
 20
-4137.073963140301
 10
2769.223065926814
 20
-4136.460977291154
 10
2770.430434109715
 20
-4135.502896221169
 10
2771.348517620157
 20
-4134.265762412272
 10
2771.68524125804
 20
-4133.550457226101
 10
2772.885168034773
 20
-4133.550457226101
 97
       12
330
69D8
330
69BD
330
6BB8
330
6BB4
330
6BB9
330
69D1
330
6C68
330
6C69
330
6C6A
330
6C6B
330
6C6C
330
69BE
 92
        7
 72
     0
 73
     1
 93
       14
 10
2772.885168034772
 20
-4143.750765003369
 10
2771.685241258041
 20
-4143.750765003369
 10
2770.941100621567
 20
-4142.401079919819
 10
2769.872328632152
 20
-4141.290450019459
 10
2768.553339353857
 20
-4140.494219540141
 10
2767.072499486809
 20
-4140.066338675842
 10
2766.285570763686
 20
-4140.00029619392
 10
2762.237346864395
 20
-4140.00029619392
 10
2762.463478418649
 20
-4140.672813292348
 10
2762.016995282908
 20
-4141.118199420613
 10
2761.641104179471
 20
-4140.00029619392
 10
2760.885168034776
 20
-4140.000296193921
 10
2760.885168034776
 20
-4165.11312298902
 10
2772.885168034772
 20
-4158.685873770995
 97
       14
330
6C6D
330
6C6F
330
6C65
330
6C66
330
6C67
330
69D0
330
6BB3
330
6BB4
330
6BB5
330
6BB6
330
6BB7
330
69BD
330
69D6
330
69BE
 92
        7
 72
     0
 73
     1
 93
        5
 10
2772.885168034772
 20
-4158.685873770995
 10
2760.885168034776
 20
-4165.113122989022
 10
2760.885168034776
 20
-4208.61070823551
 10
2765.649373988745
 20
-4208.61070823551
 10
2772.885168034772
 20
-4204.100389054639
 97
        5
330
69D6
330
69BD
330
69D3
330
69D7
330
69BE
 75
     0
 76
     1
 52
0.0
 41
2.5
 77
     0
 78
     1
 53
45.0
 43
0.0
 44
0.0
 45
-5.61266007566822
 46
5.612660075668221
 79
     0
 47
1.281402282160746
 98
       13
 10
2766.976342928112
 20
-3424.097551287068
 10
2768.258157320993
 20
-3481.760662734385
 10
2766.976342928112
 20
-3598.368264754777
 10
2766.976342928112
 20
-3679.096618248999
 10
2765.694507276177
 20
-3713.694474989312
 10
2766.976342928112
 20
-3739.32252592813
 10
2769.539971713879
 20
-3766.231968652806
 10
2769.539971713879
 20
-3802.111229839072
 10
2768.258157320993
 20
-3899.497803150425
 10
2768.258157320993
 20
-3932.814268104877
 10
2768.258157320993
 20
-4082.738335079724
 10
2768.258157320993
 20
-4154.496870112356
 10
2769.539971713879
 20
-4176.280707713307
  0
HATCH
  5
7BFA
330
1F
100
AcDbEntity
  8
CETRIS
100
AcDbHatch
 10
0.0
 20
0.0
 30
0.0
210
0.0
220
0.0
230
1.0
  2
ANSI31
 70
     0
 71
     1
 91
       17
 92
        7
 72
     0
 73
     1
 93
       18
 10
2760.885168034779
 20
-3401.401199996915
 10
2748.88516803478
 20
-3401.401199996915
 10
2748.88516803478
 20
-3436.366640115208
 10
2751.373091241612
 20
-3436.366640115207
 10
2751.146959687357
 20
-3435.69412301678
 10
2751.593442824394
 20
-3435.248736892369
 10
2751.969333926535
 20
-3436.366640115208
 10
2754.49290086058
 20
-3436.366640115208
 10
2754.266769306326
 20
-3435.694123016779
 10
2754.713252443587
 20
-3435.248736892147
 10
2755.089143545728
 20
-3436.366640115207
 10
2757.61348598279
 20
-3436.366640115208
 10
2757.387509101267
 20
-3435.69412301678
 10
2757.833793005032
 20
-3435.247839115268
 10
2758.209728667715
 20
-3436.366640115208
 10
2760.733450274528
 20
-3436.366640115208
 10
2760.507318720228
 20
-3435.694123016779
 10
2760.885168034779
 20
-3435.316273704413
 97
       18
330
6C76
330
6C9C
330
7284
330
7273
330
7285
330
7270
330
7287
330
726E
330
7288
330
726B
330
728A
330
7269
330
728B
330
7266
330
728D
330
728E
330
728F
330
6C9D
 92
        7
 72
     0
 73
     1
 93
       30
 10
2758.941100621574
 20
-3443.889205866891
 10
2759.685241258047
 20
-3442.53952078334
 10
2760.885168034779
 20
-3442.53952078334
 10
2760.885168034779
 20
-3439.066010277944
 10
2759.116761742416
 20
-3439.066010277944
 10
2759.342738623984
 20
-3439.738527376372
 10
2758.896454721206
 20
-3440.18481128173
 10
2758.520519057307
 20
-3439.066010277943
 10
2755.996797450492
 20
-3439.066010277944
 10
2756.222929004746
 20
-3439.738527376372
 10
2755.776721915024
 20
-3440.184734468673
 10
2755.400554765338
 20
-3439.066010277944
 10
2752.876987831478
 20
-3439.066010277943
 10
2753.103119385777
 20
-3439.738527376372
 10
2752.656912296061
 20
-3440.184734468667
 10
2752.280745146375
 20
-3439.066010277944
 10
2749.757178212515
 20
-3439.066010277944
 10
2749.983309766815
 20
-3439.738527376372
 10
2749.536826630786
 20
-3440.1839135046
 10
2749.160935527361
 20
-3439.066010277944
 10
2748.88516803478
 20
-3439.066010277944
 10
2748.88516803478
 20
-3446.289989592788
 10
2749.641104179478
 20
-3446.289989592788
 10
2750.016995282916
 20
-3445.172086366097
 10
2750.463478418657
 20
-3445.61747249436
 10
2750.237346864403
 20
-3446.289989592788
 10
2754.285570763693
 20
-3446.289989592789
 10
2755.072499486813
 20
-3446.223947110866
 10
2756.553339353864
 20
-3445.796066246567
 10
2757.87232863216
 20
-3444.999835767249
 97
       30
330
7283
330
7264
330
6C9D
330
7265
330
7266
330
7267
330
7269
330
726A
330
726B
330
726C
330
726E
330
726F
330
7270
330
7271
330
7273
330
7274
330
7275
330
7276
330
7278
330
7279
330
6C9C
330
727A
330
727B
330
727D
330
7262
330
727E
330
727F
330
7280
330
7281
330
7282
 92
        7
 72
     0
 73
     1
 93
       12
 10
2760.885168034779
 20
-3452.739828560607
 10
2759.685241258048
 20
-3452.739828560607
 10
2759.348517620165
 20
-3452.02452337444
 10
2758.430434109722
 20
-3450.787389565539
 10
2757.223065926822
 20
-3449.829308495555
 10
2755.809198717121
 20
-3449.216322646408
 10
2754.285570763695
 20
-3448.989359755525
 10
2749.329692959645
 20
-3448.989359755524
 10
2748.953525811256
 20
-3450.108083942394
 10
2748.88516803478
 20
-3450.039726166313
 10
2748.885168034779
 20
-3565.978138383561
 10
2760.885168034777
 20
-3565.978138383561
 97
       12
330
725B
330
725C
330
725D
330
725E
330
725F
330
7260
330
7261
330
7262
330
72C8
330
6C9C
330
79D8
330
6C9D
 92
        7
 72
     0
 73
     1
 93
       12
 10
2760.885168034777
 20
-3565.97813838356
 10
2748.88516803478
 20
-3565.97813838356
 10
2748.88516803478
 20
-3606.879474579174
 10
2749.103561405391
 20
-3607.25678397474
 10
2749.329692959644
 20
-3607.929301073167
 10
2754.285570763692
 20
-3607.929301073166
 10
2755.809198717122
 20
-3607.702338182282
 10
2757.223065926824
 20
-3607.089352333136
 10
2758.430434109723
 20
-3606.13127126315
 10
2759.348517620164
 20
-3604.894137454254
 10
2759.685241258048
 20
-3604.178832268084
 10
2760.885168034777
 20
-3604.178832268084
 97
       12
330
79D8
330
6C9C
330
710B
330
70FA
330
710C
330
710D
330
710E
330
710F
330
7110
330
7111
330
7112
330
6C9D
 92
        7
 72
     0
 73
     1
 93
       28
 10
2760.885168034777
 20
-3614.379140045351
 10
2759.685241258047
 20
-3614.379140045351
 10
2758.941100621574
 20
-3613.0294549618
 10
2757.872328632163
 20
-3611.918825061442
 10
2756.553339353866
 20
-3611.122594582125
 10
2755.072499486815
 20
-3610.694713717825
 10
2754.285570763691
 20
-3610.628671235903
 10
2750.237346864402
 20
-3610.628671235903
 10
2750.463478418656
 20
-3611.301188334332
 10
2750.016995282916
 20
-3611.746574462596
 10
2749.641104179479
 20
-3610.628671235903
 10
2748.88516803478
 20
-3610.628671235903
 10
2748.88516803478
 20
-3622.721109773245
 10
2751.373091241612
 20
-3622.721109773243
 10
2751.146959687357
 20
-3622.048592674817
 10
2751.593442824394
 20
-3621.603206550406
 10
2751.969333926535
 20
-3622.721109773245
 10
2754.49290086058
 20
-3622.721109773244
 10
2754.266769306326
 20
-3622.048592674815
 10
2754.713252443587
 20
-3621.603206550183
 10
2755.089143545728
 20
-3622.721109773244
 10
2757.61348598279
 20
-3622.721109773245
 10
2757.387509101266
 20
-3622.048592674815
 10
2757.83379300503
 20
-3621.602308773303
 10
2758.209728667714
 20
-3622.721109773244
 10
2760.733450274528
 20
-3622.721109773243
 10
2760.507318720228
 20
-3622.048592674816
 10
2760.885168034776
 20
-3621.670743362452
 97
       28
330
70F3
330
70F4
330
70F5
330
70F6
330
70F7
330
70F8
330
70F9
330
70FA
330
70FB
330
70FD
330
70FE
330
6C9C
330
70FF
330
70EC
330
7100
330
70E9
330
7102
330
70E7
330
7103
330
70E4
330
7105
330
70E2
330
7106
330
70DF
330
7108
330
7109
330
710A
330
6C9D
 92
        7
 72
     0
 73
     1
 93
       20
 10
2760.885168034776
 20
-3625.42047993598
 10
2759.116761742415
 20
-3625.42047993598
 10
2759.342738623985
 20
-3626.092997034409
 10
2758.896454721205
 20
-3626.539280939766
 10
2758.520519057307
 20
-3625.42047993598
 10
2755.996797450492
 20
-3625.42047993598
 10
2756.222929004747
 20
-3626.092997034408
 10
2755.776721915024
 20
-3626.53920412671
 10
2755.400554765338
 20
-3625.420479935979
 10
2752.876987831478
 20
-3625.42047993598
 10
2753.103119385777
 20
-3626.092997034408
 10
2752.656912296061
 20
-3626.539204126705
 10
2752.280745146375
 20
-3625.420479935981
 10
2749.757178212515
 20
-3625.42047993598
 10
2749.983309766816
 20
-3626.092997034408
 10
2749.536826630786
 20
-3626.538383162635
 10
2749.160935527361
 20
-3625.42047993598
 10
2748.88516803478
 20
-3625.42047993598
 10
2748.88516803478
 20
-3699.524281457546
 10
2760.885168034775
 20
-3701.734442735844
 97
       20
330
70DE
330
70DF
330
70E0
330
70E2
330
70E3
330
70E4
330
70E5
330
70E7
330
70E8
330
70E9
330
70EA
330
70EC
330
70ED
330
70EE
330
70EF
330
70F1
330
70F2
330
6C9C
330
6C89
330
6C9D
 92
        7
 72
     0
 73
     1
 93
       18
 10
2760.885168034776
 20
-3706.673580450977
 10
2748.885168034776
 20
-3704.463419172678
 10
2748.885168034777
 20
-3725.97584775346
 10
2751.373091241612
 20
-3725.975847753459
 10
2751.146959687357
 20
-3725.303330655031
 10
2751.593442824394
 20
-3724.857944530622
 10
2751.969333926534
 20
-3725.975847753459
 10
2754.49290086058
 20
-3725.975847753459
 10
2754.266769306326
 20
-3725.303330655031
 10
2754.713252443587
 20
-3724.857944530398
 10
2755.089143545729
 20
-3725.975847753459
 10
2757.61348598279
 20
-3725.975847753459
 10
2757.387509101267
 20
-3725.303330655031
 10
2757.833793005031
 20
-3724.857046753519
 10
2758.209728667714
 20
-3725.975847753459
 10
2760.733450274528
 20
-3725.975847753459
 10
2760.507318720228
 20
-3725.303330655032
 10
2760.885168034776
 20
-3724.925481342667
 97
       18
330
6C8A
330
6CAD
330
6F9E
330
6F9F
330
6FA0
330
6FA1
330
6FA2
330
6FA3
330
6FA4
330
6FA5
330
6FA6
330
6FA7
330
6FA8
330
6FA9
330
6FAA
330
6F9A
330
6FAB
330
7028
 92
        7
 72
     0
 73
     1
 93
       37
 10
2760.885168034776
 20
-3749.026515794684
 10
2760.885168034776
 20
-3728.675217916196
 10
2759.116761742415
 20
-3728.675217916196
 10
2759.342738623984
 20
-3729.347735014623
 10
2758.896454721206
 20
-3729.794018919984
 10
2758.520519057307
 20
-3728.675217916196
 10
2755.996797450492
 20
-3728.675217916196
 10
2756.222929004746
 20
-3729.347735014624
 10
2755.776721915024
 20
-3729.793942106926
 10
2755.400554765338
 20
-3728.675217916196
 10
2752.876987831478
 20
-3728.675217916196
 10
2753.103119385777
 20
-3729.347735014624
 10
2752.656912296061
 20
-3729.793942106919
 10
2752.280745146375
 20
-3728.675217916196
 10
2749.757178212516
 20
-3728.675217916196
 10
2749.983309766815
 20
-3729.347735014624
 10
2749.536826630786
 20
-3729.79312114285
 10
2749.160935527362
 20
-3728.675217916196
 10
2748.885168034776
 20
-3728.675217916196
 10
2748.885168034777
 20
-3774.323836512083
 10
2749.160935527361
 20
-3774.323836512081
 10
2749.536826630786
 20
-3773.205933285427
 10
2749.983309766815
 20
-3773.651319413653
 10
2749.757178212515
 20
-3774.323836512081
 10
2752.280745146375
 20
-3774.323836512083
 10
2752.65691229606
 20
-3773.205112321358
 10
2753.103119385778
 20
-3773.651319413654
 10
2752.876987831478
 20
-3774.323836512083
 10
2755.400554765339
 20
-3774.323836512083
 10
2755.776721915023
 20
-3773.205112321352
 10
2756.222929004747
 20
-3773.651319413653
 10
2755.996797450492
 20
-3774.323836512081
 10
2758.520519057307
 20
-3774.323836512083
 10
2758.896454721206
 20
-3773.205035508295
 10
2759.342738623984
 20
-3773.651319413653
 10
2759.116761742415
 20
-3774.323836512083
 10
2760.885168034777
 20
-3774.323836512083
 97
       37
330
7028
330
6F9B
330
6FA9
330
6FAC
330
6FA7
330
6FAD
330
6FA5
330
6FAE
330
6FA3
330
6FAF
330
6FA1
330
6FB0
330
6F9F
330
6FB1
330
6FB2
330
6FB3
330
6FB4
330
6FB5
330
6CAD
330
6FB6
330
6FB7
330
6FB8
330
6FB9
330
6FBA
330
6FBB
330
6FBC
330
6FBD
330
6FBE
330
6FBF
330
6FC0
330
6FC1
330
6FC2
330
6FC3
330
6FC4
330
6FC5
330
6F93
330
6CAC
 92
        7
 72
     0
 73
     1
 93
       28
 10
2760.885168034776
 20
-3778.07357308561
 10
2760.507318720228
 20
-3777.695723773246
 10
2760.733450274527
 20
-3777.023206674818
 10
2758.209728667714
 20
-3777.023206674819
 10
2757.833793005031
 20
-3778.142007674759
 10
2757.387509101266
 20
-3777.695723773247
 10
2757.61348598279
 20
-3777.023206674819
 10
2755.089143545728
 20
-3777.023206674818
 10
2754.713252443587
 20
-3778.141109897878
 10
2754.266769306326
 20
-3777.695723773247
 10
2754.49290086058
 20
-3777.023206674818
 10
2751.969333926535
 20
-3777.023206674819
 10
2751.593442824394
 20
-3778.141109897655
 10
2751.146959687357
 20
-3777.695723773247
 10
2751.373091241612
 20
-3777.023206674818
 10
2748.885168034776
 20
-3777.023206674819
 10
2748.885168034777
 20
-3831.288757812489
 10
2749.641104179479
 20
-3831.288757812489
 10
2750.016995282915
 20
-3830.170854585796
 10
2750.463478418656
 20
-3830.616240714061
 10
2750.237346864402
 20
-3831.288757812489
 10
2754.285570763697
 20
-3831.288757812489
 10
2755.072499486816
 20
-3831.222715330567
 10
2756.553339353865
 20
-3830.794834466268
 10
2757.872328632162
 20
-3829.99860398695
 10
2758.941100621572
 20
-3828.887974086595
 10
2759.685241258049
 20
-3827.53828900304
 10
2760.885168034777
 20
-3827.53828900304
 97
       28
330
6F92
330
6F94
330
6FC6
330
6FC5
330
6FC7
330
6FC3
330
6FC8
330
6FC1
330
6FC9
330
6FBF
330
6FCA
330
6FBD
330
6FCB
330
6FBB
330
6FCC
330
6CAD
330
6E78
330
6E79
330
6E7A
330
6E7B
330
6E7C
330
6E7D
330
6E7E
330
6E7F
330
6E80
330
6E81
330
6E82
330
6CAC
 92
        7
 72
     0
 73
     1
 93
       12
 10
2760.885168034776
 20
-3837.738596780308
 10
2759.685241258048
 20
-3837.738596780308
 10
2759.348517620165
 20
-3837.023291594141
 10
2758.430434109722
 20
-3835.78615778524
 10
2757.223065926824
 20
-3834.828076715256
 10
2755.809198717119
 20
-3834.215090866109
 10
2754.285570763692
 20
-3833.988127975224
 10
2749.329692959644
 20
-3833.988127975225
 10
2748.953525811256
 20
-3835.106852162095
 10
2748.885168034777
 20
-3835.038494386011
 10
2748.885168034778
 20
-3880.012581019857
 10
2760.885168034777
 20
-3882.222742298156
 97
       12
330
6E83
330
6E84
330
6E85
330
6E86
330
6E87
330
6E88
330
6E89
330
6E7B
330
6E8A
330
6CAD
330
6C8B
330
6CAC
 92
        7
 72
     0
 73
     1
 93
       18
 10
2760.885168034776
 20
-3887.16188001329
 10
2748.885168034778
 20
-3884.95171873499
 10
2748.885168034778
 20
-3910.132432415233
 10
2751.373091241612
 20
-3910.132432415233
 10
2751.146959687357
 20
-3909.459915316806
 10
2751.593442824394
 20
-3909.014529192397
 10
2751.969333926534
 20
-3910.132432415234
 10
2754.49290086058
 20
-3910.132432415233
 10
2754.266769306326
 20
-3909.459915316805
 10
2754.713252443587
 20
-3909.014529192173
 10
2755.089143545728
 20
-3910.132432415233
 10
2757.61348598279
 20
-3910.132432415233
 10
2757.387509101267
 20
-3909.459915316805
 10
2757.833793005032
 20
-3909.013631415294
 10
2758.209728667714
 20
-3910.132432415233
 10
2760.733450274527
 20
-3910.132432415233
 10
2760.507318720228
 20
-3909.459915316805
 10
2760.885168034776
 20
-3909.08206600444
 97
       18
330
6C8C
330
69C1
330
6D7D
330
6D7E
330
6D7F
330
6D80
330
6D81
330
6D82
330
6D83
330
6D84
330
6D85
330
6D86
330
6D87
330
6D88
330
6D89
330
6D79
330
6D8A
330
69BD
 92
        7
 72
     0
 73
     1
 93
       28
 10
2760.885168034776
 20
-3912.83180257797
 10
2759.116761742415
 20
-3912.831802577969
 10
2759.342738623985
 20
-3913.504319676399
 10
2758.896454721206
 20
-3913.950603581756
 10
2758.520519057307
 20
-3912.83180257797
 10
2755.996797450492
 20
-3912.831802577969
 10
2756.222929004747
 20
-3913.504319676398
 10
2755.776721915024
 20
-3913.950526768701
 10
2755.400554765338
 20
-3912.83180257797
 10
2752.876987831478
 20
-3912.83180257797
 10
2753.103119385777
 20
-3913.504319676397
 10
2752.65691229606
 20
-3913.950526768693
 10
2752.280745146375
 20
-3912.83180257797
 10
2749.757178212515
 20
-3912.83180257797
 10
2749.983309766816
 20
-3913.504319676398
 10
2749.536826630786
 20
-3913.949705804625
 10
2749.160935527361
 20
-3912.83180257797
 10
2748.885168034778
 20
-3912.83180257797
 10
2748.885168034778
 20
-3924.411689844063
 10
2749.10356140539
 20
-3924.788999239632
 10
2749.329692959643
 20
-3925.46151633806
 10
2754.285570763696
 20
-3925.46151633806
 10
2755.809198717122
 20
-3925.234553447177
 10
2757.223065926825
 20
-3924.62156759803
 10
2758.430434109723
 20
-3923.663486528047
 10
2759.348517620164
 20
-3922.426352719144
 10
2759.685241258049
 20
-3921.711047532976
 10
2760.885168034776
 20
-3921.711047532976
 97
       28
330
6D7A
330
6D88
330
6D8B
330
6D86
330
6D8C
330
6D84
330
6D8D
330
6D82
330
6D8E
330
6D80
330
6D8F
330
6D7E
330
6D90
330
6D91
330
6D92
330
6D93
330
6D94
330
69C1
330
6D95
330
6D96
330
6D97
330
6D98
330
6D99
330
6D9A
330
6D9B
330
6D9C
330
6D9D
330
69BD
 92
        7
 72
     0
 73
     1
 93
       14
 10
2760.885168034776
 20
-3931.911355310245
 10
2759.685241258049
 20
-3931.911355310245
 10
2758.941100621573
 20
-3930.561670226694
 10
2757.872328632162
 20
-3929.451040326335
 10
2756.553339353863
 20
-3928.654809847017
 10
2755.072499486814
 20
-3928.226928982717
 10
2754.285570763689
 20
-3928.160886500796
 10
2750.237346864403
 20
-3928.160886500796
 10
2750.463478418657
 20
-3928.833403599225
 10
2750.016995282916
 20
-3929.278789727488
 10
2749.641104179479
 20
-3928.160886500796
 10
2748.885168034778
 20
-3928.160886500796
 10
2748.885168034779
 20
-4036.532209548002
 10
2760.885168034776
 20
-4036.532209548002
 97
       14
330
6E07
330
6E08
330
6E09
330
6E0A
330
6D9E
330
6D9F
330
6DA0
330
6D96
330
6E0B
330
6DA1
330
6DA2
330
69C1
330
69D8
330
69BD
 92
        7
 72
     0
 73
     1
 93
       18
 10
2760.885168034776
 20
-4036.532209548002
 10
2748.885168034779
 20
-4036.532209548002
 10
2748.88516803478
 20
-4137.300926031184
 10
2751.373091241612
 20
-4137.300926031184
 10
2751.146959687357
 20
-4136.628408932756
 10
2751.593442824393
 20
-4136.183022808346
 10
2751.969333926534
 20
-4137.300926031183
 10
2754.49290086058
 20
-4137.300926031184
 10
2754.266769306326
 20
-4136.628408932756
 10
2754.713252443588
 20
-4136.183022808125
 10
2755.089143545728
 20
-4137.300926031184
 10
2757.61348598279
 20
-4137.300926031184
 10
2757.387509101266
 20
-4136.628408932756
 10
2757.833793005031
 20
-4136.182125031244
 10
2758.209728667714
 20
-4137.300926031183
 10
2760.733450274528
 20
-4137.300926031184
 10
2760.507318720228
 20
-4136.628408932756
 10
2760.885168034776
 20
-4136.250559620394
 97
       18
330
69D8
330
69C1
330
6BBA
330
6BBB
330
6BBC
330
6BBD
330
6BBE
330
6BBF
330
6BC0
330
6BC1
330
6BC2
330
6BC3
330
6BC4
330
6BC5
330
6BC6
330
6BB6
330
6BC7
330
69BD
 92
        7
 72
     0
 73
     1
 93
       28
 10
2760.885168034776
 20
-4140.00029619392
 10
2759.116761742415
 20
-4140.00029619392
 10
2759.342738623984
 20
-4140.672813292349
 10
2758.896454721206
 20
-4141.119097197707
 10
2758.520519057307
 20
-4140.00029619392
 10
2755.996797450492
 20
-4140.000296193921
 10
2756.222929004747
 20
-4140.672813292349
 10
2755.776721915024
 20
-4141.11902038465
 10
2755.400554765339
 20
-4140.000296193921
 10
2752.876987831478
 20
-4140.00029619392
 10
2753.103119385777
 20
-4140.672813292348
 10
2752.656912296062
 20
-4141.119020384644
 10
2752.280745146375
 20
-4140.00029619392
 10
2749.757178212516
 20
-4140.00029619392
 10
2749.983309766815
 20
-4140.672813292349
 10
2749.536826630786
 20
-4141.118199420576
 10
2749.160935527361
 20
-4140.00029619392
 10
2748.885168034779
 20
-4140.00029619392
 10
2748.88516803478
 20
-4152.601763430909
 10
2749.10356140539
 20
-4152.979072826473
 10
2749.329692959644
 20
-4153.651589924903
 10
2754.285570763692
 20
-4153.651589924902
 10
2755.809198717122
 20
-4153.424627034019
 10
2757.223065926824
 20
-4152.811641184873
 10
2758.430434109722
 20
-4151.853560114886
 10
2759.348517620163
 20
-4150.616426305989
 10
2759.685241258048
 20
-4149.90112111982
 10
2760.885168034775
 20
-4149.90112111982
 97
       28
330
6BB7
330
6BC5
330
6BC8
330
6BC3
330
6BC9
330
6BC1
330
6BCA
330
6BBF
330
6BCB
330
6BBD
330
6BCC
330
6BBB
330
6BCD
330
6BCE
330
6BCF
330
6BD0
330
6BD1
330
69C1
330
6BFF
330
6C00
330
6C01
330
6C02
330
6C03
330
6C04
330
6C05
330
6C06
330
6C07
330
69BD
 92
        7
 72
     0
 73
     1
 93
       14
 10
2760.885168034776
 20
-4160.101428897087
 10
2759.685241258048
 20
-4160.101428897088
 10
2758.941100621573
 20
-4158.751743813537
 10
2757.872328632163
 20
-4157.64111391318
 10
2756.553339353864
 20
-4156.84488343386
 10
2755.072499486812
 20
-4156.417002569562
 10
2754.285570763696
 20
-4156.350960087639
 10
2750.237346864402
 20
-4156.350960087638
 10
2750.463478418656
 20
-4157.023477186069
 10
2750.016995282915
 20
-4157.468863314332
 10
2749.641104179478
 20
-4156.350960087639
 10
2748.88516803478
 20
-4156.350960087639
 10
2748.885168034779
 20
-4171.540372207046
 10
2760.885168034775
 20
-4165.11312298902
 97
       14
330
6C08
330
6C09
330
6C0A
330
6C0B
330
6C0C
330
6C0D
330
6C0E
330
6C00
330
6C0F
330
6C10
330
6C11
330
69C1
330
69D6
330
69BD
 92
        7
 72
     0
 73
     1
 93
        4
 10
2760.885168034776
 20
-4165.11312298902
 10
2748.885168034779
 20
-4171.540372207044
 10
2748.88516803478
 20
-4208.61070823551
 10
2760.885168034776
 20
-4208.61070823551
 97
        4
330
69D6
330
69C1
330
69D3
330
69BD
 75
     0
 76
     1
 52
90.0
 41
2.5
 77
     0
 78
     1
 53
135.0
 43
0.0
 44
0.0
 45
-5.612660075668221
 46
-5.61266007566822
 79
     0
 47
1.281402282160746
 98
       17
 10
2754.158135222129
 20
-3416.409137271431
 10
2754.158135222129
 20
-3444.599997102161
 10
2755.439949615015
 20
-3506.10729656715
 10
2752.876320829247
 20
-3593.242659631052
 10
2755.439949615015
 20
-3617.589306123915
 10
2755.439949615015
 20
-3665.001182003587
 10
2754.158135222129
 20
-3717.538688327178
 10
2754.158135222129
 20
-3752.136545067489
 10
2756.721764007896
 20
-3807.236847622895
 10
2752.876320829247
 20
-3867.462755302023
 10
2755.439949615015
 20
-3894.3721980267
 10
2754.158135222129
 20
-3920.000248965518
 10
2755.439949615015
 20
-3943.065491012424
 10
2755.439949615015
 20
-4103.240780894817
 10
2754.158135222129
 20
-4145.527051650764
 10
2752.876320829247
 20
-4163.466688573947
 10
2755.439949615015
 20
-4182.687717282988
  0
HATCH
  5
7C04
330
1F
100
AcDbEntity
  8
izolace
100
AcDbHatch
 10
0.0
 20
0.0
 30
0.0
210
0.0
220
0.0
230
1.0
  2
AR-SAND
 70
     0
 71
     1
 91
        1
 92
        7
 72
     0
 73
     1
 93
        5
 10
2772.885168034779
 20
-3396.183155015727
 10
2757.100132429013
 20
-3396.183155015727
 10
2748.88516803478
 20
-3396.183155015725
 10
2748.88516803478
 20
-3401.401199996915
 10
2772.88516803478
 20
-3401.401199996914
 97
        2
330
6C92
330
6C76
 75
     0
 76
     1
 52
90.0
 41
0.05
 77
     0
 78
     4
 53
127.5
 43
0.0
 44
0.0
 45
-2.447066186646711
 46
-0.0800015647992021
 79
     6
 49
0.0
 49
-1.9304
 49
0.0
 49
-2.159
 49
0.0
 49
-2.06375
 53
97.50000000000001
 43
0.0
 44
0.0
 45
-3.584125502841771
 46
2.247616415690013
 79
     6
 49
0.0
 49
-1.0414
 49
0.0
 49
-1.7399
 49
0.0
 49
-0.6667500000000001
 53
57.5
 43
-0.0000000000000001
 44
-1.5621
 45
-0.0071859233927282
 46
3.95496185120729
 79
     6
 49
0.0
 49
-0.635
 49
0.0
 49
-2.286
 49
0.0
 49
-2.9845
 53
47.5
 43
-0.0000000000000001
 44
-1.5621
 45
-1.11464661628608
 46
3.817782262361486
 79
     6
 49
0.0
 49
-0.3175
 49
0.0
 49
-1.498599999999999
 49
0.0
 49
-1.7145
 47
0.2188878880467624
 98
        1
 10
2762.548720677416
 20
-3398.747617373905
  0
HATCH
  5
7C12
330
1F
100
AcDbEntity
  8
izolace
100
AcDbHatch
 10
0.0
 20
0.0
 30
0.0
210
0.0
220
0.0
230
1.0
  2
AR-SAND
 70
     0
 71
     1
 91
        1
 92
        7
 72
     1
 73
     1
 93
       10
 10
2762.208074426069
 20
-4209.942483237677
 42
-0.1800063296960419
 10
2763.02513585484
 20
-4210.24648608038
 42
0.0
 10
2765.649373988747
 20
-4208.61070823551
 42
0.0
 10
2748.885168034776
 20
-4208.61070823551
 42
0.0
 10
2748.885168034776
 20
-4213.828753216696
 42
0.0
 10
2772.885168034776
 20
-4213.828753216696
 42
0.0
 10
2772.885168034776
 20
-4208.61070823551
 42
0.0
 10
2765.649373988745
 20
-4208.61070823551
 42
0.0
 10
2763.02513585484
 20
-4210.246486080379
 42
-0.6949061625081976
 10
2762.208074426069
 20
-4212.442483237677
 42
-1.0
 97
        5
330
6A75
330
69D7
330
69D3
330
69D2
330
69DA
 75
     0
 76
     1
 52
90.0
 41
0.05
 77
     0
 78
     4
 53
127.5
 43
0.0
 44
0.0
 45
-2.447066186646711
 46
-0.0800015647992021
 79
     6
 49
0.0
 49
-1.9304
 49
0.0
 49
-2.159
 49
0.0
 49
-2.06375
 53
97.50000000000001
 43
0.0
 44
0.0
 45
-3.584125502841771
 46
2.247616415690013
 79
     6
 49
0.0
 49
-1.0414
 49
0.0
 49
-1.7399
 49
0.0
 49
-0.6667500000000001
 53
57.5
 43
-0.0000000000000001
 44
-1.5621
 45
-0.0071859233927282
 46
3.95496185120729
 79
     6
 49
0.0
 49
-0.635
 49
0.0
 49
-2.286
 49
0.0
 49
-2.9845
 53
47.5
 43
-0.0000000000000001
 44
-1.5621
 45
-1.11464661628608
 46
3.817782262361486
 79
     6
 49
0.0
 49
-0.3175
 49
0.0
 49
-1.498599999999999
 49
0.0
 49
-1.7145
 47
0.2007561986566602
 98
        1
 10
2754.652195533774
 20
-4211.978942162964
  0
LINE
  5
9D4D
330
1F
100
AcDbEntity
  8
STAVBA OBRYS
100
AcDbLine
 10
2676.017641835609
 20
-4213.828753216696
 30
0.0
 11
2676.017641835609
 21
-4307.099852170923
 31
0.0
  0
CIRCLE
  5
9D4E
330
1F
100
AcDbEntity
  8
POPIS
100
AcDbCircle
 10
3200.707744372182
 20
-3407.45582454704
 30
0.0
 40
11.13656048292026
  0
TEXT
  5
9D4F
330
1F
100
AcDbEntity
  8
POPIS
100
AcDbText
 10
3195.948715317001
 20
-3413.001170292027
 30
0.0
 40
12.0
  1
R
 41
0.85
  7
SIMPLEX7
100
AcDbText
  0
TEXT
  5
9F64
330
1F
100
AcDbEntity
  8
POPIS
100
AcDbText
 10
2576.595924673235
 20
-3188.631110609629
 30
0.0
 40
25.0
  1
Svislý řez
 41
0.7
  7
SIMPLEX7
100
AcDbText
  0
TEXT
  5
9F65
330
1F
100
AcDbEntity
  8
POPIS
100
AcDbText
 10
2576.595924673235
 20
-3149.21622260874
 30
0.0
 40
35.0
  1
Požárně dělící šachetní stěna
 41
0.85
  7
SIMPLEX7
100
AcDbText
  0
TEXT
  5
9FA2
330
1F
100
AcDbEntity
  8
POPIS
100
AcDbText
 10
2970.221164213462
 20
-3505.581919696783
 30
0.0
 40
25.0
  1
(v exteriéru vrut s viditelnou hlavou a těsnící podložkou)
 41
0.6
 51
10.0
  7
SIMPLEX7
100
AcDbText
  0
ENDSEC
  0
SECTION
  2
OBJECTS
  0
DICTIONARY
  5
C
330
0
100
AcDbDictionary
281
     1
  3
ACAD_GROUP
350
D
  3
ACAD_LAYOUT
350
1A
  3
ACAD_MLINESTYLE
350
17
  3
ACAD_PLOTSETTINGS
350
19
  3
ACAD_PLOTSTYLENAME
350
E
  3
AcDbVariableDictionary
350
17BD
  0
DICTIONARY
  5
D
102
{ACAD_REACTORS
330
C
102
}
330
C
100
AcDbDictionary
281
     1
  0
DICTIONARY
  5
1A
102
{ACAD_REACTORS
330
C
102
}
330
C
100
AcDbDictionary
281
     1
  3
Model
350
22
  3
Rozvržení1
350
1E
  3
Rozvržení2
350
26
  0
DICTIONARY
  5
17
102
{ACAD_REACTORS
330
C
102
}
330
C
100
AcDbDictionary
281
     1
  3
Standard
350
18
  0
DICTIONARY
  5
19
102
{ACAD_REACTORS
330
C
102
}
330
C
100
AcDbDictionary
281
     1
  0
ACDBDICTIONARYWDFLT
  5
E
102
{ACAD_REACTORS
330
C
102
}
330
C
100
AcDbDictionary
281
     1
  3
Normal
350
F
100
AcDbDictionaryWithDefault
340
F
  0
DICTIONARY
  5
17BD
102
{ACAD_REACTORS
330
C
102
}
330
C
100
AcDbDictionary
281
     1
  3
DIMASSOC
350
9F87
  3
SORTENTS
350
17BE
  0
LAYOUT
  5
22
102
{ACAD_REACTORS
330
1A
102
}
330
1A
100
AcDbPlotSettings
  1

  2
HP DeskJet 690C
  4

  6

 40
0.0
 41
0.0
 42
0.0
 43
0.0
 44
0.0
 45
0.0
 46
0.0
 47
0.0
 48
0.0
 49
0.0
140
0.0
141
0.0
142
1.0
143
1.0
 70
  1712
 72
     0
 73
     0
 74
     0
  7
monochrome.ctb
 75
     0
147
1.0
148
0.0
149
0.0
100
AcDbLayout
  1
Model
 70
     1
 71
     0
 10
0.0
 20
0.0
 11
12.0
 21
9.0
 12
0.0
 22
0.0
 32
0.0
 14
0.0
 24
0.0
 34
0.0
 15
0.0
 25
0.0
 35
0.0
146
0.0
 13
0.0
 23
0.0
 33
0.0
 16
1.0
 26
0.0
 36
0.0
 17
0.0
 27
1.0
 37
0.0
 76
     0
330
1F
  0
LAYOUT
  5
1E
102
{ACAD_REACTORS
330
1A
102
}
330
1A
100
AcDbPlotSettings
  1

  2
HP DeskJet 690C
  4

  6

 40
0.0
 41
0.0
 42
0.0
 43
0.0
 44
0.0
 45
0.0
 46
0.0
 47
0.0
 48
0.0
 49
0.0
140
0.0
141
0.0
142
1.0
143
1.0
 70
   688
 72
     0
 73
     0
 74
     5
  7
monochrome.ctb
 75
    16
147
1.0
148
0.0
149
0.0
100
AcDbLayout
  1
Rozvržení1
 70
     1
 71
     1
 10
0.0
 20
0.0
 11
420.0
 21
297.0
 12
0.0
 22
0.0
 32
0.0
 14
1.000000000000000E+20
 24
1.000000000000000E+20
 34
1.000000000000000E+20
 15
-1.000000000000000E+20
 25
-1.000000000000000E+20
 35
-1.000000000000000E+20
146
0.0
 13
0.0
 23
0.0
 33
0.0
 16
1.0
 26
0.0
 36
0.0
 17
0.0
 27
1.0
 37
0.0
 76
     0
330
1B
  0
LAYOUT
  5
26
102
{ACAD_REACTORS
330
1A
102
}
330
1A
100
AcDbPlotSettings
  1

  2
HP DeskJet 690C
  4

  6

 40
0.0
 41
0.0
 42
0.0
 43
0.0
 44
0.0
 45
0.0
 46
0.0
 47
0.0
 48
0.0
 49
0.0
140
0.0
141
0.0
142
1.0
143
1.0
 70
   688
 72
     0
 73
     0
 74
     5
  7
monochrome.ctb
 75
    16
147
1.0
148
0.0
149
0.0
100
AcDbLayout
  1
Rozvržení2
 70
     1
 71
     2
 10
0.0
 20
0.0
 11
12.0
 21
9.0
 12
0.0
 22
0.0
 32
0.0
 14
0.0
 24
0.0
 34
0.0
 15
0.0
 25
0.0
 35
0.0
146
0.0
 13
0.0
 23
0.0
 33
0.0
 16
1.0
 26
0.0
 36
0.0
 17
0.0
 27
1.0
 37
0.0
 76
     0
330
23
  0
MLINESTYLE
  5
18
102
{ACAD_REACTORS
330
17
102
}
330
17
100
AcDbMlineStyle
  2
STANDARD
 70
     0
  3

 62
   256
 51
90.0
 52
90.0
 71
     2
 49
0.5
 62
   256
  6
BYLAYER
 49
-0.5
 62
   256
  6
BYLAYER
  0
ACDBPLACEHOLDER
  5
F
102
{ACAD_REACTORS
330
E
102
}
330
E
  0
DICTIONARYVAR
  5
9F87
102
{ACAD_REACTORS
330
17BD
102
}
330
17BD
100
DictionaryVariables
280
     0
  1
1
  0
DICTIONARYVAR
  5
17BE
102
{ACAD_REACTORS
330
17BD
102
}
330
17BD
100
DictionaryVariables
280
     0
  1
96
  0
ENDSEC
  0
EOF
