  0
SECTION
  2
HEADER
  9
$ACADVER
  1
AC1015
  9
$ACADMAINTVER
 70
    14
  9
$DWGCODEPAGE
  3
ANSI_1250
  9
$INSBASE
 10
0.0
 20
0.0
 30
0.0
  9
$EXTMIN
 10
3530.401861883008
 20
-2388.24338021615
 30
-0.0015258207003583
  9
$EXTMAX
 10
4783.019415327355
 20
-1823.665959493304
 30
0.0000000349246037
  9
$LIMMIN
 10
0.0
 20
0.0
  9
$LIMMAX
 10
420.0
 20
297.0
  9
$ORTHOMODE
 70
     0
  9
$REGENMODE
 70
     1
  9
$FILLMODE
 70
     1
  9
$QTEXTMODE
 70
     0
  9
$MIRRTEXT
 70
     1
  9
$LTSCALE
 40
1.0
  9
$ATTMODE
 70
     1
  9
$TEXTSIZE
 40
2.5
  9
$TRACEWID
 40
1.0
  9
$TEXTSTYLE
  7
Standard
  9
$CLAYER
  8
CETRIS
  9
$CELTYPE
  6
ByLayer
  9
$CECOLOR
 62
   256
  9
$CELTSCALE
 40
1.0
  9
$DISPSILH
 70
     0
  9
$DIMSCALE
 40
1.0
  9
$DIMASZ
 40
2.5
  9
$DIMEXO
 40
0.625
  9
$DIMDLI
 40
3.75
  9
$DIMRND
 40
0.0
  9
$DIMDLE
 40
0.0
  9
$DIMEXE
 40
1.25
  9
$DIMTP
 40
0.0
  9
$DIMTM
 40
0.0
  9
$DIMTXT
 40
2.5
  9
$DIMCEN
 40
2.5
  9
$DIMTSZ
 40
0.0
  9
$DIMTOL
 70
     0
  9
$DIMLIM
 70
     0
  9
$DIMTIH
 70
     0
  9
$DIMTOH
 70
     0
  9
$DIMSE1
 70
     0
  9
$DIMSE2
 70
     0
  9
$DIMTAD
 70
     1
  9
$DIMZIN
 70
     8
  9
$DIMBLK
  1

  9
$DIMASO
 70
     1
  9
$DIMSHO
 70
     1
  9
$DIMPOST
  1

  9
$DIMAPOST
  1

  9
$DIMALT
 70
     0
  9
$DIMALTD
 70
     3
  9
$DIMALTF
 40
0.03937007874016
  9
$DIMLFAC
 40
1.0
  9
$DIMTOFL
 70
     1
  9
$DIMTVP
 40
0.0
  9
$DIMTIX
 70
     0
  9
$DIMSOXD
 70
     0
  9
$DIMSAH
 70
     0
  9
$DIMBLK1
  1

  9
$DIMBLK2
  1

  9
$DIMSTYLE
  2
ISO-25
  9
$DIMCLRD
 70
     0
  9
$DIMCLRE
 70
     0
  9
$DIMCLRT
 70
     0
  9
$DIMTFAC
 40
1.0
  9
$DIMGAP
 40
0.625
  9
$DIMJUST
 70
     0
  9
$DIMSD1
 70
     0
  9
$DIMSD2
 70
     0
  9
$DIMTOLJ
 70
     0
  9
$DIMTZIN
 70
     8
  9
$DIMALTZ
 70
     0
  9
$DIMALTTZ
 70
     0
  9
$DIMUPT
 70
     0
  9
$DIMDEC
 70
     2
  9
$DIMTDEC
 70
     2
  9
$DIMALTU
 70
     2
  9
$DIMALTTD
 70
     3
  9
$DIMTXSTY
  7
Standard
  9
$DIMAUNIT
 70
     0
  9
$DIMADEC
 70
     0
  9
$DIMALTRND
 40
0.0
  9
$DIMAZIN
 70
     0
  9
$DIMDSEP
 70
    44
  9
$DIMATFIT
 70
     3
  9
$DIMFRAC
 70
     0
  9
$DIMLDRBLK
  1

  9
$DIMLUNIT
 70
     2
  9
$DIMLWD
 70
    -2
  9
$DIMLWE
 70
    -2
  9
$DIMTMOVE
 70
     0
  9
$LUNITS
 70
     2
  9
$LUPREC
 70
     4
  9
$SKETCHINC
 40
1.0
  9
$FILLETRAD
 40
0.0
  9
$AUNITS
 70
     0
  9
$AUPREC
 70
     0
  9
$MENU
  1
.
  9
$ELEVATION
 40
0.0
  9
$PELEVATION
 40
0.0
  9
$THICKNESS
 40
0.0
  9
$LIMCHECK
 70
     0
  9
$CHAMFERA
 40
10.0
  9
$CHAMFERB
 40
10.0
  9
$CHAMFERC
 40
20.0
  9
$CHAMFERD
 40
0.0
  9
$SKPOLY
 70
     0
  9
$TDCREATE
 40
2452332.512107639
  9
$TDUCREATE
 40
2452332.470440972
  9
$TDUPDATE
 40
2455601.289891736
  9
$TDUUPDATE
 40
2455601.248225069
  9
$TDINDWG
 40
1.0584835417
  9
$TDUSRTIMER
 40
1.0584696528
  9
$USRTIMER
 70
     1
  9
$ANGBASE
 50
0.0
  9
$ANGDIR
 70
     0
  9
$PDMODE
 70
     0
  9
$PDSIZE
 40
0.0
  9
$PLINEWID
 40
0.0
  9
$SPLFRAME
 70
     0
  9
$SPLINETYPE
 70
     6
  9
$SPLINESEGS
 70
     8
  9
$HANDSEED
  5
9FB4
  9
$SURFTAB1
 70
     6
  9
$SURFTAB2
 70
     6
  9
$SURFTYPE
 70
     6
  9
$SURFU
 70
     6
  9
$SURFV
 70
     6
  9
$UCSBASE
  2

  9
$UCSNAME
  2

  9
$UCSORG
 10
0.0
 20
0.0
 30
0.0
  9
$UCSXDIR
 10
1.0
 20
0.0
 30
0.0
  9
$UCSYDIR
 10
0.0
 20
1.0
 30
0.0
  9
$UCSORTHOREF
  2

  9
$UCSORTHOVIEW
 70
     0
  9
$UCSORGTOP
 10
0.0
 20
0.0
 30
0.0
  9
$UCSORGBOTTOM
 10
0.0
 20
0.0
 30
0.0
  9
$UCSORGLEFT
 10
0.0
 20
0.0
 30
0.0
  9
$UCSORGRIGHT
 10
0.0
 20
0.0
 30
0.0
  9
$UCSORGFRONT
 10
0.0
 20
0.0
 30
0.0
  9
$UCSORGBACK
 10
0.0
 20
0.0
 30
0.0
  9
$PUCSBASE
  2

  9
$PUCSNAME
  2

  9
$PUCSORG
 10
0.0
 20
0.0
 30
0.0
  9
$PUCSXDIR
 10
1.0
 20
0.0
 30
0.0
  9
$PUCSYDIR
 10
0.0
 20
1.0
 30
0.0
  9
$PUCSORTHOREF
  2

  9
$PUCSORTHOVIEW
 70
     0
  9
$PUCSORGTOP
 10
0.0
 20
0.0
 30
0.0
  9
$PUCSORGBOTTOM
 10
0.0
 20
0.0
 30
0.0
  9
$PUCSORGLEFT
 10
0.0
 20
0.0
 30
0.0
  9
$PUCSORGRIGHT
 10
0.0
 20
0.0
 30
0.0
  9
$PUCSORGFRONT
 10
0.0
 20
0.0
 30
0.0
  9
$PUCSORGBACK
 10
0.0
 20
0.0
 30
0.0
  9
$USERI1
 70
     0
  9
$USERI2
 70
     0
  9
$USERI3
 70
     0
  9
$USERI4
 70
     0
  9
$USERI5
 70
     0
  9
$USERR1
 40
0.0
  9
$USERR2
 40
0.0
  9
$USERR3
 40
0.0
  9
$USERR4
 40
0.0
  9
$USERR5
 40
0.0
  9
$WORLDVIEW
 70
     1
  9
$SHADEDGE
 70
     3
  9
$SHADEDIF
 70
    70
  9
$TILEMODE
 70
     1
  9
$MAXACTVP
 70
    64
  9
$PINSBASE
 10
0.0
 20
0.0
 30
0.0
  9
$PLIMCHECK
 70
     0
  9
$PEXTMIN
 10
1.000000000000000E+20
 20
1.000000000000000E+20
 30
1.000000000000000E+20
  9
$PEXTMAX
 10
-1.000000000000000E+20
 20
-1.000000000000000E+20
 30
-1.000000000000000E+20
  9
$PLIMMIN
 10
0.0
 20
0.0
  9
$PLIMMAX
 10
420.0
 20
297.0
  9
$UNITMODE
 70
     0
  9
$VISRETAIN
 70
     1
  9
$PLINEGEN
 70
     0
  9
$PSLTSCALE
 70
     1
  9
$TREEDEPTH
 70
  3020
  9
$CMLSTYLE
  2
Standard
  9
$CMLJUST
 70
     0
  9
$CMLSCALE
 40
20.0
  9
$PROXYGRAPHICS
 70
     1
  9
$MEASUREMENT
 70
     1
  9
$CELWEIGHT
370
    -1
  9
$ENDCAPS
280
     0
  9
$JOINSTYLE
280
     0
  9
$LWDISPLAY
290
     0
  9
$INSUNITS
 70
     4
  9
$HYPERLINKBASE
  1

  9
$STYLESHEET
  1

  9
$XEDIT
290
     1
  9
$CEPSNTYPE
380
     0
  9
$PSTYLEMODE
290
     1
  9
$FINGERPRINTGUID
  2
{D99C744E-04C5-44F1-9703-862C59725F9B}
  9
$VERSIONGUID
  2
{98BC73AB-E1E0-465A-9C7F-C0FE4DCEDB8A}
  9
$EXTNAMES
290
     1
  9
$PSVPSCALE
 40
0.0
  9
$OLESTARTUP
290
     0
  0
ENDSEC
  0
SECTION
  2
CLASSES
  0
CLASS
  1
ACDBDICTIONARYWDFLT
  2
AcDbDictionaryWithDefault
  3
AutoCAD 2000
 90
        0
280
     0
281
     0
  0
CLASS
  1
ACDBPLACEHOLDER
  2
AcDbPlaceHolder
  3
AutoCAD 2000
 90
        0
280
     0
281
     0
  0
CLASS
  1
LAYOUT
  2
AcDbLayout
  3
AutoCAD 2000
 90
        0
280
     0
281
     0
  0
CLASS
  1
DICTIONARYVAR
  2
AcDbDictionaryVar
  3
AutoCAD 2000
 90
        0
280
     0
281
     0
  0
ENDSEC
  0
SECTION
  2
TABLES
  0
TABLE
  2
VPORT
  5
8
330
0
100
AcDbSymbolTable
 70
     2
  0
VPORT
  5
9FB3
330
8
100
AcDbSymbolTableRecord
100
AcDbViewportTableRecord
  2
*Active
 70
     0
 10
0.0
 20
0.0
 11
1.0
 21
1.0
 12
4032.574671014157
 22
-2162.203036867674
 13
0.0
 23
0.0
 14
10.0
 24
10.0
 15
10.0
 25
10.0
 16
0.0
 26
0.0
 36
1.0
 17
0.0
 27
0.0
 37
0.0
 40
865.8984078844673
 41
2.031862745098039
 42
50.0
 43
0.0
 44
0.0
 50
0.0
 51
0.0
 71
     0
 72
   100
 73
     1
 74
     3
 75
     0
 76
     1
 77
     0
 78
     0
281
     0
 65
     1
110
0.0
120
0.0
130
0.0
111
1.0
121
0.0
131
0.0
112
0.0
122
1.0
132
0.0
 79
     0
146
0.0
  0
ENDTAB
  0
TABLE
  2
LTYPE
  5
5
330
0
100
AcDbSymbolTable
 70
     5
  0
LTYPE
  5
14
330
5
100
AcDbSymbolTableRecord
100
AcDbLinetypeTableRecord
  2
ByBlock
 70
     0
  3

 72
    65
 73
     0
 40
0.0
  0
LTYPE
  5
15
330
5
100
AcDbSymbolTableRecord
100
AcDbLinetypeTableRecord
  2
ByLayer
 70
     0
  3

 72
    65
 73
     0
 40
0.0
  0
LTYPE
  5
16
330
5
100
AcDbSymbolTableRecord
100
AcDbLinetypeTableRecord
  2
Continuous
 70
     0
  3
Solid line
 72
    65
 73
     0
 40
0.0
  0
LTYPE
  5
33
330
5
100
AcDbSymbolTableRecord
100
AcDbLinetypeTableRecord
  2
DASHED
 70
     0
  3
Dashed __ __ __ __ __ __ __ __ __ __ __ __ __ _
 72
    65
 73
     2
 40
19.04999999999999
 49
12.7
 74
     0
 49
-6.349999999999999
 74
     0
  0
LTYPE
  5
34
330
5
100
AcDbSymbolTableRecord
100
AcDbLinetypeTableRecord
  2
DASHDOT2
 70
     0
  3
Dash dot (.5x) _._._._._._._._._._._._._._._.
 72
    65
 73
     4
 40
12.7
 49
6.349999999999999
 74
     0
 49
-3.174999999999999
 74
     0
 49
0.0
 74
     0
 49
-3.174999999999999
 74
     0
  0
LTYPE
  5
35
330
5
100
AcDbSymbolTableRecord
100
AcDbLinetypeTableRecord
  2
CIKCAK
 70
     0
  3
Cik-cak /\/\/\/\/\/\/\/\/\/\/\/\/\/\/\/\/\/\/\/
 72
    65
 73
     4
 40
20.32254
 49
0.00254
 74
     0
 49
-5.08
 74
     4
 75
   131
340
3E
 46
5.08
 50
0.0
 44
-5.08
 45
0.0
 49
-10.16
 74
     4
 75
   131
340
3E
 46
5.08
 50
180.0
 44
5.08
 45
0.0
 49
-5.08
 74
     0
  0
LTYPE
  5
36
330
5
100
AcDbSymbolTableRecord
100
AcDbLinetypeTableRecord
  2
IZOLACE
 70
     0
  3
Izolace SSSSSSSSSSSSSSSSSSSSSSSSSSSSSSSSSSSSSSS
 72
    65
 73
     4
 40
10.16253999999999
 49
0.00254
 74
     0
 49
-2.54
 74
     4
 75
   134
340
3E
 46
2.54
 50
0.0
 44
-2.54
 45
0.0
 49
-5.08
 74
     4
 75
   134
340
3E
 46
2.54
 50
180.0
 44
2.54
 45
0.0
 49
-2.54
 74
     0
  0
ENDTAB
  0
TABLE
  2
LAYER
  5
2
330
0
100
AcDbSymbolTable
 70
     8
  0
LAYER
  5
10
330
2
100
AcDbSymbolTableRecord
100
AcDbLayerTableRecord
  2
0
 70
     0
 62
     7
  6
Continuous
370
    -3
390
F
  0
LAYER
  5
37
330
2
100
AcDbSymbolTableRecord
100
AcDbLayerTableRecord
  2
POPIS
 70
     0
 62
    30
  6
Continuous
370
    -3
390
F
  0
LAYER
  5
38
330
2
100
AcDbSymbolTableRecord
100
AcDbLayerTableRecord
  2
SPOJOVACÍ
 70
     0
 62
   180
  6
Continuous
370
    -3
390
F
  0
LAYER
  5
39
330
2
100
AcDbSymbolTableRecord
100
AcDbLayerTableRecord
  2
CETRIS
 70
     0
 62
     1
  6
Continuous
370
    -3
390
F
  0
LAYER
  5
3A
330
2
100
AcDbSymbolTableRecord
100
AcDbLayerTableRecord
  2
NOSNÉ KONSTRUKCE
 70
     0
 62
    33
  6
Continuous
370
    -3
390
F
  0
LAYER
  5
3B
330
2
100
AcDbSymbolTableRecord
100
AcDbLayerTableRecord
  2
izolace
 70
     0
 62
    73
  6
Continuous
370
    -3
390
F
  0
LAYER
  5
3C
330
2
100
AcDbSymbolTableRecord
100
AcDbLayerTableRecord
  2
STAVBA OBRYS
 70
     0
 62
     6
  6
Continuous
370
    -3
390
F
  0
LAYER
  5
1B41
330
2
100
AcDbSymbolTableRecord
100
AcDbLayerTableRecord
  2
Defpoints
 70
     0
 62
     7
  6
Continuous
290
     0
370
    -3
390
F
  0
ENDTAB
  0
TABLE
  2
STYLE
  5
3
330
0
100
AcDbSymbolTable
 70
     3
  0
STYLE
  5
11
330
3
100
AcDbSymbolTableRecord
100
AcDbTextStyleTableRecord
  2
Standard
 70
     0
 40
0.0
 41
1.0
 50
0.0
 71
     0
 42
2.5
  3
txt
  4

  0
STYLE
  5
3D
330
3
100
AcDbSymbolTableRecord
100
AcDbTextStyleTableRecord
  2
SIMPLEX7
 70
     0
 40
0.0
 41
0.85
 50
0.0
 71
     0
 42
102.0
  3
ARIAL.TTF
  4

1001
ACAD
1000
Arial CE
1071
    60962
  0
STYLE
  5
3E
330
3
100
AcDbSymbolTableRecord
100
AcDbTextStyleTableRecord
  2

 70
     1
 40
0.0
 41
1.0
 50
0.0
 71
     0
 42
2.5
  3
ltypeshp.shx
  4

  0
ENDTAB
  0
TABLE
  2
VIEW
  5
6
330
0
100
AcDbSymbolTable
 70
     0
  0
ENDTAB
  0
TABLE
  2
UCS
  5
7
330
0
100
AcDbSymbolTable
 70
     0
  0
ENDTAB
  0
TABLE
  2
APPID
  5
9
330
0
100
AcDbSymbolTable
 70
     1
  0
APPID
  5
12
330
9
100
AcDbSymbolTableRecord
100
AcDbRegAppTableRecord
  2
ACAD
 70
     0
  0
ENDTAB
  0
TABLE
  2
DIMSTYLE
  5
A
330
0
100
AcDbSymbolTable
 70
     1
100
AcDbDimStyleTable
 71
     1
340
27
  0
DIMSTYLE
105
27
330
A
100
AcDbSymbolTableRecord
100
AcDbDimStyleTableRecord
  2
ISO-25
 70
     0
 41
2.5
 42
0.625
 43
3.75
 44
1.25
 73
     0
 74
     0
 77
     1
 78
     8
140
2.5
141
2.5
143
0.03937007874016
147
0.625
171
     3
172
     1
271
     2
272
     2
274
     3
278
    44
283
     0
284
     8
340
11
  0
ENDTAB
  0
TABLE
  2
BLOCK_RECORD
  5
1
330
0
100
AcDbSymbolTable
 70
     3
  0
BLOCK_RECORD
  5
1F
330
1
100
AcDbSymbolTableRecord
100
AcDbBlockTableRecord
  2
*Model_Space
340
22
  0
BLOCK_RECORD
  5
1B
330
1
100
AcDbSymbolTableRecord
100
AcDbBlockTableRecord
  2
*Paper_Space
340
1E
  0
BLOCK_RECORD
  5
23
330
1
100
AcDbSymbolTableRecord
100
AcDbBlockTableRecord
  2
*Paper_Space0
340
26
  0
BLOCK_RECORD
  5
2B
330
1
100
AcDbSymbolTableRecord
100
AcDbBlockTableRecord
  2
E_PUNKT
340
0
102
{BLKREFS
331
D05
331
D1A
331
D1D
331
1138
331
1350
331
1351
331
1352
331
1353
331
1414
331
1415
331
1416
331
EAD
331
EB1
331
EB4
331
EB9
331
EBF
331
EC1
331
15BB
331
15BC
331
15C2
331
15C3
331
15CA
331
1D1A
331
1FE7
331
2073
331
2074
331
208A
331
208C
331
2113
331
23A8
331
2669
331
25ED
331
2AB6
331
2B8E
331
2BEE
331
2F0B
331
2E50
331
2E2C
331
2DB0
331
2F0A
331
3527
331
365E
331
371B
331
3C9E
331
3C9F
331
3CA8
331
3CAB
331
3CAC
331
3CAE
331
449A
331
4533
331
45E9
331
45B0
331
4420
331
4498
331
4379
331
45F5
331
47D7
331
4CE5
331
4CE8
331
4CEB
331
5176
331
519A
331
5197
331
5199
331
5198
331
519B
331
519D
331
51A1
331
524F
331
5251
331
5413
331
5412
331
5414
331
5417
331
541A
331
541D
331
567D
331
5667
331
56B3
331
56D8
331
56DC
331
56D9
331
5D48
331
5D4C
331
5F2A
331
5F30
331
5F31
331
5F39
331
5F3B
331
60B5
331
60B6
331
611F
331
6123
331
6126
331
6131
331
612F
331
6130
331
6148
331
6C59
331
6C5A
331
6AD5
331
7412
331
6C86
331
74A2
331
6C7B
331
745F
331
6A75
331
74D0
331
7592
331
74DB
331
74DA
331
75EE
331
75F4
331
75F7
331
75FB
331
75FC
331
7601
331
79D9
331
79DA
331
79DC
331
8178
331
8177
331
8179
331
817D
331
8180
331
8182
331
8186
331
8189
331
818C
331
8B1A
331
8B1F
331
8B21
331
8A05
331
8B1D
331
88E8
331
8CB1
331
8CB9
102
}
  0
BLOCK_RECORD
  5
2F
330
1
100
AcDbSymbolTableRecord
100
AcDbBlockTableRecord
  2
_ArchTick
340
0
102
{BLKREFS
331
B3F
331
B47
331
B48
331
205C
331
205D
102
}
  0
ENDTAB
  0
ENDSEC
  0
SECTION
  2
BLOCKS
  0
BLOCK
  5
20
330
1F
100
AcDbEntity
  8
0
100
AcDbBlockBegin
  2
*Model_Space
 70
     0
 10
0.0
 20
0.0
 30
0.0
  3
*Model_Space
  1

  0
ENDBLK
  5
21
330
1F
100
AcDbEntity
  8
0
100
AcDbBlockEnd
  0
BLOCK
  5
1C
330
1B
100
AcDbEntity
 67
     1
  8
0
100
AcDbBlockBegin
  2
*Paper_Space
 70
     0
 10
0.0
 20
0.0
 30
0.0
  3
*Paper_Space
  1

  0
ENDBLK
  5
1D
330
1B
100
AcDbEntity
 67
     1
  8
0
100
AcDbBlockEnd
  0
BLOCK
  5
24
330
23
100
AcDbEntity
  8
0
100
AcDbBlockBegin
  2
*Paper_Space0
 70
     0
 10
0.0
 20
0.0
 30
0.0
  3
*Paper_Space0
  1

  0
ENDBLK
  5
25
330
23
100
AcDbEntity
  8
0
100
AcDbBlockEnd
  0
BLOCK
  5
2D
330
2B
100
AcDbEntity
  8
0
100
AcDbBlockBegin
  2
E_PUNKT
 70
     0
 10
0.0
 20
0.0
 30
0.0
  3
E_PUNKT
  1

  0
LWPOLYLINE
  5
2C
330
2B
100
AcDbEntity
  8
POPIS
100
AcDbPolyline
 90
        2
 70
     1
 43
2.5
 10
1.27761037562675
 20
0.0290683308725193
 42
-1.0
 10
-1.222389624373249
 20
0.0290683308725193
 42
-1.0
  0
ENDBLK
  5
2E
330
2B
100
AcDbEntity
  8
0
100
AcDbBlockEnd
  0
BLOCK
  5
31
330
2F
100
AcDbEntity
  8
0
100
AcDbBlockBegin
  2
_ArchTick
 70
     0
 10
0.0
 20
0.0
 30
0.0
  3
_ArchTick
  1

  0
LWPOLYLINE
  5
30
330
2F
100
AcDbEntity
  8
0
  6
ByBlock
 62
     0
100
AcDbPolyline
 90
        2
 70
     0
 43
0.15
 10
-0.5
 20
-0.5
 10
0.5
 20
0.5
  0
ENDBLK
  5
32
330
2F
100
AcDbEntity
  8
0
100
AcDbBlockEnd
  0
ENDSEC
  0
SECTION
  2
ENTITIES
  0
LINE
  5
436D
330
1F
100
AcDbEntity
  8
NOSNÉ KONSTRUKCE
100
AcDbLine
 10
3722.085424764565
 20
-2187.69619401378
 30
0.0
 11
4221.580026845447
 21
-2187.69619401378
 31
0.0
  0
LINE
  5
436E
330
1F
100
AcDbEntity
  8
NOSNÉ KONSTRUKCE
  6
DASHED
100
AcDbLine
 10
3722.085424764565
 20
-2179.529998814011
 30
0.0
 11
4223.084077547246
 21
-2179.529998814011
 31
0.0
  0
LINE
  5
436F
330
1F
100
AcDbEntity
  8
NOSNÉ KONSTRUKCE
  6
DASHED
100
AcDbLine
 10
3722.085424764565
 20
-2146.596734906718
 30
0.0
 11
4229.346462758505
 21
-2146.596734906718
 31
0.0
  0
LINE
  5
4370
330
1F
100
AcDbEntity
  8
NOSNÉ KONSTRUKCE
100
AcDbLine
 10
3722.085424764565
 20
-2139.098599888903
 30
0.0
 11
4230.727470064826
 21
-2139.098599888903
 31
0.0
  0
LINE
  5
4371
330
1F
100
AcDbEntity
  8
CETRIS
100
AcDbLine
 10
3722.009680055965
 20
-2276.144282379966
 30
0.0
 11
4205.486381664829
 21
-2276.144282379966
 31
0.0
  0
LINE
  5
4372
330
1F
100
AcDbEntity
  8
CETRIS
100
AcDbLine
 10
3722.009680055965
 20
-2288.144282379966
 30
0.0
 11
4203.276220386527
 21
-2288.144282379966
 31
0.0
  0
LINE
  5
4373
330
1F
100
AcDbEntity
  8
CETRIS
100
AcDbLine
 10
3722.009680055969
 20
-2113.67047923178
 30
0.0
 11
4130.418682987732
 21
-2113.67047923178
 31
0.0
  0
LINE
  5
4374
330
1F
100
AcDbEntity
  8
CETRIS
100
AcDbLine
 10
3722.009680055969
 20
-2125.67047923178
 30
0.0
 11
4130.418682987732
 21
-2125.67047923178
 31
0.0
  0
LINE
  5
4375
330
1F
100
AcDbEntity
  8
NOSNÉ KONSTRUKCE
100
AcDbLine
 10
3722.085424764565
 20
-2126.711903127753
 30
0.0
 11
4233.008853193787
 21
-2126.711903127753
 31
0.0
  0
LINE
  5
4376
330
1F
100
AcDbEntity
  8
NOSNÉ KONSTRUKCE
100
AcDbLine
 10
3722.085424764565
 20
-2199.885295607147
 30
0.0
 11
4219.335036815537
 21
-2199.885295607147
 31
0.0
  0
LINE
  5
4377
330
1F
100
AcDbEntity
  8
izolace
  6
IZOLACE
 48
2.2
100
AcDbLine
 10
3723.774603867128
 20
-2163.645484643537
 30
0.0
 11
4226.206422215859
 21
-2163.645484643537
 31
0.0
  0
LINE
  5
4378
330
1F
100
AcDbEntity
  8
POPIS
100
AcDbLine
 10
4075.658158987465
 20
-2054.009815898045
 30
0.0
 11
4115.307964000599
 21
-2083.840147564911
 31
0.0
  0
INSERT
  5
4379
330
1F
100
AcDbEntity
  8
POPIS
100
AcDbBlockReference
  2
E_PUNKT
 10
3940.251127983836
 20
-2113.699547562653
 30
0.0
  0
TEXT
  5
437A
330
1F
100
AcDbEntity
  8
POPIS
100
AcDbText
 10
3922.717412994126
 20
-2049.308752761518
 30
0.0
 40
25.0
  1
01
 41
0.85
  7
SIMPLEX7
100
AcDbText
  0
TEXT
  5
437B
330
1F
100
AcDbEntity
  8
POPIS
100
AcDbText
 10
4059.19704029912
 20
-2049.308752761521
 30
0.0
 40
25.0
  1
02
 41
0.85
  7
SIMPLEX7
100
AcDbText
  0
HATCH
  5
437C
330
1F
100
AcDbEntity
  8
NOSNÉ KONSTRUKCE
100
AcDbHatch
 10
0.0
 20
0.0
 30
0.0
210
0.0
220
0.0
230
1.0
  2
SOLID
 70
     1
 71
     0
 91
        1
 92
        7
 72
     1
 73
     1
 93
       60
 10
4107.742773441547
 20
-2146.27676170665
 42
0.0
 10
4107.742773441547
 20
-2180.153860830589
 42
-0.3073346934841183
 10
4108.889945929766
 20
-2181.869051393656
 42
0.0
 10
4108.889945929766
 20
-2185.630285494179
 42
-0.307334693483106
 10
4107.742773441547
 20
-2187.34547605724
 42
0.0
 10
4107.742773441547
 20
-2197.686926145764
 42
0.4142135623730951
 10
4109.712773441546
 20
-2199.656926145763
 42
0.0
 10
4117.788644002629
 20
-2199.656926145763
 42
-0.7595816512230912
 10
4121.326214537869
 20
-2199.656926145764
 42
0.0
 10
4130.364445901361
 20
-2199.656926145759
 42
-0.7595816493590427
 10
4133.902016469067
 20
-2199.656926145763
 42
0.0
 10
4142.940245829284
 20
-2199.656926145763
 42
-0.7767342353201953
 10
4146.497532534749
 20
-2199.733713970848
 42
0.0
 10
4152.967120132678
 20
-2199.733713970848
 42
0.4142135623730868
 10
4154.937120132678
 20
-2197.763713970848
 42
0.0
 10
4154.937120132678
 20
-2194.980768066029
 42
0.0
 10
4153.952120132678
 20
-2194.980768066029
 42
0.0
 10
4153.952120132678
 20
-2197.763713970848
 42
-0.4142135623730951
 10
4152.967120132678
 20
-2198.748713970848
 42
0.0
 10
4147.157889526284
 20
-2198.748713970848
 42
0.5694936494219963
 10
4142.305833323539
 20
-2198.671926145763
 42
0.0
 10
4134.536430919241
 20
-2198.671926145763
 42
0.5590616644338513
 10
4129.730031451189
 20
-2198.67192614576
 42
0.0
 10
4121.960628988625
 20
-2198.671926145763
 42
0.5590616643157284
 10
4117.154229551874
 20
-2198.671926145763
 42
0.0
 10
4109.712773441546
 20
-2198.671926145763
 42
-0.4142135623731451
 10
4108.727773441547
 20
-2197.686926145764
 42
0.0
 10
4108.727773441546
 20
-2187.902917017801
 42
0.2364174637114482
 10
4109.865900641699
 20
-2185.655295105644
 42
0.0
 10
4109.865900641699
 20
-2181.844041782187
 42
0.2364174637115772
 10
4108.727773441547
 20
-2179.596419870027
 42
0.0
 10
4108.727773441547
 20
-2146.830617602281
 42
0.2353201211467568
 10
4109.855234555321
 20
-2144.589333319194
 42
0.0
 10
4109.853052218887
 20
-2140.778080620548
 42
0.2364174637122881
 10
4108.713638209468
 20
-2138.531110772302
 42
0.0
 10
4108.708035853029
 20
-2128.747103248304
 42
-0.4142135623730951
 10
4109.692471677248
 20
-2127.761539395479
 42
0.0
 10
4117.133926567643
 20
-2127.757278392754
 42
0.5590616643157161
 10
4121.940325216445
 20
-2127.754526232317
 42
0.0
 10
4129.709726405315
 20
-2127.750077446413
 42
0.5590616644338511
 10
4134.516125085418
 20
-2127.747325285955
 42
0.0
 10
4142.285526216021
 20
-2127.742876500081
 42
0.5694936494220229
 10
4147.137537654367
 20
-2127.663310383931
 42
0.0
 10
4152.946767308411
 20
-2127.659983999003
 42
-0.4142135623730951
 10
4153.932331161236
 20
-2128.644419823221
 42
0.0
 10
4153.933924685394
 20
-2131.427365271812
 42
0.0
 10
4154.918924523916
 20
-2131.426801257509
 42
0.0
 10
4154.917330999757
 20
-2128.643855808917
 42
0.4142135623730618
 10
4152.946203294108
 20
-2126.674984160481
 42
0.0
 10
4146.476616756786
 20
-2126.678688668037
 42
-0.7767342353201953
 10
4142.91937460346
 20
-2126.757513394831
 42
0.0
 10
4133.881146724944
 20
-2126.762688715275
 42
-0.759581649359043
 10
4130.343576737179
 20
-2126.76471434005
 42
0.0
 10
4121.30534685539
 20
-2126.769889661636
 42
-0.7595816512230912
 10
4117.767776900091
 20
-2126.771915286389
 42
0.0
 10
4109.691907662944
 20
-2126.776539556957
 42
0.4142135623731117
 10
4107.723036014507
 20
-2128.747667262608
 42
0.0
 10
4107.728957563511
 20
-2139.089115655781
 42
-0.3073346934834261
 10
4108.877111987537
 20
-2140.803649062846
 42
0.0
 10
4108.879265682795
 20
-2144.564882546765
 42
-0.3057747226774016
 97
        0
 75
     0
 76
     1
 47
0.1180065091547201
 98
        1
 10
4108.137427360962
 20
-2155.497720293932
  0
LINE
  5
437E
330
1F
100
AcDbEntity
  8
POPIS
100
AcDbLine
 10
4198.218206628181
 20
-2315.606606372375
 30
0.0
 11
4239.972828842103
 21
-2088.901219988805
 31
0.0
  0
LINE
  5
437F
330
1F
100
AcDbEntity
  8
SPOJOVACÍ
  6
Continuous
100
AcDbLine
 10
4113.190639699879
 20
-2137.168580184891
 30
0.0
 11
4117.235044059471
 21
-2138.528497198433
 31
0.0
  0
LINE
  5
4380
330
1F
100
AcDbEntity
  8
SPOJOVACÍ
  6
Continuous
100
AcDbLine
 10
4117.612695430416
 20
-2138.150845825305
 30
0.0
 11
4117.235044059471
 21
-2137.932254513279
 31
0.0
  0
LINE
  5
4381
330
1F
100
AcDbEntity
  8
SPOJOVACÍ
  6
Continuous
100
AcDbLine
 10
4112.812988324567
 20
-2136.950919048843
 30
0.0
 11
4117.612695430416
 21
-2138.150845825305
 31
0.0
  0
LINE
  5
4382
330
1F
100
AcDbEntity
  8
SPOJOVACÍ
  6
Continuous
100
AcDbLine
 10
4113.863156798307
 20
-2137.388101672889
 30
0.0
 11
4113.863156798307
 21
-2138.635467414777
 31
0.0
  0
LINE
  5
4383
330
1F
100
AcDbEntity
  8
SPOJOVACÍ
  6
Continuous
100
AcDbLine
 10
4151.974209177159
 20
-2137.388101672889
 30
0.0
 11
4151.974209177159
 21
-2138.635467414777
 31
0.0
  0
LINE
  5
4384
330
1F
100
AcDbEntity
  8
SPOJOVACÍ
  6
Continuous
100
AcDbLine
 10
4153.024377650898
 20
-2136.950919048843
 30
0.0
 11
4148.224670545049
 21
-2138.150845825305
 31
0.0
  0
LINE
  5
4385
330
1F
100
AcDbEntity
  8
SPOJOVACÍ
  6
Continuous
100
AcDbLine
 10
4148.224670545049
 20
-2138.150845825305
 30
0.0
 11
4148.602321915994
 21
-2137.932254513279
 31
0.0
  0
LINE
  5
4386
330
1F
100
AcDbEntity
  8
SPOJOVACÍ
  6
Continuous
100
AcDbLine
 10
4152.646726275587
 20
-2137.168580184891
 30
0.0
 11
4148.602321915994
 21
-2138.528497198433
 31
0.0
  0
LINE
  5
4387
330
1F
100
AcDbEntity
  8
POPIS
100
AcDbLine
 10
4210.748301536172
 20
-2151.145484643537
 30
0.0
 11
4210.748301536172
 21
-2054.009815898045
 31
0.0
  0
LINE
  5
4388
330
1F
100
AcDbEntity
  8
SPOJOVACÍ
  6
Continuous
100
AcDbLine
 10
4128.906579571706
 20
-2283.068313062308
 30
0.0
 11
4129.519565420854
 21
-2284.482180272011
 31
0.0
  0
LINE
  5
4389
330
1F
100
AcDbEntity
  8
SPOJOVACÍ
  6
Continuous
100
AcDbLine
 10
4125.486323171865
 20
-2283.812453699051
 30
0.0
 11
4125.914204036165
 21
-2282.331613832
 31
0.0
  0
LINE
  5
438A
330
1F
100
AcDbEntity
  8
SPOJOVACÍ
  6
Continuous
100
AcDbLine
 10
4129.519565420854
 20
-2284.482180272011
 30
0.0
 11
4130.477646490838
 21
-2285.68954845491
 31
0.0
  0
LINE
  5
438B
330
1F
100
AcDbEntity
  8
SPOJOVACÍ
  6
Continuous
100
AcDbLine
 10
4132.430085485906
 20
-2288.144282379966
 30
0.0
 11
4132.430085485906
 21
-2286.944355603235
 31
0.0
  0
LINE
  5
438C
330
1F
100
AcDbEntity
  8
SPOJOVACÍ
  6
Continuous
100
AcDbLine
 10
4122.229777708638
 20
-2288.144282379966
 30
0.0
 11
4132.430085485906
 21
-2288.144282379966
 31
0.0
  0
LINE
  5
438D
330
1F
100
AcDbEntity
  8
SPOJOVACÍ
  6
Continuous
100
AcDbLine
 10
4122.229777708638
 20
-2288.144282379966
 30
0.0
 11
4122.229777708638
 21
-2286.944355603235
 31
0.0
  0
LINE
  5
438E
330
1F
100
AcDbEntity
  8
SPOJOVACÍ
  6
Continuous
100
AcDbLine
 10
4122.229777708638
 20
-2286.944355603235
 30
0.0
 11
4132.430085485906
 21
-2286.944355603235
 31
0.0
  0
LINE
  5
438F
330
1F
100
AcDbEntity
  8
SPOJOVACÍ
  6
Continuous
100
AcDbLine
 10
4131.714780299738
 20
-2286.607631965351
 30
0.0
 11
4132.430085485906
 21
-2286.944355603235
 31
0.0
  0
LINE
  5
4390
330
1F
100
AcDbEntity
  8
SPOJOVACÍ
  6
Continuous
100
AcDbLine
 10
4130.477646490838
 20
-2285.68954845491
 30
0.0
 11
4131.714780299738
 21
-2286.607631965351
 31
0.0
  0
LINE
  5
4391
330
1F
100
AcDbEntity
  8
SPOJOVACÍ
  6
Continuous
100
AcDbLine
 10
4124.690092692548
 20
-2285.131442977348
 30
0.0
 11
4125.486323171865
 21
-2283.812453699051
 31
0.0
  0
LINE
  5
4392
330
1F
100
AcDbEntity
  8
SPOJOVACÍ
  6
Continuous
100
AcDbLine
 10
4123.579462792188
 20
-2286.200214966761
 30
0.0
 11
4124.690092692548
 21
-2285.131442977348
 31
0.0
  0
LINE
  5
4393
330
1F
100
AcDbEntity
  8
SPOJOVACÍ
  6
Continuous
100
AcDbLine
 10
4122.229777708638
 20
-2286.944355603235
 30
0.0
 11
4123.579462792188
 21
-2286.200214966761
 31
0.0
  0
LINE
  5
4394
330
1F
100
AcDbEntity
  8
SPOJOVACÍ
  6
Continuous
100
AcDbLine
 10
4117.612695430416
 20
-2138.150845825305
 30
0.0
 11
4117.235044059471
 21
-2138.528497198433
 31
0.0
  0
LINE
  5
4395
330
1F
100
AcDbEntity
  8
SPOJOVACÍ
  6
Continuous
100
AcDbLine
 10
4114.196159735565
 20
-2146.056409913774
 30
0.0
 11
4116.350446877023
 21
-2146.367088629548
 31
0.0
  0
LINE
  5
4396
330
1F
100
AcDbEntity
  8
SPOJOVACÍ
  6
Continuous
100
AcDbLine
 10
4114.573811106511
 20
-2145.678758540646
 30
0.0
 11
4115.972795506077
 21
-2146.14942749323
 31
0.0
  0
LINE
  5
4397
330
1F
100
AcDbEntity
  8
SPOJOVACÍ
  6
Continuous
100
AcDbLine
 10
4114.573811106511
 20
-2146.275001225793
 30
0.0
 11
4115.972795506077
 21
-2146.745670178378
 31
0.0
  0
LINE
  5
4398
330
1F
100
AcDbEntity
  8
SPOJOVACÍ
  6
Continuous
100
AcDbLine
 10
4116.350446877023
 20
-2146.367088629548
 30
0.0
 11
4115.972795506077
 21
-2146.14942749323
 31
0.0
  0
LINE
  5
4399
330
1F
100
AcDbEntity
  8
SPOJOVACÍ
  6
Continuous
100
AcDbLine
 10
4116.350446877023
 20
-2146.367088629548
 30
0.0
 11
4115.972795506077
 21
-2146.745670178378
 31
0.0
  0
LINE
  5
439A
330
1F
100
AcDbEntity
  8
SPOJOVACÍ
  6
Continuous
100
AcDbLine
 10
4114.196159735565
 20
-2146.056409913774
 30
0.0
 11
4114.573811106511
 21
-2145.678758540646
 31
0.0
  0
LINE
  5
439B
330
1F
100
AcDbEntity
  8
SPOJOVACÍ
  6
Continuous
100
AcDbLine
 10
4114.196159735565
 20
-2146.056409913774
 30
0.0
 11
4114.573811106511
 21
-2146.275001225793
 31
0.0
  0
LINE
  5
439C
330
1F
100
AcDbEntity
  8
SPOJOVACÍ
  6
Continuous
100
AcDbLine
 10
4113.631543025094
 20
-2143.042640335454
 30
0.0
 11
4116.747631941525
 21
-2143.676090052224
 31
0.0
  0
LINE
  5
439D
330
1F
100
AcDbEntity
  8
SPOJOVACÍ
  6
Continuous
100
AcDbLine
 10
4114.009194400405
 20
-2142.664058786348
 30
0.0
 11
4116.36998057058
 21
-2143.458428916176
 31
0.0
  0
LINE
  5
439E
330
1F
100
AcDbEntity
  8
SPOJOVACÍ
  6
Continuous
100
AcDbLine
 10
4114.009194400405
 20
-2143.260301471503
 30
0.0
 11
4116.36998057058
 21
-2144.054671601054
 31
0.0
  0
LINE
  5
439F
330
1F
100
AcDbEntity
  8
SPOJOVACÍ
  6
Continuous
100
AcDbLine
 10
4116.747631941525
 20
-2143.676090052224
 30
0.0
 11
4116.36998057058
 21
-2143.458428916176
 31
0.0
  0
LINE
  5
43A0
330
1F
100
AcDbEntity
  8
SPOJOVACÍ
  6
Continuous
100
AcDbLine
 10
4116.747631941525
 20
-2143.676090052224
 30
0.0
 11
4116.36998057058
 21
-2144.054671601054
 31
0.0
  0
LINE
  5
43A1
330
1F
100
AcDbEntity
  8
SPOJOVACÍ
  6
Continuous
100
AcDbLine
 10
4113.631543025094
 20
-2143.042640335454
 30
0.0
 11
4114.009194400405
 21
-2142.664058786348
 31
0.0
  0
LINE
  5
43A2
330
1F
100
AcDbEntity
  8
SPOJOVACÍ
  6
Continuous
100
AcDbLine
 10
4113.631543025094
 20
-2143.042640335454
 30
0.0
 11
4114.009194400405
 21
-2143.260301471503
 31
0.0
  0
LINE
  5
43A3
330
1F
100
AcDbEntity
  8
SPOJOVACÍ
  6
Continuous
100
AcDbLine
 10
4113.066926318988
 20
-2140.027940581157
 30
0.0
 11
4117.192255971731
 21
-2141.000904463461
 31
0.0
  0
LINE
  5
43A4
330
1F
100
AcDbEntity
  8
SPOJOVACÍ
  6
Continuous
100
AcDbLine
 10
4113.445507867273
 20
-2139.650289208029
 30
0.0
 11
4116.814604600786
 21
-2140.783243327413
 31
0.0
  0
LINE
  5
43A5
330
1F
100
AcDbEntity
  8
SPOJOVACÍ
  6
Continuous
100
AcDbLine
 10
4113.445507867273
 20
-2140.246531893183
 30
0.0
 11
4116.814604600786
 21
-2141.379486012568
 31
0.0
  0
LINE
  5
43A6
330
1F
100
AcDbEntity
  8
SPOJOVACÍ
  6
Continuous
100
AcDbLine
 10
4117.192255971731
 20
-2141.000904463461
 30
0.0
 11
4116.814604600786
 21
-2140.783243327413
 31
0.0
  0
LINE
  5
43A7
330
1F
100
AcDbEntity
  8
SPOJOVACÍ
  6
Continuous
100
AcDbLine
 10
4117.192255971731
 20
-2141.000904463461
 30
0.0
 11
4116.814604600786
 21
-2141.379486012568
 31
0.0
  0
LINE
  5
43A8
330
1F
100
AcDbEntity
  8
SPOJOVACÍ
  6
Continuous
100
AcDbLine
 10
4113.066926318988
 20
-2140.027940581157
 30
0.0
 11
4113.445507867273
 21
-2139.650289208029
 31
0.0
  0
LINE
  5
43A9
330
1F
100
AcDbEntity
  8
SPOJOVACÍ
  6
Continuous
100
AcDbLine
 10
4113.066926318988
 20
-2140.027940581157
 30
0.0
 11
4113.445507867273
 21
-2140.246531893183
 31
0.0
  0
LINE
  5
43AA
330
1F
100
AcDbEntity
  8
SPOJOVACÍ
  6
Continuous
100
AcDbLine
 10
4116.316960549575
 20
-2140.606509926064
 30
0.0
 11
4116.562526961042
 21
-2138.635467414777
 31
0.0
  0
LINE
  5
43AB
330
1F
100
AcDbEntity
  8
SPOJOVACÍ
  6
Continuous
100
AcDbLine
 10
4115.978376557014
 20
-2143.313321491962
 30
0.0
 11
4116.245337012351
 21
-2141.176707689109
 31
0.0
  0
LINE
  5
43AC
330
1F
100
AcDbEntity
  8
SPOJOVACÍ
  6
Continuous
100
AcDbLine
 10
4115.638862395845
 20
-2146.030364991395
 30
0.0
 11
4115.906753024155
 21
-2143.885379606411
 31
0.0
  0
LINE
  5
43AD
330
1F
100
AcDbEntity
  8
SPOJOVACÍ
  6
Continuous
100
AcDbLine
 10
4114.826818923593
 20
-2146.346624761926
 30
0.0
 11
4115.212841877492
 21
-2149.435738579731
 31
0.0
  0
LINE
  5
43AE
330
1F
100
AcDbEntity
  8
SPOJOVACÍ
  6
Continuous
100
AcDbLine
 10
4114.459399485913
 20
-2143.405408895717
 30
0.0
 11
4114.749614331067
 21
-2145.726197506073
 31
0.0
  0
LINE
  5
43AF
330
1F
100
AcDbEntity
  8
SPOJOVACÍ
  6
Continuous
100
AcDbLine
 10
4114.090119693556
 20
-2140.453030919988
 30
0.0
 11
4114.380334543075
 21
-2142.774749706052
 31
0.0
  0
LINE
  5
43B0
330
1F
100
AcDbEntity
  8
SPOJOVACÍ
  6
Continuous
100
AcDbLine
 10
4115.212841877492
 20
-2149.435738579731
 30
0.0
 11
4115.567238858621
 21
-2146.599632578462
 31
0.0
  0
LINE
  5
43B1
330
1F
100
AcDbEntity
  8
SPOJOVACÍ
  6
Continuous
100
AcDbLine
 10
4113.863156798307
 20
-2138.635467414777
 30
0.0
 11
4114.01291510103
 21
-2139.832603664134
 31
0.0
  0
LINE
  5
43B2
330
1F
100
AcDbEntity
  8
SPOJOVACÍ
  6
Continuous
100
AcDbLine
 10
4116.562526961042
 20
-2138.298743776894
 30
0.0
 11
4116.562526961042
 21
-2138.635467414777
 31
0.0
  0
LINE
  5
43B3
330
1F
100
AcDbEntity
  8
SPOJOVACÍ
  6
Continuous
100
AcDbLine
 10
4128.679616680822
 20
-2281.544685108878
 30
0.0
 11
4128.906579571706
 21
-2283.068313062308
 31
0.0
  0
LINE
  5
43B4
330
1F
100
AcDbEntity
  8
SPOJOVACÍ
  6
Continuous
100
AcDbLine
 10
4125.914204036165
 20
-2282.331613832
 30
0.0
 11
4125.980246518087
 21
-2281.544685108878
 31
0.0
  0
LINE
  5
43B5
330
1F
100
AcDbEntity
  8
SPOJOVACÍ
  6
Continuous
100
AcDbLine
 10
4128.679616680822
 20
-2281.544685108878
 30
0.0
 11
4128.679616680822
 21
-2276.60173092995
 31
0.0
  0
LINE
  5
43B6
330
1F
100
AcDbEntity
  8
SPOJOVACÍ
  6
Continuous
100
AcDbLine
 10
4125.980246518087
 20
-2281.544685108878
 30
0.0
 11
4125.980246518087
 21
-2277.506791979198
 31
0.0
  0
LINE
  5
43B7
330
1F
100
AcDbEntity
  8
SPOJOVACÍ
  6
Continuous
100
AcDbLine
 10
4125.980246518087
 20
-2276.911479470022
 30
0.0
 11
4125.980246518087
 21
-2274.392563414993
 31
0.0
  0
LINE
  5
43B8
330
1F
100
AcDbEntity
  8
SPOJOVACÍ
  6
Continuous
100
AcDbLine
 10
4125.980246518087
 20
-2273.788879323678
 30
0.0
 11
4125.980246518087
 21
-2271.268102916969
 31
0.0
  0
LINE
  5
43B9
330
1F
100
AcDbEntity
  8
SPOJOVACÍ
  6
Continuous
100
AcDbLine
 10
4125.980246518087
 20
-2270.673720583495
 30
0.0
 11
4125.980246518087
 21
-2268.145502770625
 31
0.0
  0
LINE
  5
43BA
330
1F
100
AcDbEntity
  8
SPOJOVACÍ
  6
Continuous
100
AcDbLine
 10
4128.679616680822
 20
-2275.998046838635
 30
0.0
 11
4128.679616680822
 21
-2273.479130783606
 31
0.0
  0
LINE
  5
43BB
330
1F
100
AcDbEntity
  8
SPOJOVACÍ
  6
Continuous
100
AcDbLine
 10
4128.679616680822
 20
-2272.882888098451
 30
0.0
 11
4128.679616680822
 21
-2270.354670285582
 31
0.0
  0
LINE
  5
43BC
330
1F
100
AcDbEntity
  8
SPOJOVACÍ
  6
Continuous
100
AcDbLine
 10
4128.679616680822
 20
-2269.760287952107
 30
0.0
 11
4128.679616680822
 21
-2267.239511545398
 31
0.0
  0
LINE
  5
43BD
330
1F
100
AcDbEntity
  8
SPOJOVACÍ
  6
Continuous
100
AcDbLine
 10
4125.980246518087
 20
-2267.54088850334
 30
0.0
 11
4125.980246518087
 21
-2265.022902624012
 31
0.0
  0
LINE
  5
43BE
330
1F
100
AcDbEntity
  8
SPOJOVACÍ
  6
Continuous
100
AcDbLine
 10
4125.980246518087
 20
-2264.426659938858
 30
0.0
 11
4125.980246518087
 21
-2263.179294196969
 31
0.0
  0
LINE
  5
43BF
330
1F
100
AcDbEntity
  8
SPOJOVACÍ
  6
Continuous
100
AcDbLine
 10
4128.679616680822
 20
-2266.638617981465
 30
0.0
 11
4128.679616680822
 21
-2264.119701926436
 31
0.0
  0
LINE
  5
43C0
330
1F
100
AcDbEntity
  8
SPOJOVACÍ
  6
Continuous
100
AcDbLine
 10
4128.679616680822
 20
-2263.516017834852
 30
0.0
 11
4128.679616680822
 21
-2263.179294196969
 31
0.0
  0
LINE
  5
43C1
330
1F
100
AcDbEntity
  8
SPOJOVACÍ
  6
Continuous
100
AcDbLine
 10
4125.980246518087
 20
-2263.179294196969
 30
0.0
 11
4126.13000482081
 21
-2261.982157947612
 31
0.0
  0
LINE
  5
43C2
330
1F
100
AcDbEntity
  8
SPOJOVACÍ
  6
Continuous
100
AcDbLine
 10
4127.329931597272
 20
-2252.379023032016
 30
0.0
 11
4127.684328578401
 21
-2255.215129033284
 31
0.0
  0
LINE
  5
43C3
330
1F
100
AcDbEntity
  8
SPOJOVACÍ
  6
Continuous
100
AcDbLine
 10
4126.207209413336
 20
-2261.361730691759
 30
0.0
 11
4126.497424262855
 21
-2259.040011905694
 31
0.0
  0
LINE
  5
43C4
330
1F
100
AcDbEntity
  8
SPOJOVACÍ
  6
Continuous
100
AcDbLine
 10
4126.576489205693
 20
-2258.40935271603
 30
0.0
 11
4126.866704050847
 21
-2256.088564105674
 31
0.0
  0
LINE
  5
43C5
330
1F
100
AcDbEntity
  8
SPOJOVACÍ
  6
Continuous
100
AcDbLine
 10
4126.943908643373
 20
-2255.46813684982
 30
0.0
 11
4127.329931597272
 21
-2252.379023032016
 31
0.0
  0
LINE
  5
43C6
330
1F
100
AcDbEntity
  8
SPOJOVACÍ
  6
Continuous
100
AcDbLine
 10
4127.755952115625
 20
-2255.784396620351
 30
0.0
 11
4128.023842743935
 21
-2257.929382005336
 31
0.0
  0
LINE
  5
43C7
330
1F
100
AcDbEntity
  8
SPOJOVACÍ
  6
Continuous
100
AcDbLine
 10
4128.095466276794
 20
-2258.501440119784
 30
0.0
 11
4128.362426732131
 21
-2260.638053922638
 31
0.0
  0
LINE
  5
43C8
330
1F
100
AcDbEntity
  8
SPOJOVACÍ
  6
Continuous
100
AcDbLine
 10
4128.434050269355
 20
-2261.208251685683
 30
0.0
 11
4128.679616680822
 21
-2263.179294196969
 31
0.0
  0
LINE
  5
43C9
330
1F
100
AcDbEntity
  8
SPOJOVACÍ
  6
Continuous
100
AcDbLine
 10
4124.930078044347
 20
-2277.344011215013
 30
0.0
 11
4129.729785150196
 21
-2276.144084438551
 31
0.0
  0
LINE
  5
43CA
330
1F
100
AcDbEntity
  8
SPOJOVACÍ
  6
Continuous
100
AcDbLine
 10
4124.930078044347
 20
-2277.344011215013
 30
0.0
 11
4125.307729419659
 21
-2277.126350078965
 31
0.0
  0
LINE
  5
43CB
330
1F
100
AcDbEntity
  8
SPOJOVACÍ
  6
Continuous
100
AcDbLine
 10
4124.930078044347
 20
-2277.344011215013
 30
0.0
 11
4125.307729419659
 21
-2277.722592763843
 31
0.0
  0
LINE
  5
43CC
330
1F
100
AcDbEntity
  8
SPOJOVACÍ
  6
Continuous
100
AcDbLine
 10
4129.729785150196
 20
-2276.144084438551
 30
0.0
 11
4129.352133779251
 21
-2275.766433065423
 31
0.0
  0
LINE
  5
43CD
330
1F
100
AcDbEntity
  8
SPOJOVACÍ
  6
Continuous
100
AcDbLine
 10
4129.729785150196
 20
-2276.144084438551
 30
0.0
 11
4129.352133779251
 21
-2276.362675750577
 31
0.0
  0
LINE
  5
43CE
330
1F
100
AcDbEntity
  8
SPOJOVACÍ
  6
Continuous
100
AcDbLine
 10
4125.307729419659
 20
-2277.126350078965
 30
0.0
 11
4129.352133779251
 21
-2275.766433065423
 31
0.0
  0
LINE
  5
43CF
330
1F
100
AcDbEntity
  8
SPOJOVACÍ
  6
Continuous
100
AcDbLine
 10
4125.307729419659
 20
-2277.722592763843
 30
0.0
 11
4129.352133779251
 21
-2276.362675750577
 31
0.0
  0
LINE
  5
43D0
330
1F
100
AcDbEntity
  8
SPOJOVACÍ
  6
Continuous
100
AcDbLine
 10
4124.930078044347
 20
-2274.224201596051
 30
0.0
 11
4129.729785150196
 21
-2273.024274819313
 31
0.0
  0
LINE
  5
43D1
330
1F
100
AcDbEntity
  8
SPOJOVACÍ
  6
Continuous
100
AcDbLine
 10
4124.930078044347
 20
-2274.224201596051
 30
0.0
 11
4125.307729419659
 21
-2274.005610284024
 31
0.0
  0
LINE
  5
43D2
330
1F
100
AcDbEntity
  8
SPOJOVACÍ
  6
Continuous
100
AcDbLine
 10
4124.930078044347
 20
-2274.224201596051
 30
0.0
 11
4125.307729419659
 21
-2274.601852969179
 31
0.0
  0
LINE
  5
43D3
330
1F
100
AcDbEntity
  8
SPOJOVACÍ
  6
Continuous
100
AcDbLine
 10
4129.729785150196
 20
-2273.024274819313
 30
0.0
 11
4129.352133779251
 21
-2272.646623446461
 31
0.0
  0
LINE
  5
43D4
330
1F
100
AcDbEntity
  8
SPOJOVACÍ
  6
Continuous
100
AcDbLine
 10
4129.729785150196
 20
-2273.024274819313
 30
0.0
 11
4129.352133779251
 21
-2273.242866131339
 31
0.0
  0
LINE
  5
43D5
330
1F
100
AcDbEntity
  8
SPOJOVACÍ
  6
Continuous
100
AcDbLine
 10
4125.307729419659
 20
-2274.005610284024
 30
0.0
 11
4129.352133779251
 21
-2272.646623446461
 31
0.0
  0
LINE
  5
43D6
330
1F
100
AcDbEntity
  8
SPOJOVACÍ
  6
Continuous
100
AcDbLine
 10
4125.307729419659
 20
-2274.601852969179
 30
0.0
 11
4129.352133779251
 21
-2273.242866131339
 31
0.0
  0
LINE
  5
43D7
330
1F
100
AcDbEntity
  8
SPOJOVACÍ
  6
Continuous
100
AcDbLine
 10
4125.184016038768
 20
-2261.78682103059
 30
0.0
 11
4125.562597587053
 21
-2261.568229718563
 31
0.0
  0
LINE
  5
43D8
330
1F
100
AcDbEntity
  8
SPOJOVACÍ
  6
Continuous
100
AcDbLine
 10
4125.184016038768
 20
-2261.78682103059
 30
0.0
 11
4125.562597587053
 21
-2262.164472403718
 31
0.0
  0
LINE
  5
43D9
330
1F
100
AcDbEntity
  8
SPOJOVACÍ
  6
Continuous
100
AcDbLine
 10
4129.309345691511
 20
-2260.813857148285
 30
0.0
 11
4128.931694320566
 21
-2260.435275599179
 31
0.0
  0
LINE
  5
43DA
330
1F
100
AcDbEntity
  8
SPOJOVACÍ
  6
Continuous
100
AcDbLine
 10
4129.309345691511
 20
-2260.813857148285
 30
0.0
 11
4128.931694320566
 21
-2261.031518284333
 31
0.0
  0
LINE
  5
43DB
330
1F
100
AcDbEntity
  8
SPOJOVACÍ
  6
Continuous
100
AcDbLine
 10
4125.562597587053
 20
-2261.568229718563
 30
0.0
 11
4128.931694320566
 21
-2260.435275599179
 31
0.0
  0
LINE
  5
43DC
330
1F
100
AcDbEntity
  8
SPOJOVACÍ
  6
Continuous
100
AcDbLine
 10
4125.562597587053
 20
-2262.164472403718
 30
0.0
 11
4128.931694320566
 21
-2261.031518284333
 31
0.0
  0
LINE
  5
43DD
330
1F
100
AcDbEntity
  8
SPOJOVACÍ
  6
Continuous
100
AcDbLine
 10
4125.184016038768
 20
-2261.78682103059
 30
0.0
 11
4129.309345691511
 21
-2260.813857148285
 31
0.0
  0
LINE
  5
43DE
330
1F
100
AcDbEntity
  8
SPOJOVACÍ
  6
Continuous
100
AcDbLine
 10
4125.748632744874
 20
-2258.772121276292
 30
0.0
 11
4126.126284120185
 21
-2258.554460140243
 31
0.0
  0
LINE
  5
43DF
330
1F
100
AcDbEntity
  8
SPOJOVACÍ
  6
Continuous
100
AcDbLine
 10
4125.748632744874
 20
-2258.772121276292
 30
0.0
 11
4126.126284120185
 21
-2259.150702825398
 31
0.0
  0
LINE
  5
43E0
330
1F
100
AcDbEntity
  8
SPOJOVACÍ
  6
Continuous
100
AcDbLine
 10
4128.864721661305
 20
-2258.138671559522
 30
0.0
 11
4128.48707029036
 21
-2257.760090010692
 31
0.0
  0
LINE
  5
43E1
330
1F
100
AcDbEntity
  8
SPOJOVACÍ
  6
Continuous
100
AcDbLine
 10
4128.864721661305
 20
-2258.138671559522
 30
0.0
 11
4128.48707029036
 21
-2258.35633269557
 31
0.0
  0
LINE
  5
43E2
330
1F
100
AcDbEntity
  8
SPOJOVACÍ
  6
Continuous
100
AcDbLine
 10
4126.126284120185
 20
-2258.554460140243
 30
0.0
 11
4128.48707029036
 21
-2257.760090010692
 31
0.0
  0
LINE
  5
43E3
330
1F
100
AcDbEntity
  8
SPOJOVACÍ
  6
Continuous
100
AcDbLine
 10
4126.126284120185
 20
-2259.150702825398
 30
0.0
 11
4128.48707029036
 21
-2258.35633269557
 31
0.0
  0
LINE
  5
43E4
330
1F
100
AcDbEntity
  8
SPOJOVACÍ
  6
Continuous
100
AcDbLine
 10
4125.748632744874
 20
-2258.772121276292
 30
0.0
 11
4128.864721661305
 21
-2258.138671559522
 31
0.0
  0
LINE
  5
43E5
330
1F
100
AcDbEntity
  8
SPOJOVACÍ
  6
Continuous
100
AcDbLine
 10
4126.313249455345
 20
-2255.758351697972
 30
0.0
 11
4126.690900826291
 21
-2255.539760385953
 31
0.0
  0
LINE
  5
43E6
330
1F
100
AcDbEntity
  8
SPOJOVACÍ
  6
Continuous
100
AcDbLine
 10
4126.313249455345
 20
-2255.758351697972
 30
0.0
 11
4126.690900826291
 21
-2256.1360030711
 31
0.0
  0
LINE
  5
43E7
330
1F
100
AcDbEntity
  8
SPOJOVACÍ
  6
Continuous
100
AcDbLine
 10
4128.467536596803
 20
-2255.447672982198
 30
0.0
 11
4128.089885225857
 21
-2255.069091433368
 31
0.0
  0
LINE
  5
43E8
330
1F
100
AcDbEntity
  8
SPOJOVACÍ
  6
Continuous
100
AcDbLine
 10
4128.467536596803
 20
-2255.447672982198
 30
0.0
 11
4128.089885225857
 21
-2255.665334118515
 31
0.0
  0
LINE
  5
43E9
330
1F
100
AcDbEntity
  8
SPOJOVACÍ
  6
Continuous
100
AcDbLine
 10
4126.690900826291
 20
-2255.539760385953
 30
0.0
 11
4128.089885225857
 21
-2255.069091433368
 31
0.0
  0
LINE
  5
43EA
330
1F
100
AcDbEntity
  8
SPOJOVACÍ
  6
Continuous
100
AcDbLine
 10
4126.690900826291
 20
-2256.1360030711
 30
0.0
 11
4128.089885225857
 21
-2255.665334118515
 31
0.0
  0
LINE
  5
43EB
330
1F
100
AcDbEntity
  8
SPOJOVACÍ
  6
Continuous
100
AcDbLine
 10
4126.313249455345
 20
-2255.758351697972
 30
0.0
 11
4128.467536596803
 21
-2255.447672982198
 31
0.0
  0
LINE
  5
43EC
330
1F
100
AcDbEntity
  8
SPOJOVACÍ
  6
Continuous
100
AcDbLine
 10
4124.930078044347
 20
-2271.104391976813
 30
0.0
 11
4129.729785150196
 21
-2269.904465200351
 31
0.0
  0
LINE
  5
43ED
330
1F
100
AcDbEntity
  8
SPOJOVACÍ
  6
Continuous
100
AcDbLine
 10
4124.930078044347
 20
-2271.104391976813
 30
0.0
 11
4125.307729419659
 21
-2270.885800664786
 31
0.0
  0
LINE
  5
43EE
330
1F
100
AcDbEntity
  8
SPOJOVACÍ
  6
Continuous
100
AcDbLine
 10
4124.930078044347
 20
-2271.104391976813
 30
0.0
 11
4125.307729419659
 21
-2271.482043349941
 31
0.0
  0
LINE
  5
43EF
330
1F
100
AcDbEntity
  8
SPOJOVACÍ
  6
Continuous
100
AcDbLine
 10
4129.729785150196
 20
-2269.904465200351
 30
0.0
 11
4129.352133779251
 21
-2269.525883651521
 31
0.0
  0
LINE
  5
43F0
330
1F
100
AcDbEntity
  8
SPOJOVACÍ
  6
Continuous
100
AcDbLine
 10
4129.729785150196
 20
-2269.904465200351
 30
0.0
 11
4129.352133779251
 21
-2270.122126336668
 31
0.0
  0
LINE
  5
43F1
330
1F
100
AcDbEntity
  8
SPOJOVACÍ
  6
Continuous
100
AcDbLine
 10
4125.307729419659
 20
-2270.885800664786
 30
0.0
 11
4129.352133779251
 21
-2269.525883651521
 31
0.0
  0
LINE
  5
43F2
330
1F
100
AcDbEntity
  8
SPOJOVACÍ
  6
Continuous
100
AcDbLine
 10
4125.307729419659
 20
-2271.482043349941
 30
0.0
 11
4129.352133779251
 21
-2270.122126336668
 31
0.0
  0
LINE
  5
43F3
330
1F
100
AcDbEntity
  8
SPOJOVACÍ
  6
Continuous
100
AcDbLine
 10
4124.930078044347
 20
-2267.984582357843
 30
0.0
 11
4129.729785150196
 21
-2266.784655581381
 31
0.0
  0
LINE
  5
43F4
330
1F
100
AcDbEntity
  8
SPOJOVACÍ
  6
Continuous
100
AcDbLine
 10
4124.930078044347
 20
-2267.984582357843
 30
0.0
 11
4125.307729419659
 21
-2267.765991045824
 31
0.0
  0
LINE
  5
43F5
330
1F
100
AcDbEntity
  8
SPOJOVACÍ
  6
Continuous
100
AcDbLine
 10
4124.930078044347
 20
-2267.984582357843
 30
0.0
 11
4125.307729419659
 21
-2268.362233730972
 31
0.0
  0
LINE
  5
43F6
330
1F
100
AcDbEntity
  8
SPOJOVACÍ
  6
Continuous
100
AcDbLine
 10
4129.729785150196
 20
-2266.784655581381
 30
0.0
 11
4129.352133779251
 21
-2266.406074032552
 31
0.0
  0
LINE
  5
43F7
330
1F
100
AcDbEntity
  8
SPOJOVACÍ
  6
Continuous
100
AcDbLine
 10
4129.729785150196
 20
-2266.784655581381
 30
0.0
 11
4129.352133779251
 21
-2267.00231671743
 31
0.0
  0
LINE
  5
43F8
330
1F
100
AcDbEntity
  8
SPOJOVACÍ
  6
Continuous
100
AcDbLine
 10
4125.307729419659
 20
-2267.765991045824
 30
0.0
 11
4129.352133779251
 21
-2266.406074032552
 31
0.0
  0
LINE
  5
43F9
330
1F
100
AcDbEntity
  8
SPOJOVACÍ
  6
Continuous
100
AcDbLine
 10
4125.307729419659
 20
-2268.362233730972
 30
0.0
 11
4129.352133779251
 21
-2267.00231671743
 31
0.0
  0
LINE
  5
43FA
330
1F
100
AcDbEntity
  8
SPOJOVACÍ
  6
Continuous
100
AcDbLine
 10
4124.930078044347
 20
-2264.863842562903
 30
0.0
 11
4129.729785150196
 21
-2263.663915786441
 31
0.0
  0
LINE
  5
43FB
330
1F
100
AcDbEntity
  8
SPOJOVACÍ
  6
Continuous
100
AcDbLine
 10
4124.930078044347
 20
-2264.863842562903
 30
0.0
 11
4125.307729419659
 21
-2264.646181426855
 31
0.0
  0
LINE
  5
43FC
330
1F
100
AcDbEntity
  8
SPOJOVACÍ
  6
Continuous
100
AcDbLine
 10
4124.930078044347
 20
-2264.863842562903
 30
0.0
 11
4125.307729419659
 21
-2265.24242411201
 31
0.0
  0
LINE
  5
43FD
330
1F
100
AcDbEntity
  8
SPOJOVACÍ
  6
Continuous
100
AcDbLine
 10
4129.729785150196
 20
-2263.663915786441
 30
0.0
 11
4129.352133779251
 21
-2263.286264413313
 31
0.0
  0
LINE
  5
43FE
330
1F
100
AcDbEntity
  8
SPOJOVACÍ
  6
Continuous
100
AcDbLine
 10
4129.729785150196
 20
-2263.663915786441
 30
0.0
 11
4129.352133779251
 21
-2263.882507098468
 31
0.0
  0
LINE
  5
43FF
330
1F
100
AcDbEntity
  8
SPOJOVACÍ
  6
Continuous
100
AcDbLine
 10
4125.307729419659
 20
-2264.646181426855
 30
0.0
 11
4129.352133779251
 21
-2263.286264413313
 31
0.0
  0
LINE
  5
4400
330
1F
100
AcDbEntity
  8
SPOJOVACÍ
  6
Continuous
100
AcDbLine
 10
4125.307729419659
 20
-2265.24242411201
 30
0.0
 11
4129.352133779251
 21
-2263.882507098468
 31
0.0
  0
LINE
  5
4401
330
1F
100
AcDbEntity
  8
SPOJOVACÍ
  6
Continuous
100
AcDbLine
 10
4149.274839014423
 20
-2138.298743776894
 30
0.0
 11
4149.274839014423
 21
-2138.635467414777
 31
0.0
  0
LINE
  5
4402
330
1F
100
AcDbEntity
  8
SPOJOVACÍ
  6
Continuous
100
AcDbLine
 10
4151.974209177159
 20
-2138.635467414777
 30
0.0
 11
4151.824450874435
 21
-2139.832603664134
 31
0.0
  0
LINE
  5
4403
330
1F
100
AcDbEntity
  8
SPOJOVACÍ
  6
Continuous
100
AcDbLine
 10
4150.624524097973
 20
-2149.435738579731
 30
0.0
 11
4150.270127116844
 21
-2146.599632578462
 31
0.0
  0
LINE
  5
4404
330
1F
100
AcDbEntity
  8
SPOJOVACÍ
  6
Continuous
100
AcDbLine
 10
4151.747246281909
 20
-2140.453030919988
 30
0.0
 11
4151.45703143239
 21
-2142.774749706052
 31
0.0
  0
LINE
  5
4405
330
1F
100
AcDbEntity
  8
SPOJOVACÍ
  6
Continuous
100
AcDbLine
 10
4151.377966489552
 20
-2143.405408895717
 30
0.0
 11
4151.087751644398
 21
-2145.726197506073
 31
0.0
  0
LINE
  5
4406
330
1F
100
AcDbEntity
  8
SPOJOVACÍ
  6
Continuous
100
AcDbLine
 10
4151.010547051872
 20
-2146.346624761926
 30
0.0
 11
4150.624524097973
 21
-2149.435738579731
 31
0.0
  0
LINE
  5
4407
330
1F
100
AcDbEntity
  8
SPOJOVACÍ
  6
Continuous
100
AcDbLine
 10
4150.198503579621
 20
-2146.030364991395
 30
0.0
 11
4149.93061295131
 21
-2143.885379606411
 31
0.0
  0
LINE
  5
4408
330
1F
100
AcDbEntity
  8
SPOJOVACÍ
  6
Continuous
100
AcDbLine
 10
4149.858989418452
 20
-2143.313321491962
 30
0.0
 11
4149.592028963114
 21
-2141.176707689109
 31
0.0
  0
LINE
  5
4409
330
1F
100
AcDbEntity
  8
SPOJOVACÍ
  6
Continuous
100
AcDbLine
 10
4149.52040542589
 20
-2140.606509926064
 30
0.0
 11
4149.274839014423
 21
-2138.635467414777
 31
0.0
  0
LINE
  5
440A
330
1F
100
AcDbEntity
  8
SPOJOVACÍ
  6
Continuous
100
AcDbLine
 10
4152.770439656477
 20
-2140.027940581157
 30
0.0
 11
4152.391858108193
 21
-2140.246531893183
 31
0.0
  0
LINE
  5
440B
330
1F
100
AcDbEntity
  8
SPOJOVACÍ
  6
Continuous
100
AcDbLine
 10
4152.770439656477
 20
-2140.027940581157
 30
0.0
 11
4152.391858108193
 21
-2139.650289208029
 31
0.0
  0
LINE
  5
440C
330
1F
100
AcDbEntity
  8
SPOJOVACÍ
  6
Continuous
100
AcDbLine
 10
4148.645110003734
 20
-2141.000904463461
 30
0.0
 11
4149.02276137468
 21
-2141.379486012568
 31
0.0
  0
LINE
  5
440D
330
1F
100
AcDbEntity
  8
SPOJOVACÍ
  6
Continuous
100
AcDbLine
 10
4148.645110003734
 20
-2141.000904463461
 30
0.0
 11
4149.02276137468
 21
-2140.783243327413
 31
0.0
  0
LINE
  5
440E
330
1F
100
AcDbEntity
  8
SPOJOVACÍ
  6
Continuous
100
AcDbLine
 10
4152.391858108193
 20
-2140.246531893183
 30
0.0
 11
4149.02276137468
 21
-2141.379486012568
 31
0.0
  0
LINE
  5
440F
330
1F
100
AcDbEntity
  8
SPOJOVACÍ
  6
Continuous
100
AcDbLine
 10
4152.391858108193
 20
-2139.650289208029
 30
0.0
 11
4149.02276137468
 21
-2140.783243327413
 31
0.0
  0
LINE
  5
4410
330
1F
100
AcDbEntity
  8
SPOJOVACÍ
  6
Continuous
100
AcDbLine
 10
4152.770439656477
 20
-2140.027940581157
 30
0.0
 11
4148.645110003734
 21
-2141.000904463461
 31
0.0
  0
LINE
  5
4411
330
1F
100
AcDbEntity
  8
SPOJOVACÍ
  6
Continuous
100
AcDbLine
 10
4152.205822950371
 20
-2143.042640335454
 30
0.0
 11
4151.82817157506
 21
-2143.260301471503
 31
0.0
  0
LINE
  5
4412
330
1F
100
AcDbEntity
  8
SPOJOVACÍ
  6
Continuous
100
AcDbLine
 10
4152.205822950371
 20
-2143.042640335454
 30
0.0
 11
4151.82817157506
 21
-2142.664058786348
 31
0.0
  0
LINE
  5
4413
330
1F
100
AcDbEntity
  8
SPOJOVACÍ
  6
Continuous
100
AcDbLine
 10
4149.08973403394
 20
-2143.676090052224
 30
0.0
 11
4149.467385404885
 21
-2144.054671601054
 31
0.0
  0
LINE
  5
4414
330
1F
100
AcDbEntity
  8
SPOJOVACÍ
  6
Continuous
100
AcDbLine
 10
4149.08973403394
 20
-2143.676090052224
 30
0.0
 11
4149.467385404885
 21
-2143.458428916176
 31
0.0
  0
LINE
  5
4415
330
1F
100
AcDbEntity
  8
SPOJOVACÍ
  6
Continuous
100
AcDbLine
 10
4151.82817157506
 20
-2143.260301471503
 30
0.0
 11
4149.467385404885
 21
-2144.054671601054
 31
0.0
  0
LINE
  5
4416
330
1F
100
AcDbEntity
  8
SPOJOVACÍ
  6
Continuous
100
AcDbLine
 10
4151.82817157506
 20
-2142.664058786348
 30
0.0
 11
4149.467385404885
 21
-2143.458428916176
 31
0.0
  0
LINE
  5
4417
330
1F
100
AcDbEntity
  8
SPOJOVACÍ
  6
Continuous
100
AcDbLine
 10
4152.205822950371
 20
-2143.042640335454
 30
0.0
 11
4149.08973403394
 21
-2143.676090052224
 31
0.0
  0
LINE
  5
4418
330
1F
100
AcDbEntity
  8
SPOJOVACÍ
  6
Continuous
100
AcDbLine
 10
4151.6412062399
 20
-2146.056409913774
 30
0.0
 11
4151.263554868954
 21
-2146.275001225793
 31
0.0
  0
LINE
  5
4419
330
1F
100
AcDbEntity
  8
SPOJOVACÍ
  6
Continuous
100
AcDbLine
 10
4151.6412062399
 20
-2146.056409913774
 30
0.0
 11
4151.263554868954
 21
-2145.678758540646
 31
0.0
  0
LINE
  5
441A
330
1F
100
AcDbEntity
  8
SPOJOVACÍ
  6
Continuous
100
AcDbLine
 10
4149.486919098443
 20
-2146.367088629548
 30
0.0
 11
4149.864570469389
 21
-2146.745670178378
 31
0.0
  0
LINE
  5
441B
330
1F
100
AcDbEntity
  8
SPOJOVACÍ
  6
Continuous
100
AcDbLine
 10
4149.486919098443
 20
-2146.367088629548
 30
0.0
 11
4149.864570469389
 21
-2146.14942749323
 31
0.0
  0
LINE
  5
441C
330
1F
100
AcDbEntity
  8
SPOJOVACÍ
  6
Continuous
100
AcDbLine
 10
4151.263554868954
 20
-2146.275001225793
 30
0.0
 11
4149.864570469389
 21
-2146.745670178378
 31
0.0
  0
LINE
  5
441D
330
1F
100
AcDbEntity
  8
SPOJOVACÍ
  6
Continuous
100
AcDbLine
 10
4151.263554868954
 20
-2145.678758540646
 30
0.0
 11
4149.864570469389
 21
-2146.14942749323
 31
0.0
  0
LINE
  5
441E
330
1F
100
AcDbEntity
  8
SPOJOVACÍ
  6
Continuous
100
AcDbLine
 10
4151.6412062399
 20
-2146.056409913774
 30
0.0
 11
4149.486919098443
 21
-2146.367088629548
 31
0.0
  0
LINE
  5
441F
330
1F
100
AcDbEntity
  8
SPOJOVACÍ
  6
Continuous
100
AcDbLine
 10
4148.224670545049
 20
-2138.150845825305
 30
0.0
 11
4148.602321915994
 21
-2138.528497198433
 31
0.0
  0
INSERT
  5
4420
330
1F
100
AcDbEntity
  8
POPIS
100
AcDbBlockReference
  2
E_PUNKT
 10
4210.720691160546
 20
-2151.17455297441
 30
0.0
  0
LINE
  5
4421
330
1F
100
AcDbEntity
  8
CETRIS
100
AcDbLine
 10
4135.418682987732
 20
-2125.67047923178
 30
0.0
 11
4233.200662757885
 21
-2125.67047923178
 31
0.0
  0
LINE
  5
4422
330
1F
100
AcDbEntity
  8
CETRIS
100
AcDbLine
 10
4135.418682987732
 20
-2113.67047923178
 30
0.0
 11
4235.410824036185
 21
-2113.67047923178
 31
0.0
  0
TEXT
  5
4423
330
1F
100
AcDbEntity
  8
POPIS
100
AcDbText
 10
4193.091854047721
 20
-2049.308752761521
 30
0.0
 40
25.0
  1
03
 41
0.85
  7
SIMPLEX7
100
AcDbText
  0
LINE
  5
4424
330
1F
100
AcDbEntity
  8
POPIS
100
AcDbLine
 10
4132.917964224765
 20
-2113.67047923178
 30
0.0
 11
4132.917964224765
 21
-2054.009815898045
 31
0.0
  0
LINE
  5
4425
330
1F
100
AcDbEntity
  8
NOSNÉ KONSTRUKCE
100
AcDbLine
 10
4155.498467090587
 20
-2131.761040587153
 30
0.0
 11
4156.998467090587
 21
-2131.761040587153
 31
0.0
  0
LINE
  5
4426
330
1F
100
AcDbEntity
  8
SPOJOVACÍ
  6
Continuous
100
AcDbLine
 10
4113.190639699879
 20
-2136.572337499737
 30
0.0
 11
4117.235044059471
 21
-2137.932254513279
 31
0.0
  0
LINE
  5
4427
330
1F
100
AcDbEntity
  8
SPOJOVACÍ
  6
Continuous
100
AcDbLine
 10
4112.812988324567
 20
-2136.950919048843
 30
0.0
 11
4113.190639699879
 21
-2136.572337499737
 31
0.0
  0
LINE
  5
4428
330
1F
100
AcDbEntity
  8
SPOJOVACÍ
  6
Continuous
100
AcDbLine
 10
4112.812988324567
 20
-2136.950919048843
 30
0.0
 11
4113.190639699879
 21
-2137.168580184891
 31
0.0
  0
LINE
  5
4429
330
1F
100
AcDbEntity
  8
SPOJOVACÍ
  6
Continuous
100
AcDbLine
 10
4113.190639699879
 20
-2133.452527880775
 30
0.0
 11
4117.235044059471
 21
-2134.812444894317
 31
0.0
  0
LINE
  5
442A
330
1F
100
AcDbEntity
  8
SPOJOVACÍ
  6
Continuous
100
AcDbLine
 10
4113.190639699879
 20
-2134.048770565922
 30
0.0
 11
4117.235044059471
 21
-2135.408687579195
 31
0.0
  0
LINE
  5
442B
330
1F
100
AcDbEntity
  8
SPOJOVACÍ
  6
Continuous
100
AcDbLine
 10
4117.612695430416
 20
-2135.030106030365
 30
0.0
 11
4117.235044059471
 21
-2134.812444894317
 31
0.0
  0
LINE
  5
442C
330
1F
100
AcDbEntity
  8
SPOJOVACÍ
  6
Continuous
100
AcDbLine
 10
4117.612695430416
 20
-2135.030106030365
 30
0.0
 11
4117.235044059471
 21
-2135.408687579195
 31
0.0
  0
LINE
  5
442D
330
1F
100
AcDbEntity
  8
SPOJOVACÍ
  6
Continuous
100
AcDbLine
 10
4112.812988324567
 20
-2133.830179253903
 30
0.0
 11
4113.190639699879
 21
-2133.452527880775
 31
0.0
  0
LINE
  5
442E
330
1F
100
AcDbEntity
  8
SPOJOVACÍ
  6
Continuous
100
AcDbLine
 10
4112.812988324567
 20
-2133.830179253903
 30
0.0
 11
4113.190639699879
 21
-2134.048770565922
 31
0.0
  0
LINE
  5
442F
330
1F
100
AcDbEntity
  8
SPOJOVACÍ
  6
Continuous
100
AcDbLine
 10
4112.812988324567
 20
-2133.830179253903
 30
0.0
 11
4117.612695430416
 21
-2135.030106030365
 31
0.0
  0
LINE
  5
4430
330
1F
100
AcDbEntity
  8
SPOJOVACÍ
  6
Continuous
100
AcDbLine
 10
4113.190639699879
 20
-2130.332718261806
 30
0.0
 11
4117.235044059471
 21
-2131.692635275078
 31
0.0
  0
LINE
  5
4431
330
1F
100
AcDbEntity
  8
SPOJOVACÍ
  6
Continuous
100
AcDbLine
 10
4113.190639699879
 20
-2130.92896094696
 30
0.0
 11
4117.235044059471
 21
-2132.288877960226
 31
0.0
  0
LINE
  5
4432
330
1F
100
AcDbEntity
  8
SPOJOVACÍ
  6
Continuous
100
AcDbLine
 10
4117.612695430416
 20
-2131.910296411396
 30
0.0
 11
4117.235044059471
 21
-2131.692635275078
 31
0.0
  0
LINE
  5
4433
330
1F
100
AcDbEntity
  8
SPOJOVACÍ
  6
Continuous
100
AcDbLine
 10
4117.612695430416
 20
-2131.910296411396
 30
0.0
 11
4117.235044059471
 21
-2132.288877960226
 31
0.0
  0
LINE
  5
4434
330
1F
100
AcDbEntity
  8
SPOJOVACÍ
  6
Continuous
100
AcDbLine
 10
4112.812988324567
 20
-2130.710369634934
 30
0.0
 11
4113.190639699879
 21
-2130.332718261806
 31
0.0
  0
LINE
  5
4435
330
1F
100
AcDbEntity
  8
SPOJOVACÍ
  6
Continuous
100
AcDbLine
 10
4112.812988324567
 20
-2130.710369634934
 30
0.0
 11
4113.190639699879
 21
-2130.92896094696
 31
0.0
  0
LINE
  5
4436
330
1F
100
AcDbEntity
  8
SPOJOVACÍ
  6
Continuous
100
AcDbLine
 10
4112.812988324567
 20
-2130.710369634934
 30
0.0
 11
4117.612695430416
 21
-2131.910296411396
 31
0.0
  0
LINE
  5
4437
330
1F
100
AcDbEntity
  8
SPOJOVACÍ
  6
Continuous
100
AcDbLine
 10
4113.190639699879
 20
-2127.212908642567
 30
0.0
 11
4117.235044059471
 21
-2128.571895480408
 31
0.0
  0
LINE
  5
4438
330
1F
100
AcDbEntity
  8
SPOJOVACÍ
  6
Continuous
100
AcDbLine
 10
4113.190639699879
 20
-2127.809151327722
 30
0.0
 11
4117.235044059471
 21
-2129.168138165286
 31
0.0
  0
LINE
  5
4439
330
1F
100
AcDbEntity
  8
SPOJOVACÍ
  6
Continuous
100
AcDbLine
 10
4117.612695430416
 20
-2128.790486792434
 30
0.0
 11
4117.235044059471
 21
-2128.571895480408
 31
0.0
  0
LINE
  5
443A
330
1F
100
AcDbEntity
  8
SPOJOVACÍ
  6
Continuous
100
AcDbLine
 10
4117.612695430416
 20
-2128.790486792434
 30
0.0
 11
4117.235044059471
 21
-2129.168138165286
 31
0.0
  0
LINE
  5
443B
330
1F
100
AcDbEntity
  8
SPOJOVACÍ
  6
Continuous
100
AcDbLine
 10
4112.812988324567
 20
-2127.590560015695
 30
0.0
 11
4113.190639699879
 21
-2127.212908642567
 31
0.0
  0
LINE
  5
443C
330
1F
100
AcDbEntity
  8
SPOJOVACÍ
  6
Continuous
100
AcDbLine
 10
4112.812988324567
 20
-2127.590560015695
 30
0.0
 11
4113.190639699879
 21
-2127.809151327722
 31
0.0
  0
LINE
  5
443D
330
1F
100
AcDbEntity
  8
SPOJOVACÍ
  6
Continuous
100
AcDbLine
 10
4112.812988324567
 20
-2127.590560015695
 30
0.0
 11
4117.612695430416
 21
-2128.790486792434
 31
0.0
  0
LINE
  5
443E
330
1F
100
AcDbEntity
  8
SPOJOVACÍ
  6
Continuous
100
AcDbLine
 10
4113.190639699879
 20
-2124.092168847903
 30
0.0
 11
4117.235044059471
 21
-2125.452085861169
 31
0.0
  0
LINE
  5
443F
330
1F
100
AcDbEntity
  8
SPOJOVACÍ
  6
Continuous
100
AcDbLine
 10
4113.190639699879
 20
-2124.688411532781
 30
0.0
 11
4117.235044059471
 21
-2126.048328546324
 31
0.0
  0
LINE
  5
4440
330
1F
100
AcDbEntity
  8
SPOJOVACÍ
  6
Continuous
100
AcDbLine
 10
4117.612695430416
 20
-2125.670677173196
 30
0.0
 11
4117.235044059471
 21
-2125.452085861169
 31
0.0
  0
LINE
  5
4441
330
1F
100
AcDbEntity
  8
SPOJOVACÍ
  6
Continuous
100
AcDbLine
 10
4117.612695430416
 20
-2125.670677173196
 30
0.0
 11
4117.235044059471
 21
-2126.048328546324
 31
0.0
  0
LINE
  5
4442
330
1F
100
AcDbEntity
  8
SPOJOVACÍ
  6
Continuous
100
AcDbLine
 10
4112.812988324567
 20
-2124.470750396733
 30
0.0
 11
4113.190639699879
 21
-2124.092168847903
 31
0.0
  0
LINE
  5
4443
330
1F
100
AcDbEntity
  8
SPOJOVACÍ
  6
Continuous
100
AcDbLine
 10
4112.812988324567
 20
-2124.470750396733
 30
0.0
 11
4113.190639699879
 21
-2124.688411532781
 31
0.0
  0
LINE
  5
4444
330
1F
100
AcDbEntity
  8
SPOJOVACÍ
  6
Continuous
100
AcDbLine
 10
4112.812988324567
 20
-2124.470750396733
 30
0.0
 11
4117.612695430416
 21
-2125.670677173196
 31
0.0
  0
LINE
  5
4445
330
1F
100
AcDbEntity
  8
SPOJOVACÍ
  6
Continuous
100
AcDbLine
 10
4116.562526961042
 20
-2135.176143630281
 30
0.0
 11
4116.562526961042
 21
-2137.69505968531
 31
0.0
  0
LINE
  5
4446
330
1F
100
AcDbEntity
  8
SPOJOVACÍ
  6
Continuous
100
AcDbLine
 10
4113.863156798307
 20
-2134.273873108407
 30
0.0
 11
4113.863156798307
 21
-2136.791858987734
 31
0.0
  0
LINE
  5
4447
330
1F
100
AcDbEntity
  8
SPOJOVACÍ
  6
Continuous
100
AcDbLine
 10
4116.562526961042
 20
-2132.054473659639
 30
0.0
 11
4116.562526961042
 21
-2134.575250066348
 31
0.0
  0
LINE
  5
4448
330
1F
100
AcDbEntity
  8
SPOJOVACÍ
  6
Continuous
100
AcDbLine
 10
4116.562526961042
 20
-2128.931873513295
 30
0.0
 11
4116.562526961042
 21
-2131.460091326164
 31
0.0
  0
LINE
  5
4449
330
1F
100
AcDbEntity
  8
SPOJOVACÍ
  6
Continuous
100
AcDbLine
 10
4116.562526961042
 20
-2125.816714773111
 30
0.0
 11
4116.562526961042
 21
-2128.335630828141
 31
0.0
  0
LINE
  5
444A
330
1F
100
AcDbEntity
  8
SPOJOVACÍ
  6
Continuous
100
AcDbLine
 10
4113.863156798307
 20
-2131.141041028252
 30
0.0
 11
4113.863156798307
 21
-2133.669258841121
 31
0.0
  0
LINE
  5
444B
330
1F
100
AcDbEntity
  8
SPOJOVACÍ
  6
Continuous
100
AcDbLine
 10
4113.863156798307
 20
-2128.025882288068
 30
0.0
 11
4113.863156798307
 21
-2130.546658694777
 31
0.0
  0
LINE
  5
444C
330
1F
100
AcDbEntity
  8
SPOJOVACÍ
  6
Continuous
100
AcDbLine
 10
4113.863156798307
 20
-2124.903282141724
 30
0.0
 11
4113.863156798307
 21
-2127.422198196753
 31
0.0
  0
LINE
  5
444D
330
1F
100
AcDbEntity
  8
SPOJOVACÍ
  6
Continuous
100
AcDbLine
 10
4113.863156798307
 20
-2120.270076502868
 30
0.0
 11
4113.863156798307
 21
-2124.307969632548
 31
0.0
  0
LINE
  5
444E
330
1F
100
AcDbEntity
  8
SPOJOVACÍ
  6
Continuous
100
AcDbLine
 10
4116.562526961042
 20
-2120.270076502868
 30
0.0
 11
4116.562526961042
 21
-2125.213030681797
 31
0.0
  0
LINE
  5
444F
330
1F
100
AcDbEntity
  8
SPOJOVACÍ
  6
Continuous
100
AcDbLine
 10
4110.112687988858
 20
-2114.870406008511
 30
0.0
 11
4111.462373072408
 21
-2115.614546644986
 31
0.0
  0
LINE
  5
4450
330
1F
100
AcDbEntity
  8
SPOJOVACÍ
  6
Continuous
100
AcDbLine
 10
4111.462373072408
 20
-2115.614546644986
 30
0.0
 11
4112.573002972768
 21
-2116.683318634398
 31
0.0
  0
LINE
  5
4451
330
1F
100
AcDbEntity
  8
SPOJOVACÍ
  6
Continuous
100
AcDbLine
 10
4112.573002972768
 20
-2116.683318634398
 30
0.0
 11
4113.369233452085
 21
-2118.002307912695
 31
0.0
  0
LINE
  5
4452
330
1F
100
AcDbEntity
  8
SPOJOVACÍ
  6
Continuous
100
AcDbLine
 10
4113.369233452085
 20
-2118.002307912695
 30
0.0
 11
4113.797114316385
 21
-2119.483147779746
 31
0.0
  0
LINE
  5
4453
330
1F
100
AcDbEntity
  8
SPOJOVACÍ
  6
Continuous
100
AcDbLine
 10
4113.797114316385
 20
-2119.483147779746
 30
0.0
 11
4113.863156798307
 21
-2120.270076502868
 31
0.0
  0
LINE
  5
4454
330
1F
100
AcDbEntity
  8
SPOJOVACÍ
  6
Continuous
100
AcDbLine
 10
4118.360556771058
 20
-2116.125213156837
 30
0.0
 11
4119.597690579958
 21
-2115.207129646395
 31
0.0
  0
LINE
  5
4455
330
1F
100
AcDbEntity
  8
SPOJOVACÍ
  6
Continuous
100
AcDbLine
 10
4119.597690579958
 20
-2115.207129646395
 30
0.0
 11
4120.312995766126
 21
-2114.870406008511
 31
0.0
  0
LINE
  5
4456
330
1F
100
AcDbEntity
  8
SPOJOVACÍ
  6
Continuous
100
AcDbLine
 10
4110.112687988858
 20
-2114.870406008511
 30
0.0
 11
4120.312995766126
 21
-2114.870406008511
 31
0.0
  0
LINE
  5
4457
330
1F
100
AcDbEntity
  8
SPOJOVACÍ
  6
Continuous
100
AcDbLine
 10
4110.112687988858
 20
-2113.67047923178
 30
0.0
 11
4110.112687988858
 21
-2114.870406008511
 31
0.0
  0
LINE
  5
4458
330
1F
100
AcDbEntity
  8
SPOJOVACÍ
  6
Continuous
100
AcDbLine
 10
4110.112687988858
 20
-2113.67047923178
 30
0.0
 11
4120.312995766126
 21
-2113.67047923178
 31
0.0
  0
LINE
  5
4459
330
1F
100
AcDbEntity
  8
SPOJOVACÍ
  6
Continuous
100
AcDbLine
 10
4120.312995766126
 20
-2113.67047923178
 30
0.0
 11
4120.312995766126
 21
-2114.870406008511
 31
0.0
  0
LINE
  5
445A
330
1F
100
AcDbEntity
  8
SPOJOVACÍ
  6
Continuous
100
AcDbLine
 10
4116.562526961042
 20
-2120.270076502868
 30
0.0
 11
4116.789489851926
 21
-2118.746448549439
 31
0.0
  0
LINE
  5
445B
330
1F
100
AcDbEntity
  8
SPOJOVACÍ
  6
Continuous
100
AcDbLine
 10
4116.789489851926
 20
-2118.746448549439
 30
0.0
 11
4117.402475701074
 21
-2117.332581339736
 31
0.0
  0
LINE
  5
445C
330
1F
100
AcDbEntity
  8
SPOJOVACÍ
  6
Continuous
100
AcDbLine
 10
4117.402475701074
 20
-2117.332581339736
 30
0.0
 11
4118.360556771058
 21
-2116.125213156837
 31
0.0
  0
LINE
  5
445D
330
1F
100
AcDbEntity
  8
CETRIS
100
AcDbLine
 10
4130.418682987732
 20
-2125.67047923178
 30
0.0
 11
4130.418682987732
 21
-2113.67047923178
 31
0.0
  0
LINE
  5
445E
330
1F
100
AcDbEntity
  8
CETRIS
100
AcDbLine
 10
4135.418682987732
 20
-2125.67047923178
 30
0.0
 11
4135.418682987732
 21
-2113.67047923178
 31
0.0
  0
LWPOLYLINE
  5
445F
330
1F
100
AcDbEntity
  8
izolace
100
AcDbPolyline
 90
        4
 70
     1
 43
0.0
 10
4135.418682987732
 20
-2113.67047923178
 10
4130.418682987732
 20
-2113.67047923178
 10
4130.418682987732
 20
-2125.67047923178
 10
4135.418682987732
 20
-2125.67047923178
  0
LINE
  5
4460
330
1F
100
AcDbEntity
  8
SPOJOVACÍ
  6
Continuous
100
AcDbLine
 10
4148.434890274391
 20
-2117.332581339736
 30
0.0
 11
4147.476809204407
 21
-2116.125213156837
 31
0.0
  0
LINE
  5
4461
330
1F
100
AcDbEntity
  8
SPOJOVACÍ
  6
Continuous
100
AcDbLine
 10
4149.047876123539
 20
-2118.746448549439
 30
0.0
 11
4148.434890274391
 21
-2117.332581339736
 31
0.0
  0
LINE
  5
4462
330
1F
100
AcDbEntity
  8
SPOJOVACÍ
  6
Continuous
100
AcDbLine
 10
4149.274839014423
 20
-2120.270076502868
 30
0.0
 11
4149.047876123539
 21
-2118.746448549439
 31
0.0
  0
LINE
  5
4463
330
1F
100
AcDbEntity
  8
SPOJOVACÍ
  6
Continuous
100
AcDbLine
 10
4145.524370209339
 20
-2113.67047923178
 30
0.0
 11
4145.524370209339
 21
-2114.870406008511
 31
0.0
  0
LINE
  5
4464
330
1F
100
AcDbEntity
  8
SPOJOVACÍ
  6
Continuous
100
AcDbLine
 10
4155.724677986607
 20
-2113.67047923178
 30
0.0
 11
4145.524370209339
 21
-2113.67047923178
 31
0.0
  0
LINE
  5
4465
330
1F
100
AcDbEntity
  8
SPOJOVACÍ
  6
Continuous
100
AcDbLine
 10
4155.724677986607
 20
-2113.67047923178
 30
0.0
 11
4155.724677986607
 21
-2114.870406008511
 31
0.0
  0
LINE
  5
4466
330
1F
100
AcDbEntity
  8
SPOJOVACÍ
  6
Continuous
100
AcDbLine
 10
4155.724677986607
 20
-2114.870406008511
 30
0.0
 11
4145.524370209339
 21
-2114.870406008511
 31
0.0
  0
LINE
  5
4467
330
1F
100
AcDbEntity
  8
SPOJOVACÍ
  6
Continuous
100
AcDbLine
 10
4146.239675395507
 20
-2115.207129646395
 30
0.0
 11
4145.524370209339
 21
-2114.870406008511
 31
0.0
  0
LINE
  5
4468
330
1F
100
AcDbEntity
  8
SPOJOVACÍ
  6
Continuous
100
AcDbLine
 10
4147.476809204407
 20
-2116.125213156837
 30
0.0
 11
4146.239675395507
 21
-2115.207129646395
 31
0.0
  0
LINE
  5
4469
330
1F
100
AcDbEntity
  8
SPOJOVACÍ
  6
Continuous
100
AcDbLine
 10
4152.04025165908
 20
-2119.483147779746
 30
0.0
 11
4151.974209177159
 21
-2120.270076502868
 31
0.0
  0
LINE
  5
446A
330
1F
100
AcDbEntity
  8
SPOJOVACÍ
  6
Continuous
100
AcDbLine
 10
4152.46813252338
 20
-2118.002307912695
 30
0.0
 11
4152.04025165908
 21
-2119.483147779746
 31
0.0
  0
LINE
  5
446B
330
1F
100
AcDbEntity
  8
SPOJOVACÍ
  6
Continuous
100
AcDbLine
 10
4153.264363002698
 20
-2116.683318634398
 30
0.0
 11
4152.46813252338
 21
-2118.002307912695
 31
0.0
  0
LINE
  5
446C
330
1F
100
AcDbEntity
  8
SPOJOVACÍ
  6
Continuous
100
AcDbLine
 10
4154.374992903057
 20
-2115.614546644986
 30
0.0
 11
4153.264363002698
 21
-2116.683318634398
 31
0.0
  0
LINE
  5
446D
330
1F
100
AcDbEntity
  8
SPOJOVACÍ
  6
Continuous
100
AcDbLine
 10
4155.724677986607
 20
-2114.870406008511
 30
0.0
 11
4154.374992903057
 21
-2115.614546644986
 31
0.0
  0
LINE
  5
446E
330
1F
100
AcDbEntity
  8
SPOJOVACÍ
  6
Continuous
100
AcDbLine
 10
4149.274839014423
 20
-2120.270076502868
 30
0.0
 11
4149.274839014423
 21
-2125.213030681797
 31
0.0
  0
LINE
  5
446F
330
1F
100
AcDbEntity
  8
SPOJOVACÍ
  6
Continuous
100
AcDbLine
 10
4151.974209177159
 20
-2120.270076502868
 30
0.0
 11
4151.974209177159
 21
-2124.307969632548
 31
0.0
  0
LINE
  5
4470
330
1F
100
AcDbEntity
  8
SPOJOVACÍ
  6
Continuous
100
AcDbLine
 10
4151.974209177159
 20
-2124.903282141724
 30
0.0
 11
4151.974209177159
 21
-2127.422198196753
 31
0.0
  0
LINE
  5
4471
330
1F
100
AcDbEntity
  8
SPOJOVACÍ
  6
Continuous
100
AcDbLine
 10
4151.974209177159
 20
-2128.025882288068
 30
0.0
 11
4151.974209177159
 21
-2130.546658694777
 31
0.0
  0
LINE
  5
4472
330
1F
100
AcDbEntity
  8
SPOJOVACÍ
  6
Continuous
100
AcDbLine
 10
4151.974209177159
 20
-2131.141041028252
 30
0.0
 11
4151.974209177159
 21
-2133.669258841121
 31
0.0
  0
LINE
  5
4473
330
1F
100
AcDbEntity
  8
SPOJOVACÍ
  6
Continuous
100
AcDbLine
 10
4149.274839014423
 20
-2125.816714773111
 30
0.0
 11
4149.274839014423
 21
-2128.335630828141
 31
0.0
  0
LINE
  5
4474
330
1F
100
AcDbEntity
  8
SPOJOVACÍ
  6
Continuous
100
AcDbLine
 10
4149.274839014423
 20
-2128.931873513295
 30
0.0
 11
4149.274839014423
 21
-2131.460091326164
 31
0.0
  0
LINE
  5
4475
330
1F
100
AcDbEntity
  8
SPOJOVACÍ
  6
Continuous
100
AcDbLine
 10
4149.274839014423
 20
-2132.054473659639
 30
0.0
 11
4149.274839014423
 21
-2134.575250066348
 31
0.0
  0
LINE
  5
4476
330
1F
100
AcDbEntity
  8
SPOJOVACÍ
  6
Continuous
100
AcDbLine
 10
4151.974209177159
 20
-2134.273873108407
 30
0.0
 11
4151.974209177159
 21
-2136.791858987734
 31
0.0
  0
LINE
  5
4477
330
1F
100
AcDbEntity
  8
SPOJOVACÍ
  6
Continuous
100
AcDbLine
 10
4149.274839014423
 20
-2135.176143630281
 30
0.0
 11
4149.274839014423
 21
-2137.69505968531
 31
0.0
  0
LINE
  5
4478
330
1F
100
AcDbEntity
  8
SPOJOVACÍ
  6
Continuous
100
AcDbLine
 10
4153.024377650898
 20
-2124.470750396733
 30
0.0
 11
4148.224670545049
 21
-2125.670677173196
 31
0.0
  0
LINE
  5
4479
330
1F
100
AcDbEntity
  8
SPOJOVACÍ
  6
Continuous
100
AcDbLine
 10
4153.024377650898
 20
-2124.470750396733
 30
0.0
 11
4152.646726275587
 21
-2124.688411532781
 31
0.0
  0
LINE
  5
447A
330
1F
100
AcDbEntity
  8
SPOJOVACÍ
  6
Continuous
100
AcDbLine
 10
4153.024377650898
 20
-2124.470750396733
 30
0.0
 11
4152.646726275587
 21
-2124.092168847903
 31
0.0
  0
LINE
  5
447B
330
1F
100
AcDbEntity
  8
SPOJOVACÍ
  6
Continuous
100
AcDbLine
 10
4148.224670545049
 20
-2125.670677173196
 30
0.0
 11
4148.602321915994
 21
-2126.048328546324
 31
0.0
  0
LINE
  5
447C
330
1F
100
AcDbEntity
  8
SPOJOVACÍ
  6
Continuous
100
AcDbLine
 10
4148.224670545049
 20
-2125.670677173196
 30
0.0
 11
4148.602321915994
 21
-2125.452085861169
 31
0.0
  0
LINE
  5
447D
330
1F
100
AcDbEntity
  8
SPOJOVACÍ
  6
Continuous
100
AcDbLine
 10
4152.646726275587
 20
-2124.688411532781
 30
0.0
 11
4148.602321915994
 21
-2126.048328546324
 31
0.0
  0
LINE
  5
447E
330
1F
100
AcDbEntity
  8
SPOJOVACÍ
  6
Continuous
100
AcDbLine
 10
4152.646726275587
 20
-2124.092168847903
 30
0.0
 11
4148.602321915994
 21
-2125.452085861169
 31
0.0
  0
LINE
  5
447F
330
1F
100
AcDbEntity
  8
SPOJOVACÍ
  6
Continuous
100
AcDbLine
 10
4153.024377650898
 20
-2127.590560015695
 30
0.0
 11
4148.224670545049
 21
-2128.790486792434
 31
0.0
  0
LINE
  5
4480
330
1F
100
AcDbEntity
  8
SPOJOVACÍ
  6
Continuous
100
AcDbLine
 10
4153.024377650898
 20
-2127.590560015695
 30
0.0
 11
4152.646726275587
 21
-2127.809151327722
 31
0.0
  0
LINE
  5
4481
330
1F
100
AcDbEntity
  8
SPOJOVACÍ
  6
Continuous
100
AcDbLine
 10
4153.024377650898
 20
-2127.590560015695
 30
0.0
 11
4152.646726275587
 21
-2127.212908642567
 31
0.0
  0
LINE
  5
4482
330
1F
100
AcDbEntity
  8
SPOJOVACÍ
  6
Continuous
100
AcDbLine
 10
4148.224670545049
 20
-2128.790486792434
 30
0.0
 11
4148.602321915994
 21
-2129.168138165286
 31
0.0
  0
LINE
  5
4483
330
1F
100
AcDbEntity
  8
SPOJOVACÍ
  6
Continuous
100
AcDbLine
 10
4148.224670545049
 20
-2128.790486792434
 30
0.0
 11
4148.602321915994
 21
-2128.571895480408
 31
0.0
  0
LINE
  5
4484
330
1F
100
AcDbEntity
  8
SPOJOVACÍ
  6
Continuous
100
AcDbLine
 10
4152.646726275587
 20
-2127.809151327722
 30
0.0
 11
4148.602321915994
 21
-2129.168138165286
 31
0.0
  0
LINE
  5
4485
330
1F
100
AcDbEntity
  8
SPOJOVACÍ
  6
Continuous
100
AcDbLine
 10
4152.646726275587
 20
-2127.212908642567
 30
0.0
 11
4148.602321915994
 21
-2128.571895480408
 31
0.0
  0
LINE
  5
4486
330
1F
100
AcDbEntity
  8
SPOJOVACÍ
  6
Continuous
100
AcDbLine
 10
4153.024377650898
 20
-2130.710369634934
 30
0.0
 11
4148.224670545049
 21
-2131.910296411396
 31
0.0
  0
LINE
  5
4487
330
1F
100
AcDbEntity
  8
SPOJOVACÍ
  6
Continuous
100
AcDbLine
 10
4153.024377650898
 20
-2130.710369634934
 30
0.0
 11
4152.646726275587
 21
-2130.92896094696
 31
0.0
  0
LINE
  5
4488
330
1F
100
AcDbEntity
  8
SPOJOVACÍ
  6
Continuous
100
AcDbLine
 10
4153.024377650898
 20
-2130.710369634934
 30
0.0
 11
4152.646726275587
 21
-2130.332718261806
 31
0.0
  0
LINE
  5
4489
330
1F
100
AcDbEntity
  8
SPOJOVACÍ
  6
Continuous
100
AcDbLine
 10
4148.224670545049
 20
-2131.910296411396
 30
0.0
 11
4148.602321915994
 21
-2132.288877960226
 31
0.0
  0
LINE
  5
448A
330
1F
100
AcDbEntity
  8
SPOJOVACÍ
  6
Continuous
100
AcDbLine
 10
4148.224670545049
 20
-2131.910296411396
 30
0.0
 11
4148.602321915994
 21
-2131.692635275078
 31
0.0
  0
LINE
  5
448B
330
1F
100
AcDbEntity
  8
SPOJOVACÍ
  6
Continuous
100
AcDbLine
 10
4152.646726275587
 20
-2130.92896094696
 30
0.0
 11
4148.602321915994
 21
-2132.288877960226
 31
0.0
  0
LINE
  5
448C
330
1F
100
AcDbEntity
  8
SPOJOVACÍ
  6
Continuous
100
AcDbLine
 10
4152.646726275587
 20
-2130.332718261806
 30
0.0
 11
4148.602321915994
 21
-2131.692635275078
 31
0.0
  0
LINE
  5
448D
330
1F
100
AcDbEntity
  8
SPOJOVACÍ
  6
Continuous
100
AcDbLine
 10
4153.024377650898
 20
-2133.830179253903
 30
0.0
 11
4148.224670545049
 21
-2135.030106030365
 31
0.0
  0
LINE
  5
448E
330
1F
100
AcDbEntity
  8
SPOJOVACÍ
  6
Continuous
100
AcDbLine
 10
4153.024377650898
 20
-2133.830179253903
 30
0.0
 11
4152.646726275587
 21
-2134.048770565922
 31
0.0
  0
LINE
  5
448F
330
1F
100
AcDbEntity
  8
SPOJOVACÍ
  6
Continuous
100
AcDbLine
 10
4153.024377650898
 20
-2133.830179253903
 30
0.0
 11
4152.646726275587
 21
-2133.452527880775
 31
0.0
  0
LINE
  5
4490
330
1F
100
AcDbEntity
  8
SPOJOVACÍ
  6
Continuous
100
AcDbLine
 10
4148.224670545049
 20
-2135.030106030365
 30
0.0
 11
4148.602321915994
 21
-2135.408687579195
 31
0.0
  0
LINE
  5
4491
330
1F
100
AcDbEntity
  8
SPOJOVACÍ
  6
Continuous
100
AcDbLine
 10
4148.224670545049
 20
-2135.030106030365
 30
0.0
 11
4148.602321915994
 21
-2134.812444894317
 31
0.0
  0
LINE
  5
4492
330
1F
100
AcDbEntity
  8
SPOJOVACÍ
  6
Continuous
100
AcDbLine
 10
4152.646726275587
 20
-2134.048770565922
 30
0.0
 11
4148.602321915994
 21
-2135.408687579195
 31
0.0
  0
LINE
  5
4493
330
1F
100
AcDbEntity
  8
SPOJOVACÍ
  6
Continuous
100
AcDbLine
 10
4152.646726275587
 20
-2133.452527880775
 30
0.0
 11
4148.602321915994
 21
-2134.812444894317
 31
0.0
  0
LINE
  5
4494
330
1F
100
AcDbEntity
  8
SPOJOVACÍ
  6
Continuous
100
AcDbLine
 10
4153.024377650898
 20
-2136.950919048843
 30
0.0
 11
4152.646726275587
 21
-2137.168580184891
 31
0.0
  0
LINE
  5
4495
330
1F
100
AcDbEntity
  8
SPOJOVACÍ
  6
Continuous
100
AcDbLine
 10
4153.024377650898
 20
-2136.950919048843
 30
0.0
 11
4152.646726275587
 21
-2136.572337499737
 31
0.0
  0
LINE
  5
4496
330
1F
100
AcDbEntity
  8
SPOJOVACÍ
  6
Continuous
100
AcDbLine
 10
4152.646726275587
 20
-2136.572337499737
 30
0.0
 11
4148.602321915994
 21
-2137.932254513279
 31
0.0
  0
HATCH
  5
4497
330
1F
100
AcDbEntity
  8
izolace
100
AcDbHatch
 10
0.0
 20
0.0
 30
0.0
210
0.0
220
0.0
230
1.0
  2
AR-SAND
 70
     0
 71
     0
 91
        1
 92
        7
 72
     0
 73
     1
 93
        4
 10
4135.418682987732
 20
-2113.67047923178
 10
4130.418682987732
 20
-2113.670479231781
 10
4130.418682987732
 20
-2125.67047923178
 10
4135.418682987732
 20
-2125.67047923178
 97
        0
 75
     0
 76
     1
 52
90.0
 41
0.05
 77
     0
 78
     4
 53
127.5
 43
-19824.7117628611
 44
-3602.167756489407
 45
-2.447066186646711
 46
-0.0800015647992021
 79
     6
 49
0.0
 49
-1.9304
 49
0.0
 49
-2.159
 49
0.0
 49
-2.06375
 53
97.49999999999985
 43
-19824.7117628611
 44
-3602.167756489407
 45
-3.584125502841771
 46
2.247616415690013
 79
     6
 49
0.0
 49
-1.041399999999999
 49
0.0
 49
-1.7399
 49
0.0
 49
-0.66675
 53
57.5
 43
-19824.7117628611
 44
-3603.729856489407
 45
-0.0071859233927282
 46
3.95496185120729
 79
     6
 49
0.0
 49
-0.635
 49
0.0
 49
-2.286
 49
0.0
 49
-2.9845
 53
47.5
 43
-19824.7117628611
 44
-3603.729856489407
 45
-1.11464661628608
 46
3.817782262361486
 79
     6
 49
0.0
 49
-0.3175
 49
0.0
 49
-1.498599999999999
 49
0.0
 49
-1.7145
 47
0.2359071171925059
 98
        1
 10
4132.442835084926
 20
-2119.837013332565
  0
INSERT
  5
4498
330
1F
100
AcDbEntity
  8
POPIS
100
AcDbBlockReference
  2
E_PUNKT
 10
4115.280353624977
 20
-2113.699547562653
 30
0.0
  0
LINE
  5
4499
330
1F
100
AcDbEntity
  8
POPIS
100
AcDbLine
 10
4115.307964000603
 20
-2113.67047923178
 30
0.0
 11
4115.307964000599
 21
-2083.840147564911
 31
0.0
  0
INSERT
  5
449A
330
1F
100
AcDbEntity
  8
POPIS
100
AcDbBlockReference
  2
E_PUNKT
 10
4132.890353849139
 20
-2113.699547562653
 30
0.0
  0
TEXT
  5
449B
330
1F
100
AcDbEntity
  8
POPIS
100
AcDbText
 10
4115.261516736314
 20
-2049.308752761521
 30
0.0
 40
25.0
  1
06
 41
0.85
  7
SIMPLEX7
100
AcDbText
  0
HATCH
  5
449C
330
1F
100
AcDbEntity
  8
STAVBA OBRYS
100
AcDbHatch
 10
0.0
 20
0.0
 30
0.0
210
0.0
220
0.0
230
1.0
  2
BRICK
 70
     0
 71
     0
 91
        1
 92
        7
 72
     0
 73
     1
 93
       10
 10
3704.29163507478
 20
-2012.645134656235
 10
3539.957806627375
 20
-2012.635893005008
 10
3539.957806627375
 20
-2363.552983437084
 10
3704.29163507478
 20
-2363.552983437083
 10
3704.291635074783
 20
-2257.151622709016
 10
3675.58892121493
 20
-2217.894808367787
 10
3657.998124407655
 20
-2217.894808367787
 10
3652.348684066935
 20
-2214.36934194431
 10
3657.998124407651
 20
-2210.843875520837
 10
3704.291635074776
 20
-2210.843875520837
 97
        0
 75
     0
 76
     1
 52
0.0
 41
10.0
 77
     0
 78
     3
 53
0.0
 43
-18128.09802588474
 44
-4076.811001012551
 45
0.0
 46
63.5
 79
     0
 53
90.0
 43
-18128.09802588474
 44
-4076.811001012551
 45
-127.0
 46
0.0000000000000078
 79
     2
 49
63.5
 49
-63.5
 53
90.0
 43
-18064.59802588474
 44
-4076.811001012551
 45
-127.0
 46
0.0000000000000078
 79
     2
 49
-63.5
 49
63.5
 47
1.934738201277294
 98
        1
 10
3622.21188238803
 20
-2196.747508353837
  0
HATCH
  5
449E
330
1F
100
AcDbEntity
  8
izolace
100
AcDbHatch
 10
0.0
 20
0.0
 30
0.0
210
0.0
220
0.0
230
1.0
  2
SOLID
 70
     1
 71
     0
 91
        4
 92
        7
 72
     0
 73
     1
 93
        4
 10
3720.288171235102
 20
-2127.082226415633
 10
3720.288171235102
 20
-2139.583303422607
 10
3718.288171235098
 20
-2139.583303422607
 10
3718.288171235098
 20
-2127.082226415633
 97
        0
 92
        7
 72
     0
 73
     1
 93
        4
 10
3720.288171235102
 20
-2147.240014337205
 10
3720.288171235102
 20
-2159.741091344183
 10
3718.288171235098
 20
-2159.741091344183
 10
3718.288171235098
 20
-2147.240014337205
 97
        0
 92
        7
 72
     0
 73
     1
 93
        4
 10
3720.288171235102
 20
-2167.974250358835
 10
3720.288171235102
 20
-2180.475327365813
 10
3718.288171235098
 20
-2180.475327365813
 10
3718.288171235098
 20
-2167.974250358835
 97
        0
 92
        7
 72
     1
 73
     1
 93
        7
 10
3719.809245572981
 20
-2189.118501271698
 42
0.0
 10
3720.288171235102
 20
-2189.118501271698
 42
0.0
 10
3720.288171235102
 20
-2201.619578278673
 42
0.0
 10
3718.288171235098
 20
-2201.619578278673
 42
0.0
 10
3718.288171235098
 20
-2189.354889265952
 42
0.0
 10
3718.44677860718
 20
-2189.118501271698
 42
0.0
 10
3718.522451149168
 20
-2189.118501271698
 42
0.2771233679601331
 97
        0
 75
     0
 76
     1
 47
0.1334780420591298
 98
        4
 10
3718.986182126555
 20
-2132.30300198711
 10
3718.986182126555
 20
-2148.065088319418
 10
3718.986182126555
 20
-2175.047645955625
 10
3718.986182126555
 20
-2193.347697014535
  0
HATCH
  5
449F
330
1F
100
AcDbEntity
  8
NOSNÉ KONSTRUKCE
100
AcDbHatch
 10
0.0
 20
0.0
 30
0.0
210
0.0
220
0.0
230
1.0
  2
SOLID
 70
     1
 71
     0
 91
        1
 92
        7
 72
     1
 73
     1
 93
       60
 10
3720.806912550026
 20
-2146.27676170665
 42
0.0
 10
3720.806912550026
 20
-2180.153860830589
 42
-0.3073346934841183
 10
3721.954085038246
 20
-2181.869051393656
 42
0.0
 10
3721.954085038246
 20
-2185.630285494179
 42
-0.307334693483106
 10
3720.806912550026
 20
-2187.34547605724
 42
0.0
 10
3720.806912550026
 20
-2197.686926145764
 42
0.4142135623730951
 10
3722.776912550026
 20
-2199.656926145763
 42
0.0
 10
3730.85278311111
 20
-2199.656926145763
 42
-0.7595816512230912
 10
3734.390353646349
 20
-2199.656926145764
 42
0.0
 10
3743.428585009841
 20
-2199.656926145759
 42
-0.7595816493590427
 10
3746.966155577547
 20
-2199.656926145763
 42
0.0
 10
3756.004384937764
 20
-2199.656926145763
 42
-0.7767342353201953
 10
3759.561671643229
 20
-2199.733713970848
 42
0.0
 10
3766.031259241157
 20
-2199.733713970848
 42
0.4142135623730868
 10
3768.001259241157
 20
-2197.763713970848
 42
0.0
 10
3768.001259241158
 20
-2194.980768066029
 42
0.0
 10
3767.016259241158
 20
-2194.980768066029
 42
0.0
 10
3767.016259241158
 20
-2197.763713970848
 42
-0.4142135623730951
 10
3766.031259241157
 20
-2198.748713970848
 42
0.0
 10
3760.222028634764
 20
-2198.748713970848
 42
0.5694936494219963
 10
3755.369972432019
 20
-2198.671926145763
 42
0.0
 10
3747.600570027719
 20
-2198.671926145763
 42
0.5590616644338513
 10
3742.794170559669
 20
-2198.67192614576
 42
0.0
 10
3735.024768097104
 20
-2198.671926145763
 42
0.5590616643157284
 10
3730.218368660354
 20
-2198.671926145763
 42
0.0
 10
3722.776912550026
 20
-2198.671926145763
 42
-0.4142135623731451
 10
3721.791912550026
 20
-2197.686926145764
 42
0.0
 10
3721.791912550026
 20
-2187.902917017801
 42
0.2364174637114482
 10
3722.93003975018
 20
-2185.655295105644
 42
0.0
 10
3722.93003975018
 20
-2181.844041782187
 42
0.2364174637115772
 10
3721.791912550026
 20
-2179.596419870027
 42
0.0
 10
3721.791912550026
 20
-2146.830617602281
 42
0.2353201211467568
 10
3722.919373663801
 20
-2144.589333319194
 42
0.0
 10
3722.917191327366
 20
-2140.778080620548
 42
0.2364174637122881
 10
3721.777777317948
 20
-2138.531110772302
 42
0.0
 10
3721.772174961508
 20
-2128.747103248304
 42
-0.4142135623730951
 10
3722.756610785728
 20
-2127.761539395479
 42
0.0
 10
3730.198065676123
 20
-2127.757278392754
 42
0.5590616643157161
 10
3735.004464324925
 20
-2127.754526232317
 42
0.0
 10
3742.773865513794
 20
-2127.750077446413
 42
0.5590616644338511
 10
3747.580264193897
 20
-2127.747325285955
 42
0.0
 10
3755.349665324501
 20
-2127.742876500081
 42
0.5694936494220229
 10
3760.201676762847
 20
-2127.663310383931
 42
0.0
 10
3766.010906416891
 20
-2127.659983999003
 42
-0.4142135623730951
 10
3766.996470269715
 20
-2128.644419823221
 42
0.0
 10
3766.998063793874
 20
-2131.427365271812
 42
0.0
 10
3767.983063632396
 20
-2131.426801257509
 42
0.0
 10
3767.981470108237
 20
-2128.643855808917
 42
0.4142135623730618
 10
3766.010342402587
 20
-2126.674984160481
 42
0.0
 10
3759.540755865266
 20
-2126.678688668037
 42
-0.7767342353201953
 10
3755.98351371194
 20
-2126.757513394831
 42
0.0
 10
3746.945285833425
 20
-2126.762688715275
 42
-0.759581649359043
 10
3743.407715845659
 20
-2126.76471434005
 42
0.0
 10
3734.36948596387
 20
-2126.769889661636
 42
-0.7595816512230912
 10
3730.831916008571
 20
-2126.771915286389
 42
0.0
 10
3722.756046771424
 20
-2126.776539556957
 42
0.4142135623731117
 10
3720.787175122988
 20
-2128.747667262608
 42
0.0
 10
3720.79309667199
 20
-2139.089115655781
 42
-0.3073346934834261
 10
3721.941251096015
 20
-2140.803649062846
 42
0.0
 10
3721.943404791275
 20
-2144.564882546765
 42
-0.3057747226774016
 97
        0
 75
     0
 76
     1
 47
0.1180065091547201
 98
        1
 10
3721.201566469442
 20
-2155.497720293932
  0
HATCH
  5
44A1
330
1F
100
AcDbEntity
  8
STAVBA OBRYS
100
AcDbHatch
 10
0.0
 20
0.0
 30
0.0
210
0.0
220
0.0
230
1.0
  2
AR-CONC
 70
     0
 71
     0
 91
        2
 92
        7
 72
     0
 73
     1
 93
        4
 10
3716.791635074784
 20
-2120.808617921984
 10
3704.29163507478
 20
-2120.808617921984
 10
3704.29163507478
 20
-2147.404960585863
 10
3716.791635074776
 20
-2147.404960585863
 97
        0
 92
        7
 72
     0
 73
     1
 93
        5
 10
3716.791635074776
 20
-2154.455893432812
 10
3704.29163507478
 20
-2154.455893432813
 10
3704.29163507478
 20
-2176.616408738996
 10
3708.887896497094
 20
-2182.90273351653
 10
3716.79163507478
 20
-2182.90273351653
 97
        0
 75
     0
 76
     1
 52
90.0
 41
0.1
 77
     0
 78
    13
 53
140.0
 43
-19824.7117628611
 44
-3602.167756489407
 45
1.593908553890309
 46
18.2184668996004
 79
     2
 49
1.905
 49
-20.955
 53
85.00000000000001
 43
-19824.7117628611
 44
-3602.167756489407
 45
-19.10566428821799
 46
-3.524282597566697
 79
     2
 49
1.524
 49
-16.764
 53
190.4509999999999
 43
-19824.5789378611
 44
-3600.649556489407
 45
-17.51166878202918
 46
14.69425016659592
 79
     2
 49
1.619
 49
-17.809
 53
136.1841999999999
 43
-19829.7917628611
 44
-3602.167756489407
 45
4.204232793272717
 46
27.10790408921299
 79
     2
 49
2.857499999999999
 49
-31.4325
 53
186.6355999999999
 43
-19829.4414128611
 44
-3599.908766489407
 45
-24.74255558900492
 46
23.74042344662371
 79
     2
 49
2.4285
 49
-26.7135
 53
81.18400000000004
 43
-19829.7917628611
 44
-3602.167756489407
 45
-24.74251178605976
 46
23.74046058139339
 79
     2
 49
2.286
 49
-25.146
 53
111.0
 43
-19828.52176286111
 44
-3599.627756489407
 45
10.22655185167625
 46
15.16148798353833
 79
     2
 49
1.905
 49
-20.955
 53
56.00000000000004
 43
-19828.52176286111
 44
-3599.627756489407
 45
-18.41879661223192
 46
6.180202834764708
 79
     2
 49
1.524
 49
-16.764
 53
161.4514
 43
-19827.6695528611
 44
-3598.364306489406
 45
-8.192285771605742
 46
21.34164907701245
 79
     2
 49
1.618999999999997
 49
-17.80899999999995
 53
127.5
 43
-19824.7117628611
 44
-3602.167756489407
 45
-8.455503887315311
 46
0.3088603250591822
 79
     6
 49
0.0
 49
-16.5608
 49
0.0
 49
-17.018
 49
0.0
 49
-16.8275
 53
97.49999999999985
 43
-19824.7117628611
 44
-3602.167756489407
 45
-10.01805748181195
 46
6.681966251030575
 79
     6
 49
0.0
 49
-9.702799999999998
 49
0.0
 49
-16.17979999999999
 49
0.0
 49
-6.413499999999999
 53
57.5
 43
-19824.7117628611
 44
-3607.831956489407
 45
0.5728743992673473
 46
13.55905951668713
 79
     6
 49
0.0
 49
-6.35
 49
0.0
 49
-19.812
 49
0.0
 49
-26.289
 53
47.5
 43
-19824.7117628611
 44
-3610.371956489407
 45
-2.5426491033333
 46
14.8129181386018
 79
     6
 49
0.0
 49
-8.255
 49
0.0
 49
-13.1572
 49
0.0
 49
-18.669
 47
0.2050603234176583
 98
        2
 10
3711.717365922064
 20
-2131.136534932598
 10
3711.717365922064
 20
-2163.946201638411
  0
HATCH
  5
44A2
330
1F
100
AcDbEntity
  8
STAVBA OBRYS
100
AcDbHatch
 10
0.0
 20
0.0
 30
0.0
210
0.0
220
0.0
230
1.0
  2
AR-CONC
 70
     0
 71
     0
 91
        3
 92
        7
 72
     0
 73
     1
 93
        4
 10
3716.79163507478
 20
-2012.645837619475
 10
3704.291635074776
 20
-2012.645134656235
 10
3704.291635074776
 20
-2188.086871160034
 10
3716.79163507478
 20
-2182.82715070552
 97
        0
 92
        7
 72
     0
 73
     1
 93
        4
 10
3716.79163507478
 20
-2246.341648451504
 10
3704.29163507478
 20
-2241.081927996987
 10
3704.29163507478
 20
-2257.151622709012
 10
3716.791635074776
 20
-2274.247921744054
 97
        0
 92
        7
 72
     0
 73
     1
 93
        4
 10
3716.791635074776
 20
-2274.247921744052
 10
3704.29163507478
 20
-2257.151622709016
 10
3704.29163507478
 20
-2363.552983437083
 10
3716.791635074776
 20
-2363.552983437084
 97
        0
 75
     0
 76
     1
 52
90.0
 41
0.1
 77
     0
 78
    13
 53
140.0
 43
-18128.09802588474
 44
-4076.811001012551
 45
1.593908553890309
 46
18.2184668996004
 79
     2
 49
1.905
 49
-20.955
 53
85.00000000000001
 43
-18128.09802588474
 44
-4076.811001012551
 45
-19.10566428821799
 46
-3.524282597566697
 79
     2
 49
1.524
 49
-16.764
 53
190.4509999999999
 43
-18127.96520088474
 44
-4075.292801012551
 45
-17.51166878202918
 46
14.69425016659592
 79
     2
 49
1.619
 49
-17.809
 53
136.1841999999999
 43
-18133.17802588474
 44
-4076.811001012551
 45
4.204232793272717
 46
27.10790408921299
 79
     2
 49
2.857499999999999
 49
-31.4325
 53
186.6355999999999
 43
-18132.82767588474
 44
-4074.552011012551
 45
-24.74255558900492
 46
23.74042344662371
 79
     2
 49
2.4285
 49
-26.7135
 53
81.18400000000004
 43
-18133.17802588474
 44
-4076.811001012551
 45
-24.74251178605976
 46
23.74046058139339
 79
     2
 49
2.286
 49
-25.146
 53
111.0
 43
-18131.90802588474
 44
-4074.271001012551
 45
10.22655185167625
 46
15.16148798353833
 79
     2
 49
1.905
 49
-20.955
 53
56.00000000000004
 43
-18131.90802588474
 44
-4074.271001012551
 45
-18.41879661223192
 46
6.180202834764708
 79
     2
 49
1.524
 49
-16.764
 53
161.4514
 43
-18131.05581588474
 44
-4073.007551012551
 45
-8.192285771605742
 46
21.34164907701245
 79
     2
 49
1.618999999999996
 49
-17.80899999999994
 53
127.5
 43
-18128.09802588474
 44
-4076.811001012551
 45
-8.455503887315311
 46
0.3088603250591822
 79
     6
 49
0.0
 49
-16.5608
 49
0.0
 49
-17.018
 49
0.0
 49
-16.8275
 53
97.49999999999985
 43
-18128.09802588474
 44
-4076.811001012551
 45
-10.01805748181195
 46
6.681966251030575
 79
     6
 49
0.0
 49
-9.702799999999998
 49
0.0
 49
-16.17979999999999
 49
0.0
 49
-6.413499999999999
 53
57.5
 43
-18128.09802588474
 44
-4082.475201012552
 45
0.5728743992673473
 46
13.55905951668713
 79
     6
 49
0.0
 49
-6.35
 49
0.0
 49
-19.812
 49
0.0
 49
-26.289
 53
47.5
 43
-18128.09802588474
 44
-4085.015201012551
 45
-2.5426491033333
 46
14.8129181386018
 79
     6
 49
0.0
 49
-8.255
 49
0.0
 49
-13.1572
 49
0.0
 49
-18.669
 47
0.7649822313258392
 98
        3
 10
3711.070638824701
 20
-2157.866714323396
 10
3711.070638824701
 20
-2253.489494021759
 10
3708.009035544532
 20
-2290.973624014137
  0
LINE
  5
44A3
330
1F
100
AcDbEntity
  8
STAVBA OBRYS
100
AcDbLine
 10
3716.79163507478
 20
-2246.341648451503
 30
0.0
 11
3716.79163507478
 21
-2012.645837619475
 31
0.0
  0
LINE
  5
44A4
330
1F
100
AcDbEntity
  8
STAVBA OBRYS
100
AcDbLine
 10
3704.29163507478
 20
-2012.634367508896
 30
0.0
 11
3704.29163507478
 21
-2363.552983437084
 31
0.0
  0
LINE
  5
44A5
330
1F
100
AcDbEntity
  8
SPOJOVACÍ
  6
Continuous
100
AcDbLine
 10
3738.61342682278
 20
-2137.388101672889
 30
0.0
 11
3738.61342682278
 21
-2138.635467414777
 31
0.0
  0
LINE
  5
44A6
330
1F
100
AcDbEntity
  8
SPOJOVACÍ
  6
Continuous
100
AcDbLine
 10
3737.563258349041
 20
-2136.950919048843
 30
0.0
 11
3742.362965454889
 21
-2138.150845825305
 31
0.0
  0
LINE
  5
44A7
330
1F
100
AcDbEntity
  8
SPOJOVACÍ
  6
Continuous
100
AcDbLine
 10
3742.362965454889
 20
-2138.150845825305
 30
0.0
 11
3741.985314083944
 21
-2137.932254513279
 31
0.0
  0
LINE
  5
44A8
330
1F
100
AcDbEntity
  8
SPOJOVACÍ
  6
Continuous
100
AcDbLine
 10
3737.940909724351
 20
-2137.168580184891
 30
0.0
 11
3741.985314083944
 21
-2138.528497198433
 31
0.0
  0
TEXT
  5
44A9
330
1F
100
AcDbEntity
  8
POPIS
100
AcDbText
 10
3600.634955461424
 20
-2270.616349575481
 30
0.0
 40
25.0
  1
07
 41
0.85
  7
SIMPLEX7
100
AcDbText
  0
LINE
  5
44AA
330
1F
100
AcDbEntity
  8
STAVBA OBRYS
100
AcDbLine
 10
3716.79163507478
 20
-2182.90273351653
 30
0.0
 11
3716.79163507478
 21
-2364.288943034292
 31
0.0
  0
TEXT
  5
44AB
330
1F
100
AcDbEntity
  8
POPIS
100
AcDbText
 10
3600.737729577846
 20
-2209.493867863472
 30
0.0
 40
25.0
  1
08
 41
0.85
  7
SIMPLEX7
100
AcDbText
  0
LINE
  5
44AD
330
1F
100
AcDbEntity
  8
SPOJOVACÍ
  6
DASHDOT2
100
AcDbLine
 10
3733.671478867396
 20
-2163.430427009338
 30
0.0
 11
3665.265723658427
 21
-2163.430427009339
 31
0.0
  0
LWPOLYLINE
  5
44AF
330
1F
100
AcDbEntity
  8
izolace
100
AcDbPolyline
 90
        4
 70
     1
 43
0.0
 10
3722.009680055968
 20
-2300.144282379966
 10
3716.791635074779
 20
-2300.144282379966
 10
3716.791635074779
 20
-2276.144282379966
 10
3722.009680055968
 20
-2276.144282379966
  0
LINE
  5
44B0
330
1F
100
AcDbEntity
  8
izolace
100
AcDbLine
 10
3718.288171235098
 20
-2139.583303422607
 30
0.0
 11
3718.288171235098
 21
-2201.619578278673
 31
0.0
  0
LINE
  5
44B1
330
1F
100
AcDbEntity
  8
izolace
100
AcDbLine
 10
3720.288171235102
 20
-2139.583303422607
 30
0.0
 11
3720.288171235102
 21
-2201.619578278673
 31
0.0
  0
LINE
  5
44B2
330
1F
100
AcDbEntity
  8
SPOJOVACÍ
  6
Continuous
100
AcDbLine
 10
3714.350112815147
 20
-2160.584350689006
 30
0.0
 11
3712.927074653689
 21
-2166.276503334848
 31
0.0
  0
LINE
  5
44B3
330
1F
100
AcDbEntity
  8
SPOJOVACÍ
  6
Continuous
100
AcDbLine
 10
3714.350112815147
 20
-2160.584350689006
 30
0.0
 11
3714.091980311612
 21
-2161.032221616913
 31
0.0
  0
LINE
  5
44B4
330
1F
100
AcDbEntity
  8
SPOJOVACÍ
  6
Continuous
100
AcDbLine
 10
3714.350112815147
 20
-2160.584350689006
 30
0.0
 11
3714.799086871036
 21
-2161.032221616913
 31
0.0
  0
LINE
  5
44B5
330
1F
100
AcDbEntity
  8
SPOJOVACÍ
  6
Continuous
100
AcDbLine
 10
3712.927074653689
 20
-2166.276503334848
 30
0.0
 11
3712.479203728369
 21
-2165.828632412118
 31
0.0
  0
LINE
  5
44B6
330
1F
100
AcDbEntity
  8
SPOJOVACÍ
  6
Continuous
100
AcDbLine
 10
3712.927074653689
 20
-2166.276503334848
 30
0.0
 11
3713.18631028779
 21
-2165.828632412118
 31
0.0
  0
LINE
  5
44B7
330
1F
100
AcDbEntity
  8
SPOJOVACÍ
  6
Continuous
100
AcDbLine
 10
3714.091980311612
 20
-2161.032221616913
 30
0.0
 11
3712.479203728369
 21
-2165.828632412118
 31
0.0
  0
LINE
  5
44B8
330
1F
100
AcDbEntity
  8
SPOJOVACÍ
  6
Continuous
100
AcDbLine
 10
3714.799086871036
 20
-2161.032221616913
 30
0.0
 11
3713.18631028779
 21
-2165.828632412118
 31
0.0
  0
LINE
  5
44B9
330
1F
100
AcDbEntity
  8
SPOJOVACÍ
  6
Continuous
100
AcDbLine
 10
3717.746102729398
 20
-2160.584350689006
 30
0.0
 11
3716.323064567939
 21
-2166.276503334848
 31
0.0
  0
LINE
  5
44BA
330
1F
100
AcDbEntity
  8
SPOJOVACÍ
  6
Continuous
100
AcDbLine
 10
3717.746102729398
 20
-2160.584350689006
 30
0.0
 11
3717.487970225862
 21
-2161.032221616913
 31
0.0
  0
LINE
  5
44BB
330
1F
100
AcDbEntity
  8
SPOJOVACÍ
  6
Continuous
100
AcDbLine
 10
3717.746102729398
 20
-2160.584350689006
 30
0.0
 11
3718.195076785287
 21
-2161.032221616913
 31
0.0
  0
LINE
  5
44BC
330
1F
100
AcDbEntity
  8
SPOJOVACÍ
  6
Continuous
100
AcDbLine
 10
3716.323064567939
 20
-2166.276503334848
 30
0.0
 11
3715.87519364262
 21
-2165.828632412118
 31
0.0
  0
LINE
  5
44BD
330
1F
100
AcDbEntity
  8
SPOJOVACÍ
  6
Continuous
100
AcDbLine
 10
3716.323064567939
 20
-2166.276503334848
 30
0.0
 11
3716.582300202041
 21
-2165.828632412118
 31
0.0
  0
LINE
  5
44BE
330
1F
100
AcDbEntity
  8
SPOJOVACÍ
  6
Continuous
100
AcDbLine
 10
3717.487970225862
 20
-2161.032221616913
 30
0.0
 11
3715.87519364262
 21
-2165.828632412118
 31
0.0
  0
LINE
  5
44BF
330
1F
100
AcDbEntity
  8
SPOJOVACÍ
  6
Continuous
100
AcDbLine
 10
3718.195076785287
 20
-2161.032221616913
 30
0.0
 11
3716.582300202041
 21
-2165.828632412118
 31
0.0
  0
LINE
  5
44C0
330
1F
100
AcDbEntity
  8
SPOJOVACÍ
  6
Continuous
100
AcDbLine
 10
3711.403096956786
 20
-2161.032221616913
 30
0.0
 11
3709.79032037354
 21
-2165.828632412118
 31
0.0
  0
LINE
  5
44C1
330
1F
100
AcDbEntity
  8
SPOJOVACÍ
  6
Continuous
100
AcDbLine
 10
3710.695990397362
 20
-2161.032221616913
 30
0.0
 11
3709.083213814119
 21
-2165.828632412118
 31
0.0
  0
LINE
  5
44C2
330
1F
100
AcDbEntity
  8
SPOJOVACÍ
  6
Continuous
100
AcDbLine
 10
3709.531084739439
 20
-2166.276503334848
 30
0.0
 11
3709.79032037354
 21
-2165.828632412118
 31
0.0
  0
LINE
  5
44C3
330
1F
100
AcDbEntity
  8
SPOJOVACÍ
  6
Continuous
100
AcDbLine
 10
3709.531084739439
 20
-2166.276503334848
 30
0.0
 11
3709.083213814119
 21
-2165.828632412118
 31
0.0
  0
LINE
  5
44C4
330
1F
100
AcDbEntity
  8
SPOJOVACÍ
  6
Continuous
100
AcDbLine
 10
3710.954122900897
 20
-2160.584350689006
 30
0.0
 11
3711.403096956786
 21
-2161.032221616913
 31
0.0
  0
LINE
  5
44C5
330
1F
100
AcDbEntity
  8
SPOJOVACÍ
  6
Continuous
100
AcDbLine
 10
3710.954122900897
 20
-2160.584350689006
 30
0.0
 11
3710.695990397362
 21
-2161.032221616913
 31
0.0
  0
LINE
  5
44C6
330
1F
100
AcDbEntity
  8
SPOJOVACÍ
  6
Continuous
100
AcDbLine
 10
3710.954122900897
 20
-2160.584350689006
 30
0.0
 11
3709.531084739439
 21
-2166.276503334848
 31
0.0
  0
LINE
  5
44C7
330
1F
100
AcDbEntity
  8
SPOJOVACÍ
100
AcDbLine
 10
3723.209926122792
 20
-2156.680427009338
 30
0.0
 11
3722.333015500658
 21
-2156.680427009338
 31
0.0
  0
LINE
  5
44C8
330
1F
100
AcDbEntity
  8
SPOJOVACÍ
100
AcDbLine
 10
3722.333015500658
 20
-2156.680427009338
 30
0.0
 11
3723.209926122792
 21
-2156.680427009338
 31
0.0
  0
LINE
  5
44C9
330
1F
100
AcDbEntity
  8
SPOJOVACÍ
  6
DASHED
100
AcDbLine
 10
3722.333015500658
 20
-2156.680427009338
 30
0.0
 11
3719.150381198083
 21
-2161.719489509339
 31
0.0
  0
LINE
  5
44CA
330
1F
100
AcDbEntity
  8
SPOJOVACÍ
100
AcDbLine
 10
3722.333015500658
 20
-2170.180427009337
 30
0.0
 11
3719.15038119808
 21
-2165.141364509338
 31
0.0
  0
LINE
  5
44CB
330
1F
100
AcDbEntity
  8
SPOJOVACÍ
100
AcDbLine
 10
3722.333015500658
 20
-2170.180427009337
 30
0.0
 11
3723.209926122792
 21
-2170.180427009337
 31
0.0
  0
LINE
  5
44CC
330
1F
100
AcDbEntity
  8
SPOJOVACÍ
100
AcDbLine
 10
3723.774603867128
 20
-2156.680427009338
 30
0.0
 11
3722.333015500658
 21
-2156.680427009338
 31
0.0
  0
LINE
  5
44CD
330
1F
100
AcDbEntity
  8
SPOJOVACÍ
100
AcDbLine
 10
3723.774603867128
 20
-2170.180427009337
 30
0.0
 11
3722.333015500658
 21
-2170.180427009337
 31
0.0
  0
LINE
  5
44CE
330
1F
100
AcDbEntity
  8
SPOJOVACÍ
100
AcDbLine
 10
3723.774603867128
 20
-2156.680427009338
 30
0.0
 11
3723.774603867128
 21
-2170.180427009337
 31
0.0
  0
LINE
  5
44CF
330
1F
100
AcDbEntity
  8
SPOJOVACÍ
  6
Continuous
100
AcDbLine
 10
3673.72823846745
 20
-2161.217451589632
 30
0.0
 11
3673.502816176922
 21
-2161.6078638113
 31
0.0
  0
LINE
  5
44D0
330
1F
100
AcDbEntity
  8
SPOJOVACÍ
  6
Continuous
100
AcDbLine
 10
3673.72823846745
 20
-2161.217451589632
 30
0.0
 11
3674.11769144599
 21
-2161.6078638113
 31
0.0
  0
LINE
  5
44D1
330
1F
100
AcDbEntity
  8
SPOJOVACÍ
  6
Continuous
100
AcDbLine
 10
3672.724869463822
 20
-2165.471697794023
 30
0.0
 11
3672.334457241308
 21
-2165.082244817736
 31
0.0
  0
LINE
  5
44D2
330
1F
100
AcDbEntity
  8
SPOJOVACÍ
  6
Continuous
100
AcDbLine
 10
3672.724869463822
 20
-2165.471697794023
 30
0.0
 11
3672.949332510372
 21
-2165.082244817736
 31
0.0
  0
LINE
  5
44D3
330
1F
100
AcDbEntity
  8
SPOJOVACÍ
  6
Continuous
100
AcDbLine
 10
3673.502816176922
 20
-2161.6078638113
 30
0.0
 11
3672.334457241308
 21
-2165.082244817736
 31
0.0
  0
LINE
  5
44D4
330
1F
100
AcDbEntity
  8
SPOJOVACÍ
  6
Continuous
100
AcDbLine
 10
3674.11769144599
 20
-2161.6078638113
 30
0.0
 11
3672.949332510372
 21
-2165.082244817736
 31
0.0
  0
LINE
  5
44D5
330
1F
100
AcDbEntity
  8
SPOJOVACÍ
  6
Continuous
100
AcDbLine
 10
3673.72823846745
 20
-2161.217451589632
 30
0.0
 11
3672.724869463822
 21
-2165.471697794023
 31
0.0
  0
LINE
  5
44D6
330
1F
100
AcDbEntity
  8
SPOJOVACÍ
  6
Continuous
100
AcDbLine
 10
3670.619329345831
 20
-2161.799712567804
 30
0.0
 11
3670.394866299281
 21
-2162.189165548593
 31
0.0
  0
LINE
  5
44D7
330
1F
100
AcDbEntity
  8
SPOJOVACÍ
  6
Continuous
100
AcDbLine
 10
3670.619329345831
 20
-2161.799712567804
 30
0.0
 11
3671.009741568345
 21
-2162.189165548593
 31
0.0
  0
LINE
  5
44D8
330
1F
100
AcDbEntity
  8
SPOJOVACÍ
  6
Continuous
100
AcDbLine
 10
3669.966084325413
 20
-2165.013179262873
 30
0.0
 11
3669.575672103183
 21
-2164.623726286586
 31
0.0
  0
LINE
  5
44D9
330
1F
100
AcDbEntity
  8
SPOJOVACÍ
  6
Continuous
100
AcDbLine
 10
3669.966084325413
 20
-2165.013179262873
 30
0.0
 11
3670.19054737196
 21
-2164.623726286586
 31
0.0
  0
LINE
  5
44DA
330
1F
100
AcDbEntity
  8
SPOJOVACÍ
  6
Continuous
100
AcDbLine
 10
3670.394866299281
 20
-2162.189165548593
 30
0.0
 11
3669.575672103183
 21
-2164.623726286586
 31
0.0
  0
LINE
  5
44DB
330
1F
100
AcDbEntity
  8
SPOJOVACÍ
  6
Continuous
100
AcDbLine
 10
3671.009741568345
 20
-2162.189165548593
 30
0.0
 11
3670.19054737196
 21
-2164.623726286586
 31
0.0
  0
LINE
  5
44DC
330
1F
100
AcDbEntity
  8
SPOJOVACÍ
  6
Continuous
100
AcDbLine
 10
3670.619329345831
 20
-2161.799712567804
 30
0.0
 11
3669.966084325413
 21
-2165.013179262873
 31
0.0
  0
LINE
  5
44DD
330
1F
100
AcDbEntity
  8
SPOJOVACÍ
  6
Continuous
100
AcDbLine
 10
3667.511379468189
 20
-2162.381973550477
 30
0.0
 11
3667.285957177668
 21
-2162.771426526765
 31
0.0
  0
LINE
  5
44DE
330
1F
100
AcDbEntity
  8
SPOJOVACÍ
  6
Continuous
100
AcDbLine
 10
3667.511379468189
 20
-2162.381973550477
 30
0.0
 11
3667.900832446724
 21
-2162.771426526765
 31
0.0
  0
LINE
  5
44DF
330
1F
100
AcDbEntity
  8
SPOJOVACÍ
  6
Continuous
100
AcDbLine
 10
3667.190992042546
 20
-2164.603582165105
 30
0.0
 11
3666.800579820312
 21
-2164.214129188817
 31
0.0
  0
LINE
  5
44E0
330
1F
100
AcDbEntity
  8
SPOJOVACÍ
  6
Continuous
100
AcDbLine
 10
3667.190992042546
 20
-2164.603582165105
 30
0.0
 11
3667.415455089376
 21
-2164.214129188817
 31
0.0
  0
LINE
  5
44E1
330
1F
100
AcDbEntity
  8
SPOJOVACÍ
  6
Continuous
100
AcDbLine
 10
3667.285957177668
 20
-2162.771426526765
 30
0.0
 11
3666.800579820312
 21
-2164.214129188817
 31
0.0
  0
LINE
  5
44E2
330
1F
100
AcDbEntity
  8
SPOJOVACÍ
  6
Continuous
100
AcDbLine
 10
3667.900832446724
 20
-2162.771426526765
 30
0.0
 11
3667.415455089376
 21
-2164.214129188817
 31
0.0
  0
LINE
  5
44E3
330
1F
100
AcDbEntity
  8
SPOJOVACÍ
  6
Continuous
100
AcDbLine
 10
3667.511379468189
 20
-2162.381973550477
 30
0.0
 11
3667.190992042546
 21
-2164.603582165105
 31
0.0
  0
LINE
  5
44E4
330
1F
100
AcDbEntity
  8
SPOJOVACÍ
  6
Continuous
100
AcDbLine
 10
3676.994223759265
 20
-2160.584350686417
 30
0.0
 11
3675.571185597807
 21
-2166.27650333226
 31
0.0
  0
LINE
  5
44E5
330
1F
100
AcDbEntity
  8
SPOJOVACÍ
  6
Continuous
100
AcDbLine
 10
3676.994223759265
 20
-2160.584350686417
 30
0.0
 11
3676.73609125573
 21
-2161.032221614325
 31
0.0
  0
LINE
  5
44E6
330
1F
100
AcDbEntity
  8
SPOJOVACÍ
  6
Continuous
100
AcDbLine
 10
3676.994223759265
 20
-2160.584350686417
 30
0.0
 11
3677.443197815155
 21
-2161.032221614325
 31
0.0
  0
LINE
  5
44E7
330
1F
100
AcDbEntity
  8
SPOJOVACÍ
  6
Continuous
100
AcDbLine
 10
3675.571185597807
 20
-2166.27650333226
 30
0.0
 11
3675.123314672488
 21
-2165.828632409529
 31
0.0
  0
LINE
  5
44E8
330
1F
100
AcDbEntity
  8
SPOJOVACÍ
  6
Continuous
100
AcDbLine
 10
3675.571185597807
 20
-2166.27650333226
 30
0.0
 11
3675.830421231909
 21
-2165.828632409529
 31
0.0
  0
LINE
  5
44E9
330
1F
100
AcDbEntity
  8
SPOJOVACÍ
  6
Continuous
100
AcDbLine
 10
3676.73609125573
 20
-2161.032221614325
 30
0.0
 11
3675.123314672488
 21
-2165.828632409529
 31
0.0
  0
LINE
  5
44EA
330
1F
100
AcDbEntity
  8
SPOJOVACÍ
  6
Continuous
100
AcDbLine
 10
3677.443197815155
 20
-2161.032221614325
 30
0.0
 11
3675.830421231909
 21
-2165.828632409529
 31
0.0
  0
LINE
  5
44EB
330
1F
100
AcDbEntity
  8
SPOJOVACÍ
  6
DASHED
100
AcDbLine
 10
3678.362195825844
 20
-2161.719489509339
 30
0.0
 11
3719.150381198083
 21
-2161.719489509339
 31
0.0
  0
LINE
  5
44EC
330
1F
100
AcDbEntity
  8
SPOJOVACÍ
  6
DASHED
100
AcDbLine
 10
3678.362195825844
 20
-2165.141364509338
 30
0.0
 11
3719.15038119808
 21
-2165.141364509338
 31
0.0
  0
LINE
  5
44ED
330
1F
100
AcDbEntity
  8
SPOJOVACÍ
  6
DASHED
100
AcDbLine
 10
3666.505010631545
 20
-2163.430427009339
 30
0.0
 11
3679.210270755239
 21
-2161.719489509339
 31
0.0
  0
LINE
  5
44EE
330
1F
100
AcDbEntity
  8
SPOJOVACÍ
  6
DASHED
100
AcDbLine
 10
3666.505010631545
 20
-2163.430427009338
 30
0.0
 11
3679.210270755239
 21
-2165.141364509338
 31
0.0
  0
LINE
  5
44EF
330
1F
100
AcDbEntity
  8
SPOJOVACÍ
  6
Continuous
100
AcDbLine
 10
3680.839187729405
 20
-2161.032221614325
 30
0.0
 11
3679.226411146159
 21
-2165.828632409529
 31
0.0
  0
LINE
  5
44F0
330
1F
100
AcDbEntity
  8
SPOJOVACÍ
  6
Continuous
100
AcDbLine
 10
3680.132081169981
 20
-2161.032221614325
 30
0.0
 11
3678.519304586738
 21
-2165.828632409529
 31
0.0
  0
LINE
  5
44F1
330
1F
100
AcDbEntity
  8
SPOJOVACÍ
  6
Continuous
100
AcDbLine
 10
3678.967175512058
 20
-2166.27650333226
 30
0.0
 11
3679.226411146159
 21
-2165.828632409529
 31
0.0
  0
LINE
  5
44F2
330
1F
100
AcDbEntity
  8
SPOJOVACÍ
  6
Continuous
100
AcDbLine
 10
3678.967175512058
 20
-2166.27650333226
 30
0.0
 11
3678.519304586738
 21
-2165.828632409529
 31
0.0
  0
LINE
  5
44F3
330
1F
100
AcDbEntity
  8
SPOJOVACÍ
  6
Continuous
100
AcDbLine
 10
3680.390213673516
 20
-2160.584350686417
 30
0.0
 11
3680.839187729405
 21
-2161.032221614325
 31
0.0
  0
LINE
  5
44F4
330
1F
100
AcDbEntity
  8
SPOJOVACÍ
  6
Continuous
100
AcDbLine
 10
3680.390213673516
 20
-2160.584350686417
 30
0.0
 11
3680.132081169981
 21
-2161.032221614325
 31
0.0
  0
LINE
  5
44F5
330
1F
100
AcDbEntity
  8
SPOJOVACÍ
  6
Continuous
100
AcDbLine
 10
3680.390213673516
 20
-2160.584350686417
 30
0.0
 11
3678.967175512058
 21
-2166.27650333226
 31
0.0
  0
LINE
  5
44F6
330
1F
100
AcDbEntity
  8
SPOJOVACÍ
  6
Continuous
100
AcDbLine
 10
3683.786203587766
 20
-2160.584350686417
 30
0.0
 11
3682.363165426308
 21
-2166.27650333226
 31
0.0
  0
LINE
  5
44F7
330
1F
100
AcDbEntity
  8
SPOJOVACÍ
  6
Continuous
100
AcDbLine
 10
3683.786203587766
 20
-2160.584350686417
 30
0.0
 11
3683.52807108423
 21
-2161.032221614325
 31
0.0
  0
LINE
  5
44F8
330
1F
100
AcDbEntity
  8
SPOJOVACÍ
  6
Continuous
100
AcDbLine
 10
3683.786203587766
 20
-2160.584350686417
 30
0.0
 11
3684.235177643655
 21
-2161.032221614325
 31
0.0
  0
LINE
  5
44F9
330
1F
100
AcDbEntity
  8
SPOJOVACÍ
  6
Continuous
100
AcDbLine
 10
3682.363165426308
 20
-2166.27650333226
 30
0.0
 11
3681.915294500988
 21
-2165.828632409529
 31
0.0
  0
LINE
  5
44FA
330
1F
100
AcDbEntity
  8
SPOJOVACÍ
  6
Continuous
100
AcDbLine
 10
3682.363165426308
 20
-2166.27650333226
 30
0.0
 11
3682.622401060409
 21
-2165.828632409529
 31
0.0
  0
LINE
  5
44FB
330
1F
100
AcDbEntity
  8
SPOJOVACÍ
  6
Continuous
100
AcDbLine
 10
3683.52807108423
 20
-2161.032221614325
 30
0.0
 11
3681.915294500988
 21
-2165.828632409529
 31
0.0
  0
LINE
  5
44FC
330
1F
100
AcDbEntity
  8
SPOJOVACÍ
  6
Continuous
100
AcDbLine
 10
3684.235177643655
 20
-2161.032221614325
 30
0.0
 11
3682.622401060409
 21
-2165.828632409529
 31
0.0
  0
LINE
  5
44FD
330
1F
100
AcDbEntity
  8
SPOJOVACÍ
  6
Continuous
100
AcDbLine
 10
3687.182193502016
 20
-2160.584350686417
 30
0.0
 11
3685.759155340558
 21
-2166.27650333226
 31
0.0
  0
LINE
  5
44FE
330
1F
100
AcDbEntity
  8
SPOJOVACÍ
  6
Continuous
100
AcDbLine
 10
3687.182193502016
 20
-2160.584350686417
 30
0.0
 11
3686.92406099848
 21
-2161.032221614325
 31
0.0
  0
LINE
  5
44FF
330
1F
100
AcDbEntity
  8
SPOJOVACÍ
  6
Continuous
100
AcDbLine
 10
3687.182193502016
 20
-2160.584350686417
 30
0.0
 11
3687.631167557905
 21
-2161.032221614325
 31
0.0
  0
LINE
  5
4500
330
1F
100
AcDbEntity
  8
SPOJOVACÍ
  6
Continuous
100
AcDbLine
 10
3685.759155340558
 20
-2166.27650333226
 30
0.0
 11
3685.311284415238
 21
-2165.828632409529
 31
0.0
  0
LINE
  5
4501
330
1F
100
AcDbEntity
  8
SPOJOVACÍ
  6
Continuous
100
AcDbLine
 10
3685.759155340558
 20
-2166.27650333226
 30
0.0
 11
3686.018390974659
 21
-2165.828632409529
 31
0.0
  0
LINE
  5
4502
330
1F
100
AcDbEntity
  8
SPOJOVACÍ
  6
Continuous
100
AcDbLine
 10
3686.92406099848
 20
-2161.032221614325
 30
0.0
 11
3685.311284415238
 21
-2165.828632409529
 31
0.0
  0
LINE
  5
4503
330
1F
100
AcDbEntity
  8
SPOJOVACÍ
  6
Continuous
100
AcDbLine
 10
3687.631167557905
 20
-2161.032221614325
 30
0.0
 11
3686.018390974659
 21
-2165.828632409529
 31
0.0
  0
LINE
  5
4504
330
1F
100
AcDbEntity
  8
SPOJOVACÍ
  6
Continuous
100
AcDbLine
 10
3690.578183416266
 20
-2160.584350686417
 30
0.0
 11
3689.155145254808
 21
-2166.27650333226
 31
0.0
  0
LINE
  5
4505
330
1F
100
AcDbEntity
  8
SPOJOVACÍ
  6
Continuous
100
AcDbLine
 10
3690.578183416266
 20
-2160.584350686417
 30
0.0
 11
3690.320050912731
 21
-2161.032221614325
 31
0.0
  0
LINE
  5
4506
330
1F
100
AcDbEntity
  8
SPOJOVACÍ
  6
Continuous
100
AcDbLine
 10
3690.578183416266
 20
-2160.584350686417
 30
0.0
 11
3691.027157472155
 21
-2161.032221614325
 31
0.0
  0
LINE
  5
4507
330
1F
100
AcDbEntity
  8
SPOJOVACÍ
  6
Continuous
100
AcDbLine
 10
3689.155145254808
 20
-2166.27650333226
 30
0.0
 11
3688.707274329488
 21
-2165.828632409529
 31
0.0
  0
LINE
  5
4508
330
1F
100
AcDbEntity
  8
SPOJOVACÍ
  6
Continuous
100
AcDbLine
 10
3689.155145254808
 20
-2166.27650333226
 30
0.0
 11
3689.414380888909
 21
-2165.828632409529
 31
0.0
  0
LINE
  5
4509
330
1F
100
AcDbEntity
  8
SPOJOVACÍ
  6
Continuous
100
AcDbLine
 10
3690.320050912731
 20
-2161.032221614325
 30
0.0
 11
3688.707274329488
 21
-2165.828632409529
 31
0.0
  0
LINE
  5
450A
330
1F
100
AcDbEntity
  8
SPOJOVACÍ
  6
Continuous
100
AcDbLine
 10
3691.027157472155
 20
-2161.032221614325
 30
0.0
 11
3689.414380888909
 21
-2165.828632409529
 31
0.0
  0
LINE
  5
450B
330
1F
100
AcDbEntity
  8
SPOJOVACÍ
  6
Continuous
100
AcDbLine
 10
3693.974173330516
 20
-2160.584350686417
 30
0.0
 11
3692.551135169058
 21
-2166.27650333226
 31
0.0
  0
LINE
  5
450C
330
1F
100
AcDbEntity
  8
SPOJOVACÍ
  6
Continuous
100
AcDbLine
 10
3693.974173330516
 20
-2160.584350686417
 30
0.0
 11
3693.716040826981
 21
-2161.032221614325
 31
0.0
  0
LINE
  5
450D
330
1F
100
AcDbEntity
  8
SPOJOVACÍ
  6
Continuous
100
AcDbLine
 10
3693.974173330516
 20
-2160.584350686417
 30
0.0
 11
3694.423147386405
 21
-2161.032221614325
 31
0.0
  0
LINE
  5
450E
330
1F
100
AcDbEntity
  8
SPOJOVACÍ
  6
Continuous
100
AcDbLine
 10
3692.551135169058
 20
-2166.27650333226
 30
0.0
 11
3692.103264243739
 21
-2165.828632409529
 31
0.0
  0
LINE
  5
450F
330
1F
100
AcDbEntity
  8
SPOJOVACÍ
  6
Continuous
100
AcDbLine
 10
3692.551135169058
 20
-2166.27650333226
 30
0.0
 11
3692.810370803159
 21
-2165.828632409529
 31
0.0
  0
LINE
  5
4510
330
1F
100
AcDbEntity
  8
SPOJOVACÍ
  6
Continuous
100
AcDbLine
 10
3693.716040826981
 20
-2161.032221614325
 30
0.0
 11
3692.103264243739
 21
-2165.828632409529
 31
0.0
  0
LINE
  5
4511
330
1F
100
AcDbEntity
  8
SPOJOVACÍ
  6
Continuous
100
AcDbLine
 10
3694.423147386405
 20
-2161.032221614325
 30
0.0
 11
3692.810370803159
 21
-2165.828632409529
 31
0.0
  0
LINE
  5
4512
330
1F
100
AcDbEntity
  8
SPOJOVACÍ
  6
Continuous
100
AcDbLine
 10
3697.370163244766
 20
-2160.584350686417
 30
0.0
 11
3695.947125083308
 21
-2166.27650333226
 31
0.0
  0
LINE
  5
4513
330
1F
100
AcDbEntity
  8
SPOJOVACÍ
  6
Continuous
100
AcDbLine
 10
3697.370163244766
 20
-2160.584350686417
 30
0.0
 11
3697.112030741231
 21
-2161.032221614325
 31
0.0
  0
LINE
  5
4514
330
1F
100
AcDbEntity
  8
SPOJOVACÍ
  6
Continuous
100
AcDbLine
 10
3697.370163244766
 20
-2160.584350686417
 30
0.0
 11
3697.819137300656
 21
-2161.032221614325
 31
0.0
  0
LINE
  5
4515
330
1F
100
AcDbEntity
  8
SPOJOVACÍ
  6
Continuous
100
AcDbLine
 10
3695.947125083308
 20
-2166.27650333226
 30
0.0
 11
3695.499254157988
 21
-2165.828632409529
 31
0.0
  0
LINE
  5
4516
330
1F
100
AcDbEntity
  8
SPOJOVACÍ
  6
Continuous
100
AcDbLine
 10
3695.947125083308
 20
-2166.27650333226
 30
0.0
 11
3696.206360717409
 21
-2165.828632409529
 31
0.0
  0
LINE
  5
4517
330
1F
100
AcDbEntity
  8
SPOJOVACÍ
  6
Continuous
100
AcDbLine
 10
3697.112030741231
 20
-2161.032221614325
 30
0.0
 11
3695.499254157988
 21
-2165.828632409529
 31
0.0
  0
LINE
  5
4518
330
1F
100
AcDbEntity
  8
SPOJOVACÍ
  6
Continuous
100
AcDbLine
 10
3697.819137300656
 20
-2161.032221614325
 30
0.0
 11
3696.206360717409
 21
-2165.828632409529
 31
0.0
  0
LINE
  5
4519
330
1F
100
AcDbEntity
  8
SPOJOVACÍ
  6
Continuous
100
AcDbLine
 10
3700.766153159016
 20
-2160.584350686417
 30
0.0
 11
3699.343114997558
 21
-2166.27650333226
 31
0.0
  0
LINE
  5
451A
330
1F
100
AcDbEntity
  8
SPOJOVACÍ
  6
Continuous
100
AcDbLine
 10
3700.766153159016
 20
-2160.584350686417
 30
0.0
 11
3700.508020655481
 21
-2161.032221614325
 31
0.0
  0
LINE
  5
451B
330
1F
100
AcDbEntity
  8
SPOJOVACÍ
  6
Continuous
100
AcDbLine
 10
3700.766153159016
 20
-2160.584350686417
 30
0.0
 11
3701.215127214906
 21
-2161.032221614325
 31
0.0
  0
LINE
  5
451C
330
1F
100
AcDbEntity
  8
SPOJOVACÍ
  6
Continuous
100
AcDbLine
 10
3699.343114997558
 20
-2166.27650333226
 30
0.0
 11
3698.895244072238
 21
-2165.828632409529
 31
0.0
  0
LINE
  5
451D
330
1F
100
AcDbEntity
  8
SPOJOVACÍ
  6
Continuous
100
AcDbLine
 10
3699.343114997558
 20
-2166.27650333226
 30
0.0
 11
3699.602350631659
 21
-2165.828632409529
 31
0.0
  0
LINE
  5
451E
330
1F
100
AcDbEntity
  8
SPOJOVACÍ
  6
Continuous
100
AcDbLine
 10
3700.508020655481
 20
-2161.032221614325
 30
0.0
 11
3698.895244072238
 21
-2165.828632409529
 31
0.0
  0
LINE
  5
451F
330
1F
100
AcDbEntity
  8
SPOJOVACÍ
  6
Continuous
100
AcDbLine
 10
3701.215127214906
 20
-2161.032221614325
 30
0.0
 11
3699.602350631659
 21
-2165.828632409529
 31
0.0
  0
LINE
  5
4520
330
1F
100
AcDbEntity
  8
SPOJOVACÍ
  6
Continuous
100
AcDbLine
 10
3708.007107043405
 20
-2161.032221614325
 30
0.0
 11
3706.39433046016
 21
-2165.828632409529
 31
0.0
  0
LINE
  5
4521
330
1F
100
AcDbEntity
  8
SPOJOVACÍ
  6
Continuous
100
AcDbLine
 10
3707.300000483981
 20
-2161.032221614325
 30
0.0
 11
3705.687223900739
 21
-2165.828632409529
 31
0.0
  0
LINE
  5
4522
330
1F
100
AcDbEntity
  8
SPOJOVACÍ
  6
Continuous
100
AcDbLine
 10
3706.135094826059
 20
-2166.27650333226
 30
0.0
 11
3706.39433046016
 21
-2165.828632409529
 31
0.0
  0
LINE
  5
4523
330
1F
100
AcDbEntity
  8
SPOJOVACÍ
  6
Continuous
100
AcDbLine
 10
3706.135094826059
 20
-2166.27650333226
 30
0.0
 11
3705.687223900739
 21
-2165.828632409529
 31
0.0
  0
LINE
  5
4524
330
1F
100
AcDbEntity
  8
SPOJOVACÍ
  6
Continuous
100
AcDbLine
 10
3707.558132987517
 20
-2160.584350686417
 30
0.0
 11
3708.007107043405
 21
-2161.032221614325
 31
0.0
  0
LINE
  5
4525
330
1F
100
AcDbEntity
  8
SPOJOVACÍ
  6
Continuous
100
AcDbLine
 10
3707.558132987517
 20
-2160.584350686417
 30
0.0
 11
3707.300000483981
 21
-2161.032221614325
 31
0.0
  0
LINE
  5
4526
330
1F
100
AcDbEntity
  8
SPOJOVACÍ
  6
Continuous
100
AcDbLine
 10
3707.558132987517
 20
-2160.584350686417
 30
0.0
 11
3706.135094826059
 21
-2166.27650333226
 31
0.0
  0
LINE
  5
4527
330
1F
100
AcDbEntity
  8
SPOJOVACÍ
  6
Continuous
100
AcDbLine
 10
3704.611117129156
 20
-2161.032221614325
 30
0.0
 11
3702.99834054591
 21
-2165.828632409529
 31
0.0
  0
LINE
  5
4528
330
1F
100
AcDbEntity
  8
SPOJOVACÍ
  6
Continuous
100
AcDbLine
 10
3703.904010569731
 20
-2161.032221614325
 30
0.0
 11
3702.291233986489
 21
-2165.828632409529
 31
0.0
  0
LINE
  5
4529
330
1F
100
AcDbEntity
  8
SPOJOVACÍ
  6
Continuous
100
AcDbLine
 10
3702.739104911808
 20
-2166.27650333226
 30
0.0
 11
3702.99834054591
 21
-2165.828632409529
 31
0.0
  0
LINE
  5
452A
330
1F
100
AcDbEntity
  8
SPOJOVACÍ
  6
Continuous
100
AcDbLine
 10
3702.739104911808
 20
-2166.27650333226
 30
0.0
 11
3702.291233986489
 21
-2165.828632409529
 31
0.0
  0
LINE
  5
452B
330
1F
100
AcDbEntity
  8
SPOJOVACÍ
  6
Continuous
100
AcDbLine
 10
3704.162143073267
 20
-2160.584350686417
 30
0.0
 11
3704.611117129156
 21
-2161.032221614325
 31
0.0
  0
LINE
  5
452C
330
1F
100
AcDbEntity
  8
SPOJOVACÍ
  6
Continuous
100
AcDbLine
 10
3704.162143073267
 20
-2160.584350686417
 30
0.0
 11
3703.904010569731
 21
-2161.032221614325
 31
0.0
  0
LINE
  5
452D
330
1F
100
AcDbEntity
  8
SPOJOVACÍ
  6
Continuous
100
AcDbLine
 10
3704.162143073267
 20
-2160.584350686417
 30
0.0
 11
3702.739104911808
 21
-2166.27650333226
 31
0.0
  0
LINE
  5
452E
330
1F
100
AcDbEntity
  8
SPOJOVACÍ
100
AcDbLine
 10
3722.333015500658
 20
-2156.680427009338
 30
0.0
 11
3722.333015500658
 21
-2170.180427009337
 31
0.0
  0
LINE
  5
452F
330
1F
100
AcDbEntity
  8
SPOJOVACÍ
  6
CIKCAK
 48
0.25
100
AcDbLine
 10
3717.962510222987
 20
-2159.904960585863
 30
0.0
 11
3670.498124407651
 21
-2159.904960585863
 31
0.0
  0
LINE
  5
4530
330
1F
100
AcDbEntity
  8
SPOJOVACÍ
 48
0.25
100
AcDbLine
 10
3670.498124407651
 20
-2159.904960585863
 30
0.0
 11
3664.848684066935
 21
-2163.430427009338
 31
0.0
  0
LINE
  5
4531
330
1F
100
AcDbEntity
  8
SPOJOVACÍ
 48
0.25
100
AcDbLine
 10
3670.498124407655
 20
-2166.955893432813
 30
0.0
 11
3664.848684066935
 21
-2163.430427009338
 31
0.0
  0
LINE
  5
4532
330
1F
100
AcDbEntity
  8
SPOJOVACÍ
  6
CIKCAK
 48
0.25
100
AcDbLine
 10
3717.962510222987
 20
-2166.955893432812
 30
0.0
 11
3670.498124407655
 21
-2166.955893432813
 31
0.0
  0
INSERT
  5
4533
330
1F
100
AcDbEntity
  8
POPIS
100
AcDbBlockReference
  2
E_PUNKT
 10
3685.483657617217
 20
-2163.459495340211
 30
0.0
  0
LINE
  5
4534
330
1F
100
AcDbEntity
  8
SPOJOVACÍ
  6
Continuous
100
AcDbLine
 10
3738.119503476558
 20
-2283.812453699051
 30
0.0
 11
3738.547384340857
 21
-2282.331613832
 31
0.0
  0
LINE
  5
4535
330
1F
100
AcDbEntity
  8
SPOJOVACÍ
  6
Continuous
100
AcDbLine
 10
3741.539759876399
 20
-2283.068313062308
 30
0.0
 11
3742.152745725546
 21
-2284.482180272011
 31
0.0
  0
LINE
  5
4536
330
1F
100
AcDbEntity
  8
SPOJOVACÍ
  6
Continuous
100
AcDbLine
 10
3734.86295801333
 20
-2286.944355603235
 30
0.0
 11
3736.212643096881
 21
-2286.200214966761
 31
0.0
  0
LINE
  5
4537
330
1F
100
AcDbEntity
  8
SPOJOVACÍ
  6
Continuous
100
AcDbLine
 10
3736.212643096881
 20
-2286.200214966761
 30
0.0
 11
3737.32327299724
 21
-2285.131442977348
 31
0.0
  0
LINE
  5
4538
330
1F
100
AcDbEntity
  8
SPOJOVACÍ
  6
Continuous
100
AcDbLine
 10
3737.32327299724
 20
-2285.131442977348
 30
0.0
 11
3738.119503476558
 21
-2283.812453699051
 31
0.0
  0
LINE
  5
4539
330
1F
100
AcDbEntity
  8
SPOJOVACÍ
  6
Continuous
100
AcDbLine
 10
3743.110826795531
 20
-2285.68954845491
 30
0.0
 11
3744.34796060443
 21
-2286.607631965351
 31
0.0
  0
LINE
  5
453A
330
1F
100
AcDbEntity
  8
SPOJOVACÍ
  6
Continuous
100
AcDbLine
 10
3744.34796060443
 20
-2286.607631965351
 30
0.0
 11
3745.063265790598
 21
-2286.944355603235
 31
0.0
  0
LINE
  5
453B
330
1F
100
AcDbEntity
  8
SPOJOVACÍ
  6
Continuous
100
AcDbLine
 10
3734.86295801333
 20
-2286.944355603235
 30
0.0
 11
3745.063265790598
 21
-2286.944355603235
 31
0.0
  0
LINE
  5
453C
330
1F
100
AcDbEntity
  8
SPOJOVACÍ
  6
Continuous
100
AcDbLine
 10
3734.86295801333
 20
-2288.144282379966
 30
0.0
 11
3734.86295801333
 21
-2286.944355603235
 31
0.0
  0
LINE
  5
453D
330
1F
100
AcDbEntity
  8
SPOJOVACÍ
  6
Continuous
100
AcDbLine
 10
3734.86295801333
 20
-2288.144282379966
 30
0.0
 11
3745.063265790598
 21
-2288.144282379966
 31
0.0
  0
LINE
  5
453E
330
1F
100
AcDbEntity
  8
SPOJOVACÍ
  6
Continuous
100
AcDbLine
 10
3745.063265790598
 20
-2288.144282379966
 30
0.0
 11
3745.063265790598
 21
-2286.944355603235
 31
0.0
  0
LINE
  5
453F
330
1F
100
AcDbEntity
  8
SPOJOVACÍ
  6
Continuous
100
AcDbLine
 10
3742.152745725546
 20
-2284.482180272011
 30
0.0
 11
3743.110826795531
 21
-2285.68954845491
 31
0.0
  0
LINE
  5
4540
330
1F
100
AcDbEntity
  8
SPOJOVACÍ
  6
Continuous
100
AcDbLine
 10
3737.940909724351
 20
-2265.24242411201
 30
0.0
 11
3741.985314083943
 21
-2263.882507098468
 31
0.0
  0
LINE
  5
4541
330
1F
100
AcDbEntity
  8
SPOJOVACÍ
  6
Continuous
100
AcDbLine
 10
3737.940909724351
 20
-2264.646181426855
 30
0.0
 11
3741.985314083943
 21
-2263.286264413313
 31
0.0
  0
LINE
  5
4542
330
1F
100
AcDbEntity
  8
SPOJOVACÍ
  6
Continuous
100
AcDbLine
 10
3742.362965454889
 20
-2263.663915786441
 30
0.0
 11
3741.985314083943
 21
-2263.882507098468
 31
0.0
  0
LINE
  5
4543
330
1F
100
AcDbEntity
  8
SPOJOVACÍ
  6
Continuous
100
AcDbLine
 10
3742.362965454889
 20
-2263.663915786441
 30
0.0
 11
3741.985314083943
 21
-2263.286264413313
 31
0.0
  0
LINE
  5
4544
330
1F
100
AcDbEntity
  8
SPOJOVACÍ
  6
Continuous
100
AcDbLine
 10
3737.56325834904
 20
-2264.863842562903
 30
0.0
 11
3737.940909724351
 21
-2265.24242411201
 31
0.0
  0
LINE
  5
4545
330
1F
100
AcDbEntity
  8
SPOJOVACÍ
  6
Continuous
100
AcDbLine
 10
3737.56325834904
 20
-2264.863842562903
 30
0.0
 11
3737.940909724351
 21
-2264.646181426855
 31
0.0
  0
LINE
  5
4546
330
1F
100
AcDbEntity
  8
SPOJOVACÍ
  6
Continuous
100
AcDbLine
 10
3737.56325834904
 20
-2264.863842562903
 30
0.0
 11
3742.362965454889
 21
-2263.663915786441
 31
0.0
  0
LINE
  5
4547
330
1F
100
AcDbEntity
  8
SPOJOVACÍ
  6
Continuous
100
AcDbLine
 10
3737.940909724351
 20
-2268.362233730972
 30
0.0
 11
3741.985314083943
 21
-2267.00231671743
 31
0.0
  0
LINE
  5
4548
330
1F
100
AcDbEntity
  8
SPOJOVACÍ
  6
Continuous
100
AcDbLine
 10
3737.940909724351
 20
-2267.765991045824
 30
0.0
 11
3741.985314083943
 21
-2266.406074032552
 31
0.0
  0
LINE
  5
4549
330
1F
100
AcDbEntity
  8
SPOJOVACÍ
  6
Continuous
100
AcDbLine
 10
3742.362965454889
 20
-2266.784655581381
 30
0.0
 11
3741.985314083943
 21
-2267.00231671743
 31
0.0
  0
LINE
  5
454A
330
1F
100
AcDbEntity
  8
SPOJOVACÍ
  6
Continuous
100
AcDbLine
 10
3742.362965454889
 20
-2266.784655581381
 30
0.0
 11
3741.985314083943
 21
-2266.406074032552
 31
0.0
  0
LINE
  5
454B
330
1F
100
AcDbEntity
  8
SPOJOVACÍ
  6
Continuous
100
AcDbLine
 10
3737.56325834904
 20
-2267.984582357843
 30
0.0
 11
3737.940909724351
 21
-2268.362233730972
 31
0.0
  0
LINE
  5
454C
330
1F
100
AcDbEntity
  8
SPOJOVACÍ
  6
Continuous
100
AcDbLine
 10
3737.56325834904
 20
-2267.984582357843
 30
0.0
 11
3737.940909724351
 21
-2267.765991045824
 31
0.0
  0
LINE
  5
454D
330
1F
100
AcDbEntity
  8
SPOJOVACÍ
  6
Continuous
100
AcDbLine
 10
3737.56325834904
 20
-2267.984582357843
 30
0.0
 11
3742.362965454889
 21
-2266.784655581381
 31
0.0
  0
LINE
  5
454E
330
1F
100
AcDbEntity
  8
SPOJOVACÍ
  6
Continuous
100
AcDbLine
 10
3737.940909724351
 20
-2271.482043349941
 30
0.0
 11
3741.985314083943
 21
-2270.122126336668
 31
0.0
  0
LINE
  5
454F
330
1F
100
AcDbEntity
  8
SPOJOVACÍ
  6
Continuous
100
AcDbLine
 10
3737.940909724351
 20
-2270.885800664786
 30
0.0
 11
3741.985314083943
 21
-2269.525883651521
 31
0.0
  0
LINE
  5
4550
330
1F
100
AcDbEntity
  8
SPOJOVACÍ
  6
Continuous
100
AcDbLine
 10
3742.362965454889
 20
-2269.904465200351
 30
0.0
 11
3741.985314083943
 21
-2270.122126336668
 31
0.0
  0
LINE
  5
4551
330
1F
100
AcDbEntity
  8
SPOJOVACÍ
  6
Continuous
100
AcDbLine
 10
3742.362965454889
 20
-2269.904465200351
 30
0.0
 11
3741.985314083943
 21
-2269.525883651521
 31
0.0
  0
LINE
  5
4552
330
1F
100
AcDbEntity
  8
SPOJOVACÍ
  6
Continuous
100
AcDbLine
 10
3737.56325834904
 20
-2271.104391976813
 30
0.0
 11
3737.940909724351
 21
-2271.482043349941
 31
0.0
  0
LINE
  5
4553
330
1F
100
AcDbEntity
  8
SPOJOVACÍ
  6
Continuous
100
AcDbLine
 10
3737.56325834904
 20
-2271.104391976813
 30
0.0
 11
3737.940909724351
 21
-2270.885800664786
 31
0.0
  0
LINE
  5
4554
330
1F
100
AcDbEntity
  8
SPOJOVACÍ
  6
Continuous
100
AcDbLine
 10
3737.56325834904
 20
-2271.104391976813
 30
0.0
 11
3742.362965454889
 21
-2269.904465200351
 31
0.0
  0
LINE
  5
4555
330
1F
100
AcDbEntity
  8
SPOJOVACÍ
  6
Continuous
100
AcDbLine
 10
3738.946429760038
 20
-2255.758351697972
 30
0.0
 11
3741.100716901495
 21
-2255.447672982198
 31
0.0
  0
LINE
  5
4556
330
1F
100
AcDbEntity
  8
SPOJOVACÍ
  6
Continuous
100
AcDbLine
 10
3739.324081130984
 20
-2256.1360030711
 30
0.0
 11
3740.723065530549
 21
-2255.665334118515
 31
0.0
  0
LINE
  5
4557
330
1F
100
AcDbEntity
  8
SPOJOVACÍ
  6
Continuous
100
AcDbLine
 10
3739.324081130984
 20
-2255.539760385953
 30
0.0
 11
3740.723065530549
 21
-2255.069091433368
 31
0.0
  0
LINE
  5
4558
330
1F
100
AcDbEntity
  8
SPOJOVACÍ
  6
Continuous
100
AcDbLine
 10
3741.100716901495
 20
-2255.447672982198
 30
0.0
 11
3740.723065530549
 21
-2255.665334118515
 31
0.0
  0
LINE
  5
4559
330
1F
100
AcDbEntity
  8
SPOJOVACÍ
  6
Continuous
100
AcDbLine
 10
3741.100716901495
 20
-2255.447672982198
 30
0.0
 11
3740.723065530549
 21
-2255.069091433368
 31
0.0
  0
LINE
  5
455A
330
1F
100
AcDbEntity
  8
SPOJOVACÍ
  6
Continuous
100
AcDbLine
 10
3738.946429760038
 20
-2255.758351697972
 30
0.0
 11
3739.324081130984
 21
-2256.1360030711
 31
0.0
  0
LINE
  5
455B
330
1F
100
AcDbEntity
  8
SPOJOVACÍ
  6
Continuous
100
AcDbLine
 10
3738.946429760038
 20
-2255.758351697972
 30
0.0
 11
3739.324081130984
 21
-2255.539760385953
 31
0.0
  0
LINE
  5
455C
330
1F
100
AcDbEntity
  8
SPOJOVACÍ
  6
Continuous
100
AcDbLine
 10
3738.381813049567
 20
-2258.772121276292
 30
0.0
 11
3741.497901965998
 21
-2258.138671559522
 31
0.0
  0
LINE
  5
455D
330
1F
100
AcDbEntity
  8
SPOJOVACÍ
  6
Continuous
100
AcDbLine
 10
3738.759464424878
 20
-2259.150702825398
 30
0.0
 11
3741.120250595052
 21
-2258.35633269557
 31
0.0
  0
LINE
  5
455E
330
1F
100
AcDbEntity
  8
SPOJOVACÍ
  6
Continuous
100
AcDbLine
 10
3738.759464424878
 20
-2258.554460140243
 30
0.0
 11
3741.120250595052
 21
-2257.760090010692
 31
0.0
  0
LINE
  5
455F
330
1F
100
AcDbEntity
  8
SPOJOVACÍ
  6
Continuous
100
AcDbLine
 10
3741.497901965998
 20
-2258.138671559522
 30
0.0
 11
3741.120250595052
 21
-2258.35633269557
 31
0.0
  0
LINE
  5
4560
330
1F
100
AcDbEntity
  8
SPOJOVACÍ
  6
Continuous
100
AcDbLine
 10
3741.497901965998
 20
-2258.138671559522
 30
0.0
 11
3741.120250595052
 21
-2257.760090010692
 31
0.0
  0
LINE
  5
4561
330
1F
100
AcDbEntity
  8
SPOJOVACÍ
  6
Continuous
100
AcDbLine
 10
3738.381813049567
 20
-2258.772121276292
 30
0.0
 11
3738.759464424878
 21
-2259.150702825398
 31
0.0
  0
LINE
  5
4562
330
1F
100
AcDbEntity
  8
SPOJOVACÍ
  6
Continuous
100
AcDbLine
 10
3738.381813049567
 20
-2258.772121276292
 30
0.0
 11
3738.759464424878
 21
-2258.554460140243
 31
0.0
  0
LINE
  5
4563
330
1F
100
AcDbEntity
  8
SPOJOVACÍ
  6
Continuous
100
AcDbLine
 10
3737.817196343461
 20
-2261.78682103059
 30
0.0
 11
3741.942525996204
 21
-2260.813857148285
 31
0.0
  0
LINE
  5
4564
330
1F
100
AcDbEntity
  8
SPOJOVACÍ
  6
Continuous
100
AcDbLine
 10
3738.195777891745
 20
-2262.164472403718
 30
0.0
 11
3741.564874625258
 21
-2261.031518284333
 31
0.0
  0
LINE
  5
4565
330
1F
100
AcDbEntity
  8
SPOJOVACÍ
  6
Continuous
100
AcDbLine
 10
3738.195777891745
 20
-2261.568229718563
 30
0.0
 11
3741.564874625258
 21
-2260.435275599179
 31
0.0
  0
LINE
  5
4566
330
1F
100
AcDbEntity
  8
SPOJOVACÍ
  6
Continuous
100
AcDbLine
 10
3741.942525996204
 20
-2260.813857148285
 30
0.0
 11
3741.564874625258
 21
-2261.031518284333
 31
0.0
  0
LINE
  5
4567
330
1F
100
AcDbEntity
  8
SPOJOVACÍ
  6
Continuous
100
AcDbLine
 10
3741.942525996204
 20
-2260.813857148285
 30
0.0
 11
3741.564874625258
 21
-2260.435275599179
 31
0.0
  0
LINE
  5
4568
330
1F
100
AcDbEntity
  8
SPOJOVACÍ
  6
Continuous
100
AcDbLine
 10
3737.817196343461
 20
-2261.78682103059
 30
0.0
 11
3738.195777891745
 21
-2262.164472403718
 31
0.0
  0
LINE
  5
4569
330
1F
100
AcDbEntity
  8
SPOJOVACÍ
  6
Continuous
100
AcDbLine
 10
3737.817196343461
 20
-2261.78682103059
 30
0.0
 11
3738.195777891745
 21
-2261.568229718563
 31
0.0
  0
LINE
  5
456A
330
1F
100
AcDbEntity
  8
SPOJOVACÍ
  6
Continuous
100
AcDbLine
 10
3737.940909724351
 20
-2274.601852969179
 30
0.0
 11
3741.985314083943
 21
-2273.242866131339
 31
0.0
  0
LINE
  5
456B
330
1F
100
AcDbEntity
  8
SPOJOVACÍ
  6
Continuous
100
AcDbLine
 10
3737.940909724351
 20
-2274.005610284024
 30
0.0
 11
3741.985314083943
 21
-2272.646623446461
 31
0.0
  0
LINE
  5
456C
330
1F
100
AcDbEntity
  8
SPOJOVACÍ
  6
Continuous
100
AcDbLine
 10
3742.362965454889
 20
-2273.024274819313
 30
0.0
 11
3741.985314083943
 21
-2273.242866131339
 31
0.0
  0
LINE
  5
456D
330
1F
100
AcDbEntity
  8
SPOJOVACÍ
  6
Continuous
100
AcDbLine
 10
3742.362965454889
 20
-2273.024274819313
 30
0.0
 11
3741.985314083943
 21
-2272.646623446461
 31
0.0
  0
LINE
  5
456E
330
1F
100
AcDbEntity
  8
SPOJOVACÍ
  6
Continuous
100
AcDbLine
 10
3737.56325834904
 20
-2274.224201596051
 30
0.0
 11
3737.940909724351
 21
-2274.601852969179
 31
0.0
  0
LINE
  5
456F
330
1F
100
AcDbEntity
  8
SPOJOVACÍ
  6
Continuous
100
AcDbLine
 10
3737.56325834904
 20
-2274.224201596051
 30
0.0
 11
3737.940909724351
 21
-2274.005610284024
 31
0.0
  0
LINE
  5
4570
330
1F
100
AcDbEntity
  8
SPOJOVACÍ
  6
Continuous
100
AcDbLine
 10
3737.56325834904
 20
-2274.224201596051
 30
0.0
 11
3742.362965454889
 21
-2273.024274819313
 31
0.0
  0
LINE
  5
4571
330
1F
100
AcDbEntity
  8
SPOJOVACÍ
  6
Continuous
100
AcDbLine
 10
3737.940909724351
 20
-2277.722592763843
 30
0.0
 11
3741.985314083943
 21
-2276.362675750577
 31
0.0
  0
LINE
  5
4572
330
1F
100
AcDbEntity
  8
SPOJOVACÍ
  6
Continuous
100
AcDbLine
 10
3737.940909724351
 20
-2277.126350078965
 30
0.0
 11
3741.985314083943
 21
-2275.766433065423
 31
0.0
  0
LINE
  5
4573
330
1F
100
AcDbEntity
  8
SPOJOVACÍ
  6
Continuous
100
AcDbLine
 10
3742.362965454889
 20
-2276.144084438551
 30
0.0
 11
3741.985314083943
 21
-2276.362675750577
 31
0.0
  0
LINE
  5
4574
330
1F
100
AcDbEntity
  8
SPOJOVACÍ
  6
Continuous
100
AcDbLine
 10
3742.362965454889
 20
-2276.144084438551
 30
0.0
 11
3741.985314083943
 21
-2275.766433065423
 31
0.0
  0
LINE
  5
4575
330
1F
100
AcDbEntity
  8
SPOJOVACÍ
  6
Continuous
100
AcDbLine
 10
3737.56325834904
 20
-2277.344011215013
 30
0.0
 11
3737.940909724351
 21
-2277.722592763843
 31
0.0
  0
LINE
  5
4576
330
1F
100
AcDbEntity
  8
SPOJOVACÍ
  6
Continuous
100
AcDbLine
 10
3737.56325834904
 20
-2277.344011215013
 30
0.0
 11
3737.940909724351
 21
-2277.126350078965
 31
0.0
  0
LINE
  5
4577
330
1F
100
AcDbEntity
  8
SPOJOVACÍ
  6
Continuous
100
AcDbLine
 10
3737.56325834904
 20
-2277.344011215013
 30
0.0
 11
3742.362965454889
 21
-2276.144084438551
 31
0.0
  0
LINE
  5
4578
330
1F
100
AcDbEntity
  8
SPOJOVACÍ
  6
Continuous
100
AcDbLine
 10
3741.067230574047
 20
-2261.208251685683
 30
0.0
 11
3741.312796985515
 21
-2263.179294196969
 31
0.0
  0
LINE
  5
4579
330
1F
100
AcDbEntity
  8
SPOJOVACÍ
  6
Continuous
100
AcDbLine
 10
3740.728646581486
 20
-2258.501440119784
 30
0.0
 11
3740.995607036824
 21
-2260.638053922638
 31
0.0
  0
LINE
  5
457A
330
1F
100
AcDbEntity
  8
SPOJOVACÍ
  6
Continuous
100
AcDbLine
 10
3740.389132420317
 20
-2255.784396620351
 30
0.0
 11
3740.657023048628
 21
-2257.929382005336
 31
0.0
  0
LINE
  5
457B
330
1F
100
AcDbEntity
  8
SPOJOVACÍ
  6
Continuous
100
AcDbLine
 10
3739.577088948065
 20
-2255.46813684982
 30
0.0
 11
3739.963111901964
 21
-2252.379023032016
 31
0.0
  0
LINE
  5
457C
330
1F
100
AcDbEntity
  8
SPOJOVACÍ
  6
Continuous
100
AcDbLine
 10
3739.209669510386
 20
-2258.40935271603
 30
0.0
 11
3739.49988435554
 21
-2256.088564105674
 31
0.0
  0
LINE
  5
457D
330
1F
100
AcDbEntity
  8
SPOJOVACÍ
  6
Continuous
100
AcDbLine
 10
3738.840389718028
 20
-2261.361730691759
 30
0.0
 11
3739.130604567547
 21
-2259.040011905694
 31
0.0
  0
LINE
  5
457E
330
1F
100
AcDbEntity
  8
SPOJOVACÍ
  6
Continuous
100
AcDbLine
 10
3739.963111901964
 20
-2252.379023032016
 30
0.0
 11
3740.317508883093
 21
-2255.215129033284
 31
0.0
  0
LINE
  5
457F
330
1F
100
AcDbEntity
  8
SPOJOVACÍ
  6
Continuous
100
AcDbLine
 10
3738.613426822779
 20
-2263.179294196969
 30
0.0
 11
3738.763185125502
 21
-2261.982157947612
 31
0.0
  0
LINE
  5
4580
330
1F
100
AcDbEntity
  8
SPOJOVACÍ
  6
Continuous
100
AcDbLine
 10
3741.312796985515
 20
-2263.516017834852
 30
0.0
 11
3741.312796985515
 21
-2263.179294196969
 31
0.0
  0
LINE
  5
4581
330
1F
100
AcDbEntity
  8
SPOJOVACÍ
  6
Continuous
100
AcDbLine
 10
3741.312796985515
 20
-2266.638617981465
 30
0.0
 11
3741.312796985515
 21
-2264.119701926436
 31
0.0
  0
LINE
  5
4582
330
1F
100
AcDbEntity
  8
SPOJOVACÍ
  6
Continuous
100
AcDbLine
 10
3738.613426822779
 20
-2264.426659938858
 30
0.0
 11
3738.613426822779
 21
-2263.179294196969
 31
0.0
  0
LINE
  5
4583
330
1F
100
AcDbEntity
  8
SPOJOVACÍ
  6
Continuous
100
AcDbLine
 10
3738.613426822779
 20
-2267.54088850334
 30
0.0
 11
3738.613426822779
 21
-2265.022902624012
 31
0.0
  0
LINE
  5
4584
330
1F
100
AcDbEntity
  8
SPOJOVACÍ
  6
Continuous
100
AcDbLine
 10
3741.312796985515
 20
-2269.760287952107
 30
0.0
 11
3741.312796985515
 21
-2267.239511545398
 31
0.0
  0
LINE
  5
4585
330
1F
100
AcDbEntity
  8
SPOJOVACÍ
  6
Continuous
100
AcDbLine
 10
3741.312796985515
 20
-2272.882888098451
 30
0.0
 11
3741.312796985515
 21
-2270.354670285582
 31
0.0
  0
LINE
  5
4586
330
1F
100
AcDbEntity
  8
SPOJOVACÍ
  6
Continuous
100
AcDbLine
 10
3741.312796985515
 20
-2275.998046838635
 30
0.0
 11
3741.312796985515
 21
-2273.479130783606
 31
0.0
  0
LINE
  5
4587
330
1F
100
AcDbEntity
  8
SPOJOVACÍ
  6
Continuous
100
AcDbLine
 10
3738.613426822779
 20
-2270.673720583495
 30
0.0
 11
3738.613426822779
 21
-2268.145502770625
 31
0.0
  0
LINE
  5
4588
330
1F
100
AcDbEntity
  8
SPOJOVACÍ
  6
Continuous
100
AcDbLine
 10
3738.613426822779
 20
-2273.788879323678
 30
0.0
 11
3738.613426822779
 21
-2271.268102916969
 31
0.0
  0
LINE
  5
4589
330
1F
100
AcDbEntity
  8
SPOJOVACÍ
  6
Continuous
100
AcDbLine
 10
3738.613426822779
 20
-2276.911479470022
 30
0.0
 11
3738.613426822779
 21
-2274.392563414993
 31
0.0
  0
LINE
  5
458A
330
1F
100
AcDbEntity
  8
SPOJOVACÍ
  6
Continuous
100
AcDbLine
 10
3738.613426822779
 20
-2281.544685108878
 30
0.0
 11
3738.613426822779
 21
-2277.506791979198
 31
0.0
  0
LINE
  5
458B
330
1F
100
AcDbEntity
  8
SPOJOVACÍ
  6
Continuous
100
AcDbLine
 10
3741.312796985515
 20
-2281.544685108878
 30
0.0
 11
3741.312796985515
 21
-2276.60173092995
 31
0.0
  0
LINE
  5
458C
330
1F
100
AcDbEntity
  8
SPOJOVACÍ
  6
Continuous
100
AcDbLine
 10
3738.547384340857
 20
-2282.331613832
 30
0.0
 11
3738.613426822779
 21
-2281.544685108878
 31
0.0
  0
LINE
  5
458D
330
1F
100
AcDbEntity
  8
SPOJOVACÍ
  6
Continuous
100
AcDbLine
 10
3741.312796985515
 20
-2281.544685108878
 30
0.0
 11
3741.539759876399
 21
-2283.068313062308
 31
0.0
  0
LINE
  5
458E
330
1F
100
AcDbEntity
  8
SPOJOVACÍ
  6
Continuous
100
AcDbLine
 10
3741.312796985516
 20
-2138.298743776894
 30
0.0
 11
3741.312796985516
 21
-2138.635467414777
 31
0.0
  0
LINE
  5
458F
330
1F
100
AcDbEntity
  8
SPOJOVACÍ
  6
Continuous
100
AcDbLine
 10
3738.61342682278
 20
-2138.635467414777
 30
0.0
 11
3738.763185125502
 21
-2139.832603664134
 31
0.0
  0
LINE
  5
4590
330
1F
100
AcDbEntity
  8
SPOJOVACÍ
  6
Continuous
100
AcDbLine
 10
3739.963111901965
 20
-2149.435738579731
 30
0.0
 11
3740.317508883094
 21
-2146.599632578462
 31
0.0
  0
LINE
  5
4591
330
1F
100
AcDbEntity
  8
SPOJOVACÍ
  6
Continuous
100
AcDbLine
 10
3738.840389718029
 20
-2140.453030919988
 30
0.0
 11
3739.130604567548
 21
-2142.774749706052
 31
0.0
  0
LINE
  5
4592
330
1F
100
AcDbEntity
  8
SPOJOVACÍ
  6
Continuous
100
AcDbLine
 10
3739.209669510386
 20
-2143.405408895717
 30
0.0
 11
3739.49988435554
 21
-2145.726197506073
 31
0.0
  0
LINE
  5
4593
330
1F
100
AcDbEntity
  8
SPOJOVACÍ
  6
Continuous
100
AcDbLine
 10
3739.577088948066
 20
-2146.346624761926
 30
0.0
 11
3739.963111901965
 21
-2149.435738579731
 31
0.0
  0
LINE
  5
4594
330
1F
100
AcDbEntity
  8
SPOJOVACÍ
  6
Continuous
100
AcDbLine
 10
3740.389132420318
 20
-2146.030364991395
 30
0.0
 11
3740.657023048628
 21
-2143.885379606411
 31
0.0
  0
LINE
  5
4595
330
1F
100
AcDbEntity
  8
SPOJOVACÍ
  6
Continuous
100
AcDbLine
 10
3740.728646581487
 20
-2143.313321491962
 30
0.0
 11
3740.995607036824
 21
-2141.176707689109
 31
0.0
  0
LINE
  5
4596
330
1F
100
AcDbEntity
  8
SPOJOVACÍ
  6
Continuous
100
AcDbLine
 10
3741.067230574048
 20
-2140.606509926064
 30
0.0
 11
3741.312796985516
 21
-2138.635467414777
 31
0.0
  0
LINE
  5
4597
330
1F
100
AcDbEntity
  8
SPOJOVACÍ
  6
Continuous
100
AcDbLine
 10
3737.817196343462
 20
-2140.027940581157
 30
0.0
 11
3738.195777891746
 21
-2140.246531893183
 31
0.0
  0
LINE
  5
4598
330
1F
100
AcDbEntity
  8
SPOJOVACÍ
  6
Continuous
100
AcDbLine
 10
3737.817196343462
 20
-2140.027940581157
 30
0.0
 11
3738.195777891746
 21
-2139.650289208029
 31
0.0
  0
LINE
  5
4599
330
1F
100
AcDbEntity
  8
SPOJOVACÍ
  6
Continuous
100
AcDbLine
 10
3741.942525996204
 20
-2141.000904463461
 30
0.0
 11
3741.564874625259
 21
-2141.379486012568
 31
0.0
  0
LINE
  5
459A
330
1F
100
AcDbEntity
  8
SPOJOVACÍ
  6
Continuous
100
AcDbLine
 10
3741.942525996204
 20
-2141.000904463461
 30
0.0
 11
3741.564874625259
 21
-2140.783243327413
 31
0.0
  0
LINE
  5
459B
330
1F
100
AcDbEntity
  8
SPOJOVACÍ
  6
Continuous
100
AcDbLine
 10
3738.195777891746
 20
-2140.246531893183
 30
0.0
 11
3741.564874625259
 21
-2141.379486012568
 31
0.0
  0
LINE
  5
459C
330
1F
100
AcDbEntity
  8
SPOJOVACÍ
  6
Continuous
100
AcDbLine
 10
3738.195777891746
 20
-2139.650289208029
 30
0.0
 11
3741.564874625259
 21
-2140.783243327413
 31
0.0
  0
LINE
  5
459D
330
1F
100
AcDbEntity
  8
SPOJOVACÍ
  6
Continuous
100
AcDbLine
 10
3737.817196343462
 20
-2140.027940581157
 30
0.0
 11
3741.942525996204
 21
-2141.000904463461
 31
0.0
  0
LINE
  5
459E
330
1F
100
AcDbEntity
  8
SPOJOVACÍ
  6
Continuous
100
AcDbLine
 10
3738.381813049567
 20
-2143.042640335454
 30
0.0
 11
3738.759464424878
 21
-2143.260301471503
 31
0.0
  0
LINE
  5
459F
330
1F
100
AcDbEntity
  8
SPOJOVACÍ
  6
Continuous
100
AcDbLine
 10
3738.381813049567
 20
-2143.042640335454
 30
0.0
 11
3738.759464424878
 21
-2142.664058786348
 31
0.0
  0
LINE
  5
45A0
330
1F
100
AcDbEntity
  8
SPOJOVACÍ
  6
Continuous
100
AcDbLine
 10
3741.497901965999
 20
-2143.676090052224
 30
0.0
 11
3741.120250595053
 21
-2144.054671601054
 31
0.0
  0
LINE
  5
45A1
330
1F
100
AcDbEntity
  8
SPOJOVACÍ
  6
Continuous
100
AcDbLine
 10
3741.497901965999
 20
-2143.676090052224
 30
0.0
 11
3741.120250595053
 21
-2143.458428916176
 31
0.0
  0
LINE
  5
45A2
330
1F
100
AcDbEntity
  8
SPOJOVACÍ
  6
Continuous
100
AcDbLine
 10
3738.759464424878
 20
-2143.260301471503
 30
0.0
 11
3741.120250595053
 21
-2144.054671601054
 31
0.0
  0
LINE
  5
45A3
330
1F
100
AcDbEntity
  8
SPOJOVACÍ
  6
Continuous
100
AcDbLine
 10
3738.759464424878
 20
-2142.664058786348
 30
0.0
 11
3741.120250595053
 21
-2143.458428916176
 31
0.0
  0
LINE
  5
45A4
330
1F
100
AcDbEntity
  8
SPOJOVACÍ
  6
Continuous
100
AcDbLine
 10
3738.381813049567
 20
-2143.042640335454
 30
0.0
 11
3741.497901965999
 21
-2143.676090052224
 31
0.0
  0
LINE
  5
45A5
330
1F
100
AcDbEntity
  8
SPOJOVACÍ
  6
Continuous
100
AcDbLine
 10
3738.946429760039
 20
-2146.056409913774
 30
0.0
 11
3739.324081130984
 21
-2146.275001225793
 31
0.0
  0
LINE
  5
45A6
330
1F
100
AcDbEntity
  8
SPOJOVACÍ
  6
Continuous
100
AcDbLine
 10
3738.946429760039
 20
-2146.056409913774
 30
0.0
 11
3739.324081130984
 21
-2145.678758540646
 31
0.0
  0
LINE
  5
45A7
330
1F
100
AcDbEntity
  8
SPOJOVACÍ
  6
Continuous
100
AcDbLine
 10
3741.100716901495
 20
-2146.367088629548
 30
0.0
 11
3740.72306553055
 21
-2146.745670178378
 31
0.0
  0
LINE
  5
45A8
330
1F
100
AcDbEntity
  8
SPOJOVACÍ
  6
Continuous
100
AcDbLine
 10
3741.100716901495
 20
-2146.367088629548
 30
0.0
 11
3740.72306553055
 21
-2146.14942749323
 31
0.0
  0
LINE
  5
45A9
330
1F
100
AcDbEntity
  8
SPOJOVACÍ
  6
Continuous
100
AcDbLine
 10
3739.324081130984
 20
-2146.275001225793
 30
0.0
 11
3740.72306553055
 21
-2146.745670178378
 31
0.0
  0
LINE
  5
45AA
330
1F
100
AcDbEntity
  8
SPOJOVACÍ
  6
Continuous
100
AcDbLine
 10
3739.324081130984
 20
-2145.678758540646
 30
0.0
 11
3740.72306553055
 21
-2146.14942749323
 31
0.0
  0
LINE
  5
45AB
330
1F
100
AcDbEntity
  8
SPOJOVACÍ
  6
Continuous
100
AcDbLine
 10
3738.946429760039
 20
-2146.056409913774
 30
0.0
 11
3741.100716901495
 21
-2146.367088629548
 31
0.0
  0
LINE
  5
45AC
330
1F
100
AcDbEntity
  8
SPOJOVACÍ
  6
Continuous
100
AcDbLine
 10
3742.362965454889
 20
-2138.150845825305
 30
0.0
 11
3741.985314083944
 21
-2138.528497198433
 31
0.0
  0
LINE
  5
45AD
330
1F
100
AcDbEntity
  8
POPIS
100
AcDbLine
 10
3719.67813365944
 20
-2117.497002451005
 30
0.0
 11
3766.096942214753
 21
-2054.009815898045
 31
0.0
  0
LINE
  5
45AE
330
1F
100
AcDbEntity
  8
CETRIS
100
AcDbLine
 10
3722.009680055966
 20
-2125.67047923178
 30
0.0
 11
3722.009680055969
 21
-2113.67047923178
 31
0.0
  0
LWPOLYLINE
  5
45AF
330
1F
100
AcDbEntity
  8
izolace
100
AcDbPolyline
 90
        4
 70
     1
 43
0.0
 10
3722.009680055969
 20
-2101.67047923178
 10
3716.79163507478
 20
-2101.67047923178
 10
3716.79163507478
 20
-2125.67047923178
 10
3722.009680055969
 20
-2125.67047923178
  0
INSERT
  5
45B0
330
1F
100
AcDbEntity
  8
POPIS
100
AcDbBlockReference
  2
E_PUNKT
 10
3719.650523283813
 20
-2117.526070781879
 30
0.0
  0
LINE
  5
45B2
330
1F
100
AcDbEntity
  8
SPOJOVACÍ
  6
Continuous
100
AcDbLine
 10
3742.152745725547
 20
-2117.332581339736
 30
0.0
 11
3743.110826795531
 21
-2116.125213156837
 31
0.0
  0
LINE
  5
45B3
330
1F
100
AcDbEntity
  8
SPOJOVACÍ
  6
Continuous
100
AcDbLine
 10
3741.539759876399
 20
-2118.746448549439
 30
0.0
 11
3742.152745725547
 21
-2117.332581339736
 31
0.0
  0
LINE
  5
45B4
330
1F
100
AcDbEntity
  8
SPOJOVACÍ
  6
Continuous
100
AcDbLine
 10
3741.312796985516
 20
-2120.270076502868
 30
0.0
 11
3741.539759876399
 21
-2118.746448549439
 31
0.0
  0
LINE
  5
45B5
330
1F
100
AcDbEntity
  8
SPOJOVACÍ
  6
Continuous
100
AcDbLine
 10
3745.063265790599
 20
-2113.67047923178
 30
0.0
 11
3745.063265790599
 21
-2114.870406008511
 31
0.0
  0
LINE
  5
45B6
330
1F
100
AcDbEntity
  8
SPOJOVACÍ
  6
Continuous
100
AcDbLine
 10
3734.862958013331
 20
-2113.67047923178
 30
0.0
 11
3745.063265790599
 21
-2113.67047923178
 31
0.0
  0
LINE
  5
45B7
330
1F
100
AcDbEntity
  8
SPOJOVACÍ
  6
Continuous
100
AcDbLine
 10
3734.862958013331
 20
-2113.67047923178
 30
0.0
 11
3734.862958013331
 21
-2114.870406008511
 31
0.0
  0
LINE
  5
45B8
330
1F
100
AcDbEntity
  8
SPOJOVACÍ
  6
Continuous
100
AcDbLine
 10
3734.862958013331
 20
-2114.870406008511
 30
0.0
 11
3745.063265790599
 21
-2114.870406008511
 31
0.0
  0
LINE
  5
45B9
330
1F
100
AcDbEntity
  8
SPOJOVACÍ
  6
Continuous
100
AcDbLine
 10
3744.347960604431
 20
-2115.207129646395
 30
0.0
 11
3745.063265790599
 21
-2114.870406008511
 31
0.0
  0
LINE
  5
45BA
330
1F
100
AcDbEntity
  8
SPOJOVACÍ
  6
Continuous
100
AcDbLine
 10
3743.110826795531
 20
-2116.125213156837
 30
0.0
 11
3744.347960604431
 21
-2115.207129646395
 31
0.0
  0
LINE
  5
45BB
330
1F
100
AcDbEntity
  8
SPOJOVACÍ
  6
Continuous
100
AcDbLine
 10
3738.547384340858
 20
-2119.483147779746
 30
0.0
 11
3738.61342682278
 21
-2120.270076502868
 31
0.0
  0
LINE
  5
45BC
330
1F
100
AcDbEntity
  8
SPOJOVACÍ
  6
Continuous
100
AcDbLine
 10
3738.119503476559
 20
-2118.002307912695
 30
0.0
 11
3738.547384340858
 21
-2119.483147779746
 31
0.0
  0
LINE
  5
45BD
330
1F
100
AcDbEntity
  8
SPOJOVACÍ
  6
Continuous
100
AcDbLine
 10
3737.32327299724
 20
-2116.683318634398
 30
0.0
 11
3738.119503476559
 21
-2118.002307912695
 31
0.0
  0
LINE
  5
45BE
330
1F
100
AcDbEntity
  8
SPOJOVACÍ
  6
Continuous
100
AcDbLine
 10
3736.212643096882
 20
-2115.614546644986
 30
0.0
 11
3737.32327299724
 21
-2116.683318634398
 31
0.0
  0
LINE
  5
45BF
330
1F
100
AcDbEntity
  8
SPOJOVACÍ
  6
Continuous
100
AcDbLine
 10
3734.862958013331
 20
-2114.870406008511
 30
0.0
 11
3736.212643096882
 21
-2115.614546644986
 31
0.0
  0
LINE
  5
45C0
330
1F
100
AcDbEntity
  8
SPOJOVACÍ
  6
Continuous
100
AcDbLine
 10
3741.312796985516
 20
-2120.270076502868
 30
0.0
 11
3741.312796985516
 21
-2125.213030681797
 31
0.0
  0
LINE
  5
45C1
330
1F
100
AcDbEntity
  8
SPOJOVACÍ
  6
Continuous
100
AcDbLine
 10
3738.61342682278
 20
-2120.270076502868
 30
0.0
 11
3738.61342682278
 21
-2124.307969632548
 31
0.0
  0
LINE
  5
45C2
330
1F
100
AcDbEntity
  8
SPOJOVACÍ
  6
Continuous
100
AcDbLine
 10
3738.61342682278
 20
-2124.903282141724
 30
0.0
 11
3738.61342682278
 21
-2127.422198196753
 31
0.0
  0
LINE
  5
45C3
330
1F
100
AcDbEntity
  8
SPOJOVACÍ
  6
Continuous
100
AcDbLine
 10
3738.61342682278
 20
-2128.025882288068
 30
0.0
 11
3738.61342682278
 21
-2130.546658694777
 31
0.0
  0
LINE
  5
45C4
330
1F
100
AcDbEntity
  8
SPOJOVACÍ
  6
Continuous
100
AcDbLine
 10
3738.61342682278
 20
-2131.141041028252
 30
0.0
 11
3738.61342682278
 21
-2133.669258841121
 31
0.0
  0
LINE
  5
45C5
330
1F
100
AcDbEntity
  8
SPOJOVACÍ
  6
Continuous
100
AcDbLine
 10
3741.312796985516
 20
-2125.816714773111
 30
0.0
 11
3741.312796985516
 21
-2128.335630828141
 31
0.0
  0
LINE
  5
45C6
330
1F
100
AcDbEntity
  8
SPOJOVACÍ
  6
Continuous
100
AcDbLine
 10
3741.312796985516
 20
-2128.931873513295
 30
0.0
 11
3741.312796985516
 21
-2131.460091326164
 31
0.0
  0
LINE
  5
45C7
330
1F
100
AcDbEntity
  8
SPOJOVACÍ
  6
Continuous
100
AcDbLine
 10
3741.312796985516
 20
-2132.054473659639
 30
0.0
 11
3741.312796985516
 21
-2134.575250066348
 31
0.0
  0
LINE
  5
45C8
330
1F
100
AcDbEntity
  8
SPOJOVACÍ
  6
Continuous
100
AcDbLine
 10
3738.61342682278
 20
-2134.273873108407
 30
0.0
 11
3738.61342682278
 21
-2136.791858987734
 31
0.0
  0
LINE
  5
45C9
330
1F
100
AcDbEntity
  8
SPOJOVACÍ
  6
Continuous
100
AcDbLine
 10
3741.312796985516
 20
-2135.176143630281
 30
0.0
 11
3741.312796985516
 21
-2137.69505968531
 31
0.0
  0
LINE
  5
45CA
330
1F
100
AcDbEntity
  8
SPOJOVACÍ
  6
Continuous
100
AcDbLine
 10
3737.563258349041
 20
-2124.470750396733
 30
0.0
 11
3742.362965454889
 21
-2125.670677173196
 31
0.0
  0
LINE
  5
45CB
330
1F
100
AcDbEntity
  8
SPOJOVACÍ
  6
Continuous
100
AcDbLine
 10
3737.563258349041
 20
-2124.470750396733
 30
0.0
 11
3737.940909724351
 21
-2124.688411532781
 31
0.0
  0
LINE
  5
45CC
330
1F
100
AcDbEntity
  8
SPOJOVACÍ
  6
Continuous
100
AcDbLine
 10
3737.563258349041
 20
-2124.470750396733
 30
0.0
 11
3737.940909724351
 21
-2124.092168847903
 31
0.0
  0
LINE
  5
45CD
330
1F
100
AcDbEntity
  8
SPOJOVACÍ
  6
Continuous
100
AcDbLine
 10
3742.362965454889
 20
-2125.670677173196
 30
0.0
 11
3741.985314083944
 21
-2126.048328546324
 31
0.0
  0
LINE
  5
45CE
330
1F
100
AcDbEntity
  8
SPOJOVACÍ
  6
Continuous
100
AcDbLine
 10
3742.362965454889
 20
-2125.670677173196
 30
0.0
 11
3741.985314083944
 21
-2125.452085861169
 31
0.0
  0
LINE
  5
45CF
330
1F
100
AcDbEntity
  8
SPOJOVACÍ
  6
Continuous
100
AcDbLine
 10
3737.940909724351
 20
-2124.688411532781
 30
0.0
 11
3741.985314083944
 21
-2126.048328546324
 31
0.0
  0
LINE
  5
45D0
330
1F
100
AcDbEntity
  8
SPOJOVACÍ
  6
Continuous
100
AcDbLine
 10
3737.940909724351
 20
-2124.092168847903
 30
0.0
 11
3741.985314083944
 21
-2125.452085861169
 31
0.0
  0
LINE
  5
45D1
330
1F
100
AcDbEntity
  8
SPOJOVACÍ
  6
Continuous
100
AcDbLine
 10
3737.563258349041
 20
-2127.590560015695
 30
0.0
 11
3742.362965454889
 21
-2128.790486792434
 31
0.0
  0
LINE
  5
45D2
330
1F
100
AcDbEntity
  8
SPOJOVACÍ
  6
Continuous
100
AcDbLine
 10
3737.563258349041
 20
-2127.590560015695
 30
0.0
 11
3737.940909724351
 21
-2127.809151327722
 31
0.0
  0
LINE
  5
45D3
330
1F
100
AcDbEntity
  8
SPOJOVACÍ
  6
Continuous
100
AcDbLine
 10
3737.563258349041
 20
-2127.590560015695
 30
0.0
 11
3737.940909724351
 21
-2127.212908642567
 31
0.0
  0
LINE
  5
45D4
330
1F
100
AcDbEntity
  8
SPOJOVACÍ
  6
Continuous
100
AcDbLine
 10
3742.362965454889
 20
-2128.790486792434
 30
0.0
 11
3741.985314083944
 21
-2129.168138165286
 31
0.0
  0
LINE
  5
45D5
330
1F
100
AcDbEntity
  8
SPOJOVACÍ
  6
Continuous
100
AcDbLine
 10
3742.362965454889
 20
-2128.790486792434
 30
0.0
 11
3741.985314083944
 21
-2128.571895480408
 31
0.0
  0
LINE
  5
45D6
330
1F
100
AcDbEntity
  8
SPOJOVACÍ
  6
Continuous
100
AcDbLine
 10
3737.940909724351
 20
-2127.809151327722
 30
0.0
 11
3741.985314083944
 21
-2129.168138165286
 31
0.0
  0
LINE
  5
45D7
330
1F
100
AcDbEntity
  8
SPOJOVACÍ
  6
Continuous
100
AcDbLine
 10
3737.940909724351
 20
-2127.212908642567
 30
0.0
 11
3741.985314083944
 21
-2128.571895480408
 31
0.0
  0
LINE
  5
45D8
330
1F
100
AcDbEntity
  8
SPOJOVACÍ
  6
Continuous
100
AcDbLine
 10
3737.563258349041
 20
-2130.710369634934
 30
0.0
 11
3742.362965454889
 21
-2131.910296411396
 31
0.0
  0
LINE
  5
45D9
330
1F
100
AcDbEntity
  8
SPOJOVACÍ
  6
Continuous
100
AcDbLine
 10
3737.563258349041
 20
-2130.710369634934
 30
0.0
 11
3737.940909724351
 21
-2130.92896094696
 31
0.0
  0
LINE
  5
45DA
330
1F
100
AcDbEntity
  8
SPOJOVACÍ
  6
Continuous
100
AcDbLine
 10
3737.563258349041
 20
-2130.710369634934
 30
0.0
 11
3737.940909724351
 21
-2130.332718261806
 31
0.0
  0
LINE
  5
45DB
330
1F
100
AcDbEntity
  8
SPOJOVACÍ
  6
Continuous
100
AcDbLine
 10
3742.362965454889
 20
-2131.910296411396
 30
0.0
 11
3741.985314083944
 21
-2132.288877960226
 31
0.0
  0
LINE
  5
45DC
330
1F
100
AcDbEntity
  8
SPOJOVACÍ
  6
Continuous
100
AcDbLine
 10
3742.362965454889
 20
-2131.910296411396
 30
0.0
 11
3741.985314083944
 21
-2131.692635275078
 31
0.0
  0
LINE
  5
45DD
330
1F
100
AcDbEntity
  8
SPOJOVACÍ
  6
Continuous
100
AcDbLine
 10
3737.940909724351
 20
-2130.92896094696
 30
0.0
 11
3741.985314083944
 21
-2132.288877960226
 31
0.0
  0
LINE
  5
45DE
330
1F
100
AcDbEntity
  8
SPOJOVACÍ
  6
Continuous
100
AcDbLine
 10
3737.940909724351
 20
-2130.332718261806
 30
0.0
 11
3741.985314083944
 21
-2131.692635275078
 31
0.0
  0
LINE
  5
45DF
330
1F
100
AcDbEntity
  8
SPOJOVACÍ
  6
Continuous
100
AcDbLine
 10
3737.563258349041
 20
-2133.830179253903
 30
0.0
 11
3742.362965454889
 21
-2135.030106030365
 31
0.0
  0
LINE
  5
45E0
330
1F
100
AcDbEntity
  8
SPOJOVACÍ
  6
Continuous
100
AcDbLine
 10
3737.563258349041
 20
-2133.830179253903
 30
0.0
 11
3737.940909724351
 21
-2134.048770565922
 31
0.0
  0
LINE
  5
45E1
330
1F
100
AcDbEntity
  8
SPOJOVACÍ
  6
Continuous
100
AcDbLine
 10
3737.563258349041
 20
-2133.830179253903
 30
0.0
 11
3737.940909724351
 21
-2133.452527880775
 31
0.0
  0
LINE
  5
45E2
330
1F
100
AcDbEntity
  8
SPOJOVACÍ
  6
Continuous
100
AcDbLine
 10
3742.362965454889
 20
-2135.030106030365
 30
0.0
 11
3741.985314083944
 21
-2135.408687579195
 31
0.0
  0
LINE
  5
45E3
330
1F
100
AcDbEntity
  8
SPOJOVACÍ
  6
Continuous
100
AcDbLine
 10
3742.362965454889
 20
-2135.030106030365
 30
0.0
 11
3741.985314083944
 21
-2134.812444894317
 31
0.0
  0
LINE
  5
45E4
330
1F
100
AcDbEntity
  8
SPOJOVACÍ
  6
Continuous
100
AcDbLine
 10
3737.940909724351
 20
-2134.048770565922
 30
0.0
 11
3741.985314083944
 21
-2135.408687579195
 31
0.0
  0
LINE
  5
45E5
330
1F
100
AcDbEntity
  8
SPOJOVACÍ
  6
Continuous
100
AcDbLine
 10
3737.940909724351
 20
-2133.452527880775
 30
0.0
 11
3741.985314083944
 21
-2134.812444894317
 31
0.0
  0
LINE
  5
45E6
330
1F
100
AcDbEntity
  8
SPOJOVACÍ
  6
Continuous
100
AcDbLine
 10
3737.563258349041
 20
-2136.950919048843
 30
0.0
 11
3737.940909724351
 21
-2137.168580184891
 31
0.0
  0
LINE
  5
45E7
330
1F
100
AcDbEntity
  8
SPOJOVACÍ
  6
Continuous
100
AcDbLine
 10
3737.563258349041
 20
-2136.950919048843
 30
0.0
 11
3737.940909724351
 21
-2136.572337499737
 31
0.0
  0
LINE
  5
45E8
330
1F
100
AcDbEntity
  8
SPOJOVACÍ
  6
Continuous
100
AcDbLine
 10
3737.940909724351
 20
-2136.572337499737
 30
0.0
 11
3741.985314083944
 21
-2137.932254513279
 31
0.0
  0
INSERT
  5
45E9
330
1F
100
AcDbEntity
  8
POPIS
100
AcDbBlockReference
  2
E_PUNKT
 10
3817.260138449226
 20
-2138.939357907408
 30
0.0
  0
TEXT
  5
45EA
330
1F
100
AcDbEntity
  8
POPIS
100
AcDbText
 10
3748.440494726303
 20
-2049.308752761521
 30
0.0
 40
25.0
  1
06
 41
0.85
  7
SIMPLEX7
100
AcDbText
  0
TEXT
  5
45EB
330
1F
100
AcDbEntity
  8
POPIS
100
AcDbText
 10
3802.832025564734
 20
-2049.308752761521
 30
0.0
 40
25.0
  1
05
 41
0.85
  7
SIMPLEX7
100
AcDbText
  0
LINE
  5
45EC
330
1F
100
AcDbEntity
  8
POPIS
100
AcDbLine
 10
3940.373860482577
 20
-2113.670479231778
 30
0.0
 11
3940.373860482577
 21
-2054.009815898041
 31
0.0
  0
LINE
  5
45F0
330
1F
100
AcDbEntity
  8
SPOJOVACÍ
  6
CIKCAK
 48
0.25
100
AcDbLine
 10
3717.962510222987
 20
-2234.951010549567
 30
0.0
 11
3670.498124407655
 21
-2234.951010549566
 31
0.0
  0
LINE
  5
45F1
330
1F
100
AcDbEntity
  8
SPOJOVACÍ
  6
CIKCAK
 48
0.25
100
AcDbLine
 10
3717.962510222987
 20
-2242.001943396516
 30
0.0
 11
3670.498124407651
 21
-2242.001943396516
 31
0.0
  0
LINE
  5
45F2
330
1F
100
AcDbEntity
  8
SPOJOVACÍ
  6
DASHED
100
AcDbLine
 10
3678.362195825844
 20
-2236.765539473041
 30
0.0
 11
3719.15038119808
 21
-2236.765539473041
 31
0.0
  0
LINE
  5
45F3
330
1F
100
AcDbEntity
  8
SPOJOVACÍ
  6
DASHED
100
AcDbLine
 10
3678.362195825844
 20
-2240.18741447304
 30
0.0
 11
3719.150381198083
 21
-2240.18741447304
 31
0.0
  0
LINE
  5
45F4
330
1F
100
AcDbEntity
  8
SPOJOVACÍ
  6
DASHDOT2
100
AcDbLine
 10
3733.671478867396
 20
-2238.476476973042
 30
0.0
 11
3665.265723658427
 21
-2238.47647697304
 31
0.0
  0
INSERT
  5
45F5
330
1F
100
AcDbEntity
  8
POPIS
100
AcDbBlockReference
  2
E_PUNKT
 10
3685.483657617217
 20
-2238.447408642168
 30
0.0
 41
-1.0
 50
180.0
  0
LINE
  5
45F6
330
1F
100
AcDbEntity
  8
SPOJOVACÍ
 48
0.25
100
AcDbLine
 10
3670.498124407655
 20
-2234.951010549566
 30
0.0
 11
3664.848684066935
 21
-2238.476476973042
 31
0.0
  0
LINE
  5
45F7
330
1F
100
AcDbEntity
  8
SPOJOVACÍ
 48
0.25
100
AcDbLine
 10
3670.498124407651
 20
-2242.001943396516
 30
0.0
 11
3664.848684066935
 21
-2238.476476973042
 31
0.0
  0
LINE
  5
45F8
330
1F
100
AcDbEntity
  8
SPOJOVACÍ
  6
Continuous
100
AcDbLine
 10
3694.423147386405
 20
-2240.874682368054
 30
0.0
 11
3692.810370803159
 21
-2236.078271572849
 31
0.0
  0
LINE
  5
45F9
330
1F
100
AcDbEntity
  8
SPOJOVACÍ
  6
Continuous
100
AcDbLine
 10
3693.716040826981
 20
-2240.874682368054
 30
0.0
 11
3692.103264243739
 21
-2236.078271572849
 31
0.0
  0
LINE
  5
45FA
330
1F
100
AcDbEntity
  8
SPOJOVACÍ
  6
Continuous
100
AcDbLine
 10
3692.551135169058
 20
-2235.630400650119
 30
0.0
 11
3692.810370803159
 21
-2236.078271572849
 31
0.0
  0
LINE
  5
45FB
330
1F
100
AcDbEntity
  8
SPOJOVACÍ
  6
Continuous
100
AcDbLine
 10
3692.551135169058
 20
-2235.630400650119
 30
0.0
 11
3692.103264243739
 21
-2236.078271572849
 31
0.0
  0
LINE
  5
45FC
330
1F
100
AcDbEntity
  8
SPOJOVACÍ
  6
Continuous
100
AcDbLine
 10
3693.974173330516
 20
-2241.322553295962
 30
0.0
 11
3694.423147386405
 21
-2240.874682368054
 31
0.0
  0
LINE
  5
45FD
330
1F
100
AcDbEntity
  8
SPOJOVACÍ
  6
Continuous
100
AcDbLine
 10
3693.974173330516
 20
-2241.322553295962
 30
0.0
 11
3693.716040826981
 21
-2240.874682368054
 31
0.0
  0
LINE
  5
45FE
330
1F
100
AcDbEntity
  8
SPOJOVACÍ
  6
Continuous
100
AcDbLine
 10
3693.974173330516
 20
-2241.322553295962
 30
0.0
 11
3692.551135169058
 21
-2235.630400650119
 31
0.0
  0
LINE
  5
45FF
330
1F
100
AcDbEntity
  8
SPOJOVACÍ
  6
Continuous
100
AcDbLine
 10
3691.027157472155
 20
-2240.874682368054
 30
0.0
 11
3689.414380888909
 21
-2236.078271572849
 31
0.0
  0
LINE
  5
4600
330
1F
100
AcDbEntity
  8
SPOJOVACÍ
  6
Continuous
100
AcDbLine
 10
3690.320050912731
 20
-2240.874682368054
 30
0.0
 11
3688.707274329488
 21
-2236.078271572849
 31
0.0
  0
LINE
  5
4601
330
1F
100
AcDbEntity
  8
SPOJOVACÍ
  6
Continuous
100
AcDbLine
 10
3689.155145254808
 20
-2235.630400650119
 30
0.0
 11
3689.414380888909
 21
-2236.078271572849
 31
0.0
  0
LINE
  5
4602
330
1F
100
AcDbEntity
  8
SPOJOVACÍ
  6
Continuous
100
AcDbLine
 10
3689.155145254808
 20
-2235.630400650119
 30
0.0
 11
3688.707274329488
 21
-2236.078271572849
 31
0.0
  0
LINE
  5
4603
330
1F
100
AcDbEntity
  8
SPOJOVACÍ
  6
Continuous
100
AcDbLine
 10
3690.578183416266
 20
-2241.322553295962
 30
0.0
 11
3691.027157472155
 21
-2240.874682368054
 31
0.0
  0
LINE
  5
4604
330
1F
100
AcDbEntity
  8
SPOJOVACÍ
  6
Continuous
100
AcDbLine
 10
3690.578183416266
 20
-2241.322553295962
 30
0.0
 11
3690.320050912731
 21
-2240.874682368054
 31
0.0
  0
LINE
  5
4605
330
1F
100
AcDbEntity
  8
SPOJOVACÍ
  6
Continuous
100
AcDbLine
 10
3690.578183416266
 20
-2241.322553295962
 30
0.0
 11
3689.155145254808
 21
-2235.630400650119
 31
0.0
  0
LINE
  5
4606
330
1F
100
AcDbEntity
  8
SPOJOVACÍ
  6
Continuous
100
AcDbLine
 10
3687.631167557905
 20
-2240.874682368054
 30
0.0
 11
3686.018390974659
 21
-2236.078271572849
 31
0.0
  0
LINE
  5
4607
330
1F
100
AcDbEntity
  8
SPOJOVACÍ
  6
Continuous
100
AcDbLine
 10
3686.92406099848
 20
-2240.874682368054
 30
0.0
 11
3685.311284415238
 21
-2236.078271572849
 31
0.0
  0
LINE
  5
4608
330
1F
100
AcDbEntity
  8
SPOJOVACÍ
  6
Continuous
100
AcDbLine
 10
3685.759155340558
 20
-2235.630400650119
 30
0.0
 11
3686.018390974659
 21
-2236.078271572849
 31
0.0
  0
LINE
  5
4609
330
1F
100
AcDbEntity
  8
SPOJOVACÍ
  6
Continuous
100
AcDbLine
 10
3685.759155340558
 20
-2235.630400650119
 30
0.0
 11
3685.311284415238
 21
-2236.078271572849
 31
0.0
  0
LINE
  5
460A
330
1F
100
AcDbEntity
  8
SPOJOVACÍ
  6
Continuous
100
AcDbLine
 10
3687.182193502016
 20
-2241.322553295962
 30
0.0
 11
3687.631167557905
 21
-2240.874682368054
 31
0.0
  0
LINE
  5
460B
330
1F
100
AcDbEntity
  8
SPOJOVACÍ
  6
Continuous
100
AcDbLine
 10
3687.182193502016
 20
-2241.322553295962
 30
0.0
 11
3686.92406099848
 21
-2240.874682368054
 31
0.0
  0
LINE
  5
460C
330
1F
100
AcDbEntity
  8
SPOJOVACÍ
  6
Continuous
100
AcDbLine
 10
3687.182193502016
 20
-2241.322553295962
 30
0.0
 11
3685.759155340558
 21
-2235.630400650119
 31
0.0
  0
LINE
  5
460D
330
1F
100
AcDbEntity
  8
SPOJOVACÍ
  6
Continuous
100
AcDbLine
 10
3684.235177643655
 20
-2240.874682368054
 30
0.0
 11
3682.622401060409
 21
-2236.078271572849
 31
0.0
  0
LINE
  5
460E
330
1F
100
AcDbEntity
  8
SPOJOVACÍ
  6
Continuous
100
AcDbLine
 10
3683.52807108423
 20
-2240.874682368054
 30
0.0
 11
3681.915294500988
 21
-2236.078271572849
 31
0.0
  0
LINE
  5
460F
330
1F
100
AcDbEntity
  8
SPOJOVACÍ
  6
Continuous
100
AcDbLine
 10
3682.363165426308
 20
-2235.630400650119
 30
0.0
 11
3682.622401060409
 21
-2236.078271572849
 31
0.0
  0
LINE
  5
4610
330
1F
100
AcDbEntity
  8
SPOJOVACÍ
  6
Continuous
100
AcDbLine
 10
3682.363165426308
 20
-2235.630400650119
 30
0.0
 11
3681.915294500988
 21
-2236.078271572849
 31
0.0
  0
LINE
  5
4611
330
1F
100
AcDbEntity
  8
SPOJOVACÍ
  6
Continuous
100
AcDbLine
 10
3683.786203587766
 20
-2241.322553295962
 30
0.0
 11
3684.235177643655
 21
-2240.874682368054
 31
0.0
  0
LINE
  5
4612
330
1F
100
AcDbEntity
  8
SPOJOVACÍ
  6
Continuous
100
AcDbLine
 10
3683.786203587766
 20
-2241.322553295962
 30
0.0
 11
3683.52807108423
 21
-2240.874682368054
 31
0.0
  0
LINE
  5
4613
330
1F
100
AcDbEntity
  8
SPOJOVACÍ
  6
Continuous
100
AcDbLine
 10
3683.786203587766
 20
-2241.322553295962
 30
0.0
 11
3682.363165426308
 21
-2235.630400650119
 31
0.0
  0
LINE
  5
4614
330
1F
100
AcDbEntity
  8
SPOJOVACÍ
  6
Continuous
100
AcDbLine
 10
3680.390213673516
 20
-2241.322553295962
 30
0.0
 11
3678.967175512058
 21
-2235.630400650119
 31
0.0
  0
LINE
  5
4615
330
1F
100
AcDbEntity
  8
SPOJOVACÍ
  6
Continuous
100
AcDbLine
 10
3680.390213673516
 20
-2241.322553295962
 30
0.0
 11
3680.132081169981
 21
-2240.874682368054
 31
0.0
  0
LINE
  5
4616
330
1F
100
AcDbEntity
  8
SPOJOVACÍ
  6
Continuous
100
AcDbLine
 10
3680.390213673516
 20
-2241.322553295962
 30
0.0
 11
3680.839187729405
 21
-2240.874682368054
 31
0.0
  0
LINE
  5
4617
330
1F
100
AcDbEntity
  8
SPOJOVACÍ
  6
Continuous
100
AcDbLine
 10
3678.967175512058
 20
-2235.630400650119
 30
0.0
 11
3678.519304586738
 21
-2236.078271572849
 31
0.0
  0
LINE
  5
4618
330
1F
100
AcDbEntity
  8
SPOJOVACÍ
  6
Continuous
100
AcDbLine
 10
3678.967175512058
 20
-2235.630400650119
 30
0.0
 11
3679.226411146159
 21
-2236.078271572849
 31
0.0
  0
LINE
  5
4619
330
1F
100
AcDbEntity
  8
SPOJOVACÍ
  6
Continuous
100
AcDbLine
 10
3680.132081169981
 20
-2240.874682368054
 30
0.0
 11
3678.519304586738
 21
-2236.078271572849
 31
0.0
  0
LINE
  5
461A
330
1F
100
AcDbEntity
  8
SPOJOVACÍ
  6
Continuous
100
AcDbLine
 10
3680.839187729405
 20
-2240.874682368054
 30
0.0
 11
3679.226411146159
 21
-2236.078271572849
 31
0.0
  0
LINE
  5
461B
330
1F
100
AcDbEntity
  8
SPOJOVACÍ
  6
DASHED
100
AcDbLine
 10
3666.505010631545
 20
-2238.476476973042
 30
0.0
 11
3679.210270755239
 21
-2236.765539473041
 31
0.0
  0
LINE
  5
461C
330
1F
100
AcDbEntity
  8
SPOJOVACÍ
  6
DASHED
100
AcDbLine
 10
3666.505010631545
 20
-2238.47647697304
 30
0.0
 11
3679.210270755239
 21
-2240.18741447304
 31
0.0
  0
LINE
  5
461D
330
1F
100
AcDbEntity
  8
SPOJOVACÍ
  6
Continuous
100
AcDbLine
 10
3677.443197815155
 20
-2240.874682368054
 30
0.0
 11
3675.830421231909
 21
-2236.078271572849
 31
0.0
  0
LINE
  5
461E
330
1F
100
AcDbEntity
  8
SPOJOVACÍ
  6
Continuous
100
AcDbLine
 10
3676.73609125573
 20
-2240.874682368054
 30
0.0
 11
3675.123314672488
 21
-2236.078271572849
 31
0.0
  0
LINE
  5
461F
330
1F
100
AcDbEntity
  8
SPOJOVACÍ
  6
Continuous
100
AcDbLine
 10
3675.571185597807
 20
-2235.630400650119
 30
0.0
 11
3675.830421231909
 21
-2236.078271572849
 31
0.0
  0
LINE
  5
4620
330
1F
100
AcDbEntity
  8
SPOJOVACÍ
  6
Continuous
100
AcDbLine
 10
3675.571185597807
 20
-2235.630400650119
 30
0.0
 11
3675.123314672488
 21
-2236.078271572849
 31
0.0
  0
LINE
  5
4621
330
1F
100
AcDbEntity
  8
SPOJOVACÍ
  6
Continuous
100
AcDbLine
 10
3676.994223759265
 20
-2241.322553295962
 30
0.0
 11
3677.443197815155
 21
-2240.874682368054
 31
0.0
  0
LINE
  5
4622
330
1F
100
AcDbEntity
  8
SPOJOVACÍ
  6
Continuous
100
AcDbLine
 10
3676.994223759265
 20
-2241.322553295962
 30
0.0
 11
3676.73609125573
 21
-2240.874682368054
 31
0.0
  0
LINE
  5
4623
330
1F
100
AcDbEntity
  8
SPOJOVACÍ
  6
Continuous
100
AcDbLine
 10
3676.994223759265
 20
-2241.322553295962
 30
0.0
 11
3675.571185597807
 21
-2235.630400650119
 31
0.0
  0
LINE
  5
4624
330
1F
100
AcDbEntity
  8
SPOJOVACÍ
  6
Continuous
100
AcDbLine
 10
3667.511379468189
 20
-2239.524930431902
 30
0.0
 11
3667.190992042546
 21
-2237.303321817275
 31
0.0
  0
LINE
  5
4625
330
1F
100
AcDbEntity
  8
SPOJOVACÍ
  6
Continuous
100
AcDbLine
 10
3667.900832446724
 20
-2239.135477455615
 30
0.0
 11
3667.415455089376
 21
-2237.692774793562
 31
0.0
  0
LINE
  5
4626
330
1F
100
AcDbEntity
  8
SPOJOVACÍ
  6
Continuous
100
AcDbLine
 10
3667.285957177668
 20
-2239.135477455615
 30
0.0
 11
3666.800579820312
 21
-2237.692774793562
 31
0.0
  0
LINE
  5
4627
330
1F
100
AcDbEntity
  8
SPOJOVACÍ
  6
Continuous
100
AcDbLine
 10
3667.190992042546
 20
-2237.303321817275
 30
0.0
 11
3667.415455089376
 21
-2237.692774793562
 31
0.0
  0
LINE
  5
4628
330
1F
100
AcDbEntity
  8
SPOJOVACÍ
  6
Continuous
100
AcDbLine
 10
3667.190992042546
 20
-2237.303321817275
 30
0.0
 11
3666.800579820312
 21
-2237.692774793562
 31
0.0
  0
LINE
  5
4629
330
1F
100
AcDbEntity
  8
SPOJOVACÍ
  6
Continuous
100
AcDbLine
 10
3667.511379468189
 20
-2239.524930431902
 30
0.0
 11
3667.900832446724
 21
-2239.135477455615
 31
0.0
  0
LINE
  5
462A
330
1F
100
AcDbEntity
  8
SPOJOVACÍ
  6
Continuous
100
AcDbLine
 10
3667.511379468189
 20
-2239.524930431902
 30
0.0
 11
3667.285957177668
 21
-2239.135477455615
 31
0.0
  0
LINE
  5
462B
330
1F
100
AcDbEntity
  8
SPOJOVACÍ
  6
Continuous
100
AcDbLine
 10
3670.619329345831
 20
-2240.107191414576
 30
0.0
 11
3669.966084325413
 21
-2236.893724719506
 31
0.0
  0
LINE
  5
462C
330
1F
100
AcDbEntity
  8
SPOJOVACÍ
  6
Continuous
100
AcDbLine
 10
3671.009741568345
 20
-2239.717738433786
 30
0.0
 11
3670.19054737196
 21
-2237.283177695793
 31
0.0
  0
LINE
  5
462D
330
1F
100
AcDbEntity
  8
SPOJOVACÍ
  6
Continuous
100
AcDbLine
 10
3670.394866299281
 20
-2239.717738433786
 30
0.0
 11
3669.575672103183
 21
-2237.283177695793
 31
0.0
  0
LINE
  5
462E
330
1F
100
AcDbEntity
  8
SPOJOVACÍ
  6
Continuous
100
AcDbLine
 10
3669.966084325413
 20
-2236.893724719506
 30
0.0
 11
3670.19054737196
 21
-2237.283177695793
 31
0.0
  0
LINE
  5
462F
330
1F
100
AcDbEntity
  8
SPOJOVACÍ
  6
Continuous
100
AcDbLine
 10
3669.966084325413
 20
-2236.893724719506
 30
0.0
 11
3669.575672103183
 21
-2237.283177695793
 31
0.0
  0
LINE
  5
4630
330
1F
100
AcDbEntity
  8
SPOJOVACÍ
  6
Continuous
100
AcDbLine
 10
3670.619329345831
 20
-2240.107191414576
 30
0.0
 11
3671.009741568345
 21
-2239.717738433786
 31
0.0
  0
LINE
  5
4631
330
1F
100
AcDbEntity
  8
SPOJOVACÍ
  6
Continuous
100
AcDbLine
 10
3670.619329345831
 20
-2240.107191414576
 30
0.0
 11
3670.394866299281
 21
-2239.717738433786
 31
0.0
  0
LINE
  5
4632
330
1F
100
AcDbEntity
  8
SPOJOVACÍ
  6
Continuous
100
AcDbLine
 10
3673.72823846745
 20
-2240.689452392747
 30
0.0
 11
3672.724869463822
 21
-2236.435206188356
 31
0.0
  0
LINE
  5
4633
330
1F
100
AcDbEntity
  8
SPOJOVACÍ
  6
Continuous
100
AcDbLine
 10
3674.11769144599
 20
-2240.299040171079
 30
0.0
 11
3672.949332510372
 21
-2236.824659164644
 31
0.0
  0
LINE
  5
4634
330
1F
100
AcDbEntity
  8
SPOJOVACÍ
  6
Continuous
100
AcDbLine
 10
3673.502816176922
 20
-2240.299040171079
 30
0.0
 11
3672.334457241308
 21
-2236.824659164644
 31
0.0
  0
LINE
  5
4635
330
1F
100
AcDbEntity
  8
SPOJOVACÍ
  6
Continuous
100
AcDbLine
 10
3672.724869463822
 20
-2236.435206188356
 30
0.0
 11
3672.949332510372
 21
-2236.824659164644
 31
0.0
  0
LINE
  5
4636
330
1F
100
AcDbEntity
  8
SPOJOVACÍ
  6
Continuous
100
AcDbLine
 10
3672.724869463822
 20
-2236.435206188356
 30
0.0
 11
3672.334457241308
 21
-2236.824659164644
 31
0.0
  0
LINE
  5
4637
330
1F
100
AcDbEntity
  8
SPOJOVACÍ
  6
Continuous
100
AcDbLine
 10
3673.72823846745
 20
-2240.689452392747
 30
0.0
 11
3674.11769144599
 21
-2240.299040171079
 31
0.0
  0
LINE
  5
4638
330
1F
100
AcDbEntity
  8
SPOJOVACÍ
  6
Continuous
100
AcDbLine
 10
3673.72823846745
 20
-2240.689452392747
 30
0.0
 11
3673.502816176922
 21
-2240.299040171079
 31
0.0
  0
LINE
  5
4639
330
1F
100
AcDbEntity
  8
SPOJOVACÍ
100
AcDbLine
 10
3722.333015500658
 20
-2245.226476973042
 30
0.0
 11
3722.333015500658
 21
-2231.726476973042
 31
0.0
  0
LINE
  5
463A
330
1F
100
AcDbEntity
  8
SPOJOVACÍ
  6
Continuous
100
AcDbLine
 10
3704.162143073267
 20
-2241.322553295962
 30
0.0
 11
3702.739104911808
 21
-2235.630400650119
 31
0.0
  0
LINE
  5
463B
330
1F
100
AcDbEntity
  8
SPOJOVACÍ
  6
Continuous
100
AcDbLine
 10
3704.162143073267
 20
-2241.322553295962
 30
0.0
 11
3703.904010569731
 21
-2240.874682368054
 31
0.0
  0
LINE
  5
463C
330
1F
100
AcDbEntity
  8
SPOJOVACÍ
  6
Continuous
100
AcDbLine
 10
3704.162143073267
 20
-2241.322553295962
 30
0.0
 11
3704.611117129156
 21
-2240.874682368054
 31
0.0
  0
LINE
  5
463D
330
1F
100
AcDbEntity
  8
SPOJOVACÍ
  6
Continuous
100
AcDbLine
 10
3702.739104911808
 20
-2235.630400650119
 30
0.0
 11
3702.291233986489
 21
-2236.078271572849
 31
0.0
  0
LINE
  5
463E
330
1F
100
AcDbEntity
  8
SPOJOVACÍ
  6
Continuous
100
AcDbLine
 10
3702.739104911808
 20
-2235.630400650119
 30
0.0
 11
3702.99834054591
 21
-2236.078271572849
 31
0.0
  0
LINE
  5
463F
330
1F
100
AcDbEntity
  8
SPOJOVACÍ
  6
Continuous
100
AcDbLine
 10
3703.904010569731
 20
-2240.874682368054
 30
0.0
 11
3702.291233986489
 21
-2236.078271572849
 31
0.0
  0
LINE
  5
4640
330
1F
100
AcDbEntity
  8
SPOJOVACÍ
  6
Continuous
100
AcDbLine
 10
3704.611117129156
 20
-2240.874682368054
 30
0.0
 11
3702.99834054591
 21
-2236.078271572849
 31
0.0
  0
LINE
  5
4641
330
1F
100
AcDbEntity
  8
SPOJOVACÍ
  6
Continuous
100
AcDbLine
 10
3707.558132987517
 20
-2241.322553295962
 30
0.0
 11
3706.135094826059
 21
-2235.630400650119
 31
0.0
  0
LINE
  5
4642
330
1F
100
AcDbEntity
  8
SPOJOVACÍ
  6
Continuous
100
AcDbLine
 10
3707.558132987517
 20
-2241.322553295962
 30
0.0
 11
3707.300000483981
 21
-2240.874682368054
 31
0.0
  0
LINE
  5
4643
330
1F
100
AcDbEntity
  8
SPOJOVACÍ
  6
Continuous
100
AcDbLine
 10
3707.558132987517
 20
-2241.322553295962
 30
0.0
 11
3708.007107043405
 21
-2240.874682368054
 31
0.0
  0
LINE
  5
4644
330
1F
100
AcDbEntity
  8
SPOJOVACÍ
  6
Continuous
100
AcDbLine
 10
3706.135094826059
 20
-2235.630400650119
 30
0.0
 11
3705.687223900739
 21
-2236.078271572849
 31
0.0
  0
LINE
  5
4645
330
1F
100
AcDbEntity
  8
SPOJOVACÍ
  6
Continuous
100
AcDbLine
 10
3706.135094826059
 20
-2235.630400650119
 30
0.0
 11
3706.39433046016
 21
-2236.078271572849
 31
0.0
  0
LINE
  5
4646
330
1F
100
AcDbEntity
  8
SPOJOVACÍ
  6
Continuous
100
AcDbLine
 10
3707.300000483981
 20
-2240.874682368054
 30
0.0
 11
3705.687223900739
 21
-2236.078271572849
 31
0.0
  0
LINE
  5
4647
330
1F
100
AcDbEntity
  8
SPOJOVACÍ
  6
Continuous
100
AcDbLine
 10
3708.007107043405
 20
-2240.874682368054
 30
0.0
 11
3706.39433046016
 21
-2236.078271572849
 31
0.0
  0
LINE
  5
4648
330
1F
100
AcDbEntity
  8
SPOJOVACÍ
  6
Continuous
100
AcDbLine
 10
3701.215127214906
 20
-2240.874682368054
 30
0.0
 11
3699.602350631659
 21
-2236.078271572849
 31
0.0
  0
LINE
  5
4649
330
1F
100
AcDbEntity
  8
SPOJOVACÍ
  6
Continuous
100
AcDbLine
 10
3700.508020655481
 20
-2240.874682368054
 30
0.0
 11
3698.895244072238
 21
-2236.078271572849
 31
0.0
  0
LINE
  5
464A
330
1F
100
AcDbEntity
  8
SPOJOVACÍ
  6
Continuous
100
AcDbLine
 10
3699.343114997558
 20
-2235.630400650119
 30
0.0
 11
3699.602350631659
 21
-2236.078271572849
 31
0.0
  0
LINE
  5
464B
330
1F
100
AcDbEntity
  8
SPOJOVACÍ
  6
Continuous
100
AcDbLine
 10
3699.343114997558
 20
-2235.630400650119
 30
0.0
 11
3698.895244072238
 21
-2236.078271572849
 31
0.0
  0
LINE
  5
464C
330
1F
100
AcDbEntity
  8
SPOJOVACÍ
  6
Continuous
100
AcDbLine
 10
3700.766153159016
 20
-2241.322553295962
 30
0.0
 11
3701.215127214906
 21
-2240.874682368054
 31
0.0
  0
LINE
  5
464D
330
1F
100
AcDbEntity
  8
SPOJOVACÍ
  6
Continuous
100
AcDbLine
 10
3700.766153159016
 20
-2241.322553295962
 30
0.0
 11
3700.508020655481
 21
-2240.874682368054
 31
0.0
  0
LINE
  5
464E
330
1F
100
AcDbEntity
  8
SPOJOVACÍ
  6
Continuous
100
AcDbLine
 10
3700.766153159016
 20
-2241.322553295962
 30
0.0
 11
3699.343114997558
 21
-2235.630400650119
 31
0.0
  0
LINE
  5
464F
330
1F
100
AcDbEntity
  8
SPOJOVACÍ
  6
Continuous
100
AcDbLine
 10
3697.819137300656
 20
-2240.874682368054
 30
0.0
 11
3696.206360717409
 21
-2236.078271572849
 31
0.0
  0
LINE
  5
4650
330
1F
100
AcDbEntity
  8
SPOJOVACÍ
  6
Continuous
100
AcDbLine
 10
3697.112030741231
 20
-2240.874682368054
 30
0.0
 11
3695.499254157988
 21
-2236.078271572849
 31
0.0
  0
LINE
  5
4651
330
1F
100
AcDbEntity
  8
SPOJOVACÍ
  6
Continuous
100
AcDbLine
 10
3695.947125083308
 20
-2235.630400650119
 30
0.0
 11
3696.206360717409
 21
-2236.078271572849
 31
0.0
  0
LINE
  5
4652
330
1F
100
AcDbEntity
  8
SPOJOVACÍ
  6
Continuous
100
AcDbLine
 10
3695.947125083308
 20
-2235.630400650119
 30
0.0
 11
3695.499254157988
 21
-2236.078271572849
 31
0.0
  0
LINE
  5
4653
330
1F
100
AcDbEntity
  8
SPOJOVACÍ
  6
Continuous
100
AcDbLine
 10
3697.370163244766
 20
-2241.322553295962
 30
0.0
 11
3697.819137300656
 21
-2240.874682368054
 31
0.0
  0
LINE
  5
4654
330
1F
100
AcDbEntity
  8
SPOJOVACÍ
  6
Continuous
100
AcDbLine
 10
3697.370163244766
 20
-2241.322553295962
 30
0.0
 11
3697.112030741231
 21
-2240.874682368054
 31
0.0
  0
LINE
  5
4655
330
1F
100
AcDbEntity
  8
SPOJOVACÍ
  6
Continuous
100
AcDbLine
 10
3697.370163244766
 20
-2241.322553295962
 30
0.0
 11
3695.947125083308
 21
-2235.630400650119
 31
0.0
  0
LINE
  5
4656
330
1F
100
AcDbEntity
  8
SPOJOVACÍ
100
AcDbLine
 10
3723.774603867128
 20
-2245.226476973042
 30
0.0
 11
3723.774603867128
 21
-2231.726476973042
 31
0.0
  0
LINE
  5
4657
330
1F
100
AcDbEntity
  8
SPOJOVACÍ
100
AcDbLine
 10
3723.774603867128
 20
-2231.726476973042
 30
0.0
 11
3722.333015500658
 21
-2231.726476973042
 31
0.0
  0
LINE
  5
4658
330
1F
100
AcDbEntity
  8
SPOJOVACÍ
100
AcDbLine
 10
3723.774603867128
 20
-2245.226476973042
 30
0.0
 11
3722.333015500658
 21
-2245.226476973042
 31
0.0
  0
LINE
  5
4659
330
1F
100
AcDbEntity
  8
SPOJOVACÍ
100
AcDbLine
 10
3722.333015500658
 20
-2231.726476973042
 30
0.0
 11
3723.209926122792
 21
-2231.726476973042
 31
0.0
  0
LINE
  5
465A
330
1F
100
AcDbEntity
  8
SPOJOVACÍ
100
AcDbLine
 10
3722.333015500658
 20
-2231.726476973042
 30
0.0
 11
3719.15038119808
 21
-2236.765539473041
 31
0.0
  0
LINE
  5
465B
330
1F
100
AcDbEntity
  8
SPOJOVACÍ
  6
DASHED
100
AcDbLine
 10
3722.333015500658
 20
-2245.226476973042
 30
0.0
 11
3719.150381198083
 21
-2240.18741447304
 31
0.0
  0
LINE
  5
465C
330
1F
100
AcDbEntity
  8
SPOJOVACÍ
100
AcDbLine
 10
3722.333015500658
 20
-2245.226476973042
 30
0.0
 11
3723.209926122792
 21
-2245.226476973042
 31
0.0
  0
LINE
  5
465D
330
1F
100
AcDbEntity
  8
SPOJOVACÍ
100
AcDbLine
 10
3723.209926122792
 20
-2245.226476973042
 30
0.0
 11
3722.333015500658
 21
-2245.226476973042
 31
0.0
  0
LINE
  5
465E
330
1F
100
AcDbEntity
  8
SPOJOVACÍ
  6
Continuous
100
AcDbLine
 10
3710.954122900897
 20
-2241.322553293374
 30
0.0
 11
3709.531084739439
 21
-2235.630400647531
 31
0.0
  0
LINE
  5
465F
330
1F
100
AcDbEntity
  8
SPOJOVACÍ
  6
Continuous
100
AcDbLine
 10
3710.954122900897
 20
-2241.322553293374
 30
0.0
 11
3710.695990397362
 21
-2240.874682365466
 31
0.0
  0
LINE
  5
4660
330
1F
100
AcDbEntity
  8
SPOJOVACÍ
  6
Continuous
100
AcDbLine
 10
3710.954122900897
 20
-2241.322553293374
 30
0.0
 11
3711.403096956786
 21
-2240.874682365466
 31
0.0
  0
LINE
  5
4661
330
1F
100
AcDbEntity
  8
SPOJOVACÍ
  6
Continuous
100
AcDbLine
 10
3709.531084739439
 20
-2235.630400647531
 30
0.0
 11
3709.083213814119
 21
-2236.078271570261
 31
0.0
  0
LINE
  5
4662
330
1F
100
AcDbEntity
  8
SPOJOVACÍ
  6
Continuous
100
AcDbLine
 10
3709.531084739439
 20
-2235.630400647531
 30
0.0
 11
3709.79032037354
 21
-2236.078271570261
 31
0.0
  0
LINE
  5
4663
330
1F
100
AcDbEntity
  8
SPOJOVACÍ
  6
Continuous
100
AcDbLine
 10
3710.695990397362
 20
-2240.874682365466
 30
0.0
 11
3709.083213814119
 21
-2236.078271570261
 31
0.0
  0
LINE
  5
4664
330
1F
100
AcDbEntity
  8
SPOJOVACÍ
  6
Continuous
100
AcDbLine
 10
3711.403096956786
 20
-2240.874682365466
 30
0.0
 11
3709.79032037354
 21
-2236.078271570261
 31
0.0
  0
LINE
  5
4665
330
1F
100
AcDbEntity
  8
SPOJOVACÍ
  6
Continuous
100
AcDbLine
 10
3718.195076785287
 20
-2240.874682365466
 30
0.0
 11
3716.582300202041
 21
-2236.078271570261
 31
0.0
  0
LINE
  5
4666
330
1F
100
AcDbEntity
  8
SPOJOVACÍ
  6
Continuous
100
AcDbLine
 10
3717.487970225862
 20
-2240.874682365466
 30
0.0
 11
3715.87519364262
 21
-2236.078271570261
 31
0.0
  0
LINE
  5
4667
330
1F
100
AcDbEntity
  8
SPOJOVACÍ
  6
Continuous
100
AcDbLine
 10
3716.323064567939
 20
-2235.630400647531
 30
0.0
 11
3716.582300202041
 21
-2236.078271570261
 31
0.0
  0
LINE
  5
4668
330
1F
100
AcDbEntity
  8
SPOJOVACÍ
  6
Continuous
100
AcDbLine
 10
3716.323064567939
 20
-2235.630400647531
 30
0.0
 11
3715.87519364262
 21
-2236.078271570261
 31
0.0
  0
LINE
  5
4669
330
1F
100
AcDbEntity
  8
SPOJOVACÍ
  6
Continuous
100
AcDbLine
 10
3717.746102729398
 20
-2241.322553293374
 30
0.0
 11
3718.195076785287
 21
-2240.874682365466
 31
0.0
  0
LINE
  5
466A
330
1F
100
AcDbEntity
  8
SPOJOVACÍ
  6
Continuous
100
AcDbLine
 10
3717.746102729398
 20
-2241.322553293374
 30
0.0
 11
3717.487970225862
 21
-2240.874682365466
 31
0.0
  0
LINE
  5
466B
330
1F
100
AcDbEntity
  8
SPOJOVACÍ
  6
Continuous
100
AcDbLine
 10
3717.746102729398
 20
-2241.322553293374
 30
0.0
 11
3716.323064567939
 21
-2235.630400647531
 31
0.0
  0
LINE
  5
466C
330
1F
100
AcDbEntity
  8
SPOJOVACÍ
  6
Continuous
100
AcDbLine
 10
3714.799086871036
 20
-2240.874682365466
 30
0.0
 11
3713.18631028779
 21
-2236.078271570261
 31
0.0
  0
LINE
  5
466D
330
1F
100
AcDbEntity
  8
SPOJOVACÍ
  6
Continuous
100
AcDbLine
 10
3714.091980311612
 20
-2240.874682365466
 30
0.0
 11
3712.479203728369
 21
-2236.078271570261
 31
0.0
  0
LINE
  5
466E
330
1F
100
AcDbEntity
  8
SPOJOVACÍ
  6
Continuous
100
AcDbLine
 10
3712.927074653689
 20
-2235.630400647531
 30
0.0
 11
3713.18631028779
 21
-2236.078271570261
 31
0.0
  0
LINE
  5
466F
330
1F
100
AcDbEntity
  8
SPOJOVACÍ
  6
Continuous
100
AcDbLine
 10
3712.927074653689
 20
-2235.630400647531
 30
0.0
 11
3712.479203728369
 21
-2236.078271570261
 31
0.0
  0
LINE
  5
4670
330
1F
100
AcDbEntity
  8
SPOJOVACÍ
  6
Continuous
100
AcDbLine
 10
3714.350112815147
 20
-2241.322553293374
 30
0.0
 11
3714.799086871036
 21
-2240.874682365466
 31
0.0
  0
LINE
  5
4671
330
1F
100
AcDbEntity
  8
SPOJOVACÍ
  6
Continuous
100
AcDbLine
 10
3714.350112815147
 20
-2241.322553293374
 30
0.0
 11
3714.091980311612
 21
-2240.874682365466
 31
0.0
  0
LINE
  5
4672
330
1F
100
AcDbEntity
  8
SPOJOVACÍ
  6
Continuous
100
AcDbLine
 10
3714.350112815147
 20
-2241.322553293374
 30
0.0
 11
3712.927074653689
 21
-2235.630400647531
 31
0.0
  0
LINE
  5
4673
330
1F
100
AcDbEntity
  8
izolace
100
AcDbLine
 10
3718.288171235098
 20
-2262.323600559771
 30
0.0
 11
3718.288171235098
 21
-2200.287325703706
 31
0.0
  0
HATCH
  5
4674
330
1F
100
AcDbEntity
  8
izolace
100
AcDbHatch
 10
0.0
 20
0.0
 30
0.0
210
0.0
220
0.0
230
1.0
  2
SOLID
 70
     1
 71
     0
 91
        4
 92
        7
 72
     0
 73
     1
 93
        4
 10
3720.288171235102
 20
-2274.824677566746
 10
3720.288171235102
 20
-2262.323600559771
 10
3718.288171235098
 20
-2262.323600559771
 10
3718.288171235098
 20
-2274.824677566746
 97
        0
 92
        7
 72
     0
 73
     1
 93
        4
 10
3720.288171235102
 20
-2254.666889645174
 10
3720.288171235102
 20
-2242.165812638196
 10
3718.288171235098
 20
-2242.165812638196
 10
3718.288171235098
 20
-2254.666889645175
 97
        0
 92
        7
 72
     0
 73
     1
 93
        4
 10
3720.288171235102
 20
-2233.932653623544
 10
3720.288171235102
 20
-2221.431576616566
 10
3718.288171235098
 20
-2221.431576616566
 10
3718.288171235098
 20
-2233.932653623545
 97
        0
 92
        7
 72
     1
 73
     1
 93
        7
 10
3719.809245572981
 20
-2212.788402710681
 42
0.0
 10
3720.288171235102
 20
-2212.788402710681
 42
0.0
 10
3720.288171235102
 20
-2200.287325703706
 42
0.0
 10
3718.288171235098
 20
-2200.287325703706
 42
0.0
 10
3718.288171235098
 20
-2212.552014716427
 42
0.0
 10
3718.44677860718
 20
-2212.788402710681
 42
0.0
 10
3718.522451149168
 20
-2212.788402710681
 42
-0.2771233679601331
 97
        0
 75
     0
 76
     1
 47
0.1334780420591298
 98
        4
 10
3718.986182126555
 20
-2269.603901995269
 10
3718.986182126555
 20
-2253.841815662961
 10
3718.986182126555
 20
-2226.859258026755
 10
3718.986182126555
 20
-2208.559206967845
  0
LINE
  5
4675
330
1F
100
AcDbEntity
  8
izolace
100
AcDbLine
 10
3720.288171235102
 20
-2262.323600559771
 30
0.0
 11
3720.288171235102
 21
-2200.287325703706
 31
0.0
  0
HATCH
  5
4676
330
1F
100
AcDbEntity
  8
NOSNÉ KONSTRUKCE
100
AcDbHatch
 10
0.0
 20
0.0
 30
0.0
210
0.0
220
0.0
230
1.0
  2
SOLID
 70
     1
 71
     0
 91
        1
 92
        7
 72
     1
 73
     1
 93
       60
 10
3720.806912550026
 20
-2255.630142275729
 42
0.0
 10
3720.806912550026
 20
-2221.75304315179
 42
0.3073346934841183
 10
3721.954085038246
 20
-2220.037852588723
 42
0.0
 10
3721.954085038246
 20
-2216.2766184882
 42
0.307334693483106
 10
3720.806912550026
 20
-2214.561427925139
 42
0.0
 10
3720.806912550026
 20
-2204.219977836615
 42
-0.4142135623730951
 10
3722.776912550026
 20
-2202.249977836616
 42
0.0
 10
3730.85278311111
 20
-2202.249977836616
 42
0.7595816512230912
 10
3734.390353646349
 20
-2202.249977836616
 42
0.0
 10
3743.428585009841
 20
-2202.24997783662
 42
0.7595816493590427
 10
3746.966155577547
 20
-2202.249977836616
 42
0.0
 10
3756.004384937764
 20
-2202.249977836616
 42
0.7767342353201953
 10
3759.561671643229
 20
-2202.173190011531
 42
0.0
 10
3766.031259241157
 20
-2202.173190011532
 42
-0.4142135623730868
 10
3768.001259241157
 20
-2204.143190011531
 42
0.0
 10
3768.001259241158
 20
-2206.926135916351
 42
0.0
 10
3767.016259241158
 20
-2206.926135916351
 42
0.0
 10
3767.016259241158
 20
-2204.143190011531
 42
0.4142135623730951
 10
3766.031259241157
 20
-2203.158190011531
 42
0.0
 10
3760.222028634764
 20
-2203.158190011531
 42
-0.5694936494219963
 10
3755.369972432019
 20
-2203.234977836616
 42
0.0
 10
3747.600570027719
 20
-2203.234977836616
 42
-0.5590616644338513
 10
3742.794170559669
 20
-2203.234977836619
 42
0.0
 10
3735.024768097104
 20
-2203.234977836616
 42
-0.5590616643157284
 10
3730.218368660354
 20
-2203.234977836616
 42
0.0
 10
3722.776912550026
 20
-2203.234977836616
 42
0.4142135623731451
 10
3721.791912550026
 20
-2204.219977836615
 42
0.0
 10
3721.791912550026
 20
-2214.003986964578
 42
-0.2364174637114482
 10
3722.93003975018
 20
-2216.251608876736
 42
0.0
 10
3722.93003975018
 20
-2220.062862200192
 42
-0.2364174637115772
 10
3721.791912550026
 20
-2222.310484112352
 42
0.0
 10
3721.791912550026
 20
-2255.076286380098
 42
-0.2353201211467568
 10
3722.919373663801
 20
-2257.317570663185
 42
0.0
 10
3722.917191327366
 20
-2261.12882336183
 42
-0.2364174637122881
 10
3721.777777317948
 20
-2263.375793210077
 42
0.0
 10
3721.772174961508
 20
-2273.159800734075
 42
0.4142135623730951
 10
3722.756610785728
 20
-2274.1453645869
 42
0.0
 10
3730.198065676123
 20
-2274.149625589625
 42
-0.5590616643157161
 10
3735.004464324925
 20
-2274.152377750062
 42
0.0
 10
3742.773865513794
 20
-2274.156826535965
 42
-0.5590616644338511
 10
3747.580264193897
 20
-2274.159578696424
 42
0.0
 10
3755.349665324501
 20
-2274.164027482298
 42
-0.5694936494220229
 10
3760.201676762847
 20
-2274.243593598448
 42
0.0
 10
3766.010906416891
 20
-2274.246919983376
 42
0.4142135623730951
 10
3766.996470269715
 20
-2273.262484159158
 42
0.0
 10
3766.998063793874
 20
-2270.479538710568
 42
0.0
 10
3767.983063632396
 20
-2270.48010272487
 42
0.0
 10
3767.981470108237
 20
-2273.263048173462
 42
-0.4142135623730618
 10
3766.010342402587
 20
-2275.231919821898
 42
0.0
 10
3759.540755865266
 20
-2275.228215314342
 42
0.7767342353201953
 10
3755.98351371194
 20
-2275.149390587548
 42
0.0
 10
3746.945285833425
 20
-2275.144215267104
 42
0.759581649359043
 10
3743.407715845659
 20
-2275.142189642329
 42
0.0
 10
3734.36948596387
 20
-2275.137014320743
 42
0.7595816512230912
 10
3730.831916008571
 20
-2275.134988695989
 42
0.0
 10
3722.756046771424
 20
-2275.130364425422
 42
-0.4142135623731117
 10
3720.787175122988
 20
-2273.159236719771
 42
0.0
 10
3720.79309667199
 20
-2262.817788326598
 42
0.3073346934834261
 10
3721.941251096015
 20
-2261.103254919533
 42
0.0
 10
3721.943404791275
 20
-2257.342021435615
 42
0.3057747226774016
 97
        0
 75
     0
 76
     1
 47
0.1180065091547201
 98
        1
 10
3721.201566469442
 20
-2246.409183688447
  0
LINE
  5
4677
330
1F
100
AcDbEntity
  8
NOSNÉ KONSTRUKCE
100
AcDbLine
 10
3722.085424764565
 20
-2222.376905168368
 30
0.0
 11
4215.389262927231
 21
-2222.376905168368
 31
0.0
  0
LINE
  5
4678
330
1F
100
AcDbEntity
  8
NOSNÉ KONSTRUKCE
100
AcDbLine
 10
3722.085424764565
 20
-2214.210709968599
 30
0.0
 11
4216.893313629029
 21
-2214.210709968599
 31
0.0
  0
LINE
  5
4679
330
1F
100
AcDbEntity
  8
NOSNÉ KONSTRUKCE
100
AcDbLine
 10
3722.085424764565
 20
-2202.021608375233
 30
0.0
 11
4219.335036815537
 21
-2202.021608375233
 31
0.0
  0
LINE
  5
467B
330
1F
100
AcDbEntity
  8
NOSNÉ KONSTRUKCE
100
AcDbLine
 10
3722.085424764565
 20
-2262.808304093477
 30
0.0
 11
4207.942603566249
 21
-2262.808304093476
 31
0.0
  0
LINE
  5
467C
330
1F
100
AcDbEntity
  8
NOSNÉ KONSTRUKCE
100
AcDbLine
 10
3722.085424764565
 20
-2255.310169075661
 30
0.0
 11
4209.323610872568
 21
-2255.310169075661
 31
0.0
  0
LINE
  5
467D
330
1F
100
AcDbEntity
  8
NOSNÉ KONSTRUKCE
100
AcDbLine
 10
3722.085424764565
 20
-2275.195000854626
 30
0.0
 11
4205.661220437287
 21
-2275.195000854626
 31
0.0
  0
HATCH
  5
467E
330
1F
100
AcDbEntity
  8
NOSNÉ KONSTRUKCE
100
AcDbHatch
 10
0.0
 20
0.0
 30
0.0
210
0.0
220
0.0
230
1.0
  2
SOLID
 70
     1
 71
     0
 91
        1
 92
        7
 72
     1
 73
     1
 93
       60
 10
4107.742773441547
 20
-2255.630142275729
 42
0.0
 10
4107.742773441547
 20
-2221.75304315179
 42
0.3073346934841183
 10
4108.889945929766
 20
-2220.037852588723
 42
0.0
 10
4108.889945929766
 20
-2216.2766184882
 42
0.307334693483106
 10
4107.742773441547
 20
-2214.561427925139
 42
0.0
 10
4107.742773441547
 20
-2204.219977836615
 42
-0.4142135623730951
 10
4109.712773441546
 20
-2202.249977836616
 42
0.0
 10
4117.788644002629
 20
-2202.249977836616
 42
0.7595816512230912
 10
4121.326214537869
 20
-2202.249977836616
 42
0.0
 10
4130.364445901361
 20
-2202.24997783662
 42
0.7595816493590427
 10
4133.902016469067
 20
-2202.249977836616
 42
0.0
 10
4142.940245829284
 20
-2202.249977836616
 42
0.7767342353201953
 10
4146.497532534749
 20
-2202.173190011531
 42
0.0
 10
4152.967120132678
 20
-2202.173190011532
 42
-0.4142135623730868
 10
4154.937120132678
 20
-2204.143190011531
 42
0.0
 10
4154.937120132678
 20
-2206.926135916351
 42
0.0
 10
4153.952120132678
 20
-2206.926135916351
 42
0.0
 10
4153.952120132678
 20
-2204.143190011531
 42
0.4142135623730951
 10
4152.967120132678
 20
-2203.158190011531
 42
0.0
 10
4147.157889526284
 20
-2203.158190011531
 42
-0.5694936494219963
 10
4142.305833323539
 20
-2203.234977836616
 42
0.0
 10
4134.536430919241
 20
-2203.234977836616
 42
-0.5590616644338513
 10
4129.730031451189
 20
-2203.234977836619
 42
0.0
 10
4121.960628988625
 20
-2203.234977836616
 42
-0.5590616643157284
 10
4117.154229551874
 20
-2203.234977836616
 42
0.0
 10
4109.712773441546
 20
-2203.234977836616
 42
0.4142135623731451
 10
4108.727773441547
 20
-2204.219977836615
 42
0.0
 10
4108.727773441546
 20
-2214.003986964578
 42
-0.2364174637114482
 10
4109.865900641699
 20
-2216.251608876736
 42
0.0
 10
4109.865900641699
 20
-2220.062862200192
 42
-0.2364174637115772
 10
4108.727773441547
 20
-2222.310484112352
 42
0.0
 10
4108.727773441547
 20
-2255.076286380098
 42
-0.2353201211467568
 10
4109.855234555321
 20
-2257.317570663185
 42
0.0
 10
4109.853052218887
 20
-2261.12882336183
 42
-0.2364174637122881
 10
4108.713638209468
 20
-2263.375793210077
 42
0.0
 10
4108.708035853029
 20
-2273.159800734075
 42
0.4142135623730951
 10
4109.692471677248
 20
-2274.1453645869
 42
0.0
 10
4117.133926567643
 20
-2274.149625589625
 42
-0.5590616643157161
 10
4121.940325216445
 20
-2274.152377750062
 42
0.0
 10
4129.709726405315
 20
-2274.156826535965
 42
-0.5590616644338511
 10
4134.516125085418
 20
-2274.159578696424
 42
0.0
 10
4142.285526216021
 20
-2274.164027482298
 42
-0.5694936494220229
 10
4147.137537654367
 20
-2274.243593598448
 42
0.0
 10
4152.946767308411
 20
-2274.246919983376
 42
0.4142135623730951
 10
4153.932331161236
 20
-2273.262484159158
 42
0.0
 10
4153.933924685394
 20
-2270.479538710568
 42
0.0
 10
4154.918924523916
 20
-2270.48010272487
 42
0.0
 10
4154.917330999757
 20
-2273.263048173462
 42
-0.4142135623730618
 10
4152.946203294108
 20
-2275.231919821898
 42
0.0
 10
4146.476616756786
 20
-2275.228215314342
 42
0.7767342353201953
 10
4142.91937460346
 20
-2275.149390587548
 42
0.0
 10
4133.881146724944
 20
-2275.144215267104
 42
0.759581649359043
 10
4130.343576737179
 20
-2275.142189642329
 42
0.0
 10
4121.30534685539
 20
-2275.137014320743
 42
0.7595816512230912
 10
4117.767776900091
 20
-2275.134988695989
 42
0.0
 10
4109.691907662944
 20
-2275.130364425422
 42
-0.4142135623731117
 10
4107.723036014507
 20
-2273.159236719771
 42
0.0
 10
4107.728957563511
 20
-2262.817788326598
 42
0.3073346934834261
 10
4108.877111987537
 20
-2261.103254919533
 42
0.0
 10
4108.879265682795
 20
-2257.342021435615
 42
0.3057747226774016
 97
        0
 75
     0
 76
     1
 47
0.1180065091547201
 98
        1
 10
4108.137427360962
 20
-2246.409183688447
  0
LINE
  5
475A
330
1F
100
AcDbEntity
  8
CETRIS
100
AcDbLine
 10
3722.009680055969
 20
-2101.67047923178
 30
0.0
 11
4130.418682987732
 21
-2101.67047923178
 31
0.0
  0
LINE
  5
475B
330
1F
100
AcDbEntity
  8
CETRIS
100
AcDbLine
 10
3722.009680055965
 20
-2300.144282379966
 30
0.0
 11
4201.066059108227
 21
-2300.144282379967
 31
0.0
  0
LINE
  5
475C
330
1F
100
AcDbEntity
  8
CETRIS
100
AcDbLine
 10
4130.418682987732
 20
-2101.67047923178
 30
0.0
 11
4237.620985314485
 21
-2101.67047923178
 31
0.0
  0
HATCH
  5
476E
330
1F
100
AcDbEntity
  8
izolace
100
AcDbHatch
 10
0.0
 20
0.0
 30
0.0
210
0.0
220
0.0
230
1.0
  2
AR-SAND
 70
     0
 71
     0
 91
        1
 92
        7
 72
     1
 73
     1
 93
       10
 10
3722.009680055969
 20
-2101.67047923178
 42
0.0
 10
3716.79163507478
 20
-2101.67047923178
 42
0.0
 10
3716.79163507478
 20
-2125.67047923178
 42
0.0
 10
3722.009680055969
 20
-2125.67047923178
 42
0.0
 10
3722.009680055969
 20
-2114.308137298273
 42
0.0
 10
3720.415906412608
 20
-2116.487947762359
 42
-0.2392828745541679
 10
3720.928133659441
 20
-2117.497002451006
 42
-1.0
 10
3718.42813365944
 20
-2117.497002451006
 42
-0.6138365510130257
 10
3720.415906412608
 20
-2116.487947762359
 42
0.0
 10
3722.009680055969
 20
-2114.308137298273
 42
0.0
 97
        0
 75
     0
 76
     1
 52
90.0
 41
0.05
 77
     0
 78
     4
 53
127.5
 43
178.1929654106134
 44
-321.7859308595379
 45
-2.447066186646711
 46
-0.0800015647992021
 79
     6
 49
0.0
 49
-1.9304
 49
0.0
 49
-2.159
 49
0.0
 49
-2.06375
 53
97.49999999999998
 43
178.1929654106134
 44
-321.7859308595379
 45
-3.584125502841771
 46
2.247616415690013
 79
     6
 49
0.0
 49
-1.0414
 49
0.0
 49
-1.7399
 49
0.0
 49
-0.6667500000000001
 53
57.5
 43
178.1929654106134
 44
-323.3480308595379
 45
-0.0071859233927282
 46
3.95496185120729
 79
     6
 49
0.0
 49
-0.635
 49
0.0
 49
-2.286
 49
0.0
 49
-2.9845
 53
47.5
 43
178.1929654106134
 44
-323.3480308595379
 45
-1.11464661628608
 46
3.817782262361486
 79
     6
 49
0.0
 49
-0.3175
 49
0.0
 49
-1.498599999999999
 49
0.0
 49
-1.7145
 47
0.2316679402636749
 98
        1
 10
3719.312903551439
 20
-2109.648459237885
  0
LINE
  5
476F
330
1F
100
AcDbEntity
  8
SPOJOVACÍ
  6
Continuous
100
AcDbLine
 10
3756.506799300007
 20
-2134.346624761926
 30
0.0
 11
3756.892822253906
 21
-2137.435738579731
 31
0.0
  0
LINE
  5
4770
330
1F
100
AcDbEntity
  8
SPOJOVACÍ
  6
Continuous
100
AcDbLine
 10
3756.892822253906
 20
-2137.435738579731
 30
0.0
 11
3757.247219235035
 21
-2134.599632578462
 31
0.0
  0
LINE
  5
4771
330
1F
100
AcDbEntity
  8
SPOJOVACÍ
  6
Continuous
100
AcDbLine
 10
3754.870620076292
 20
-2124.572337499736
 30
0.0
 11
3758.915024435885
 21
-2125.932254513279
 31
0.0
  0
LINE
  5
4772
330
1F
100
AcDbEntity
  8
SPOJOVACÍ
  6
Continuous
100
AcDbLine
 10
3754.492968700982
 20
-2124.950919048843
 30
0.0
 11
3754.870620076292
 21
-2124.572337499736
 31
0.0
  0
LINE
  5
4773
330
1F
100
AcDbEntity
  8
SPOJOVACÍ
  6
Continuous
100
AcDbLine
 10
3754.492968700982
 20
-2124.950919048843
 30
0.0
 11
3754.870620076292
 21
-2125.168580184892
 31
0.0
  0
LINE
  5
4774
330
1F
100
AcDbEntity
  8
SPOJOVACÍ
  6
Continuous
100
AcDbLine
 10
3754.870620076292
 20
-2121.452527880775
 30
0.0
 11
3758.915024435885
 21
-2122.812444894317
 31
0.0
  0
LINE
  5
4775
330
1F
100
AcDbEntity
  8
SPOJOVACÍ
  6
Continuous
100
AcDbLine
 10
3754.870620076292
 20
-2122.048770565922
 30
0.0
 11
3758.915024435885
 21
-2123.408687579195
 31
0.0
  0
LINE
  5
4776
330
1F
100
AcDbEntity
  8
SPOJOVACÍ
  6
Continuous
100
AcDbLine
 10
3759.292675806831
 20
-2123.030106030365
 30
0.0
 11
3758.915024435885
 21
-2122.812444894317
 31
0.0
  0
LINE
  5
4777
330
1F
100
AcDbEntity
  8
SPOJOVACÍ
  6
Continuous
100
AcDbLine
 10
3759.292675806831
 20
-2123.030106030365
 30
0.0
 11
3758.915024435885
 21
-2123.408687579195
 31
0.0
  0
LINE
  5
4778
330
1F
100
AcDbEntity
  8
SPOJOVACÍ
  6
Continuous
100
AcDbLine
 10
3754.492968700982
 20
-2121.830179253903
 30
0.0
 11
3754.870620076292
 21
-2121.452527880775
 31
0.0
  0
LINE
  5
4779
330
1F
100
AcDbEntity
  8
SPOJOVACÍ
  6
Continuous
100
AcDbLine
 10
3754.492968700982
 20
-2121.830179253903
 30
0.0
 11
3754.870620076292
 21
-2122.048770565922
 31
0.0
  0
LINE
  5
477A
330
1F
100
AcDbEntity
  8
SPOJOVACÍ
  6
Continuous
100
AcDbLine
 10
3754.492968700982
 20
-2121.830179253903
 30
0.0
 11
3759.292675806831
 21
-2123.030106030365
 31
0.0
  0
LINE
  5
477B
330
1F
100
AcDbEntity
  8
SPOJOVACÍ
  6
Continuous
100
AcDbLine
 10
3754.870620076292
 20
-2118.332718261805
 30
0.0
 11
3758.915024435885
 21
-2119.692635275078
 31
0.0
  0
LINE
  5
477C
330
1F
100
AcDbEntity
  8
SPOJOVACÍ
  6
Continuous
100
AcDbLine
 10
3754.870620076292
 20
-2118.928960946961
 30
0.0
 11
3758.915024435885
 21
-2120.288877960226
 31
0.0
  0
LINE
  5
477D
330
1F
100
AcDbEntity
  8
SPOJOVACÍ
  6
Continuous
100
AcDbLine
 10
3759.292675806831
 20
-2119.910296411396
 30
0.0
 11
3758.915024435885
 21
-2119.692635275078
 31
0.0
  0
LINE
  5
477E
330
1F
100
AcDbEntity
  8
SPOJOVACÍ
  6
Continuous
100
AcDbLine
 10
3759.292675806831
 20
-2119.910296411396
 30
0.0
 11
3758.915024435885
 21
-2120.288877960226
 31
0.0
  0
LINE
  5
477F
330
1F
100
AcDbEntity
  8
SPOJOVACÍ
  6
Continuous
100
AcDbLine
 10
3754.492968700982
 20
-2118.710369634933
 30
0.0
 11
3754.870620076292
 21
-2118.332718261805
 31
0.0
  0
LINE
  5
4780
330
1F
100
AcDbEntity
  8
SPOJOVACÍ
  6
Continuous
100
AcDbLine
 10
3754.492968700982
 20
-2118.710369634933
 30
0.0
 11
3754.870620076292
 21
-2118.928960946961
 31
0.0
  0
LINE
  5
4781
330
1F
100
AcDbEntity
  8
SPOJOVACÍ
  6
Continuous
100
AcDbLine
 10
3754.492968700982
 20
-2118.710369634933
 30
0.0
 11
3759.292675806831
 21
-2119.910296411396
 31
0.0
  0
LINE
  5
4782
330
1F
100
AcDbEntity
  8
SPOJOVACÍ
  6
Continuous
100
AcDbLine
 10
3754.870620076292
 20
-2115.212908642567
 30
0.0
 11
3758.915024435885
 21
-2116.571895480408
 31
0.0
  0
LINE
  5
4783
330
1F
100
AcDbEntity
  8
SPOJOVACÍ
  6
Continuous
100
AcDbLine
 10
3754.870620076292
 20
-2115.809151327722
 30
0.0
 11
3758.915024435885
 21
-2117.168138165286
 31
0.0
  0
LINE
  5
4784
330
1F
100
AcDbEntity
  8
SPOJOVACÍ
  6
Continuous
100
AcDbLine
 10
3759.292675806831
 20
-2116.790486792434
 30
0.0
 11
3758.915024435885
 21
-2116.571895480408
 31
0.0
  0
LINE
  5
4785
330
1F
100
AcDbEntity
  8
SPOJOVACÍ
  6
Continuous
100
AcDbLine
 10
3759.292675806831
 20
-2116.790486792434
 30
0.0
 11
3758.915024435885
 21
-2117.168138165286
 31
0.0
  0
LINE
  5
4786
330
1F
100
AcDbEntity
  8
SPOJOVACÍ
  6
Continuous
100
AcDbLine
 10
3754.492968700982
 20
-2115.590560015695
 30
0.0
 11
3754.870620076292
 21
-2115.212908642567
 31
0.0
  0
LINE
  5
4787
330
1F
100
AcDbEntity
  8
SPOJOVACÍ
  6
Continuous
100
AcDbLine
 10
3754.492968700982
 20
-2115.590560015695
 30
0.0
 11
3754.870620076292
 21
-2115.809151327722
 31
0.0
  0
LINE
  5
4788
330
1F
100
AcDbEntity
  8
SPOJOVACÍ
  6
Continuous
100
AcDbLine
 10
3754.492968700982
 20
-2115.590560015695
 30
0.0
 11
3759.292675806831
 21
-2116.790486792434
 31
0.0
  0
LINE
  5
4789
330
1F
100
AcDbEntity
  8
SPOJOVACÍ
  6
Continuous
100
AcDbLine
 10
3754.870620076292
 20
-2112.092168847904
 30
0.0
 11
3758.915024435885
 21
-2113.452085861169
 31
0.0
  0
LINE
  5
478A
330
1F
100
AcDbEntity
  8
SPOJOVACÍ
  6
Continuous
100
AcDbLine
 10
3754.870620076292
 20
-2112.688411532782
 30
0.0
 11
3758.915024435885
 21
-2114.048328546324
 31
0.0
  0
LINE
  5
478B
330
1F
100
AcDbEntity
  8
SPOJOVACÍ
  6
Continuous
100
AcDbLine
 10
3759.292675806831
 20
-2113.670677173196
 30
0.0
 11
3758.915024435885
 21
-2113.452085861169
 31
0.0
  0
LINE
  5
478C
330
1F
100
AcDbEntity
  8
SPOJOVACÍ
  6
Continuous
100
AcDbLine
 10
3759.292675806831
 20
-2113.670677173196
 30
0.0
 11
3758.915024435885
 21
-2114.048328546324
 31
0.0
  0
LINE
  5
478D
330
1F
100
AcDbEntity
  8
SPOJOVACÍ
  6
Continuous
100
AcDbLine
 10
3754.492968700982
 20
-2112.470750396734
 30
0.0
 11
3754.870620076292
 21
-2112.092168847904
 31
0.0
  0
LINE
  5
478E
330
1F
100
AcDbEntity
  8
SPOJOVACÍ
  6
Continuous
100
AcDbLine
 10
3754.492968700982
 20
-2112.470750396734
 30
0.0
 11
3754.870620076292
 21
-2112.688411532782
 31
0.0
  0
LINE
  5
478F
330
1F
100
AcDbEntity
  8
SPOJOVACÍ
  6
Continuous
100
AcDbLine
 10
3754.492968700982
 20
-2112.470750396734
 30
0.0
 11
3759.292675806831
 21
-2113.670677173196
 31
0.0
  0
LINE
  5
4790
330
1F
100
AcDbEntity
  8
SPOJOVACÍ
  6
Continuous
100
AcDbLine
 10
3758.242507337457
 20
-2123.176143630281
 30
0.0
 11
3758.242507337457
 21
-2125.69505968531
 31
0.0
  0
LINE
  5
4791
330
1F
100
AcDbEntity
  8
SPOJOVACÍ
  6
Continuous
100
AcDbLine
 10
3755.543137174721
 20
-2122.273873108407
 30
0.0
 11
3755.543137174721
 21
-2124.791858987734
 31
0.0
  0
LINE
  5
4792
330
1F
100
AcDbEntity
  8
SPOJOVACÍ
  6
Continuous
100
AcDbLine
 10
3758.242507337457
 20
-2120.054473659639
 30
0.0
 11
3758.242507337457
 21
-2122.575250066348
 31
0.0
  0
LINE
  5
4793
330
1F
100
AcDbEntity
  8
SPOJOVACÍ
  6
Continuous
100
AcDbLine
 10
3758.242507337457
 20
-2116.931873513296
 30
0.0
 11
3758.242507337457
 21
-2119.460091326164
 31
0.0
  0
LINE
  5
4794
330
1F
100
AcDbEntity
  8
SPOJOVACÍ
  6
Continuous
100
AcDbLine
 10
3758.242507337457
 20
-2113.816714773112
 30
0.0
 11
3758.242507337457
 21
-2116.33563082814
 31
0.0
  0
LINE
  5
4795
330
1F
100
AcDbEntity
  8
SPOJOVACÍ
  6
Continuous
100
AcDbLine
 10
3755.543137174721
 20
-2119.141041028252
 30
0.0
 11
3755.543137174721
 21
-2121.669258841121
 31
0.0
  0
LINE
  5
4796
330
1F
100
AcDbEntity
  8
SPOJOVACÍ
  6
Continuous
100
AcDbLine
 10
3755.543137174721
 20
-2116.025882288068
 30
0.0
 11
3755.543137174721
 21
-2118.546658694778
 31
0.0
  0
LINE
  5
4797
330
1F
100
AcDbEntity
  8
SPOJOVACÍ
  6
Continuous
100
AcDbLine
 10
3755.543137174721
 20
-2112.903282141725
 30
0.0
 11
3755.543137174721
 21
-2115.422198196753
 31
0.0
  0
LINE
  5
4798
330
1F
100
AcDbEntity
  8
SPOJOVACÍ
  6
Continuous
100
AcDbLine
 10
3755.543137174721
 20
-2108.270076502868
 30
0.0
 11
3755.543137174721
 21
-2112.307969632548
 31
0.0
  0
LINE
  5
4799
330
1F
100
AcDbEntity
  8
SPOJOVACÍ
  6
Continuous
100
AcDbLine
 10
3758.242507337457
 20
-2108.270076502868
 30
0.0
 11
3758.242507337457
 21
-2113.213030681797
 31
0.0
  0
LINE
  5
479A
330
1F
100
AcDbEntity
  8
SPOJOVACÍ
  6
Continuous
100
AcDbLine
 10
3751.792668365272
 20
-2102.870406008511
 30
0.0
 11
3753.142353448823
 21
-2103.614546644986
 31
0.0
  0
LINE
  5
479B
330
1F
100
AcDbEntity
  8
SPOJOVACÍ
  6
Continuous
100
AcDbLine
 10
3753.142353448823
 20
-2103.614546644986
 30
0.0
 11
3754.252983349182
 21
-2104.683318634398
 31
0.0
  0
LINE
  5
479C
330
1F
100
AcDbEntity
  8
SPOJOVACÍ
  6
Continuous
100
AcDbLine
 10
3754.252983349182
 20
-2104.683318634398
 30
0.0
 11
3755.0492138285
 21
-2106.002307912695
 31
0.0
  0
LINE
  5
479D
330
1F
100
AcDbEntity
  8
SPOJOVACÍ
  6
Continuous
100
AcDbLine
 10
3755.0492138285
 20
-2106.002307912695
 30
0.0
 11
3755.477094692799
 21
-2107.483147779745
 31
0.0
  0
LINE
  5
479E
330
1F
100
AcDbEntity
  8
SPOJOVACÍ
  6
Continuous
100
AcDbLine
 10
3755.477094692799
 20
-2107.483147779745
 30
0.0
 11
3755.543137174721
 21
-2108.270076502868
 31
0.0
  0
LINE
  5
479F
330
1F
100
AcDbEntity
  8
SPOJOVACÍ
  6
Continuous
100
AcDbLine
 10
3760.040537147473
 20
-2104.125213156837
 30
0.0
 11
3761.277670956372
 21
-2103.207129646395
 31
0.0
  0
LINE
  5
47A0
330
1F
100
AcDbEntity
  8
SPOJOVACÍ
  6
Continuous
100
AcDbLine
 10
3761.277670956372
 20
-2103.207129646395
 30
0.0
 11
3761.99297614254
 21
-2102.870406008511
 31
0.0
  0
LINE
  5
47A1
330
1F
100
AcDbEntity
  8
SPOJOVACÍ
  6
Continuous
100
AcDbLine
 10
3751.792668365272
 20
-2102.870406008511
 30
0.0
 11
3761.99297614254
 21
-2102.870406008511
 31
0.0
  0
LINE
  5
47A2
330
1F
100
AcDbEntity
  8
SPOJOVACÍ
  6
Continuous
100
AcDbLine
 10
3751.792668365272
 20
-2101.67047923178
 30
0.0
 11
3751.792668365272
 21
-2102.870406008511
 31
0.0
  0
LINE
  5
47A3
330
1F
100
AcDbEntity
  8
SPOJOVACÍ
  6
Continuous
100
AcDbLine
 10
3751.792668365272
 20
-2101.67047923178
 30
0.0
 11
3761.99297614254
 21
-2101.67047923178
 31
0.0
  0
LINE
  5
47A4
330
1F
100
AcDbEntity
  8
SPOJOVACÍ
  6
Continuous
100
AcDbLine
 10
3761.99297614254
 20
-2101.67047923178
 30
0.0
 11
3761.99297614254
 21
-2102.870406008511
 31
0.0
  0
LINE
  5
47A5
330
1F
100
AcDbEntity
  8
SPOJOVACÍ
  6
Continuous
100
AcDbLine
 10
3758.242507337457
 20
-2108.270076502868
 30
0.0
 11
3758.46947022834
 21
-2106.746448549439
 31
0.0
  0
LINE
  5
47A6
330
1F
100
AcDbEntity
  8
SPOJOVACÍ
  6
Continuous
100
AcDbLine
 10
3758.46947022834
 20
-2106.746448549439
 30
0.0
 11
3759.082456077488
 21
-2105.332581339736
 31
0.0
  0
LINE
  5
47A7
330
1F
100
AcDbEntity
  8
SPOJOVACÍ
  6
Continuous
100
AcDbLine
 10
3759.082456077488
 20
-2105.332581339736
 30
0.0
 11
3760.040537147473
 21
-2104.125213156837
 31
0.0
  0
LINE
  5
47A8
330
1F
100
AcDbEntity
  8
SPOJOVACÍ
  6
Continuous
100
AcDbLine
 10
3759.292675806831
 20
-2126.150845825305
 30
0.0
 11
3758.915024435885
 21
-2126.528497198433
 31
0.0
  0
LINE
  5
47A9
330
1F
100
AcDbEntity
  8
SPOJOVACÍ
  6
Continuous
100
AcDbLine
 10
3755.87614011198
 20
-2134.056409913774
 30
0.0
 11
3758.030427253437
 21
-2134.367088629548
 31
0.0
  0
LINE
  5
47AA
330
1F
100
AcDbEntity
  8
SPOJOVACÍ
  6
Continuous
100
AcDbLine
 10
3756.253791482925
 20
-2133.678758540646
 30
0.0
 11
3757.652775882491
 21
-2134.149427493231
 31
0.0
  0
LINE
  5
47AB
330
1F
100
AcDbEntity
  8
SPOJOVACÍ
  6
Continuous
100
AcDbLine
 10
3756.253791482925
 20
-2134.275001225793
 30
0.0
 11
3757.652775882491
 21
-2134.745670178378
 31
0.0
  0
LINE
  5
47AC
330
1F
100
AcDbEntity
  8
SPOJOVACÍ
  6
Continuous
100
AcDbLine
 10
3758.030427253437
 20
-2134.367088629548
 30
0.0
 11
3757.652775882491
 21
-2134.149427493231
 31
0.0
  0
LINE
  5
47AD
330
1F
100
AcDbEntity
  8
SPOJOVACÍ
  6
Continuous
100
AcDbLine
 10
3758.030427253437
 20
-2134.367088629548
 30
0.0
 11
3757.652775882491
 21
-2134.745670178378
 31
0.0
  0
LINE
  5
47AE
330
1F
100
AcDbEntity
  8
SPOJOVACÍ
  6
Continuous
100
AcDbLine
 10
3755.87614011198
 20
-2134.056409913774
 30
0.0
 11
3756.253791482925
 21
-2133.678758540646
 31
0.0
  0
LINE
  5
47AF
330
1F
100
AcDbEntity
  8
SPOJOVACÍ
  6
Continuous
100
AcDbLine
 10
3755.87614011198
 20
-2134.056409913774
 30
0.0
 11
3756.253791482925
 21
-2134.275001225793
 31
0.0
  0
LINE
  5
47B0
330
1F
100
AcDbEntity
  8
SPOJOVACÍ
  6
Continuous
100
AcDbLine
 10
3755.311523401509
 20
-2131.042640335455
 30
0.0
 11
3758.42761231794
 21
-2131.676090052225
 31
0.0
  0
LINE
  5
47B1
330
1F
100
AcDbEntity
  8
SPOJOVACÍ
  6
Continuous
100
AcDbLine
 10
3755.689174776819
 20
-2130.664058786348
 30
0.0
 11
3758.049960946994
 21
-2131.458428916177
 31
0.0
  0
LINE
  5
47B2
330
1F
100
AcDbEntity
  8
SPOJOVACÍ
  6
Continuous
100
AcDbLine
 10
3755.689174776819
 20
-2131.260301471503
 30
0.0
 11
3758.049960946994
 21
-2132.054671601055
 31
0.0
  0
LINE
  5
47B3
330
1F
100
AcDbEntity
  8
SPOJOVACÍ
  6
Continuous
100
AcDbLine
 10
3758.42761231794
 20
-2131.676090052225
 30
0.0
 11
3758.049960946994
 21
-2131.458428916177
 31
0.0
  0
LINE
  5
47B4
330
1F
100
AcDbEntity
  8
SPOJOVACÍ
  6
Continuous
100
AcDbLine
 10
3758.42761231794
 20
-2131.676090052225
 30
0.0
 11
3758.049960946994
 21
-2132.054671601055
 31
0.0
  0
LINE
  5
47B5
330
1F
100
AcDbEntity
  8
SPOJOVACÍ
  6
Continuous
100
AcDbLine
 10
3755.311523401509
 20
-2131.042640335455
 30
0.0
 11
3755.689174776819
 21
-2130.664058786348
 31
0.0
  0
LINE
  5
47B6
330
1F
100
AcDbEntity
  8
SPOJOVACÍ
  6
Continuous
100
AcDbLine
 10
3755.311523401509
 20
-2131.042640335455
 30
0.0
 11
3755.689174776819
 21
-2131.260301471503
 31
0.0
  0
LINE
  5
47B7
330
1F
100
AcDbEntity
  8
SPOJOVACÍ
  6
Continuous
100
AcDbLine
 10
3754.746906695403
 20
-2128.027940581156
 30
0.0
 11
3758.872236348146
 21
-2129.000904463461
 31
0.0
  0
LINE
  5
47B8
330
1F
100
AcDbEntity
  8
SPOJOVACÍ
  6
Continuous
100
AcDbLine
 10
3755.125488243687
 20
-2127.650289208028
 30
0.0
 11
3758.4945849772
 21
-2128.783243327413
 31
0.0
  0
LINE
  5
47B9
330
1F
100
AcDbEntity
  8
SPOJOVACÍ
  6
Continuous
100
AcDbLine
 10
3755.125488243687
 20
-2128.246531893184
 30
0.0
 11
3758.4945849772
 21
-2129.379486012568
 31
0.0
  0
LINE
  5
47BA
330
1F
100
AcDbEntity
  8
SPOJOVACÍ
  6
Continuous
100
AcDbLine
 10
3758.872236348146
 20
-2129.000904463461
 30
0.0
 11
3758.4945849772
 21
-2128.783243327413
 31
0.0
  0
LINE
  5
47BB
330
1F
100
AcDbEntity
  8
SPOJOVACÍ
  6
Continuous
100
AcDbLine
 10
3758.872236348146
 20
-2129.000904463461
 30
0.0
 11
3758.4945849772
 21
-2129.379486012568
 31
0.0
  0
LINE
  5
47BC
330
1F
100
AcDbEntity
  8
SPOJOVACÍ
  6
Continuous
100
AcDbLine
 10
3754.746906695403
 20
-2128.027940581156
 30
0.0
 11
3755.125488243687
 21
-2127.650289208028
 31
0.0
  0
LINE
  5
47BD
330
1F
100
AcDbEntity
  8
SPOJOVACÍ
  6
Continuous
100
AcDbLine
 10
3754.746906695403
 20
-2128.027940581156
 30
0.0
 11
3755.125488243687
 21
-2128.246531893184
 31
0.0
  0
LINE
  5
47BE
330
1F
100
AcDbEntity
  8
SPOJOVACÍ
  6
Continuous
100
AcDbLine
 10
3757.996940925989
 20
-2128.606509926064
 30
0.0
 11
3758.242507337457
 21
-2126.635467414777
 31
0.0
  0
LINE
  5
47BF
330
1F
100
AcDbEntity
  8
SPOJOVACÍ
  6
Continuous
100
AcDbLine
 10
3757.658356933428
 20
-2131.313321491962
 30
0.0
 11
3757.925317388766
 21
-2129.176707689109
 31
0.0
  0
LINE
  5
47C0
330
1F
100
AcDbEntity
  8
SPOJOVACÍ
  6
Continuous
100
AcDbLine
 10
3757.318842772259
 20
-2134.030364991395
 30
0.0
 11
3757.58673340057
 21
-2131.885379606411
 31
0.0
  0
LINE
  5
47C1
330
1F
100
AcDbEntity
  8
SPOJOVACÍ
  6
Continuous
100
AcDbLine
 10
3756.139379862327
 20
-2131.405408895717
 30
0.0
 11
3756.429594707482
 21
-2133.726197506072
 31
0.0
  0
LINE
  5
47C2
330
1F
100
AcDbEntity
  8
SPOJOVACÍ
  6
Continuous
100
AcDbLine
 10
3755.77010006997
 20
-2128.453030919988
 30
0.0
 11
3756.060314919489
 21
-2130.774749706052
 31
0.0
  0
LINE
  5
47C3
330
1F
100
AcDbEntity
  8
SPOJOVACÍ
  6
Continuous
100
AcDbLine
 10
3755.543137174721
 20
-2126.635467414777
 30
0.0
 11
3755.692895477444
 21
-2127.832603664134
 31
0.0
  0
LINE
  5
47C4
330
1F
100
AcDbEntity
  8
SPOJOVACÍ
  6
Continuous
100
AcDbLine
 10
3758.242507337457
 20
-2126.298743776894
 30
0.0
 11
3758.242507337457
 21
-2126.635467414777
 31
0.0
  0
LINE
  5
47C5
330
1F
100
AcDbEntity
  8
SPOJOVACÍ
  6
Continuous
100
AcDbLine
 10
3754.870620076292
 20
-2125.168580184892
 30
0.0
 11
3758.915024435885
 21
-2126.528497198433
 31
0.0
  0
LINE
  5
47C6
330
1F
100
AcDbEntity
  8
SPOJOVACÍ
  6
Continuous
100
AcDbLine
 10
3759.292675806831
 20
-2126.150845825305
 30
0.0
 11
3758.915024435885
 21
-2125.932254513279
 31
0.0
  0
LINE
  5
47C7
330
1F
100
AcDbEntity
  8
SPOJOVACÍ
  6
Continuous
100
AcDbLine
 10
3754.492968700982
 20
-2124.950919048843
 30
0.0
 11
3759.292675806831
 21
-2126.150845825305
 31
0.0
  0
LINE
  5
47C8
330
1F
100
AcDbEntity
  8
SPOJOVACÍ
  6
Continuous
100
AcDbLine
 10
3755.543137174721
 20
-2125.388101672889
 30
0.0
 11
3755.543137174721
 21
-2126.635467414777
 31
0.0
  0
HATCH
  5
47CF
330
1F
100
AcDbEntity
  8
izolace
100
AcDbHatch
 10
0.0
 20
0.0
 30
0.0
210
0.0
220
0.0
230
1.0
  2
AR-SAND
 70
     0
 71
     0
 91
        1
 92
        7
 72
     0
 73
     1
 93
        5
 10
3722.009680055968
 20
-2276.144282379967
 10
3716.791635074779
 20
-2276.144282379966
 10
3716.791635074779
 20
-2297.118267676603
 10
3719.004112975084
 20
-2300.144282379967
 10
3722.009680055968
 20
-2300.144282379967
 97
        0
 75
     0
 76
     1
 52
90.0
 41
0.05
 77
     0
 78
     4
 53
127.5
 43
178.1929654106134
 44
-321.7859308595379
 45
-2.447066186646711
 46
-0.0800015647992021
 79
     6
 49
0.0
 49
-1.9304
 49
0.0
 49
-2.159
 49
0.0
 49
-2.06375
 53
97.49999999999998
 43
178.1929654106134
 44
-321.7859308595379
 45
-3.584125502841771
 46
2.247616415690013
 79
     6
 49
0.0
 49
-1.0414
 49
0.0
 49
-1.7399
 49
0.0
 49
-0.6667500000000001
 53
57.5
 43
178.1929654106134
 44
-323.3480308595379
 45
-0.0071859233927282
 46
3.95496185120729
 79
     6
 49
0.0
 49
-0.635
 49
0.0
 49
-2.286
 49
0.0
 49
-2.9845
 53
47.5
 43
178.1929654106134
 44
-323.3480308595379
 45
-1.11464661628608
 46
3.817782262361486
 79
     6
 49
0.0
 49
-0.3175
 49
0.0
 49
-1.498599999999999
 49
0.0
 49
-1.7145
 47
0.289429805807883
 98
        1
 10
3720.230574571258
 20
-2291.063196559147
  0
HATCH
  5
47D0
330
1F
100
AcDbEntity
  8
izolace
100
AcDbHatch
 10
0.0
 20
0.0
 30
0.0
210
0.0
220
0.0
230
1.0
  2
SOLID
 70
     1
 71
     0
 91
        4
 92
        7
 72
     0
 73
     1
 93
        4
 10
3719.303153082099
 20
-2199.962321090283
 10
3731.804230089073
 20
-2199.962321090283
 10
3731.804230089073
 20
-2201.962321090286
 10
3719.303153082099
 20
-2201.962321090286
 97
        0
 92
        7
 72
     0
 73
     1
 93
        4
 10
3739.460941003671
 20
-2199.962321090283
 10
3751.962018010649
 20
-2199.962321090283
 10
3751.962018010649
 20
-2201.962321090286
 10
3739.46094100367
 20
-2201.962321090286
 97
        0
 92
        7
 72
     0
 73
     1
 93
        4
 10
3760.195177025301
 20
-2199.962321090283
 10
3772.696254032279
 20
-2199.962321090283
 10
3772.696254032279
 20
-2201.962321090286
 10
3760.195177025301
 20
-2201.962321090286
 97
        0
 92
        7
 72
     1
 73
     1
 93
        7
 10
3781.339427938164
 20
-2200.441246752404
 42
0.0
 10
3781.339427938164
 20
-2199.962321090283
 42
0.0
 10
3793.840504945139
 20
-2199.962321090283
 42
0.0
 10
3793.840504945139
 20
-2201.962321090286
 42
0.0
 10
3781.575815932419
 20
-2201.962321090286
 42
0.0
 10
3781.339427938164
 20
-2201.803713718205
 42
0.0
 10
3781.339427938164
 20
-2201.728041176217
 42
0.2771233679601331
 97
        0
 75
     0
 76
     1
 47
0.1334780420591298
 98
        4
 10
3724.523928653576
 20
-2201.26431019883
 10
3740.286014985884
 20
-2201.26431019883
 10
3767.26857262209
 20
-2201.26431019883
 10
3785.568623681001
 20
-2201.26431019883
  0
LWPOLYLINE
  5
47D1
330
1F
100
AcDbEntity
  8
izolace
100
AcDbPolyline
 90
        4
 70
     1
 43
0.0
 10
3793.860044674016
 20
-2199.959209131587
 10
3793.860044674016
 20
-2201.956150437128
 10
3719.149816667322
 20
-2201.956150437128
 10
3719.149816667322
 20
-2199.959209131587
  0
LINE
  5
47D4
330
1F
100
AcDbEntity
  8
POPIS
100
AcDbLine
 10
3685.649461109297
 20
-2163.626091910042
 30
0.0
 11
3639.965048444956
 21
-2197.451498447704
 31
0.0
  0
LINE
  5
47D5
330
1F
100
AcDbEntity
  8
POPIS
100
AcDbLine
 10
3639.965048444956
 20
-2197.451498447704
 30
0.0
 11
3686.199870527289
 21
-2238.151999320704
 31
0.0
  0
LINE
  5
47D6
330
1F
100
AcDbEntity
  8
POPIS
100
AcDbLine
 10
3637.488183772387
 20
-2259.877259252758
 30
0.0
 11
3718.288171235098
 21
-2259.877259252758
 31
0.0
  0
INSERT
  5
47D7
330
1F
100
AcDbEntity
  8
POPIS
100
AcDbBlockReference
  2
E_PUNKT
 10
3718.649691000321
 20
-2259.914923815725
 30
0.0
  0
LINE
  5
47DB
330
1F
100
AcDbEntity
  8
SPOJOVACÍ
  6
Continuous
100
AcDbLine
 10
3756.892822253906
 20
-2264.379023032016
 30
0.0
 11
3757.247219235035
 21
-2267.215129033285
 31
0.0
  0
LINE
  5
47DC
330
1F
100
AcDbEntity
  8
SPOJOVACÍ
  6
Continuous
100
AcDbLine
 10
3754.870620076292
 20
-2277.24242411201
 30
0.0
 11
3758.915024435885
 21
-2275.882507098468
 31
0.0
  0
LINE
  5
47DD
330
1F
100
AcDbEntity
  8
SPOJOVACÍ
  6
Continuous
100
AcDbLine
 10
3754.870620076292
 20
-2280.362233730972
 30
0.0
 11
3758.915024435885
 21
-2279.00231671743
 31
0.0
  0
LINE
  5
47DE
330
1F
100
AcDbEntity
  8
SPOJOVACÍ
  6
Continuous
100
AcDbLine
 10
3754.870620076292
 20
-2279.765991045825
 30
0.0
 11
3758.915024435885
 21
-2278.406074032552
 31
0.0
  0
LINE
  5
47DF
330
1F
100
AcDbEntity
  8
SPOJOVACÍ
  6
Continuous
100
AcDbLine
 10
3754.492968700982
 20
-2279.984582357844
 30
0.0
 11
3759.292675806831
 21
-2278.784655581382
 31
0.0
  0
LINE
  5
47E0
330
1F
100
AcDbEntity
  8
SPOJOVACÍ
  6
Continuous
100
AcDbLine
 10
3754.870620076292
 20
-2283.482043349941
 30
0.0
 11
3758.915024435885
 21
-2282.122126336668
 31
0.0
  0
LINE
  5
47E1
330
1F
100
AcDbEntity
  8
SPOJOVACÍ
  6
Continuous
100
AcDbLine
 10
3754.870620076292
 20
-2282.885800664787
 30
0.0
 11
3758.915024435885
 21
-2281.525883651521
 31
0.0
  0
LINE
  5
47E2
330
1F
100
AcDbEntity
  8
SPOJOVACÍ
  6
Continuous
100
AcDbLine
 10
3754.492968700982
 20
-2283.104391976813
 30
0.0
 11
3759.292675806831
 21
-2281.904465200351
 31
0.0
  0
LINE
  5
47E3
330
1F
100
AcDbEntity
  8
SPOJOVACÍ
  6
Continuous
100
AcDbLine
 10
3754.870620076292
 20
-2286.60185296918
 30
0.0
 11
3758.915024435885
 21
-2285.242866131339
 31
0.0
  0
LINE
  5
47E4
330
1F
100
AcDbEntity
  8
SPOJOVACÍ
  6
Continuous
100
AcDbLine
 10
3754.870620076292
 20
-2286.005610284025
 30
0.0
 11
3758.915024435885
 21
-2284.646623446461
 31
0.0
  0
LINE
  5
47E5
330
1F
100
AcDbEntity
  8
SPOJOVACÍ
  6
Continuous
100
AcDbLine
 10
3754.492968700982
 20
-2286.224201596052
 30
0.0
 11
3759.292675806831
 21
-2285.024274819313
 31
0.0
  0
LINE
  5
47E6
330
1F
100
AcDbEntity
  8
SPOJOVACÍ
  6
Continuous
100
AcDbLine
 10
3754.870620076292
 20
-2289.722592763844
 30
0.0
 11
3758.915024435885
 21
-2288.362675750577
 31
0.0
  0
LINE
  5
47E7
330
1F
100
AcDbEntity
  8
SPOJOVACÍ
  6
Continuous
100
AcDbLine
 10
3754.870620076292
 20
-2289.126350078965
 30
0.0
 11
3758.915024435885
 21
-2287.766433065423
 31
0.0
  0
LINE
  5
47E8
330
1F
100
AcDbEntity
  8
SPOJOVACÍ
  6
Continuous
100
AcDbLine
 10
3754.492968700982
 20
-2289.344011215014
 30
0.0
 11
3759.292675806831
 21
-2288.144084438551
 31
0.0
  0
LINE
  5
47E9
330
1F
100
AcDbEntity
  8
SPOJOVACÍ
  6
Continuous
100
AcDbLine
 10
3751.792668365272
 20
-2298.944355603235
 30
0.0
 11
3761.99297614254
 21
-2298.944355603235
 31
0.0
  0
LINE
  5
47EA
330
1F
100
AcDbEntity
  8
SPOJOVACÍ
  6
Continuous
100
AcDbLine
 10
3751.792668365272
 20
-2300.144282379967
 30
0.0
 11
3761.99297614254
 21
-2300.144282379967
 31
0.0
  0
LINE
  5
47EB
330
1F
100
AcDbEntity
  8
SPOJOVACÍ
  6
Continuous
100
AcDbLine
 10
3755.87614011198
 20
-2267.758351697973
 30
0.0
 11
3758.030427253437
 21
-2267.447672982199
 31
0.0
  0
LINE
  5
47EC
330
1F
100
AcDbEntity
  8
SPOJOVACÍ
  6
Continuous
100
AcDbLine
 10
3756.253791482925
 20
-2268.136003071101
 30
0.0
 11
3757.652775882491
 21
-2267.665334118516
 31
0.0
  0
LINE
  5
47ED
330
1F
100
AcDbEntity
  8
SPOJOVACÍ
  6
Continuous
100
AcDbLine
 10
3756.253791482925
 20
-2267.539760385953
 30
0.0
 11
3757.652775882491
 21
-2267.069091433369
 31
0.0
  0
LINE
  5
47EE
330
1F
100
AcDbEntity
  8
SPOJOVACÍ
  6
Continuous
100
AcDbLine
 10
3755.311523401509
 20
-2270.772121276292
 30
0.0
 11
3758.42761231794
 21
-2270.138671559522
 31
0.0
  0
LINE
  5
47EF
330
1F
100
AcDbEntity
  8
SPOJOVACÍ
  6
Continuous
100
AcDbLine
 10
3755.689174776819
 20
-2271.150702825399
 30
0.0
 11
3758.049960946994
 21
-2270.356332695571
 31
0.0
  0
LINE
  5
47F0
330
1F
100
AcDbEntity
  8
SPOJOVACÍ
  6
Continuous
100
AcDbLine
 10
3755.689174776819
 20
-2270.554460140244
 30
0.0
 11
3758.049960946994
 21
-2269.760090010692
 31
0.0
  0
LINE
  5
47F1
330
1F
100
AcDbEntity
  8
SPOJOVACÍ
  6
Continuous
100
AcDbLine
 10
3754.746906695403
 20
-2273.78682103059
 30
0.0
 11
3758.872236348146
 21
-2272.813857148285
 31
0.0
  0
LINE
  5
47F2
330
1F
100
AcDbEntity
  8
SPOJOVACÍ
  6
Continuous
100
AcDbLine
 10
3755.125488243687
 20
-2274.164472403718
 30
0.0
 11
3758.4945849772
 21
-2273.031518284334
 31
0.0
  0
LINE
  5
47F3
330
1F
100
AcDbEntity
  8
SPOJOVACÍ
  6
Continuous
100
AcDbLine
 10
3755.125488243687
 20
-2273.568229718564
 30
0.0
 11
3758.4945849772
 21
-2272.435275599179
 31
0.0
  0
LINE
  5
47F4
330
1F
100
AcDbEntity
  8
SPOJOVACÍ
  6
Continuous
100
AcDbLine
 10
3754.870620076292
 20
-2276.646181426856
 30
0.0
 11
3758.915024435885
 21
-2275.286264413313
 31
0.0
  0
LINE
  5
47F5
330
1F
100
AcDbEntity
  8
SPOJOVACÍ
  6
Continuous
100
AcDbLine
 10
3754.492968700982
 20
-2276.863842562904
 30
0.0
 11
3759.292675806831
 21
-2275.663915786442
 31
0.0
  0
LINE
  5
47F6
330
1F
100
AcDbEntity
  8
SPOJOVACÍ
  6
Continuous
100
AcDbLine
 10
3756.506799300007
 20
-2267.468136849821
 30
0.0
 11
3756.892822253906
 21
-2264.379023032016
 31
0.0
  0
LINE
  5
47F7
330
1F
100
AcDbEntity
  8
SPOJOVACÍ
  6
Continuous
100
AcDbLine
 10
3754.492968700982
 20
-2276.863842562904
 30
0.0
 11
3754.870620076292
 21
-2277.24242411201
 31
0.0
  0
LINE
  5
47F8
330
1F
100
AcDbEntity
  8
SPOJOVACÍ
  6
Continuous
100
AcDbLine
 10
3754.492968700982
 20
-2276.863842562904
 30
0.0
 11
3754.870620076292
 21
-2276.646181426856
 31
0.0
  0
LINE
  5
47F9
330
1F
100
AcDbEntity
  8
SPOJOVACÍ
  6
Continuous
100
AcDbLine
 10
3754.492968700982
 20
-2279.984582357844
 30
0.0
 11
3754.870620076292
 21
-2280.362233730972
 31
0.0
  0
LINE
  5
47FA
330
1F
100
AcDbEntity
  8
SPOJOVACÍ
  6
Continuous
100
AcDbLine
 10
3754.492968700982
 20
-2279.984582357844
 30
0.0
 11
3754.870620076292
 21
-2279.765991045825
 31
0.0
  0
LINE
  5
47FB
330
1F
100
AcDbEntity
  8
SPOJOVACÍ
  6
Continuous
100
AcDbLine
 10
3754.492968700982
 20
-2283.104391976813
 30
0.0
 11
3754.870620076292
 21
-2283.482043349941
 31
0.0
  0
LINE
  5
47FC
330
1F
100
AcDbEntity
  8
SPOJOVACÍ
  6
Continuous
100
AcDbLine
 10
3754.492968700982
 20
-2283.104391976813
 30
0.0
 11
3754.870620076292
 21
-2282.885800664787
 31
0.0
  0
LINE
  5
47FD
330
1F
100
AcDbEntity
  8
SPOJOVACÍ
  6
Continuous
100
AcDbLine
 10
3754.492968700982
 20
-2286.224201596052
 30
0.0
 11
3754.870620076292
 21
-2286.60185296918
 31
0.0
  0
LINE
  5
47FE
330
1F
100
AcDbEntity
  8
SPOJOVACÍ
  6
Continuous
100
AcDbLine
 10
3754.492968700982
 20
-2286.224201596052
 30
0.0
 11
3754.870620076292
 21
-2286.005610284025
 31
0.0
  0
LINE
  5
47FF
330
1F
100
AcDbEntity
  8
SPOJOVACÍ
  6
Continuous
100
AcDbLine
 10
3754.492968700982
 20
-2289.344011215014
 30
0.0
 11
3754.870620076292
 21
-2289.722592763844
 31
0.0
  0
LINE
  5
4800
330
1F
100
AcDbEntity
  8
SPOJOVACÍ
  6
Continuous
100
AcDbLine
 10
3754.492968700982
 20
-2289.344011215014
 30
0.0
 11
3754.870620076292
 21
-2289.126350078965
 31
0.0
  0
LINE
  5
4801
330
1F
100
AcDbEntity
  8
SPOJOVACÍ
  6
Continuous
100
AcDbLine
 10
3755.543137174721
 20
-2279.54088850334
 30
0.0
 11
3755.543137174721
 21
-2277.022902624012
 31
0.0
  0
LINE
  5
4802
330
1F
100
AcDbEntity
  8
SPOJOVACÍ
  6
Continuous
100
AcDbLine
 10
3755.543137174721
 20
-2282.673720583495
 30
0.0
 11
3755.543137174721
 21
-2280.145502770626
 31
0.0
  0
LINE
  5
4803
330
1F
100
AcDbEntity
  8
SPOJOVACÍ
  6
Continuous
100
AcDbLine
 10
3755.543137174721
 20
-2285.788879323678
 30
0.0
 11
3755.543137174721
 21
-2283.26810291697
 31
0.0
  0
LINE
  5
4804
330
1F
100
AcDbEntity
  8
SPOJOVACÍ
  6
Continuous
100
AcDbLine
 10
3755.543137174721
 20
-2288.911479470022
 30
0.0
 11
3755.543137174721
 21
-2286.392563414993
 31
0.0
  0
LINE
  5
4805
330
1F
100
AcDbEntity
  8
SPOJOVACÍ
  6
Continuous
100
AcDbLine
 10
3755.543137174721
 20
-2293.544685108879
 30
0.0
 11
3755.543137174721
 21
-2289.506791979199
 31
0.0
  0
LINE
  5
4806
330
1F
100
AcDbEntity
  8
SPOJOVACÍ
  6
Continuous
100
AcDbLine
 10
3751.792668365272
 20
-2298.944355603235
 30
0.0
 11
3753.142353448823
 21
-2298.200214966761
 31
0.0
  0
LINE
  5
4807
330
1F
100
AcDbEntity
  8
SPOJOVACÍ
  6
Continuous
100
AcDbLine
 10
3753.142353448823
 20
-2298.200214966761
 30
0.0
 11
3754.252983349182
 21
-2297.131442977349
 31
0.0
  0
LINE
  5
4808
330
1F
100
AcDbEntity
  8
SPOJOVACÍ
  6
Continuous
100
AcDbLine
 10
3754.252983349182
 20
-2297.131442977349
 30
0.0
 11
3755.0492138285
 21
-2295.812453699051
 31
0.0
  0
LINE
  5
4809
330
1F
100
AcDbEntity
  8
SPOJOVACÍ
  6
Continuous
100
AcDbLine
 10
3755.0492138285
 20
-2295.812453699051
 30
0.0
 11
3755.477094692799
 21
-2294.331613832001
 31
0.0
  0
LINE
  5
480A
330
1F
100
AcDbEntity
  8
SPOJOVACÍ
  6
Continuous
100
AcDbLine
 10
3755.477094692799
 20
-2294.331613832001
 30
0.0
 11
3755.543137174721
 21
-2293.544685108879
 31
0.0
  0
LINE
  5
480B
330
1F
100
AcDbEntity
  8
SPOJOVACÍ
  6
Continuous
100
AcDbLine
 10
3751.792668365272
 20
-2300.144282379967
 30
0.0
 11
3751.792668365272
 21
-2298.944355603235
 31
0.0
  0
LINE
  5
480C
330
1F
100
AcDbEntity
  8
SPOJOVACÍ
  6
Continuous
100
AcDbLine
 10
3755.87614011198
 20
-2267.758351697973
 30
0.0
 11
3756.253791482925
 21
-2268.136003071101
 31
0.0
  0
LINE
  5
480D
330
1F
100
AcDbEntity
  8
SPOJOVACÍ
  6
Continuous
100
AcDbLine
 10
3755.87614011198
 20
-2267.758351697973
 30
0.0
 11
3756.253791482925
 21
-2267.539760385953
 31
0.0
  0
LINE
  5
480E
330
1F
100
AcDbEntity
  8
SPOJOVACÍ
  6
Continuous
100
AcDbLine
 10
3755.311523401509
 20
-2270.772121276292
 30
0.0
 11
3755.689174776819
 21
-2271.150702825399
 31
0.0
  0
LINE
  5
480F
330
1F
100
AcDbEntity
  8
SPOJOVACÍ
  6
Continuous
100
AcDbLine
 10
3755.311523401509
 20
-2270.772121276292
 30
0.0
 11
3755.689174776819
 21
-2270.554460140244
 31
0.0
  0
LINE
  5
4810
330
1F
100
AcDbEntity
  8
SPOJOVACÍ
  6
Continuous
100
AcDbLine
 10
3754.746906695403
 20
-2273.78682103059
 30
0.0
 11
3755.125488243687
 21
-2274.164472403718
 31
0.0
  0
LINE
  5
4811
330
1F
100
AcDbEntity
  8
SPOJOVACÍ
  6
Continuous
100
AcDbLine
 10
3754.746906695403
 20
-2273.78682103059
 30
0.0
 11
3755.125488243687
 21
-2273.568229718564
 31
0.0
  0
LINE
  5
4812
330
1F
100
AcDbEntity
  8
SPOJOVACÍ
  6
Continuous
100
AcDbLine
 10
3756.139379862327
 20
-2270.40935271603
 30
0.0
 11
3756.429594707482
 21
-2268.088564105674
 31
0.0
  0
LINE
  5
4813
330
1F
100
AcDbEntity
  8
SPOJOVACÍ
  6
Continuous
100
AcDbLine
 10
3755.77010006997
 20
-2273.361730691759
 30
0.0
 11
3756.060314919489
 21
-2271.040011905694
 31
0.0
  0
LINE
  5
4814
330
1F
100
AcDbEntity
  8
SPOJOVACÍ
  6
Continuous
100
AcDbLine
 10
3755.543137174721
 20
-2275.179294196969
 30
0.0
 11
3755.692895477444
 21
-2273.982157947612
 31
0.0
  0
LINE
  5
4815
330
1F
100
AcDbEntity
  8
SPOJOVACÍ
  6
Continuous
100
AcDbLine
 10
3755.543137174721
 20
-2276.426659938858
 30
0.0
 11
3755.543137174721
 21
-2275.179294196969
 31
0.0
  0
LINE
  5
4816
330
1F
100
AcDbEntity
  8
SPOJOVACÍ
  6
Continuous
100
AcDbLine
 10
3759.292675806831
 20
-2278.784655581382
 30
0.0
 11
3758.915024435885
 21
-2279.00231671743
 31
0.0
  0
LINE
  5
4817
330
1F
100
AcDbEntity
  8
SPOJOVACÍ
  6
Continuous
100
AcDbLine
 10
3759.292675806831
 20
-2278.784655581382
 30
0.0
 11
3758.915024435885
 21
-2278.406074032552
 31
0.0
  0
LINE
  5
4818
330
1F
100
AcDbEntity
  8
SPOJOVACÍ
  6
Continuous
100
AcDbLine
 10
3759.292675806831
 20
-2281.904465200351
 30
0.0
 11
3758.915024435885
 21
-2282.122126336668
 31
0.0
  0
LINE
  5
4819
330
1F
100
AcDbEntity
  8
SPOJOVACÍ
  6
Continuous
100
AcDbLine
 10
3759.292675806831
 20
-2281.904465200351
 30
0.0
 11
3758.915024435885
 21
-2281.525883651521
 31
0.0
  0
LINE
  5
481A
330
1F
100
AcDbEntity
  8
SPOJOVACÍ
  6
Continuous
100
AcDbLine
 10
3759.292675806831
 20
-2285.024274819313
 30
0.0
 11
3758.915024435885
 21
-2285.242866131339
 31
0.0
  0
LINE
  5
481B
330
1F
100
AcDbEntity
  8
SPOJOVACÍ
  6
Continuous
100
AcDbLine
 10
3759.292675806831
 20
-2285.024274819313
 30
0.0
 11
3758.915024435885
 21
-2284.646623446461
 31
0.0
  0
LINE
  5
481C
330
1F
100
AcDbEntity
  8
SPOJOVACÍ
  6
Continuous
100
AcDbLine
 10
3759.292675806831
 20
-2288.144084438551
 30
0.0
 11
3758.915024435885
 21
-2288.362675750577
 31
0.0
  0
LINE
  5
481D
330
1F
100
AcDbEntity
  8
SPOJOVACÍ
  6
Continuous
100
AcDbLine
 10
3759.292675806831
 20
-2288.144084438551
 30
0.0
 11
3758.915024435885
 21
-2287.766433065423
 31
0.0
  0
LINE
  5
481E
330
1F
100
AcDbEntity
  8
SPOJOVACÍ
  6
Continuous
100
AcDbLine
 10
3758.242507337457
 20
-2278.638617981466
 30
0.0
 11
3758.242507337457
 21
-2276.119701926437
 31
0.0
  0
LINE
  5
481F
330
1F
100
AcDbEntity
  8
SPOJOVACÍ
  6
Continuous
100
AcDbLine
 10
3758.242507337457
 20
-2281.760287952108
 30
0.0
 11
3758.242507337457
 21
-2279.239511545399
 31
0.0
  0
LINE
  5
4820
330
1F
100
AcDbEntity
  8
SPOJOVACÍ
  6
Continuous
100
AcDbLine
 10
3758.242507337457
 20
-2284.882888098452
 30
0.0
 11
3758.242507337457
 21
-2282.354670285582
 31
0.0
  0
LINE
  5
4821
330
1F
100
AcDbEntity
  8
SPOJOVACÍ
  6
Continuous
100
AcDbLine
 10
3758.242507337457
 20
-2287.998046838635
 30
0.0
 11
3758.242507337457
 21
-2285.479130783606
 31
0.0
  0
LINE
  5
4822
330
1F
100
AcDbEntity
  8
SPOJOVACÍ
  6
Continuous
100
AcDbLine
 10
3758.242507337457
 20
-2293.544685108879
 30
0.0
 11
3758.242507337457
 21
-2288.60173092995
 31
0.0
  0
LINE
  5
4823
330
1F
100
AcDbEntity
  8
SPOJOVACÍ
  6
Continuous
100
AcDbLine
 10
3760.040537147473
 20
-2297.68954845491
 30
0.0
 11
3761.277670956372
 21
-2298.607631965352
 31
0.0
  0
LINE
  5
4824
330
1F
100
AcDbEntity
  8
SPOJOVACÍ
  6
Continuous
100
AcDbLine
 10
3761.277670956372
 20
-2298.607631965352
 30
0.0
 11
3761.99297614254
 21
-2298.944355603235
 31
0.0
  0
LINE
  5
4825
330
1F
100
AcDbEntity
  8
SPOJOVACÍ
  6
Continuous
100
AcDbLine
 10
3761.99297614254
 20
-2300.144282379967
 30
0.0
 11
3761.99297614254
 21
-2298.944355603235
 31
0.0
  0
LINE
  5
4826
330
1F
100
AcDbEntity
  8
SPOJOVACÍ
  6
Continuous
100
AcDbLine
 10
3758.242507337457
 20
-2293.544685108879
 30
0.0
 11
3758.46947022834
 21
-2295.068313062308
 31
0.0
  0
LINE
  5
4827
330
1F
100
AcDbEntity
  8
SPOJOVACÍ
  6
Continuous
100
AcDbLine
 10
3758.46947022834
 20
-2295.068313062308
 30
0.0
 11
3759.082456077488
 21
-2296.482180272011
 31
0.0
  0
LINE
  5
4828
330
1F
100
AcDbEntity
  8
SPOJOVACÍ
  6
Continuous
100
AcDbLine
 10
3759.082456077488
 20
-2296.482180272011
 30
0.0
 11
3760.040537147473
 21
-2297.68954845491
 31
0.0
  0
LINE
  5
4829
330
1F
100
AcDbEntity
  8
SPOJOVACÍ
  6
Continuous
100
AcDbLine
 10
3759.292675806831
 20
-2275.663915786442
 30
0.0
 11
3758.915024435885
 21
-2275.286264413313
 31
0.0
  0
LINE
  5
482A
330
1F
100
AcDbEntity
  8
SPOJOVACÍ
  6
Continuous
100
AcDbLine
 10
3758.030427253437
 20
-2267.447672982199
 30
0.0
 11
3757.652775882491
 21
-2267.665334118516
 31
0.0
  0
LINE
  5
482B
330
1F
100
AcDbEntity
  8
SPOJOVACÍ
  6
Continuous
100
AcDbLine
 10
3758.030427253437
 20
-2267.447672982199
 30
0.0
 11
3757.652775882491
 21
-2267.069091433369
 31
0.0
  0
LINE
  5
482C
330
1F
100
AcDbEntity
  8
SPOJOVACÍ
  6
Continuous
100
AcDbLine
 10
3758.42761231794
 20
-2270.138671559522
 30
0.0
 11
3758.049960946994
 21
-2270.356332695571
 31
0.0
  0
LINE
  5
482D
330
1F
100
AcDbEntity
  8
SPOJOVACÍ
  6
Continuous
100
AcDbLine
 10
3758.42761231794
 20
-2270.138671559522
 30
0.0
 11
3758.049960946994
 21
-2269.760090010692
 31
0.0
  0
LINE
  5
482E
330
1F
100
AcDbEntity
  8
SPOJOVACÍ
  6
Continuous
100
AcDbLine
 10
3758.872236348146
 20
-2272.813857148285
 30
0.0
 11
3758.4945849772
 21
-2273.031518284334
 31
0.0
  0
LINE
  5
482F
330
1F
100
AcDbEntity
  8
SPOJOVACÍ
  6
Continuous
100
AcDbLine
 10
3758.872236348146
 20
-2272.813857148285
 30
0.0
 11
3758.4945849772
 21
-2272.435275599179
 31
0.0
  0
LINE
  5
4830
330
1F
100
AcDbEntity
  8
SPOJOVACÍ
  6
Continuous
100
AcDbLine
 10
3757.996940925989
 20
-2273.208251685683
 30
0.0
 11
3758.242507337457
 21
-2275.179294196969
 31
0.0
  0
LINE
  5
4831
330
1F
100
AcDbEntity
  8
SPOJOVACÍ
  6
Continuous
100
AcDbLine
 10
3757.658356933428
 20
-2270.501440119784
 30
0.0
 11
3757.925317388766
 21
-2272.638053922638
 31
0.0
  0
LINE
  5
4832
330
1F
100
AcDbEntity
  8
SPOJOVACÍ
  6
Continuous
100
AcDbLine
 10
3757.318842772259
 20
-2267.784396620351
 30
0.0
 11
3757.58673340057
 21
-2269.929382005336
 31
0.0
  0
LINE
  5
4833
330
1F
100
AcDbEntity
  8
SPOJOVACÍ
  6
Continuous
100
AcDbLine
 10
3758.242507337457
 20
-2275.516017834853
 30
0.0
 11
3758.242507337457
 21
-2275.179294196969
 31
0.0
  0
LINE
  5
4834
330
1F
100
AcDbEntity
  8
SPOJOVACÍ
  6
Continuous
100
AcDbLine
 10
3759.292675806831
 20
-2275.663915786442
 30
0.0
 11
3758.915024435885
 21
-2275.882507098468
 31
0.0
  0
LINE
  5
4835
330
1F
100
AcDbEntity
  8
SPOJOVACÍ
  6
Continuous
100
AcDbLine
 10
4140.591182666431
 20
-2137.435738579731
 30
0.0
 11
4140.945579647559
 21
-2134.599632578462
 31
0.0
  0
LINE
  5
4836
330
1F
100
AcDbEntity
  8
SPOJOVACÍ
  6
Continuous
100
AcDbLine
 10
4138.568980488817
 20
-2124.572337499736
 30
0.0
 11
4142.613384848409
 21
-2125.932254513279
 31
0.0
  0
LINE
  5
4837
330
1F
100
AcDbEntity
  8
SPOJOVACÍ
  6
Continuous
100
AcDbLine
 10
4138.568980488817
 20
-2121.452527880775
 30
0.0
 11
4142.613384848409
 21
-2122.812444894317
 31
0.0
  0
LINE
  5
4838
330
1F
100
AcDbEntity
  8
SPOJOVACÍ
  6
Continuous
100
AcDbLine
 10
4138.568980488817
 20
-2122.048770565922
 30
0.0
 11
4142.613384848409
 21
-2123.408687579195
 31
0.0
  0
LINE
  5
4839
330
1F
100
AcDbEntity
  8
SPOJOVACÍ
  6
Continuous
100
AcDbLine
 10
4138.191329113506
 20
-2121.830179253903
 30
0.0
 11
4142.991036219355
 21
-2123.030106030365
 31
0.0
  0
LINE
  5
483A
330
1F
100
AcDbEntity
  8
SPOJOVACÍ
  6
Continuous
100
AcDbLine
 10
4138.568980488817
 20
-2118.332718261805
 30
0.0
 11
4142.613384848409
 21
-2119.692635275078
 31
0.0
  0
LINE
  5
483B
330
1F
100
AcDbEntity
  8
SPOJOVACÍ
  6
Continuous
100
AcDbLine
 10
4138.568980488817
 20
-2118.928960946961
 30
0.0
 11
4142.613384848409
 21
-2120.288877960226
 31
0.0
  0
LINE
  5
483C
330
1F
100
AcDbEntity
  8
SPOJOVACÍ
  6
Continuous
100
AcDbLine
 10
4138.191329113506
 20
-2118.710369634933
 30
0.0
 11
4142.991036219355
 21
-2119.910296411396
 31
0.0
  0
LINE
  5
483D
330
1F
100
AcDbEntity
  8
SPOJOVACÍ
  6
Continuous
100
AcDbLine
 10
4138.568980488817
 20
-2115.212908642567
 30
0.0
 11
4142.613384848409
 21
-2116.571895480408
 31
0.0
  0
LINE
  5
483E
330
1F
100
AcDbEntity
  8
SPOJOVACÍ
  6
Continuous
100
AcDbLine
 10
4138.568980488817
 20
-2115.809151327722
 30
0.0
 11
4142.613384848409
 21
-2117.168138165286
 31
0.0
  0
LINE
  5
483F
330
1F
100
AcDbEntity
  8
SPOJOVACÍ
  6
Continuous
100
AcDbLine
 10
4138.191329113506
 20
-2115.590560015695
 30
0.0
 11
4142.991036219355
 21
-2116.790486792434
 31
0.0
  0
LINE
  5
4840
330
1F
100
AcDbEntity
  8
SPOJOVACÍ
  6
Continuous
100
AcDbLine
 10
4138.568980488817
 20
-2112.092168847904
 30
0.0
 11
4142.613384848409
 21
-2113.452085861169
 31
0.0
  0
LINE
  5
4841
330
1F
100
AcDbEntity
  8
SPOJOVACÍ
  6
Continuous
100
AcDbLine
 10
4138.568980488817
 20
-2112.688411532782
 30
0.0
 11
4142.613384848409
 21
-2114.048328546324
 31
0.0
  0
LINE
  5
4842
330
1F
100
AcDbEntity
  8
SPOJOVACÍ
  6
Continuous
100
AcDbLine
 10
4138.191329113506
 20
-2112.470750396734
 30
0.0
 11
4142.991036219355
 21
-2113.670677173196
 31
0.0
  0
LINE
  5
4843
330
1F
100
AcDbEntity
  8
SPOJOVACÍ
  6
Continuous
100
AcDbLine
 10
4135.491028777797
 20
-2102.870406008511
 30
0.0
 11
4145.691336555064
 21
-2102.870406008511
 31
0.0
  0
LINE
  5
4844
330
1F
100
AcDbEntity
  8
SPOJOVACÍ
  6
Continuous
100
AcDbLine
 10
4135.491028777797
 20
-2101.67047923178
 30
0.0
 11
4145.691336555064
 21
-2101.67047923178
 31
0.0
  0
LINE
  5
4845
330
1F
100
AcDbEntity
  8
SPOJOVACÍ
  6
Continuous
100
AcDbLine
 10
4139.574500524505
 20
-2134.056409913774
 30
0.0
 11
4141.728787665961
 21
-2134.367088629548
 31
0.0
  0
LINE
  5
4846
330
1F
100
AcDbEntity
  8
SPOJOVACÍ
  6
Continuous
100
AcDbLine
 10
4139.95215189545
 20
-2133.678758540646
 30
0.0
 11
4141.351136295016
 21
-2134.149427493231
 31
0.0
  0
LINE
  5
4847
330
1F
100
AcDbEntity
  8
SPOJOVACÍ
  6
Continuous
100
AcDbLine
 10
4139.95215189545
 20
-2134.275001225793
 30
0.0
 11
4141.351136295016
 21
-2134.745670178378
 31
0.0
  0
LINE
  5
4848
330
1F
100
AcDbEntity
  8
SPOJOVACÍ
  6
Continuous
100
AcDbLine
 10
4139.009883814033
 20
-2131.042640335455
 30
0.0
 11
4142.125972730464
 21
-2131.676090052225
 31
0.0
  0
LINE
  5
4849
330
1F
100
AcDbEntity
  8
SPOJOVACÍ
  6
Continuous
100
AcDbLine
 10
4139.387535189344
 20
-2130.664058786348
 30
0.0
 11
4141.748321359519
 21
-2131.458428916177
 31
0.0
  0
LINE
  5
484A
330
1F
100
AcDbEntity
  8
SPOJOVACÍ
  6
Continuous
100
AcDbLine
 10
4139.387535189344
 20
-2131.260301471503
 30
0.0
 11
4141.748321359519
 21
-2132.054671601055
 31
0.0
  0
LINE
  5
484B
330
1F
100
AcDbEntity
  8
SPOJOVACÍ
  6
Continuous
100
AcDbLine
 10
4138.445267107927
 20
-2128.027940581156
 30
0.0
 11
4142.57059676067
 21
-2129.000904463461
 31
0.0
  0
LINE
  5
484C
330
1F
100
AcDbEntity
  8
SPOJOVACÍ
  6
Continuous
100
AcDbLine
 10
4138.823848656211
 20
-2127.650289208028
 30
0.0
 11
4142.192945389725
 21
-2128.783243327413
 31
0.0
  0
LINE
  5
484D
330
1F
100
AcDbEntity
  8
SPOJOVACÍ
  6
Continuous
100
AcDbLine
 10
4138.823848656211
 20
-2128.246531893184
 30
0.0
 11
4142.192945389725
 21
-2129.379486012568
 31
0.0
  0
LINE
  5
484E
330
1F
100
AcDbEntity
  8
SPOJOVACÍ
  6
Continuous
100
AcDbLine
 10
4138.568980488817
 20
-2125.168580184892
 30
0.0
 11
4142.613384848409
 21
-2126.528497198433
 31
0.0
  0
LINE
  5
484F
330
1F
100
AcDbEntity
  8
SPOJOVACÍ
  6
Continuous
100
AcDbLine
 10
4138.191329113506
 20
-2124.950919048843
 30
0.0
 11
4142.991036219355
 21
-2126.150845825305
 31
0.0
  0
LINE
  5
4850
330
1F
100
AcDbEntity
  8
SPOJOVACÍ
  6
Continuous
100
AcDbLine
 10
4140.205159712532
 20
-2134.346624761926
 30
0.0
 11
4140.591182666431
 21
-2137.435738579731
 31
0.0
  0
LINE
  5
4851
330
1F
100
AcDbEntity
  8
SPOJOVACÍ
  6
Continuous
100
AcDbLine
 10
4138.191329113506
 20
-2124.950919048843
 30
0.0
 11
4138.568980488817
 21
-2124.572337499736
 31
0.0
  0
LINE
  5
4852
330
1F
100
AcDbEntity
  8
SPOJOVACÍ
  6
Continuous
100
AcDbLine
 10
4138.191329113506
 20
-2124.950919048843
 30
0.0
 11
4138.568980488817
 21
-2125.168580184892
 31
0.0
  0
LINE
  5
4853
330
1F
100
AcDbEntity
  8
SPOJOVACÍ
  6
Continuous
100
AcDbLine
 10
4138.191329113506
 20
-2121.830179253903
 30
0.0
 11
4138.568980488817
 21
-2121.452527880775
 31
0.0
  0
LINE
  5
4854
330
1F
100
AcDbEntity
  8
SPOJOVACÍ
  6
Continuous
100
AcDbLine
 10
4138.191329113506
 20
-2121.830179253903
 30
0.0
 11
4138.568980488817
 21
-2122.048770565922
 31
0.0
  0
LINE
  5
4855
330
1F
100
AcDbEntity
  8
SPOJOVACÍ
  6
Continuous
100
AcDbLine
 10
4138.191329113506
 20
-2118.710369634933
 30
0.0
 11
4138.568980488817
 21
-2118.332718261805
 31
0.0
  0
LINE
  5
4856
330
1F
100
AcDbEntity
  8
SPOJOVACÍ
  6
Continuous
100
AcDbLine
 10
4138.191329113506
 20
-2118.710369634933
 30
0.0
 11
4138.568980488817
 21
-2118.928960946961
 31
0.0
  0
LINE
  5
4857
330
1F
100
AcDbEntity
  8
SPOJOVACÍ
  6
Continuous
100
AcDbLine
 10
4138.191329113506
 20
-2115.590560015695
 30
0.0
 11
4138.568980488817
 21
-2115.212908642567
 31
0.0
  0
LINE
  5
4858
330
1F
100
AcDbEntity
  8
SPOJOVACÍ
  6
Continuous
100
AcDbLine
 10
4138.191329113506
 20
-2115.590560015695
 30
0.0
 11
4138.568980488817
 21
-2115.809151327722
 31
0.0
  0
LINE
  5
4859
330
1F
100
AcDbEntity
  8
SPOJOVACÍ
  6
Continuous
100
AcDbLine
 10
4138.191329113506
 20
-2112.470750396734
 30
0.0
 11
4138.568980488817
 21
-2112.092168847904
 31
0.0
  0
LINE
  5
485A
330
1F
100
AcDbEntity
  8
SPOJOVACÍ
  6
Continuous
100
AcDbLine
 10
4138.191329113506
 20
-2112.470750396734
 30
0.0
 11
4138.568980488817
 21
-2112.688411532782
 31
0.0
  0
LINE
  5
485B
330
1F
100
AcDbEntity
  8
SPOJOVACÍ
  6
Continuous
100
AcDbLine
 10
4139.241497587245
 20
-2122.273873108407
 30
0.0
 11
4139.241497587245
 21
-2124.791858987734
 31
0.0
  0
LINE
  5
485C
330
1F
100
AcDbEntity
  8
SPOJOVACÍ
  6
Continuous
100
AcDbLine
 10
4139.241497587245
 20
-2119.141041028252
 30
0.0
 11
4139.241497587245
 21
-2121.669258841121
 31
0.0
  0
LINE
  5
485D
330
1F
100
AcDbEntity
  8
SPOJOVACÍ
  6
Continuous
100
AcDbLine
 10
4139.241497587245
 20
-2116.025882288068
 30
0.0
 11
4139.241497587245
 21
-2118.546658694778
 31
0.0
  0
LINE
  5
485E
330
1F
100
AcDbEntity
  8
SPOJOVACÍ
  6
Continuous
100
AcDbLine
 10
4139.241497587245
 20
-2112.903282141725
 30
0.0
 11
4139.241497587245
 21
-2115.422198196753
 31
0.0
  0
LINE
  5
485F
330
1F
100
AcDbEntity
  8
SPOJOVACÍ
  6
Continuous
100
AcDbLine
 10
4139.241497587245
 20
-2108.270076502868
 30
0.0
 11
4139.241497587245
 21
-2112.307969632548
 31
0.0
  0
LINE
  5
4860
330
1F
100
AcDbEntity
  8
SPOJOVACÍ
  6
Continuous
100
AcDbLine
 10
4135.491028777797
 20
-2102.870406008511
 30
0.0
 11
4136.840713861348
 21
-2103.614546644986
 31
0.0
  0
LINE
  5
4861
330
1F
100
AcDbEntity
  8
SPOJOVACÍ
  6
Continuous
100
AcDbLine
 10
4136.840713861348
 20
-2103.614546644986
 30
0.0
 11
4137.951343761706
 21
-2104.683318634398
 31
0.0
  0
LINE
  5
4862
330
1F
100
AcDbEntity
  8
SPOJOVACÍ
  6
Continuous
100
AcDbLine
 10
4137.951343761706
 20
-2104.683318634398
 30
0.0
 11
4138.747574241024
 21
-2106.002307912695
 31
0.0
  0
LINE
  5
4863
330
1F
100
AcDbEntity
  8
SPOJOVACÍ
  6
Continuous
100
AcDbLine
 10
4138.747574241024
 20
-2106.002307912695
 30
0.0
 11
4139.175455105323
 21
-2107.483147779745
 31
0.0
  0
LINE
  5
4864
330
1F
100
AcDbEntity
  8
SPOJOVACÍ
  6
Continuous
100
AcDbLine
 10
4139.175455105323
 20
-2107.483147779745
 30
0.0
 11
4139.241497587245
 21
-2108.270076502868
 31
0.0
  0
LINE
  5
4865
330
1F
100
AcDbEntity
  8
SPOJOVACÍ
  6
Continuous
100
AcDbLine
 10
4135.491028777797
 20
-2101.67047923178
 30
0.0
 11
4135.491028777797
 21
-2102.870406008511
 31
0.0
  0
LINE
  5
4866
330
1F
100
AcDbEntity
  8
SPOJOVACÍ
  6
Continuous
100
AcDbLine
 10
4139.574500524505
 20
-2134.056409913774
 30
0.0
 11
4139.95215189545
 21
-2133.678758540646
 31
0.0
  0
LINE
  5
4867
330
1F
100
AcDbEntity
  8
SPOJOVACÍ
  6
Continuous
100
AcDbLine
 10
4139.574500524505
 20
-2134.056409913774
 30
0.0
 11
4139.95215189545
 21
-2134.275001225793
 31
0.0
  0
LINE
  5
4868
330
1F
100
AcDbEntity
  8
SPOJOVACÍ
  6
Continuous
100
AcDbLine
 10
4139.009883814033
 20
-2131.042640335455
 30
0.0
 11
4139.387535189344
 21
-2130.664058786348
 31
0.0
  0
LINE
  5
4869
330
1F
100
AcDbEntity
  8
SPOJOVACÍ
  6
Continuous
100
AcDbLine
 10
4139.009883814033
 20
-2131.042640335455
 30
0.0
 11
4139.387535189344
 21
-2131.260301471503
 31
0.0
  0
LINE
  5
486A
330
1F
100
AcDbEntity
  8
SPOJOVACÍ
  6
Continuous
100
AcDbLine
 10
4138.445267107927
 20
-2128.027940581156
 30
0.0
 11
4138.823848656211
 21
-2127.650289208028
 31
0.0
  0
LINE
  5
486B
330
1F
100
AcDbEntity
  8
SPOJOVACÍ
  6
Continuous
100
AcDbLine
 10
4138.445267107927
 20
-2128.027940581156
 30
0.0
 11
4138.823848656211
 21
-2128.246531893184
 31
0.0
  0
LINE
  5
486C
330
1F
100
AcDbEntity
  8
SPOJOVACÍ
  6
Continuous
100
AcDbLine
 10
4139.837740274852
 20
-2131.405408895717
 30
0.0
 11
4140.127955120006
 21
-2133.726197506072
 31
0.0
  0
LINE
  5
486D
330
1F
100
AcDbEntity
  8
SPOJOVACÍ
  6
Continuous
100
AcDbLine
 10
4139.468460482494
 20
-2128.453030919988
 30
0.0
 11
4139.758675332013
 21
-2130.774749706052
 31
0.0
  0
LINE
  5
486E
330
1F
100
AcDbEntity
  8
SPOJOVACÍ
  6
Continuous
100
AcDbLine
 10
4139.241497587245
 20
-2126.635467414777
 30
0.0
 11
4139.391255889968
 21
-2127.832603664134
 31
0.0
  0
LINE
  5
486F
330
1F
100
AcDbEntity
  8
SPOJOVACÍ
  6
Continuous
100
AcDbLine
 10
4139.241497587245
 20
-2125.388101672889
 30
0.0
 11
4139.241497587245
 21
-2126.635467414777
 31
0.0
  0
LINE
  5
4870
330
1F
100
AcDbEntity
  8
SPOJOVACÍ
  6
Continuous
100
AcDbLine
 10
4142.991036219355
 20
-2123.030106030365
 30
0.0
 11
4142.613384848409
 21
-2122.812444894317
 31
0.0
  0
LINE
  5
4871
330
1F
100
AcDbEntity
  8
SPOJOVACÍ
  6
Continuous
100
AcDbLine
 10
4142.991036219355
 20
-2123.030106030365
 30
0.0
 11
4142.613384848409
 21
-2123.408687579195
 31
0.0
  0
LINE
  5
4872
330
1F
100
AcDbEntity
  8
SPOJOVACÍ
  6
Continuous
100
AcDbLine
 10
4142.991036219355
 20
-2119.910296411396
 30
0.0
 11
4142.613384848409
 21
-2119.692635275078
 31
0.0
  0
LINE
  5
4873
330
1F
100
AcDbEntity
  8
SPOJOVACÍ
  6
Continuous
100
AcDbLine
 10
4142.991036219355
 20
-2119.910296411396
 30
0.0
 11
4142.613384848409
 21
-2120.288877960226
 31
0.0
  0
LINE
  5
4874
330
1F
100
AcDbEntity
  8
SPOJOVACÍ
  6
Continuous
100
AcDbLine
 10
4142.991036219355
 20
-2116.790486792434
 30
0.0
 11
4142.613384848409
 21
-2116.571895480408
 31
0.0
  0
LINE
  5
4875
330
1F
100
AcDbEntity
  8
SPOJOVACÍ
  6
Continuous
100
AcDbLine
 10
4142.991036219355
 20
-2116.790486792434
 30
0.0
 11
4142.613384848409
 21
-2117.168138165286
 31
0.0
  0
LINE
  5
4876
330
1F
100
AcDbEntity
  8
SPOJOVACÍ
  6
Continuous
100
AcDbLine
 10
4142.991036219355
 20
-2113.670677173196
 30
0.0
 11
4142.613384848409
 21
-2113.452085861169
 31
0.0
  0
LINE
  5
4877
330
1F
100
AcDbEntity
  8
SPOJOVACÍ
  6
Continuous
100
AcDbLine
 10
4142.991036219355
 20
-2113.670677173196
 30
0.0
 11
4142.613384848409
 21
-2114.048328546324
 31
0.0
  0
LINE
  5
4878
330
1F
100
AcDbEntity
  8
SPOJOVACÍ
  6
Continuous
100
AcDbLine
 10
4141.940867749982
 20
-2123.176143630281
 30
0.0
 11
4141.940867749982
 21
-2125.69505968531
 31
0.0
  0
LINE
  5
4879
330
1F
100
AcDbEntity
  8
SPOJOVACÍ
  6
Continuous
100
AcDbLine
 10
4141.940867749982
 20
-2120.054473659639
 30
0.0
 11
4141.940867749982
 21
-2122.575250066348
 31
0.0
  0
LINE
  5
487A
330
1F
100
AcDbEntity
  8
SPOJOVACÍ
  6
Continuous
100
AcDbLine
 10
4141.940867749982
 20
-2116.931873513296
 30
0.0
 11
4141.940867749982
 21
-2119.460091326164
 31
0.0
  0
LINE
  5
487B
330
1F
100
AcDbEntity
  8
SPOJOVACÍ
  6
Continuous
100
AcDbLine
 10
4141.940867749982
 20
-2113.816714773112
 30
0.0
 11
4141.940867749982
 21
-2116.33563082814
 31
0.0
  0
LINE
  5
487C
330
1F
100
AcDbEntity
  8
SPOJOVACÍ
  6
Continuous
100
AcDbLine
 10
4141.940867749982
 20
-2108.270076502868
 30
0.0
 11
4141.940867749982
 21
-2113.213030681797
 31
0.0
  0
LINE
  5
487D
330
1F
100
AcDbEntity
  8
SPOJOVACÍ
  6
Continuous
100
AcDbLine
 10
4143.738897559997
 20
-2104.125213156837
 30
0.0
 11
4144.976031368897
 21
-2103.207129646395
 31
0.0
  0
LINE
  5
487E
330
1F
100
AcDbEntity
  8
SPOJOVACÍ
  6
Continuous
100
AcDbLine
 10
4144.976031368897
 20
-2103.207129646395
 30
0.0
 11
4145.691336555064
 21
-2102.870406008511
 31
0.0
  0
LINE
  5
487F
330
1F
100
AcDbEntity
  8
SPOJOVACÍ
  6
Continuous
100
AcDbLine
 10
4145.691336555064
 20
-2101.67047923178
 30
0.0
 11
4145.691336555064
 21
-2102.870406008511
 31
0.0
  0
LINE
  5
4880
330
1F
100
AcDbEntity
  8
SPOJOVACÍ
  6
Continuous
100
AcDbLine
 10
4141.940867749982
 20
-2108.270076502868
 30
0.0
 11
4142.167830640865
 21
-2106.746448549439
 31
0.0
  0
LINE
  5
4881
330
1F
100
AcDbEntity
  8
SPOJOVACÍ
  6
Continuous
100
AcDbLine
 10
4142.167830640865
 20
-2106.746448549439
 30
0.0
 11
4142.780816490012
 21
-2105.332581339736
 31
0.0
  0
LINE
  5
4882
330
1F
100
AcDbEntity
  8
SPOJOVACÍ
  6
Continuous
100
AcDbLine
 10
4142.780816490012
 20
-2105.332581339736
 30
0.0
 11
4143.738897559997
 21
-2104.125213156837
 31
0.0
  0
LINE
  5
4883
330
1F
100
AcDbEntity
  8
SPOJOVACÍ
  6
Continuous
100
AcDbLine
 10
4142.991036219355
 20
-2126.150845825305
 30
0.0
 11
4142.613384848409
 21
-2126.528497198433
 31
0.0
  0
LINE
  5
4884
330
1F
100
AcDbEntity
  8
SPOJOVACÍ
  6
Continuous
100
AcDbLine
 10
4141.728787665961
 20
-2134.367088629548
 30
0.0
 11
4141.351136295016
 21
-2134.149427493231
 31
0.0
  0
LINE
  5
4885
330
1F
100
AcDbEntity
  8
SPOJOVACÍ
  6
Continuous
100
AcDbLine
 10
4141.728787665961
 20
-2134.367088629548
 30
0.0
 11
4141.351136295016
 21
-2134.745670178378
 31
0.0
  0
LINE
  5
4886
330
1F
100
AcDbEntity
  8
SPOJOVACÍ
  6
Continuous
100
AcDbLine
 10
4142.125972730464
 20
-2131.676090052225
 30
0.0
 11
4141.748321359519
 21
-2131.458428916177
 31
0.0
  0
LINE
  5
4887
330
1F
100
AcDbEntity
  8
SPOJOVACÍ
  6
Continuous
100
AcDbLine
 10
4142.125972730464
 20
-2131.676090052225
 30
0.0
 11
4141.748321359519
 21
-2132.054671601055
 31
0.0
  0
LINE
  5
4888
330
1F
100
AcDbEntity
  8
SPOJOVACÍ
  6
Continuous
100
AcDbLine
 10
4142.57059676067
 20
-2129.000904463461
 30
0.0
 11
4142.192945389725
 21
-2128.783243327413
 31
0.0
  0
LINE
  5
4889
330
1F
100
AcDbEntity
  8
SPOJOVACÍ
  6
Continuous
100
AcDbLine
 10
4142.57059676067
 20
-2129.000904463461
 30
0.0
 11
4142.192945389725
 21
-2129.379486012568
 31
0.0
  0
LINE
  5
488A
330
1F
100
AcDbEntity
  8
SPOJOVACÍ
  6
Continuous
100
AcDbLine
 10
4141.695301338514
 20
-2128.606509926064
 30
0.0
 11
4141.940867749982
 21
-2126.635467414777
 31
0.0
  0
LINE
  5
488B
330
1F
100
AcDbEntity
  8
SPOJOVACÍ
  6
Continuous
100
AcDbLine
 10
4141.356717345952
 20
-2131.313321491962
 30
0.0
 11
4141.62367780129
 21
-2129.176707689109
 31
0.0
  0
LINE
  5
488C
330
1F
100
AcDbEntity
  8
SPOJOVACÍ
  6
Continuous
100
AcDbLine
 10
4141.017203184783
 20
-2134.030364991395
 30
0.0
 11
4141.285093813094
 21
-2131.885379606411
 31
0.0
  0
LINE
  5
488D
330
1F
100
AcDbEntity
  8
SPOJOVACÍ
  6
Continuous
100
AcDbLine
 10
4141.940867749982
 20
-2126.298743776894
 30
0.0
 11
4141.940867749982
 21
-2126.635467414777
 31
0.0
  0
LINE
  5
488E
330
1F
100
AcDbEntity
  8
SPOJOVACÍ
  6
Continuous
100
AcDbLine
 10
4142.991036219355
 20
-2126.150845825305
 30
0.0
 11
4142.613384848409
 21
-2125.932254513279
 31
0.0
  0
LINE
  5
488F
330
1F
100
AcDbEntity
  8
SPOJOVACÍ
  6
Continuous
100
AcDbLine
 10
4141.940867749982
 20
-2293.544685108879
 30
0.0
 11
4141.940867749982
 21
-2288.60173092995
 31
0.0
  0
LINE
  5
4890
330
1F
100
AcDbEntity
  8
SPOJOVACÍ
  6
Continuous
100
AcDbLine
 10
4139.241497587245
 20
-2293.544685108879
 30
0.0
 11
4139.241497587245
 21
-2289.506791979199
 31
0.0
  0
LINE
  5
4891
330
1F
100
AcDbEntity
  8
SPOJOVACÍ
  6
Continuous
100
AcDbLine
 10
4135.491028777797
 20
-2300.144282379967
 30
0.0
 11
4145.691336555064
 21
-2300.144282379967
 31
0.0
  0
LINE
  5
4892
330
1F
100
AcDbEntity
  8
SPOJOVACÍ
  6
Continuous
100
AcDbLine
 10
4135.491028777797
 20
-2298.944355603235
 30
0.0
 11
4145.691336555064
 21
-2298.944355603235
 31
0.0
  0
LINE
  5
4893
330
1F
100
AcDbEntity
  8
SPOJOVACÍ
  6
Continuous
100
AcDbLine
 10
4135.491028777797
 20
-2300.144282379967
 30
0.0
 11
4135.491028777797
 21
-2298.944355603235
 31
0.0
  0
LINE
  5
4894
330
1F
100
AcDbEntity
  8
SPOJOVACÍ
  6
Continuous
100
AcDbLine
 10
4139.175455105323
 20
-2294.331613832001
 30
0.0
 11
4139.241497587245
 21
-2293.544685108879
 31
0.0
  0
LINE
  5
4895
330
1F
100
AcDbEntity
  8
SPOJOVACÍ
  6
Continuous
100
AcDbLine
 10
4138.747574241024
 20
-2295.812453699051
 30
0.0
 11
4139.175455105323
 21
-2294.331613832001
 31
0.0
  0
LINE
  5
4896
330
1F
100
AcDbEntity
  8
SPOJOVACÍ
  6
Continuous
100
AcDbLine
 10
4137.951343761706
 20
-2297.131442977349
 30
0.0
 11
4138.747574241024
 21
-2295.812453699051
 31
0.0
  0
LINE
  5
4897
330
1F
100
AcDbEntity
  8
SPOJOVACÍ
  6
Continuous
100
AcDbLine
 10
4136.840713861348
 20
-2298.200214966761
 30
0.0
 11
4137.951343761706
 21
-2297.131442977349
 31
0.0
  0
LINE
  5
4898
330
1F
100
AcDbEntity
  8
SPOJOVACÍ
  6
Continuous
100
AcDbLine
 10
4135.491028777797
 20
-2298.944355603235
 30
0.0
 11
4136.840713861348
 21
-2298.200214966761
 31
0.0
  0
LINE
  5
4899
330
1F
100
AcDbEntity
  8
SPOJOVACÍ
  6
Continuous
100
AcDbLine
 10
4142.780816490012
 20
-2296.482180272011
 30
0.0
 11
4143.738897559997
 21
-2297.68954845491
 31
0.0
  0
LINE
  5
489A
330
1F
100
AcDbEntity
  8
SPOJOVACÍ
  6
Continuous
100
AcDbLine
 10
4142.167830640865
 20
-2295.068313062308
 30
0.0
 11
4142.780816490012
 21
-2296.482180272011
 31
0.0
  0
LINE
  5
489B
330
1F
100
AcDbEntity
  8
SPOJOVACÍ
  6
Continuous
100
AcDbLine
 10
4141.940867749982
 20
-2293.544685108879
 30
0.0
 11
4142.167830640865
 21
-2295.068313062308
 31
0.0
  0
LINE
  5
489C
330
1F
100
AcDbEntity
  8
SPOJOVACÍ
  6
Continuous
100
AcDbLine
 10
4145.691336555064
 20
-2300.144282379967
 30
0.0
 11
4145.691336555064
 21
-2298.944355603235
 31
0.0
  0
LINE
  5
489D
330
1F
100
AcDbEntity
  8
SPOJOVACÍ
  6
Continuous
100
AcDbLine
 10
4144.976031368897
 20
-2298.607631965352
 30
0.0
 11
4145.691336555064
 21
-2298.944355603235
 31
0.0
  0
LINE
  5
489E
330
1F
100
AcDbEntity
  8
SPOJOVACÍ
  6
Continuous
100
AcDbLine
 10
4143.738897559997
 20
-2297.68954845491
 30
0.0
 11
4144.976031368897
 21
-2298.607631965352
 31
0.0
  0
LINE
  5
489F
330
1F
100
AcDbEntity
  8
SPOJOVACÍ
  6
Continuous
100
AcDbLine
 10
4138.191329113506
 20
-2276.863842562904
 30
0.0
 11
4142.991036219355
 21
-2275.663915786442
 31
0.0
  0
LINE
  5
48A0
330
1F
100
AcDbEntity
  8
SPOJOVACÍ
  6
Continuous
100
AcDbLine
 10
4138.568980488817
 20
-2276.646181426856
 30
0.0
 11
4142.613384848409
 21
-2275.286264413313
 31
0.0
  0
LINE
  5
48A1
330
1F
100
AcDbEntity
  8
SPOJOVACÍ
  6
Continuous
100
AcDbLine
 10
4138.823848656211
 20
-2273.568229718564
 30
0.0
 11
4142.192945389725
 21
-2272.435275599179
 31
0.0
  0
LINE
  5
48A2
330
1F
100
AcDbEntity
  8
SPOJOVACÍ
  6
Continuous
100
AcDbLine
 10
4138.823848656211
 20
-2274.164472403718
 30
0.0
 11
4142.192945389725
 21
-2273.031518284334
 31
0.0
  0
LINE
  5
48A3
330
1F
100
AcDbEntity
  8
SPOJOVACÍ
  6
Continuous
100
AcDbLine
 10
4138.445267107927
 20
-2273.78682103059
 30
0.0
 11
4142.57059676067
 21
-2272.813857148285
 31
0.0
  0
LINE
  5
48A4
330
1F
100
AcDbEntity
  8
SPOJOVACÍ
  6
Continuous
100
AcDbLine
 10
4139.387535189344
 20
-2270.554460140244
 30
0.0
 11
4141.748321359519
 21
-2269.760090010692
 31
0.0
  0
LINE
  5
48A5
330
1F
100
AcDbEntity
  8
SPOJOVACÍ
  6
Continuous
100
AcDbLine
 10
4139.387535189344
 20
-2271.150702825399
 30
0.0
 11
4141.748321359519
 21
-2270.356332695571
 31
0.0
  0
LINE
  5
48A6
330
1F
100
AcDbEntity
  8
SPOJOVACÍ
  6
Continuous
100
AcDbLine
 10
4139.009883814033
 20
-2270.772121276292
 30
0.0
 11
4142.125972730464
 21
-2270.138671559522
 31
0.0
  0
LINE
  5
48A7
330
1F
100
AcDbEntity
  8
SPOJOVACÍ
  6
Continuous
100
AcDbLine
 10
4139.95215189545
 20
-2267.539760385953
 30
0.0
 11
4141.351136295016
 21
-2267.069091433369
 31
0.0
  0
LINE
  5
48A8
330
1F
100
AcDbEntity
  8
SPOJOVACÍ
  6
Continuous
100
AcDbLine
 10
4139.95215189545
 20
-2268.136003071101
 30
0.0
 11
4141.351136295016
 21
-2267.665334118516
 31
0.0
  0
LINE
  5
48A9
330
1F
100
AcDbEntity
  8
SPOJOVACÍ
  6
Continuous
100
AcDbLine
 10
4139.574500524505
 20
-2267.758351697973
 30
0.0
 11
4141.728787665961
 21
-2267.447672982199
 31
0.0
  0
LINE
  5
48AA
330
1F
100
AcDbEntity
  8
SPOJOVACÍ
  6
Continuous
100
AcDbLine
 10
4138.191329113506
 20
-2289.344011215014
 30
0.0
 11
4142.991036219355
 21
-2288.144084438551
 31
0.0
  0
LINE
  5
48AB
330
1F
100
AcDbEntity
  8
SPOJOVACÍ
  6
Continuous
100
AcDbLine
 10
4138.568980488817
 20
-2289.126350078965
 30
0.0
 11
4142.613384848409
 21
-2287.766433065423
 31
0.0
  0
LINE
  5
48AC
330
1F
100
AcDbEntity
  8
SPOJOVACÍ
  6
Continuous
100
AcDbLine
 10
4138.568980488817
 20
-2289.722592763844
 30
0.0
 11
4142.613384848409
 21
-2288.362675750577
 31
0.0
  0
LINE
  5
48AD
330
1F
100
AcDbEntity
  8
SPOJOVACÍ
  6
Continuous
100
AcDbLine
 10
4138.191329113506
 20
-2286.224201596052
 30
0.0
 11
4142.991036219355
 21
-2285.024274819313
 31
0.0
  0
LINE
  5
48AE
330
1F
100
AcDbEntity
  8
SPOJOVACÍ
  6
Continuous
100
AcDbLine
 10
4138.568980488817
 20
-2286.005610284025
 30
0.0
 11
4142.613384848409
 21
-2284.646623446461
 31
0.0
  0
LINE
  5
48AF
330
1F
100
AcDbEntity
  8
SPOJOVACÍ
  6
Continuous
100
AcDbLine
 10
4138.568980488817
 20
-2286.60185296918
 30
0.0
 11
4142.613384848409
 21
-2285.242866131339
 31
0.0
  0
LINE
  5
48B0
330
1F
100
AcDbEntity
  8
SPOJOVACÍ
  6
Continuous
100
AcDbLine
 10
4138.191329113506
 20
-2283.104391976813
 30
0.0
 11
4142.991036219355
 21
-2281.904465200351
 31
0.0
  0
LINE
  5
48B1
330
1F
100
AcDbEntity
  8
SPOJOVACÍ
  6
Continuous
100
AcDbLine
 10
4138.568980488817
 20
-2282.885800664787
 30
0.0
 11
4142.613384848409
 21
-2281.525883651521
 31
0.0
  0
LINE
  5
48B2
330
1F
100
AcDbEntity
  8
SPOJOVACÍ
  6
Continuous
100
AcDbLine
 10
4138.568980488817
 20
-2283.482043349941
 30
0.0
 11
4142.613384848409
 21
-2282.122126336668
 31
0.0
  0
LINE
  5
48B3
330
1F
100
AcDbEntity
  8
SPOJOVACÍ
  6
Continuous
100
AcDbLine
 10
4138.191329113506
 20
-2279.984582357844
 30
0.0
 11
4142.991036219355
 21
-2278.784655581382
 31
0.0
  0
LINE
  5
48B4
330
1F
100
AcDbEntity
  8
SPOJOVACÍ
  6
Continuous
100
AcDbLine
 10
4138.568980488817
 20
-2279.765991045825
 30
0.0
 11
4142.613384848409
 21
-2278.406074032552
 31
0.0
  0
LINE
  5
48B5
330
1F
100
AcDbEntity
  8
SPOJOVACÍ
  6
Continuous
100
AcDbLine
 10
4138.568980488817
 20
-2280.362233730972
 30
0.0
 11
4142.613384848409
 21
-2279.00231671743
 31
0.0
  0
LINE
  5
48B6
330
1F
100
AcDbEntity
  8
SPOJOVACÍ
  6
Continuous
100
AcDbLine
 10
4138.568980488817
 20
-2277.24242411201
 30
0.0
 11
4142.613384848409
 21
-2275.882507098468
 31
0.0
  0
LINE
  5
48B7
330
1F
100
AcDbEntity
  8
SPOJOVACÍ
  6
Continuous
100
AcDbLine
 10
4140.591182666431
 20
-2264.379023032016
 30
0.0
 11
4140.945579647559
 21
-2267.215129033285
 31
0.0
  0
LINE
  5
48B8
330
1F
100
AcDbEntity
  8
SPOJOVACÍ
  6
Continuous
100
AcDbLine
 10
4139.241497587245
 20
-2276.426659938858
 30
0.0
 11
4139.241497587245
 21
-2275.179294196969
 31
0.0
  0
LINE
  5
48B9
330
1F
100
AcDbEntity
  8
SPOJOVACÍ
  6
Continuous
100
AcDbLine
 10
4139.241497587245
 20
-2275.179294196969
 30
0.0
 11
4139.391255889968
 21
-2273.982157947612
 31
0.0
  0
LINE
  5
48BA
330
1F
100
AcDbEntity
  8
SPOJOVACÍ
  6
Continuous
100
AcDbLine
 10
4139.468460482494
 20
-2273.361730691759
 30
0.0
 11
4139.758675332013
 21
-2271.040011905694
 31
0.0
  0
LINE
  5
48BB
330
1F
100
AcDbEntity
  8
SPOJOVACÍ
  6
Continuous
100
AcDbLine
 10
4139.837740274852
 20
-2270.40935271603
 30
0.0
 11
4140.127955120006
 21
-2268.088564105674
 31
0.0
  0
LINE
  5
48BC
330
1F
100
AcDbEntity
  8
SPOJOVACÍ
  6
Continuous
100
AcDbLine
 10
4138.445267107927
 20
-2273.78682103059
 30
0.0
 11
4138.823848656211
 21
-2273.568229718564
 31
0.0
  0
LINE
  5
48BD
330
1F
100
AcDbEntity
  8
SPOJOVACÍ
  6
Continuous
100
AcDbLine
 10
4138.445267107927
 20
-2273.78682103059
 30
0.0
 11
4138.823848656211
 21
-2274.164472403718
 31
0.0
  0
LINE
  5
48BE
330
1F
100
AcDbEntity
  8
SPOJOVACÍ
  6
Continuous
100
AcDbLine
 10
4139.009883814033
 20
-2270.772121276292
 30
0.0
 11
4139.387535189344
 21
-2270.554460140244
 31
0.0
  0
LINE
  5
48BF
330
1F
100
AcDbEntity
  8
SPOJOVACÍ
  6
Continuous
100
AcDbLine
 10
4139.009883814033
 20
-2270.772121276292
 30
0.0
 11
4139.387535189344
 21
-2271.150702825399
 31
0.0
  0
LINE
  5
48C0
330
1F
100
AcDbEntity
  8
SPOJOVACÍ
  6
Continuous
100
AcDbLine
 10
4139.574500524505
 20
-2267.758351697973
 30
0.0
 11
4139.95215189545
 21
-2267.539760385953
 31
0.0
  0
LINE
  5
48C1
330
1F
100
AcDbEntity
  8
SPOJOVACÍ
  6
Continuous
100
AcDbLine
 10
4139.574500524505
 20
-2267.758351697973
 30
0.0
 11
4139.95215189545
 21
-2268.136003071101
 31
0.0
  0
LINE
  5
48C2
330
1F
100
AcDbEntity
  8
SPOJOVACÍ
  6
Continuous
100
AcDbLine
 10
4139.241497587245
 20
-2288.911479470022
 30
0.0
 11
4139.241497587245
 21
-2286.392563414993
 31
0.0
  0
LINE
  5
48C3
330
1F
100
AcDbEntity
  8
SPOJOVACÍ
  6
Continuous
100
AcDbLine
 10
4139.241497587245
 20
-2285.788879323678
 30
0.0
 11
4139.241497587245
 21
-2283.26810291697
 31
0.0
  0
LINE
  5
48C4
330
1F
100
AcDbEntity
  8
SPOJOVACÍ
  6
Continuous
100
AcDbLine
 10
4139.241497587245
 20
-2282.673720583495
 30
0.0
 11
4139.241497587245
 21
-2280.145502770626
 31
0.0
  0
LINE
  5
48C5
330
1F
100
AcDbEntity
  8
SPOJOVACÍ
  6
Continuous
100
AcDbLine
 10
4139.241497587245
 20
-2279.54088850334
 30
0.0
 11
4139.241497587245
 21
-2277.022902624012
 31
0.0
  0
LINE
  5
48C6
330
1F
100
AcDbEntity
  8
SPOJOVACÍ
  6
Continuous
100
AcDbLine
 10
4138.191329113506
 20
-2289.344011215014
 30
0.0
 11
4138.568980488817
 21
-2289.126350078965
 31
0.0
  0
LINE
  5
48C7
330
1F
100
AcDbEntity
  8
SPOJOVACÍ
  6
Continuous
100
AcDbLine
 10
4138.191329113506
 20
-2289.344011215014
 30
0.0
 11
4138.568980488817
 21
-2289.722592763844
 31
0.0
  0
LINE
  5
48C8
330
1F
100
AcDbEntity
  8
SPOJOVACÍ
  6
Continuous
100
AcDbLine
 10
4138.191329113506
 20
-2286.224201596052
 30
0.0
 11
4138.568980488817
 21
-2286.005610284025
 31
0.0
  0
LINE
  5
48C9
330
1F
100
AcDbEntity
  8
SPOJOVACÍ
  6
Continuous
100
AcDbLine
 10
4138.191329113506
 20
-2286.224201596052
 30
0.0
 11
4138.568980488817
 21
-2286.60185296918
 31
0.0
  0
LINE
  5
48CA
330
1F
100
AcDbEntity
  8
SPOJOVACÍ
  6
Continuous
100
AcDbLine
 10
4138.191329113506
 20
-2283.104391976813
 30
0.0
 11
4138.568980488817
 21
-2282.885800664787
 31
0.0
  0
LINE
  5
48CB
330
1F
100
AcDbEntity
  8
SPOJOVACÍ
  6
Continuous
100
AcDbLine
 10
4138.191329113506
 20
-2283.104391976813
 30
0.0
 11
4138.568980488817
 21
-2283.482043349941
 31
0.0
  0
LINE
  5
48CC
330
1F
100
AcDbEntity
  8
SPOJOVACÍ
  6
Continuous
100
AcDbLine
 10
4138.191329113506
 20
-2279.984582357844
 30
0.0
 11
4138.568980488817
 21
-2279.765991045825
 31
0.0
  0
LINE
  5
48CD
330
1F
100
AcDbEntity
  8
SPOJOVACÍ
  6
Continuous
100
AcDbLine
 10
4138.191329113506
 20
-2279.984582357844
 30
0.0
 11
4138.568980488817
 21
-2280.362233730972
 31
0.0
  0
LINE
  5
48CE
330
1F
100
AcDbEntity
  8
SPOJOVACÍ
  6
Continuous
100
AcDbLine
 10
4138.191329113506
 20
-2276.863842562904
 30
0.0
 11
4138.568980488817
 21
-2276.646181426856
 31
0.0
  0
LINE
  5
48CF
330
1F
100
AcDbEntity
  8
SPOJOVACÍ
  6
Continuous
100
AcDbLine
 10
4138.191329113506
 20
-2276.863842562904
 30
0.0
 11
4138.568980488817
 21
-2277.24242411201
 31
0.0
  0
LINE
  5
48D0
330
1F
100
AcDbEntity
  8
SPOJOVACÍ
  6
Continuous
100
AcDbLine
 10
4140.205159712532
 20
-2267.468136849821
 30
0.0
 11
4140.591182666431
 21
-2264.379023032016
 31
0.0
  0
LINE
  5
48D1
330
1F
100
AcDbEntity
  8
SPOJOVACÍ
  6
Continuous
100
AcDbLine
 10
4142.991036219355
 20
-2275.663915786442
 30
0.0
 11
4142.613384848409
 21
-2275.882507098468
 31
0.0
  0
LINE
  5
48D2
330
1F
100
AcDbEntity
  8
SPOJOVACÍ
  6
Continuous
100
AcDbLine
 10
4141.940867749982
 20
-2275.516017834853
 30
0.0
 11
4141.940867749982
 21
-2275.179294196969
 31
0.0
  0
LINE
  5
48D3
330
1F
100
AcDbEntity
  8
SPOJOVACÍ
  6
Continuous
100
AcDbLine
 10
4141.017203184783
 20
-2267.784396620351
 30
0.0
 11
4141.285093813094
 21
-2269.929382005336
 31
0.0
  0
LINE
  5
48D4
330
1F
100
AcDbEntity
  8
SPOJOVACÍ
  6
Continuous
100
AcDbLine
 10
4141.356717345952
 20
-2270.501440119784
 30
0.0
 11
4141.62367780129
 21
-2272.638053922638
 31
0.0
  0
LINE
  5
48D5
330
1F
100
AcDbEntity
  8
SPOJOVACÍ
  6
Continuous
100
AcDbLine
 10
4141.695301338514
 20
-2273.208251685683
 30
0.0
 11
4141.940867749982
 21
-2275.179294196969
 31
0.0
  0
LINE
  5
48D6
330
1F
100
AcDbEntity
  8
SPOJOVACÍ
  6
Continuous
100
AcDbLine
 10
4142.57059676067
 20
-2272.813857148285
 30
0.0
 11
4142.192945389725
 21
-2272.435275599179
 31
0.0
  0
LINE
  5
48D7
330
1F
100
AcDbEntity
  8
SPOJOVACÍ
  6
Continuous
100
AcDbLine
 10
4142.57059676067
 20
-2272.813857148285
 30
0.0
 11
4142.192945389725
 21
-2273.031518284334
 31
0.0
  0
LINE
  5
48D8
330
1F
100
AcDbEntity
  8
SPOJOVACÍ
  6
Continuous
100
AcDbLine
 10
4142.125972730464
 20
-2270.138671559522
 30
0.0
 11
4141.748321359519
 21
-2269.760090010692
 31
0.0
  0
LINE
  5
48D9
330
1F
100
AcDbEntity
  8
SPOJOVACÍ
  6
Continuous
100
AcDbLine
 10
4142.125972730464
 20
-2270.138671559522
 30
0.0
 11
4141.748321359519
 21
-2270.356332695571
 31
0.0
  0
LINE
  5
48DA
330
1F
100
AcDbEntity
  8
SPOJOVACÍ
  6
Continuous
100
AcDbLine
 10
4141.728787665961
 20
-2267.447672982199
 30
0.0
 11
4141.351136295016
 21
-2267.069091433369
 31
0.0
  0
LINE
  5
48DB
330
1F
100
AcDbEntity
  8
SPOJOVACÍ
  6
Continuous
100
AcDbLine
 10
4141.728787665961
 20
-2267.447672982199
 30
0.0
 11
4141.351136295016
 21
-2267.665334118516
 31
0.0
  0
LINE
  5
48DC
330
1F
100
AcDbEntity
  8
SPOJOVACÍ
  6
Continuous
100
AcDbLine
 10
4142.991036219355
 20
-2275.663915786442
 30
0.0
 11
4142.613384848409
 21
-2275.286264413313
 31
0.0
  0
LINE
  5
48DD
330
1F
100
AcDbEntity
  8
SPOJOVACÍ
  6
Continuous
100
AcDbLine
 10
4141.940867749982
 20
-2287.998046838635
 30
0.0
 11
4141.940867749982
 21
-2285.479130783606
 31
0.0
  0
LINE
  5
48DE
330
1F
100
AcDbEntity
  8
SPOJOVACÍ
  6
Continuous
100
AcDbLine
 10
4141.940867749982
 20
-2284.882888098452
 30
0.0
 11
4141.940867749982
 21
-2282.354670285582
 31
0.0
  0
LINE
  5
48DF
330
1F
100
AcDbEntity
  8
SPOJOVACÍ
  6
Continuous
100
AcDbLine
 10
4141.940867749982
 20
-2281.760287952108
 30
0.0
 11
4141.940867749982
 21
-2279.239511545399
 31
0.0
  0
LINE
  5
48E0
330
1F
100
AcDbEntity
  8
SPOJOVACÍ
  6
Continuous
100
AcDbLine
 10
4141.940867749982
 20
-2278.638617981466
 30
0.0
 11
4141.940867749982
 21
-2276.119701926437
 31
0.0
  0
LINE
  5
48E1
330
1F
100
AcDbEntity
  8
SPOJOVACÍ
  6
Continuous
100
AcDbLine
 10
4142.991036219355
 20
-2288.144084438551
 30
0.0
 11
4142.613384848409
 21
-2287.766433065423
 31
0.0
  0
LINE
  5
48E2
330
1F
100
AcDbEntity
  8
SPOJOVACÍ
  6
Continuous
100
AcDbLine
 10
4142.991036219355
 20
-2288.144084438551
 30
0.0
 11
4142.613384848409
 21
-2288.362675750577
 31
0.0
  0
LINE
  5
48E3
330
1F
100
AcDbEntity
  8
SPOJOVACÍ
  6
Continuous
100
AcDbLine
 10
4142.991036219355
 20
-2285.024274819313
 30
0.0
 11
4142.613384848409
 21
-2284.646623446461
 31
0.0
  0
LINE
  5
48E4
330
1F
100
AcDbEntity
  8
SPOJOVACÍ
  6
Continuous
100
AcDbLine
 10
4142.991036219355
 20
-2285.024274819313
 30
0.0
 11
4142.613384848409
 21
-2285.242866131339
 31
0.0
  0
LINE
  5
48E5
330
1F
100
AcDbEntity
  8
SPOJOVACÍ
  6
Continuous
100
AcDbLine
 10
4142.991036219355
 20
-2281.904465200351
 30
0.0
 11
4142.613384848409
 21
-2281.525883651521
 31
0.0
  0
LINE
  5
48E6
330
1F
100
AcDbEntity
  8
SPOJOVACÍ
  6
Continuous
100
AcDbLine
 10
4142.991036219355
 20
-2281.904465200351
 30
0.0
 11
4142.613384848409
 21
-2282.122126336668
 31
0.0
  0
LINE
  5
48E7
330
1F
100
AcDbEntity
  8
SPOJOVACÍ
  6
Continuous
100
AcDbLine
 10
4142.991036219355
 20
-2278.784655581382
 30
0.0
 11
4142.613384848409
 21
-2278.406074032552
 31
0.0
  0
LINE
  5
48E8
330
1F
100
AcDbEntity
  8
SPOJOVACÍ
  6
Continuous
100
AcDbLine
 10
4142.991036219355
 20
-2278.784655581382
 30
0.0
 11
4142.613384848409
 21
-2279.00231671743
 31
0.0
  0
HATCH
  5
4CC8
330
1F
100
AcDbEntity
  8
izolace
100
AcDbHatch
 10
0.0
 20
0.0
 30
0.0
210
0.0
220
0.0
230
1.0
  2
SOLID
 70
     1
 71
     0
 91
        4
 92
        7
 72
     0
 73
     1
 93
        4
 10
4094.825072138577
 20
-2199.962321090283
 10
4107.326149145552
 20
-2199.962321090283
 10
4107.326149145552
 20
-2201.962321090286
 10
4094.825072138577
 20
-2201.962321090286
 97
        0
 92
        7
 72
     0
 73
     1
 93
        4
 10
4114.98286006015
 20
-2199.962321090283
 10
4127.483937067128
 20
-2199.962321090283
 10
4127.483937067128
 20
-2201.962321090286
 10
4114.982860060149
 20
-2201.962321090286
 97
        0
 92
        7
 72
     0
 73
     1
 93
        4
 10
4135.71709608178
 20
-2199.962321090283
 10
4148.218173088758
 20
-2199.962321090283
 10
4148.218173088758
 20
-2201.962321090286
 10
4135.717096081779
 20
-2201.962321090286
 97
        0
 92
        7
 72
     1
 73
     1
 93
        7
 10
4156.861346994643
 20
-2200.441246752404
 42
0.0
 10
4156.861346994643
 20
-2199.962321090283
 42
0.0
 10
4169.362424001618
 20
-2199.962321090283
 42
0.0
 10
4169.362424001618
 20
-2201.962321090286
 42
0.0
 10
4157.097734988897
 20
-2201.962321090286
 42
0.0
 10
4156.861346994643
 20
-2201.803713718205
 42
0.0
 10
4156.861346994643
 20
-2201.728041176217
 42
0.2771233679601331
 97
        0
 75
     0
 76
     1
 47
0.1334780420591298
 98
        4
 10
4100.045847710054
 20
-2201.26431019883
 10
4115.807934042362
 20
-2201.26431019883
 10
4142.790491678569
 20
-2201.26431019883
 10
4161.090542737479
 20
-2201.26431019883
  0
LWPOLYLINE
  5
4CC9
330
1F
100
AcDbEntity
  8
izolace
100
AcDbPolyline
 90
        4
 70
     1
 43
0.0
 10
4169.381963730494
 20
-2199.959209131587
 10
4169.381963730494
 20
-2201.956150437128
 10
4094.671735723801
 20
-2201.956150437128
 10
4094.671735723801
 20
-2199.959209131587
  0
LINE
  5
5D45
330
1F
100
AcDbEntity
  8
POPIS
100
AcDbLine
 10
3817.829874859103
 20
-2139.098599888903
 30
0.0
 11
3817.829874859103
 21
-2054.009815898041
 31
0.0
  0
LINE
  5
5D46
330
1F
100
AcDbEntity
  8
POPIS
100
AcDbLine
 10
3783.255989960654
 20
-2202.021608375233
 30
0.0
 11
3783.255989960655
 21
-2350.269859481732
 31
0.0
  0
TEXT
  5
5D47
330
1F
100
AcDbEntity
  8
POPIS
100
AcDbText
 10
3768.258140666285
 20
-2380.712178968857
 30
0.0
 40
25.0
  1
09
 41
0.85
  7
SIMPLEX7
100
AcDbText
  0
INSERT
  5
5D48
330
1F
100
AcDbEntity
  8
POPIS
100
AcDbBlockReference
  2
E_PUNKT
 10
3783.733950626381
 20
-2202.801313272051
 30
0.0
  0
LINE
  5
5D4A
330
1F
100
AcDbEntity
  8
POPIS
100
AcDbLine
 10
4114.26947159444
 20
-2275.195000854626
 30
0.0
 11
4114.26947159444
 21
-2350.269859481732
 31
0.0
  0
TEXT
  5
5D4B
330
1F
100
AcDbEntity
  8
POPIS
100
AcDbText
 10
4099.27162230007
 20
-2380.712178968857
 30
0.0
 40
25.0
  1
04
 41
0.85
  7
SIMPLEX7
100
AcDbText
  0
INSERT
  5
5D4C
330
1F
100
AcDbEntity
  8
POPIS
100
AcDbBlockReference
  2
E_PUNKT
 10
4114.747417435592
 20
-2274.881558004722
 30
0.0
  0
HATCH
  5
5DE6
330
1F
100
AcDbEntity
  8
CETRIS
100
AcDbHatch
 10
0.0
 20
0.0
 30
0.0
210
0.0
220
0.0
230
1.0
  2
ANSI31
 70
     0
 71
     0
 91
       14
 92
        7
 72
     0
 73
     1
 93
        4
 10
4237.620985314485
 20
-2101.67047923178
 10
4210.748301536172
 20
-2101.67047923178
 10
4210.748301536172
 20
-2113.670479231781
 10
4235.410824036185
 20
-2113.67047923178
 97
        0
 92
        7
 72
     0
 73
     1
 93
       12
 10
4210.748301536172
 20
-2101.67047923178
 10
4145.691336555063
 20
-2101.67047923178
 10
4145.691336555064
 20
-2102.870406008512
 10
4144.976031368897
 20
-2103.207129646396
 10
4143.738897559997
 20
-2104.125213156837
 10
4142.780816490012
 20
-2105.332581339736
 10
4142.167830640865
 20
-2106.746448549436
 10
4141.940867749982
 20
-2108.270076502867
 10
4141.94086774998
 20
-2113.225954306915
 10
4142.613384848409
 20
-2113.452085861169
 10
4142.990694243973
 20
-2113.67047923178
 10
4210.748301536173
 20
-2113.67047923178
 97
        0
 92
        7
 72
     1
 73
     1
 93
       17
 10
4138.747574241025
 20
-2106.002307912695
 42
0.0
 10
4137.951343761703
 20
-2104.683318634397
 42
0.0
 10
4136.840713861346
 20
-2103.614546644986
 42
0.0
 10
4135.491028777797
 20
-2102.870406008511
 42
0.0
 10
4135.491028777795
 20
-2101.67047923178
 42
0.0
 10
4132.917964224765
 20
-2101.67047923178
 42
0.0
 10
4132.917964224765
 20
-2112.420479231781
 42
-0.4142135623731483
 10
4134.167964224766
 20
-2113.67047923178
 42
0.0
 10
4135.418682987732
 20
-2113.67047923178
 42
0.0
 10
4139.241497587245
 20
-2113.67047923178
 42
0.0
 10
4139.241497587244
 20
-2112.914543087081
 42
0.0
 10
4138.568980488815
 20
-2112.688411532782
 42
0.0
 10
4138.191329113505
 20
-2112.470750396734
 42
0.0
 10
4138.568980488817
 20
-2112.092168847904
 42
0.0
 10
4139.241497587244
 20
-2112.318300402157
 42
0.0
 10
4139.241497587245
 20
-2108.270076502869
 42
0.0
 10
4139.175455105323
 20
-2107.483147779749
 42
0.0
 97
        0
 92
        7
 72
     1
 73
     1
 93
        9
 10
4132.917964224765
 20
-2101.670479231781
 42
0.0
 10
4130.418682987732
 20
-2101.67047923178
 42
0.0
 10
4115.307964000602
 20
-2101.67047923178
 42
0.0
 10
4115.307964000603
 20
-2112.420479231781
 42
-0.4142135623731483
 10
4116.557964000604
 20
-2113.67047923178
 42
0.0
 10
4120.312995766126
 20
-2113.67047923178
 42
0.0
 10
4130.418682987732
 20
-2113.67047923178
 42
0.0
 10
4131.667964224766
 20
-2113.67047923178
 42
-0.4142135623728287
 10
4132.917964224765
 20
-2112.420479231781
 42
0.0
 97
        0
 92
        7
 72
     1
 73
     1
 93
        6
 10
4115.307964000602
 20
-2101.670479231781
 42
0.0
 10
3940.373860482576
 20
-2101.67047923178
 42
0.0
 10
3940.373860482577
 20
-2112.424103774026
 42
-0.3920754397127233
 10
3941.528738359463
 20
-2113.67047923178
 42
0.0
 10
4114.057964000604
 20
-2113.67047923178
 42
-0.4142135623728287
 10
4115.307964000603
 20
-2112.420479231781
 42
0.0
 97
        0
 92
        7
 72
     1
 73
     1
 93
        5
 10
3940.373860482576
 20
-2101.67047923178
 42
0.0
 10
3817.829874859103
 20
-2101.67047923178
 42
0.0
 10
3817.829874859103
 20
-2113.67047923178
 42
0.0
 10
3939.028738359463
 20
-2113.67047923178
 42
-0.4367037467541023
 10
3940.373860482577
 20
-2112.424103774026
 42
0.0
 97
        0
 92
        7
 72
     0
 73
     1
 93
       12
 10
3817.829874859103
 20
-2101.670479231781
 10
3761.99297614254
 20
-2101.670479231781
 10
3761.99297614254
 20
-2102.870406008511
 10
3761.277670956373
 20
-2103.207129646395
 10
3760.040537147472
 20
-2104.125213156837
 10
3759.082456077489
 20
-2105.332581339735
 10
3758.469470228342
 20
-2106.746448549436
 10
3758.242507337457
 20
-2108.270076502869
 10
3758.242507337457
 20
-2113.225954306915
 10
3758.915024435885
 20
-2113.45208586117
 10
3759.29233383145
 20
-2113.67047923178
 10
3817.829874859103
 20
-2113.67047923178
 97
        0
 92
        7
 72
     0
 73
     1
 93
       15
 10
3755.0492138285
 20
-2106.002307912695
 10
3754.252983349182
 20
-2104.683318634398
 10
3753.142353448823
 20
-2103.614546644986
 10
3751.792668365272
 20
-2102.870406008511
 10
3751.792668365272
 20
-2101.67047923178
 10
3731.249734029485
 20
-2101.67047923178
 10
3722.475905279033
 20
-2113.67047923178
 10
3755.543137174721
 20
-2113.67047923178
 10
3755.543137174721
 20
-2112.914543087081
 10
3754.870620076292
 20
-2112.688411532782
 10
3754.492968700982
 20
-2112.470750396734
 10
3754.870620076292
 20
-2112.092168847904
 10
3755.543137174721
 20
-2112.318300402157
 10
3755.543137174721
 20
-2108.270076502879
 10
3755.477094692801
 20
-2107.483147779749
 97
        0
 92
        7
 72
     0
 73
     1
 93
        4
 10
3731.249734029487
 20
-2101.67047923178
 10
3722.009680055969
 20
-2101.67047923178
 10
3722.009680055969
 20
-2113.67047923178
 10
3722.475905279031
 20
-2113.670479231779
 97
        0
 92
        7
 72
     0
 73
     1
 93
       15
 10
3755.477094692799
 20
-2294.331613832003
 10
3755.543137174721
 20
-2293.544685108875
 10
3755.543137174722
 20
-2289.49646120959
 10
3754.870620076292
 20
-2289.722592763844
 10
3754.492968700982
 20
-2289.344011215013
 10
3754.870620076292
 20
-2289.126350078965
 10
3755.543137174721
 20
-2288.900218524666
 10
3755.543137174721
 20
-2288.144282379966
 10
3722.009680055968
 20
-2288.144282379966
 10
3722.009680055968
 20
-2300.144282379966
 10
3751.792668365272
 20
-2300.144282379966
 10
3751.792668365272
 20
-2298.944355603235
 10
3753.142353448824
 20
-2298.20021496676
 10
3754.252983349183
 20
-2297.131442977347
 10
3755.049213828501
 20
-2295.81245369905
 97
        0
 92
        7
 72
     0
 73
     1
 93
       12
 10
3783.255989960655
 20
-2288.144282379966
 10
3759.292333831453
 20
-2288.144282379966
 10
3758.915024435885
 20
-2288.362675750577
 10
3758.242507337458
 20
-2288.588807304832
 10
3758.242507337458
 20
-2293.544685108876
 10
3758.469470228339
 20
-2295.068313062306
 10
3759.082456077488
 20
-2296.48218027201
 10
3760.040537147474
 20
-2297.689548454911
 10
3761.277670956373
 20
-2298.607631965352
 10
3761.99297614254
 20
-2298.944355603235
 10
3761.99297614254
 20
-2300.144282379966
 10
3783.255989960655
 20
-2300.144282379966
 97
        0
 92
        7
 72
     0
 73
     1
 93
        4
 10
4114.26947159444
 20
-2288.144282379966
 10
3783.255989960654
 20
-2288.144282379966
 10
3783.255989960654
 20
-2300.144282379966
 10
4114.26947159444
 20
-2300.144282379967
 97
        0
 92
        7
 72
     0
 73
     1
 93
       15
 10
4139.241497587245
 20
-2289.49646120959
 10
4138.568980488815
 20
-2289.722592763844
 10
4138.191329113506
 20
-2289.344011215012
 10
4138.568980488819
 20
-2289.126350078965
 10
4139.241497587245
 20
-2288.900218524666
 10
4139.241497587245
 20
-2288.144282379966
 10
4114.26947159444
 20
-2288.144282379966
 10
4114.26947159444
 20
-2300.144282379966
 10
4135.491028777795
 20
-2300.144282379966
 10
4135.491028777795
 20
-2298.944355603235
 10
4136.840713861348
 20
-2298.200214966762
 10
4137.951343761706
 20
-2297.131442977351
 10
4138.747574241024
 20
-2295.812453699053
 10
4139.175455105323
 20
-2294.331613832001
 10
4139.241497587244
 20
-2293.544685108882
 97
        0
 92
        7
 72
     0
 73
     1
 93
       12
 10
4203.276220386526
 20
-2288.144282379966
 10
4142.990694243973
 20
-2288.144282379966
 10
4142.613384848409
 20
-2288.362675750577
 10
4141.940867749982
 20
-2288.588807304831
 10
4141.940867749982
 20
-2293.544685108881
 10
4142.167830640864
 20
-2295.068313062308
 10
4142.780816490011
 20
-2296.482180272013
 10
4143.738897559997
 20
-2297.689548454911
 10
4144.976031368895
 20
-2298.607631965351
 10
4145.691336555064
 20
-2298.944355603235
 10
4145.691336555064
 20
-2300.144282379967
 10
4201.066059108227
 20
-2300.144282379966
 97
        0
 75
     0
 76
     1
 52
90.0
 41
2.5
 77
     0
 78
     1
 53
135.0
 43
178.1929654106134
 44
-321.7859308595379
 45
-5.612660075668221
 46
-5.61266007566822
 79
     0
 47
0.6390218217228401
 98
       14
 10
4217.355795464423
 20
-2108.553043744799
 10
4183.462521555153
 20
-2108.553043744799
 10
4136.139859326005
 20
-2107.275002196502
 10
4125.268436321014
 20
-2107.914022970649
 10
4097.130625137816
 20
-2107.914022970649
 10
3911.03739950954
 20
-2102.162827504682
 10
3799.765174495611
 20
-2107.275002196502
 10
3737.734104227711
 20
-2107.275002196502
 10
3725.583676328418
 20
-2105.357931375423
 10
3748.605527232701
 20
-2294.508394972737
 10
3774.824845899022
 20
-2294.508394972737
 10
3827.263483231662
 20
-2297.064486567964
 10
4130.384396599933
 20
-2293.230353424441
 10
4154.685222749373
 20
-2293.230353424441
  0
HATCH
  5
5F28
330
1F
100
AcDbEntity
  8
CETRIS
100
AcDbHatch
 10
0.0
 20
0.0
 30
0.0
210
0.0
220
0.0
230
1.0
  2
ANSI31
 70
     0
 71
     0
 91
       16
 92
        7
 72
     0
 73
     1
 93
        4
 10
4235.410824036184
 20
-2113.670479231781
 10
4210.748301536172
 20
-2113.670479231781
 10
4210.748301536172
 20
-2125.67047923178
 10
4233.200662757885
 20
-2125.67047923178
 97
        0
 92
        7
 72
     0
 73
     1
 93
       15
 10
4210.748301536172
 20
-2113.670479231781
 10
4155.724677986607
 20
-2113.67047923178
 10
4155.724677986608
 20
-2114.870406008511
 10
4154.374992903054
 20
-2115.614546644986
 10
4153.264363002698
 20
-2116.683318634399
 10
4152.46813252338
 20
-2118.002307912695
 10
4152.04025165908
 20
-2119.483147779747
 10
4151.974209177159
 20
-2120.270076502862
 10
4151.974209177159
 20
-2124.318300402157
 10
4152.646726275587
 20
-2124.092168847903
 10
4153.024377650898
 20
-2124.470750396735
 10
4152.646726275589
 20
-2124.688411532781
 10
4151.974209177159
 20
-2124.914543087082
 10
4151.974209177159
 20
-2125.67047923178
 10
4210.748301536172
 20
-2125.67047923178
 97
        0
 92
        7
 72
     0
 73
     1
 93
       29
 10
4149.274839014423
 20
-2120.270076502869
 10
4149.047876123539
 20
-2118.746448549438
 10
4148.43489027439
 20
-2117.332581339735
 10
4147.476809204405
 20
-2116.125213156836
 10
4146.239675395507
 20
-2115.207129646396
 10
4145.524370209339
 20
-2114.870406008511
 10
4145.524370209339
 20
-2113.67047923178
 10
4142.99123416077
 20
-2113.67047923178
 10
4142.613384848409
 20
-2114.048328546324
 10
4141.940867749979
 20
-2113.822196992024
 10
4141.940867749982
 20
-2116.345918598838
 10
4142.613384848409
 20
-2116.571895480408
 10
4142.991036219355
 20
-2116.790486792434
 10
4142.613384848409
 20
-2117.168138165286
 10
4141.940867749982
 20
-2116.942161283763
 10
4141.94086774998
 20
-2119.466503720824
 10
4142.613384848408
 20
-2119.692635275078
 10
4142.991036219355
 20
-2119.910296411396
 10
4142.613384848409
 20
-2120.288877960226
 10
4141.940867749982
 20
-2120.062746405973
 10
4141.94086774998
 20
-2122.586313340017
 10
4142.613384848409
 20
-2122.812444894317
 10
4142.991036219355
 20
-2123.030106030365
 10
4142.613384848409
 20
-2123.408687579196
 10
4141.940867749979
 20
-2123.182556024941
 10
4141.940867749982
 20
-2125.67047923178
 10
4148.225012520428
 20
-2125.67047923178
 10
4148.602321915994
 20
-2125.452085861168
 10
4149.274839014423
 20
-2125.225954306916
 97
        0
 92
        7
 72
     0
 73
     1
 93
       24
 10
4139.241497587245
 20
-2119.155092501214
 10
4138.568980488817
 20
-2118.928960946961
 10
4138.191329113506
 20
-2118.710369634934
 10
4138.568980488817
 20
-2118.332718261806
 10
4139.241497587245
 20
-2118.55884981606
 10
4139.241497587244
 20
-2116.035128209245
 10
4138.568980488819
 20
-2115.809151327723
 10
4138.191329113506
 20
-2115.590560015696
 10
4138.568980488815
 20
-2115.212908642567
 10
4139.241497587245
 20
-2115.438885524137
 10
4139.241497587245
 20
-2113.670479231781
 10
4135.418682987732
 20
-2113.67047923178
 10
4135.418682987732
 20
-2125.67047923178
 10
4139.241497587245
 20
-2125.67047923178
 10
4139.241497587245
 20
-2125.394711739191
 10
4138.568980488815
 20
-2125.168580184892
 10
4138.191329113506
 20
-2124.950919048843
 10
4138.568980488815
 20
-2124.572337499736
 10
4139.241497587245
 20
-2124.798469054037
 10
4139.241497587243
 20
-2122.274902120177
 10
4138.568980488815
 20
-2122.048770565922
 10
4138.191329113505
 20
-2121.830179253903
 10
4138.568980488817
 20
-2121.452527880775
 10
4139.241497587244
 20
-2121.678659435075
 97
        0
 92
        7
 72
     0
 73
     1
 93
       12
 10
4130.418682987732
 20
-2113.67047923178
 10
4120.312995766126
 20
-2113.67047923178
 10
4120.312995766126
 20
-2114.870406008513
 10
4119.597690579956
 20
-2115.207129646395
 10
4118.360556771058
 20
-2116.125213156836
 10
4117.402475701075
 20
-2117.332581339733
 10
4116.789489851925
 20
-2118.746448549441
 10
4116.562526961042
 20
-2120.270076502866
 10
4116.562526961042
 20
-2125.225954306916
 10
4117.235044059471
 20
-2125.452085861169
 10
4117.612353455037
 20
-2125.67047923178
 10
4130.418682987732
 20
-2125.67047923178
 97
        0
 92
        7
 72
     1
 73
     1
 93
       17
 10
4113.863156798307
 20
-2120.270076502861
 42
0.0
 10
4113.797114316385
 20
-2119.483147779746
 42
0.0
 10
4113.369233452084
 20
-2118.002307912695
 42
0.0
 10
4112.573002972765
 20
-2116.683318634396
 42
0.0
 10
4111.462373072406
 20
-2115.614546644984
 42
0.0
 10
4110.112687988858
 20
-2114.870406008511
 42
0.0
 10
4110.112687988858
 20
-2113.67047923178
 42
0.0
 10
3941.528738359463
 20
-2113.67047923178
 42
-1.0
 10
3939.028738359463
 20
-2113.67047923178
 42
0.0
 10
3817.829874859104
 20
-2113.67047923178
 42
0.0
 10
3817.829874859104
 20
-2125.67047923178
 42
0.0
 10
4113.863156798307
 20
-2125.67047923178
 42
0.0
 10
4113.863156798307
 20
-2124.914543087081
 42
0.0
 10
4113.190639699879
 20
-2124.688411532782
 42
0.0
 10
4112.812988324567
 20
-2124.470750396733
 42
0.0
 10
4113.190639699879
 20
-2124.092168847903
 42
0.0
 10
4113.863156798307
 20
-2124.318300402157
 42
0.0
 97
        0
 92
        7
 72
     0
 73
     1
 93
       21
 10
3817.829874859103
 20
-2113.670479231781
 10
3759.292873748245
 20
-2113.670479231781
 10
3758.915024435885
 20
-2114.048328546324
 10
3758.242507337457
 20
-2113.822196992025
 10
3758.242507337457
 20
-2116.345918598838
 10
3758.915024435885
 20
-2116.571895480408
 10
3759.292675806831
 20
-2116.790486792435
 10
3758.915024435885
 20
-2117.168138165286
 10
3758.242507337457
 20
-2116.942161283762
 10
3758.242507337457
 20
-2119.466503720824
 10
3758.915024435885
 20
-2119.692635275078
 10
3759.292675806831
 20
-2119.910296411397
 10
3758.915024435885
 20
-2120.288877960226
 10
3758.242507337458
 20
-2120.062746405973
 10
3758.242507337457
 20
-2122.586313340018
 10
3758.915024435887
 20
-2122.812444894317
 10
3759.292675806831
 20
-2123.030106030365
 10
3758.915024435885
 20
-2123.408687579195
 10
3758.242507337457
 20
-2123.182556024941
 10
3758.242507337457
 20
-2125.67047923178
 10
3817.829874859103
 20
-2125.67047923178
 97
        0
 92
        7
 72
     0
 73
     1
 93
       32
 10
3755.543137174721
 20
-2119.155092501214
 10
3754.870620076292
 20
-2118.928960946961
 10
3754.492968700983
 20
-2118.710369634933
 10
3754.870620076293
 20
-2118.332718261805
 10
3755.543137174721
 20
-2118.55884981606
 10
3755.543137174721
 20
-2116.035128209245
 10
3754.870620076294
 20
-2115.809151327723
 10
3754.492968700982
 20
-2115.590560015696
 10
3754.870620076292
 20
-2115.212908642567
 10
3755.543137174721
 20
-2115.438885524137
 10
3755.543137174721
 20
-2113.67047923178
 10
3745.063265790599
 20
-2113.67047923178
 10
3745.063265790599
 20
-2114.870406008512
 10
3744.347960604429
 20
-2115.207129646397
 10
3743.110826795533
 20
-2116.125213156837
 10
3742.152745725546
 20
-2117.332581339737
 10
3741.539759876399
 20
-2118.74644854944
 10
3741.312796985516
 20
-2120.270076502872
 10
3741.312796985515
 20
-2125.225954306916
 10
3741.985314083944
 20
-2125.452085861169
 10
3742.362623479509
 20
-2125.67047923178
 10
3755.543137174721
 20
-2125.67047923178
 10
3755.543137174721
 20
-2125.394711739191
 10
3754.870620076292
 20
-2125.168580184892
 10
3754.492968700982
 20
-2124.950919048843
 10
3754.870620076292
 20
-2124.572337499736
 10
3755.543137174721
 20
-2124.798469054036
 10
3755.543137174721
 20
-2122.274902120177
 10
3754.870620076291
 20
-2122.048770565921
 10
3754.492968700982
 20
-2121.830179253903
 10
3754.870620076292
 20
-2121.452527880775
 10
3755.543137174722
 20
-2121.678659435074
 97
        0
 92
        7
 72
     0
 73
     1
 93
       16
 10
3738.613426822779
 20
-2120.270076502861
 10
3738.547384340858
 20
-2119.483147779746
 10
3738.119503476557
 20
-2118.002307912695
 10
3737.323272997239
 20
-2116.683318634397
 10
3736.21264309688
 20
-2115.614546644985
 10
3734.86295801333
 20
-2114.870406008511
 10
3734.862958013332
 20
-2113.67047923178
 10
3722.475905279032
 20
-2113.67047923178
 10
3722.009680055969
 20
-2114.308137298273
 10
3722.009680055969
 20
-2125.67047923178
 10
3738.61342682278
 20
-2125.67047923178
 10
3738.613426822779
 20
-2124.914543087081
 10
3737.940909724351
 20
-2124.688411532781
 10
3737.563258349041
 20
-2124.470750396733
 10
3737.940909724351
 20
-2124.092168847903
 10
3738.613426822779
 20
-2124.318300402157
 97
        0
 92
        7
 72
     0
 73
     1
 93
       15
 10
3738.613426822778
 20
-2277.496461209589
 10
3737.940909724351
 20
-2277.722592763843
 10
3737.56325834904
 20
-2277.344011215013
 10
3737.940909724349
 20
-2277.126350078967
 10
3738.613426822779
 20
-2276.900218524667
 10
3738.613426822779
 20
-2276.144282379966
 10
3722.009680055968
 20
-2276.144282379967
 10
3722.009680055968
 20
-2288.144282379966
 10
3734.86295801333
 20
-2288.144282379966
 10
3734.86295801333
 20
-2286.944355603235
 10
3736.212643096881
 20
-2286.20021496676
 10
3737.323272997238
 20
-2285.13144297735
 10
3738.119503476557
 20
-2283.812453699051
 10
3738.547384340857
 20
-2282.331613832
 10
3738.613426822779
 20
-2281.544685108873
 97
        0
 92
        7
 72
     0
 73
     1
 93
       32
 10
3755.543137174721
 20
-2280.136102176672
 10
3754.870620076292
 20
-2280.362233730972
 10
3754.492968700982
 20
-2279.984582357843
 10
3754.870620076294
 20
-2279.765991045823
 10
3755.543137174721
 20
-2279.539859491568
 10
3755.543137174721
 20
-2277.016292557711
 10
3754.870620076292
 20
-2277.24242411201
 10
3754.492968700982
 20
-2276.863842562903
 10
3754.870620076294
 20
-2276.646181426854
 10
3755.543137174721
 20
-2276.420049872555
 10
3755.543137174721
 20
-2276.144282379966
 10
3742.362623479508
 20
-2276.144282379966
 10
3741.985314083943
 20
-2276.362675750578
 10
3741.312796985515
 20
-2276.588807304832
 10
3741.312796985515
 20
-2281.544685108881
 10
3741.539759876399
 20
-2283.068313062307
 10
3742.152745725546
 20
-2284.482180272011
 10
3743.110826795531
 20
-2285.68954845491
 10
3744.34796060443
 20
-2286.607631965352
 10
3745.063265790598
 20
-2286.944355603235
 10
3745.063265790598
 20
-2288.144282379966
 10
3755.543137174721
 20
-2288.144282379966
 10
3755.543137174721
 20
-2286.37587608761
 10
3754.870620076293
 20
-2286.60185296918
 10
3754.492968700982
 20
-2286.224201596051
 10
3754.870620076294
 20
-2286.005610284025
 10
3755.543137174721
 20
-2285.779633402502
 10
3755.543137174721
 20
-2283.255911795686
 10
3754.870620076292
 20
-2283.482043349941
 10
3754.492968700982
 20
-2283.104391976814
 10
3754.870620076294
 20
-2282.885800664785
 10
3755.543137174722
 20
-2282.659669110532
 97
        0
 92
        7
 72
     0
 73
     1
 93
       21
 10
3783.255989960655
 20
-2276.144282379966
 10
3758.242507337457
 20
-2276.144282379966
 10
3758.242507337457
 20
-2278.632205586807
 10
3758.915024435885
 20
-2278.406074032552
 10
3759.292675806831
 20
-2278.784655581382
 10
3758.915024435885
 20
-2279.00231671743
 10
3758.242507337458
 20
-2279.228448271729
 10
3758.242507337458
 20
-2281.752015205774
 10
3758.915024435886
 20
-2281.525883651521
 10
3759.292675806831
 20
-2281.904465200351
 10
3758.915024435886
 20
-2282.122126336667
 10
3758.242507337457
 20
-2282.348257890922
 10
3758.242507337457
 20
-2284.872600327984
 10
3758.915024435885
 20
-2284.646623446461
 10
3759.292675806831
 20
-2285.024274819313
 10
3758.915024435884
 20
-2285.242866131338
 10
3758.242507337457
 20
-2285.468843012908
 10
3758.242507337458
 20
-2287.992564619723
 10
3758.915024435885
 20
-2287.766433065423
 10
3759.292873748246
 20
-2288.144282379966
 10
3783.255989960655
 20
-2288.144282379966
 97
        0
 92
        7
 72
     0
 73
     1
 93
        4
 10
4114.26947159444
 20
-2276.144282379966
 10
3783.255989960656
 20
-2276.144282379966
 10
3783.255989960656
 20
-2288.144282379966
 10
4114.26947159444
 20
-2288.144282379966
 97
        0
 92
        7
 72
     0
 73
     1
 93
       15
 10
4125.980246518087
 20
-2277.49646120959
 10
4125.307729419659
 20
-2277.722592763843
 10
4124.930078044347
 20
-2277.344011215013
 10
4125.307729419657
 20
-2277.126350078966
 10
4125.980246518087
 20
-2276.900218524665
 10
4125.980246518085
 20
-2276.144282379966
 10
4114.26947159444
 20
-2276.144282379966
 10
4114.26947159444
 20
-2288.144282379966
 10
4122.229777708638
 20
-2288.144282379966
 10
4122.229777708638
 20
-2286.944355603234
 10
4123.579462792188
 20
-2286.200214966762
 10
4124.690092692548
 20
-2285.131442977351
 10
4125.486323171866
 20
-2283.812453699052
 10
4125.914204036165
 20
-2282.331613832003
 10
4125.980246518087
 20
-2281.544685108873
 97
        0
 92
        7
 72
     0
 73
     1
 93
       32
 10
4139.241497587244
 20
-2280.136102176673
 10
4138.568980488817
 20
-2280.362233730973
 10
4138.191329113506
 20
-2279.984582357844
 10
4138.568980488819
 20
-2279.765991045825
 10
4139.241497587245
 20
-2279.539859491571
 10
4139.241497587245
 20
-2277.01629255771
 10
4138.568980488815
 20
-2277.24242411201
 10
4138.191329113505
 20
-2276.863842562903
 10
4138.568980488818
 20
-2276.646181426854
 10
4139.241497587245
 20
-2276.420049872555
 10
4139.241497587244
 20
-2276.144282379966
 10
4129.729443174816
 20
-2276.144282379966
 10
4129.352133779255
 20
-2276.362675750576
 10
4128.679616680821
 20
-2276.58880730483
 10
4128.679616680822
 20
-2281.544685108882
 10
4128.906579571706
 20
-2283.068313062306
 10
4129.519565420855
 20
-2284.482180272011
 10
4130.477646490838
 20
-2285.68954845491
 10
4131.714780299739
 20
-2286.607631965352
 10
4132.430085485904
 20
-2286.944355603234
 10
4132.430085485904
 20
-2288.144282379966
 10
4139.241497587245
 20
-2288.144282379966
 10
4139.241497587245
 20
-2286.37587608761
 10
4138.568980488817
 20
-2286.60185296918
 10
4138.191329113506
 20
-2286.224201596052
 10
4138.568980488815
 20
-2286.005610284026
 10
4139.241497587245
 20
-2285.779633402502
 10
4139.241497587245
 20
-2283.255911795686
 10
4138.568980488815
 20
-2283.482043349941
 10
4138.191329113506
 20
-2283.104391976813
 10
4138.568980488815
 20
-2282.885800664787
 10
4139.241497587245
 20
-2282.659669110532
 97
        0
 92
        7
 72
     0
 73
     1
 93
       21
 10
4205.486381664829
 20
-2276.144282379966
 10
4141.940867749982
 20
-2276.144282379966
 10
4141.940867749982
 20
-2278.632205586807
 10
4142.613384848409
 20
-2278.406074032552
 10
4142.991036219354
 20
-2278.784655581381
 10
4142.613384848409
 20
-2279.00231671743
 10
4141.940867749982
 20
-2279.22844827173
 10
4141.940867749982
 20
-2281.752015205774
 10
4142.613384848409
 20
-2281.525883651521
 10
4142.991036219355
 20
-2281.904465200351
 10
4142.613384848409
 20
-2282.122126336668
 10
4141.940867749982
 20
-2282.348257890923
 10
4141.940867749982
 20
-2284.872600327985
 10
4142.613384848409
 20
-2284.646623446461
 10
4142.991036219355
 20
-2285.024274819313
 10
4142.613384848411
 20
-2285.242866131338
 10
4141.94086774998
 20
-2285.468843012909
 10
4141.940867749982
 20
-2287.992564619722
 10
4142.613384848409
 20
-2287.766433065423
 10
4142.991234160769
 20
-2288.144282379966
 10
4203.276220386527
 20
-2288.144282379966
 97
        0
 75
     0
 76
     1
 52
0.0
 41
2.5
 77
     0
 78
     1
 53
45.0
 43
178.1929654106134
 44
-321.7859308595379
 45
-5.61266007566822
 46
5.612660075668221
 79
     0
 47
0.6390218217228401
 98
       16
 10
4231.424701056025
 20
-2120.055434676733
 10
4197.531427146754
 20
-2123.250547046109
 10
4145.092789814112
 20
-2121.33347622503
 10
4136.779346948584
 20
-2120.694455450882
 10
4124.628933873863
 20
-2123.889567820257
 10
4104.80456555619
 20
-2123.889567820257
 10
3792.091219252659
 20
-2121.33347622503
 10
3749.884517302431
 20
-2121.33347622503
 10
3733.25763157137
 20
-2121.33347622503
 10
3725.583676328418
 20
-2279.810891671428
 10
3750.52400492501
 20
-2281.088941718358
 10
3778.022313661058
 20
-2281.088941718358
 10
3869.47018518189
 20
-2281.727962492506
 10
4120.152461217523
 20
-2281.088941718358
 10
4133.581879186546
 20
-2281.088941718358
 10
4181.544043862842
 20
-2281.088941718358
  0
TEXT
  5
60A1
330
1F
100
AcDbEntity
  8
POPIS
100
AcDbText
 10
4316.163017753357
 20
-2290.67825183692
 30
0.0
 40
25.0
  1
Podtmelení profilu (papír SIBRAL)
 41
0.7
  7
SIMPLEX7
100
AcDbText
  0
TEXT
  5
60A2
330
1F
100
AcDbEntity
  8
POPIS
100
AcDbText
 10
4261.819314593615
 20
-2290.67825183692
 30
0.0
 40
25.0
  1
07
 41
0.85
  7
SIMPLEX7
100
AcDbText
  0
TEXT
  5
60A3
330
1F
100
AcDbEntity
  8
POPIS
100
AcDbText
 10
4316.163017753357
 20
-2355.422445746931
 30
0.0
 40
25.0
  1
Těsnící páska
 41
0.7
  7
SIMPLEX7
100
AcDbText
  0
TEXT
  5
60A4
330
1F
100
AcDbEntity
  8
POPIS
100
AcDbText
 10
4316.163017753357
 20
-2323.84345020072
 30
0.0
 40
25.0
  1
Hmoždinka
 41
0.7
  7
SIMPLEX7
100
AcDbText
  0
TEXT
  5
60A5
330
1F
100
AcDbEntity
  8
POPIS
100
AcDbText
 10
4261.819314593615
 20
-2355.422445746931
 30
0.0
 40
25.0
  1
09
 41
0.85
  7
SIMPLEX7
100
AcDbText
  0
TEXT
  5
60A6
330
1F
100
AcDbEntity
  8
POPIS
100
AcDbText
 10
4261.819314593615
 20
-2323.84345020072
 30
0.0
 40
25.0
  1
08
 41
0.85
  7
SIMPLEX7
100
AcDbText
  0
TEXT
  5
60A7
330
1F
100
AcDbEntity
  8
POPIS
100
AcDbText
 10
4316.163017753357
 20
-2256.424859297721
 30
0.0
 40
25.0
  1
Tmel DEXAFLAMM - R
 41
0.7
  7
SIMPLEX7
100
AcDbText
  0
TEXT
  5
60A8
330
1F
100
AcDbEntity
  8
POPIS
100
AcDbText
 10
4316.163017753357
 20
-2185.704047755544
 30
0.0
 40
25.0
  1
CW profil (ocelový nosník I, U) - stojina
 41
0.7
  7
SIMPLEX7
100
AcDbText
  0
TEXT
  5
60A9
330
1F
100
AcDbEntity
  8
POPIS
100
AcDbText
 10
4316.163017753357
 20
-2150.299886537381
 30
0.0
 40
25.0
  1
Minerální plsť (vzduchová mezera)
 41
0.7
  7
SIMPLEX7
100
AcDbText
  0
TEXT
  5
60AA
330
1F
100
AcDbEntity
  8
POPIS
100
AcDbText
 10
4316.163017753357
 20
-2081.634093362568
 30
0.0
 40
25.0
  1
Vrut 4,2x35 (45,55) mm
 41
0.7
  7
SIMPLEX7
100
AcDbText
  0
TEXT
  5
60AB
330
1F
100
AcDbEntity
  8
POPIS
100
AcDbText
 10
4316.163017753357
 20
-2219.589319294829
 30
0.0
 40
25.0
  1
UW profil (ocelový nosník I, U)
 41
0.7
  7
SIMPLEX7
100
AcDbText
  0
TEXT
  5
60AC
330
1F
100
AcDbEntity
  8
POPIS
100
AcDbText
 10
4316.163017753357
 20
-2045.039081746941
 30
0.0
 40
25.0
  1
Deska CETRIS   
 41
0.7
  7
SIMPLEX7
100
AcDbText
  0
TEXT
  5
60AD
330
1F
100
AcDbEntity
  8
POPIS
100
AcDbText
 10
4261.819314593615
 20
-2150.299886537381
 30
0.0
 40
25.0
  1
03
 41
0.85
  7
SIMPLEX7
100
AcDbText
  0
TEXT
  5
60AE
330
1F
100
AcDbEntity
  8
POPIS
100
AcDbText
 10
4261.819314593615
 20
-2219.589319294829
 30
0.0
 40
25.0
  1
05
 41
0.85
  7
SIMPLEX7
100
AcDbText
  0
TEXT
  5
60AF
330
1F
100
AcDbEntity
  8
POPIS
100
AcDbText
 10
4261.819314593615
 20
-2256.424859297721
 30
0.0
 40
25.0
  1
06
 41
0.85
  7
SIMPLEX7
100
AcDbText
  0
TEXT
  5
60B0
330
1F
100
AcDbEntity
  8
POPIS
100
AcDbText
 10
4261.819314593615
 20
-2185.704047755544
 30
0.0
 40
25.0
  1
04
 41
0.85
  7
SIMPLEX7
100
AcDbText
  0
TEXT
  5
60B1
330
1F
100
AcDbEntity
  8
POPIS
100
AcDbText
 10
4261.819314593615
 20
-2081.634093362568
 30
0.0
 40
25.0
  1
02
 41
0.85
  7
SIMPLEX7
100
AcDbText
  0
CIRCLE
  5
60B2
330
1F
100
AcDbEntity
  8
POPIS
100
AcDbCircle
 10
4488.548232047583
 20
-2014.518425893673
 30
0.0
 40
11.13656048292026
  0
TEXT
  5
60B3
330
1F
100
AcDbEntity
  8
POPIS
100
AcDbText
 10
4483.789202992403
 20
-2020.06377163866
 30
0.0
 40
12.0
  1
R
 41
0.85
  7
SIMPLEX7
100
AcDbText
  0
TEXT
  5
60B4
330
1F
100
AcDbEntity
  8
POPIS
100
AcDbText
 10
4261.819314593615
 20
-2045.039081746941
 30
0.0
 40
25.0
  1
01
 41
0.85
  7
SIMPLEX7
100
AcDbText
  0
TEXT
  5
79AE
330
1F
100
AcDbEntity
  8
POPIS
100
AcDbText
 10
3531.016901964325
 20
-1881.169306143483
 30
0.0
 40
45.0
  1
Požárně dělící příčka (stěna) - vícevrstvé opláštění
 41
0.7
  7
SIMPLEX7
100
AcDbText
  0
TEXT
  5
79B0
330
1F
100
AcDbEntity
  8
POPIS
100
AcDbText
 10
3536.198946460034
 20
-1929.043978690884
 30
0.0
 40
35.0
  1
Napojení u stěny
 41
0.85
  7
SIMPLEX7
100
AcDbText
  0
TEXT
  5
79B1
330
1F
100
AcDbEntity
  8
POPIS
100
AcDbText
 10
3536.198946460034
 20
-1968.458866691773
 30
0.0
 40
25.0
  1
Vodorovný řez
 41
0.7
  7
SIMPLEX7
100
AcDbText
  0
TEXT
  5
9F9E
330
1F
100
AcDbEntity
  8
POPIS
100
AcDbText
 10
4259.93728950701
 20
-2113.159076774417
 30
0.0
 40
25.0
  1
(v exteriéru vrut s viditelnou hlavou a těsnící podložkou)
 41
0.6
 51
10.0
  7
SIMPLEX7
100
AcDbText
  0
ENDSEC
  0
SECTION
  2
OBJECTS
  0
DICTIONARY
  5
C
330
0
100
AcDbDictionary
281
     1
  3
ACAD_GROUP
350
D
  3
ACAD_LAYOUT
350
1A
  3
ACAD_MLINESTYLE
350
17
  3
ACAD_PLOTSETTINGS
350
19
  3
ACAD_PLOTSTYLENAME
350
E
  3
AcDbVariableDictionary
350
17BD
  0
DICTIONARY
  5
D
102
{ACAD_REACTORS
330
C
102
}
330
C
100
AcDbDictionary
281
     1
  0
DICTIONARY
  5
1A
102
{ACAD_REACTORS
330
C
102
}
330
C
100
AcDbDictionary
281
     1
  3
Model
350
22
  3
Rozvržení1
350
1E
  3
Rozvržení2
350
26
  0
DICTIONARY
  5
17
102
{ACAD_REACTORS
330
C
102
}
330
C
100
AcDbDictionary
281
     1
  3
Standard
350
18
  0
DICTIONARY
  5
19
102
{ACAD_REACTORS
330
C
102
}
330
C
100
AcDbDictionary
281
     1
  0
ACDBDICTIONARYWDFLT
  5
E
102
{ACAD_REACTORS
330
C
102
}
330
C
100
AcDbDictionary
281
     1
  3
Normal
350
F
100
AcDbDictionaryWithDefault
340
F
  0
DICTIONARY
  5
17BD
102
{ACAD_REACTORS
330
C
102
}
330
C
100
AcDbDictionary
281
     1
  3
DIMASSOC
350
9F87
  3
SORTENTS
350
17BE
  0
LAYOUT
  5
22
102
{ACAD_REACTORS
330
1A
102
}
330
1A
100
AcDbPlotSettings
  1

  2
HP DeskJet 690C
  4

  6

 40
0.0
 41
0.0
 42
0.0
 43
0.0
 44
0.0
 45
0.0
 46
0.0
 47
0.0
 48
0.0
 49
0.0
140
0.0
141
0.0
142
1.0
143
1.0
 70
  1712
 72
     0
 73
     0
 74
     0
  7
monochrome.ctb
 75
     0
147
1.0
148
0.0
149
0.0
100
AcDbLayout
  1
Model
 70
     1
 71
     0
 10
0.0
 20
0.0
 11
12.0
 21
9.0
 12
0.0
 22
0.0
 32
0.0
 14
0.0
 24
0.0
 34
0.0
 15
0.0
 25
0.0
 35
0.0
146
0.0
 13
0.0
 23
0.0
 33
0.0
 16
1.0
 26
0.0
 36
0.0
 17
0.0
 27
1.0
 37
0.0
 76
     0
330
1F
  0
LAYOUT
  5
1E
102
{ACAD_REACTORS
330
1A
102
}
330
1A
100
AcDbPlotSettings
  1

  2
HP DeskJet 690C
  4

  6

 40
0.0
 41
0.0
 42
0.0
 43
0.0
 44
0.0
 45
0.0
 46
0.0
 47
0.0
 48
0.0
 49
0.0
140
0.0
141
0.0
142
1.0
143
1.0
 70
   688
 72
     0
 73
     0
 74
     5
  7
monochrome.ctb
 75
    16
147
1.0
148
0.0
149
0.0
100
AcDbLayout
  1
Rozvržení1
 70
     1
 71
     1
 10
0.0
 20
0.0
 11
420.0
 21
297.0
 12
0.0
 22
0.0
 32
0.0
 14
1.000000000000000E+20
 24
1.000000000000000E+20
 34
1.000000000000000E+20
 15
-1.000000000000000E+20
 25
-1.000000000000000E+20
 35
-1.000000000000000E+20
146
0.0
 13
0.0
 23
0.0
 33
0.0
 16
1.0
 26
0.0
 36
0.0
 17
0.0
 27
1.0
 37
0.0
 76
     0
330
1B
  0
LAYOUT
  5
26
102
{ACAD_REACTORS
330
1A
102
}
330
1A
100
AcDbPlotSettings
  1

  2
HP DeskJet 690C
  4

  6

 40
0.0
 41
0.0
 42
0.0
 43
0.0
 44
0.0
 45
0.0
 46
0.0
 47
0.0
 48
0.0
 49
0.0
140
0.0
141
0.0
142
1.0
143
1.0
 70
   688
 72
     0
 73
     0
 74
     5
  7
monochrome.ctb
 75
    16
147
1.0
148
0.0
149
0.0
100
AcDbLayout
  1
Rozvržení2
 70
     1
 71
     2
 10
0.0
 20
0.0
 11
12.0
 21
9.0
 12
0.0
 22
0.0
 32
0.0
 14
0.0
 24
0.0
 34
0.0
 15
0.0
 25
0.0
 35
0.0
146
0.0
 13
0.0
 23
0.0
 33
0.0
 16
1.0
 26
0.0
 36
0.0
 17
0.0
 27
1.0
 37
0.0
 76
     0
330
23
  0
MLINESTYLE
  5
18
102
{ACAD_REACTORS
330
17
102
}
330
17
100
AcDbMlineStyle
  2
STANDARD
 70
     0
  3

 62
   256
 51
90.0
 52
90.0
 71
     2
 49
0.5
 62
   256
  6
BYLAYER
 49
-0.5
 62
   256
  6
BYLAYER
  0
ACDBPLACEHOLDER
  5
F
102
{ACAD_REACTORS
330
E
102
}
330
E
  0
DICTIONARYVAR
  5
9F87
102
{ACAD_REACTORS
330
17BD
102
}
330
17BD
100
DictionaryVariables
280
     0
  1
1
  0
DICTIONARYVAR
  5
17BE
102
{ACAD_REACTORS
330
17BD
102
}
330
17BD
100
DictionaryVariables
280
     0
  1
96
  0
ENDSEC
  0
EOF
