  0
SECTION
  2
HEADER
  9
$ACADVER
  1
AC1015
  9
$ACADMAINTVER
 70
    14
  9
$DWGCODEPAGE
  3
ANSI_1250
  9
$INSBASE
 10
0.0
 20
0.0
 30
0.0
  9
$EXTMIN
 10
8130.69149545057
 20
256.2613259483478
 30
-0.0015258207003583
  9
$EXTMAX
 10
9334.17282835062
 20
910.9308897383453
 30
0.0000000349246037
  9
$LIMMIN
 10
0.0
 20
0.0
  9
$LIMMAX
 10
420.0
 20
297.0
  9
$ORTHOMODE
 70
     0
  9
$REGENMODE
 70
     1
  9
$FILLMODE
 70
     1
  9
$QTEXTMODE
 70
     0
  9
$MIRRTEXT
 70
     1
  9
$LTSCALE
 40
1.0
  9
$ATTMODE
 70
     1
  9
$TEXTSIZE
 40
2.5
  9
$TRACEWID
 40
1.0
  9
$TEXTSTYLE
  7
Standard
  9
$CLAYER
  8
CETRIS
  9
$CELTYPE
  6
ByLayer
  9
$CECOLOR
 62
   256
  9
$CELTSCALE
 40
1.0
  9
$DISPSILH
 70
     0
  9
$DIMSCALE
 40
1.0
  9
$DIMASZ
 40
2.5
  9
$DIMEXO
 40
0.625
  9
$DIMDLI
 40
3.75
  9
$DIMRND
 40
0.0
  9
$DIMDLE
 40
0.0
  9
$DIMEXE
 40
1.25
  9
$DIMTP
 40
0.0
  9
$DIMTM
 40
0.0
  9
$DIMTXT
 40
2.5
  9
$DIMCEN
 40
2.5
  9
$DIMTSZ
 40
0.0
  9
$DIMTOL
 70
     0
  9
$DIMLIM
 70
     0
  9
$DIMTIH
 70
     0
  9
$DIMTOH
 70
     0
  9
$DIMSE1
 70
     0
  9
$DIMSE2
 70
     0
  9
$DIMTAD
 70
     1
  9
$DIMZIN
 70
     8
  9
$DIMBLK
  1

  9
$DIMASO
 70
     1
  9
$DIMSHO
 70
     1
  9
$DIMPOST
  1

  9
$DIMAPOST
  1

  9
$DIMALT
 70
     0
  9
$DIMALTD
 70
     3
  9
$DIMALTF
 40
0.03937007874016
  9
$DIMLFAC
 40
1.0
  9
$DIMTOFL
 70
     1
  9
$DIMTVP
 40
0.0
  9
$DIMTIX
 70
     0
  9
$DIMSOXD
 70
     0
  9
$DIMSAH
 70
     0
  9
$DIMBLK1
  1

  9
$DIMBLK2
  1

  9
$DIMSTYLE
  2
ISO-25
  9
$DIMCLRD
 70
     0
  9
$DIMCLRE
 70
     0
  9
$DIMCLRT
 70
     0
  9
$DIMTFAC
 40
1.0
  9
$DIMGAP
 40
0.625
  9
$DIMJUST
 70
     0
  9
$DIMSD1
 70
     0
  9
$DIMSD2
 70
     0
  9
$DIMTOLJ
 70
     0
  9
$DIMTZIN
 70
     8
  9
$DIMALTZ
 70
     0
  9
$DIMALTTZ
 70
     0
  9
$DIMUPT
 70
     0
  9
$DIMDEC
 70
     2
  9
$DIMTDEC
 70
     2
  9
$DIMALTU
 70
     2
  9
$DIMALTTD
 70
     3
  9
$DIMTXSTY
  7
Standard
  9
$DIMAUNIT
 70
     0
  9
$DIMADEC
 70
     0
  9
$DIMALTRND
 40
0.0
  9
$DIMAZIN
 70
     0
  9
$DIMDSEP
 70
    44
  9
$DIMATFIT
 70
     3
  9
$DIMFRAC
 70
     0
  9
$DIMLDRBLK
  1

  9
$DIMLUNIT
 70
     2
  9
$DIMLWD
 70
    -2
  9
$DIMLWE
 70
    -2
  9
$DIMTMOVE
 70
     0
  9
$LUNITS
 70
     2
  9
$LUPREC
 70
     4
  9
$SKETCHINC
 40
1.0
  9
$FILLETRAD
 40
0.0
  9
$AUNITS
 70
     0
  9
$AUPREC
 70
     0
  9
$MENU
  1
.
  9
$ELEVATION
 40
0.0
  9
$PELEVATION
 40
0.0
  9
$THICKNESS
 40
0.0
  9
$LIMCHECK
 70
     0
  9
$CHAMFERA
 40
10.0
  9
$CHAMFERB
 40
10.0
  9
$CHAMFERC
 40
20.0
  9
$CHAMFERD
 40
0.0
  9
$SKPOLY
 70
     0
  9
$TDCREATE
 40
2452332.512107639
  9
$TDUCREATE
 40
2452332.470440972
  9
$TDUPDATE
 40
2455601.287083159
  9
$TDUUPDATE
 40
2455601.245416493
  9
$TDINDWG
 40
1.0584137384
  9
$TDUSRTIMER
 40
1.0583998495
  9
$USRTIMER
 70
     1
  9
$ANGBASE
 50
0.0
  9
$ANGDIR
 70
     0
  9
$PDMODE
 70
     0
  9
$PDSIZE
 40
0.0
  9
$PLINEWID
 40
0.0
  9
$SPLFRAME
 70
     0
  9
$SPLINETYPE
 70
     6
  9
$SPLINESEGS
 70
     8
  9
$HANDSEED
  5
9FB1
  9
$SURFTAB1
 70
     6
  9
$SURFTAB2
 70
     6
  9
$SURFTYPE
 70
     6
  9
$SURFU
 70
     6
  9
$SURFV
 70
     6
  9
$UCSBASE
  2

  9
$UCSNAME
  2

  9
$UCSORG
 10
0.0
 20
0.0
 30
0.0
  9
$UCSXDIR
 10
1.0
 20
0.0
 30
0.0
  9
$UCSYDIR
 10
0.0
 20
1.0
 30
0.0
  9
$UCSORTHOREF
  2

  9
$UCSORTHOVIEW
 70
     0
  9
$UCSORGTOP
 10
0.0
 20
0.0
 30
0.0
  9
$UCSORGBOTTOM
 10
0.0
 20
0.0
 30
0.0
  9
$UCSORGLEFT
 10
0.0
 20
0.0
 30
0.0
  9
$UCSORGRIGHT
 10
0.0
 20
0.0
 30
0.0
  9
$UCSORGFRONT
 10
0.0
 20
0.0
 30
0.0
  9
$UCSORGBACK
 10
0.0
 20
0.0
 30
0.0
  9
$PUCSBASE
  2

  9
$PUCSNAME
  2

  9
$PUCSORG
 10
0.0
 20
0.0
 30
0.0
  9
$PUCSXDIR
 10
1.0
 20
0.0
 30
0.0
  9
$PUCSYDIR
 10
0.0
 20
1.0
 30
0.0
  9
$PUCSORTHOREF
  2

  9
$PUCSORTHOVIEW
 70
     0
  9
$PUCSORGTOP
 10
0.0
 20
0.0
 30
0.0
  9
$PUCSORGBOTTOM
 10
0.0
 20
0.0
 30
0.0
  9
$PUCSORGLEFT
 10
0.0
 20
0.0
 30
0.0
  9
$PUCSORGRIGHT
 10
0.0
 20
0.0
 30
0.0
  9
$PUCSORGFRONT
 10
0.0
 20
0.0
 30
0.0
  9
$PUCSORGBACK
 10
0.0
 20
0.0
 30
0.0
  9
$USERI1
 70
     0
  9
$USERI2
 70
     0
  9
$USERI3
 70
     0
  9
$USERI4
 70
     0
  9
$USERI5
 70
     0
  9
$USERR1
 40
0.0
  9
$USERR2
 40
0.0
  9
$USERR3
 40
0.0
  9
$USERR4
 40
0.0
  9
$USERR5
 40
0.0
  9
$WORLDVIEW
 70
     1
  9
$SHADEDGE
 70
     3
  9
$SHADEDIF
 70
    70
  9
$TILEMODE
 70
     1
  9
$MAXACTVP
 70
    64
  9
$PINSBASE
 10
0.0
 20
0.0
 30
0.0
  9
$PLIMCHECK
 70
     0
  9
$PEXTMIN
 10
1.000000000000000E+20
 20
1.000000000000000E+20
 30
1.000000000000000E+20
  9
$PEXTMAX
 10
-1.000000000000000E+20
 20
-1.000000000000000E+20
 30
-1.000000000000000E+20
  9
$PLIMMIN
 10
0.0
 20
0.0
  9
$PLIMMAX
 10
420.0
 20
297.0
  9
$UNITMODE
 70
     0
  9
$VISRETAIN
 70
     1
  9
$PLINEGEN
 70
     0
  9
$PSLTSCALE
 70
     1
  9
$TREEDEPTH
 70
  3020
  9
$CMLSTYLE
  2
Standard
  9
$CMLJUST
 70
     0
  9
$CMLSCALE
 40
20.0
  9
$PROXYGRAPHICS
 70
     1
  9
$MEASUREMENT
 70
     1
  9
$CELWEIGHT
370
    -1
  9
$ENDCAPS
280
     0
  9
$JOINSTYLE
280
     0
  9
$LWDISPLAY
290
     0
  9
$INSUNITS
 70
     4
  9
$HYPERLINKBASE
  1

  9
$STYLESHEET
  1

  9
$XEDIT
290
     1
  9
$CEPSNTYPE
380
     0
  9
$PSTYLEMODE
290
     1
  9
$FINGERPRINTGUID
  2
{D99C744E-04C5-44F1-9703-862C59725F9B}
  9
$VERSIONGUID
  2
{CC59066C-37A4-484A-96FE-4C46038A36AE}
  9
$EXTNAMES
290
     1
  9
$PSVPSCALE
 40
0.0
  9
$OLESTARTUP
290
     0
  0
ENDSEC
  0
SECTION
  2
CLASSES
  0
CLASS
  1
ACDBDICTIONARYWDFLT
  2
AcDbDictionaryWithDefault
  3
AutoCAD 2000
 90
        0
280
     0
281
     0
  0
CLASS
  1
ACDBPLACEHOLDER
  2
AcDbPlaceHolder
  3
AutoCAD 2000
 90
        0
280
     0
281
     0
  0
CLASS
  1
LAYOUT
  2
AcDbLayout
  3
AutoCAD 2000
 90
        0
280
     0
281
     0
  0
CLASS
  1
DICTIONARYVAR
  2
AcDbDictionaryVar
  3
AutoCAD 2000
 90
        0
280
     0
281
     0
  0
ENDSEC
  0
SECTION
  2
TABLES
  0
TABLE
  2
VPORT
  5
8
330
0
100
AcDbSymbolTable
 70
     2
  0
VPORT
  5
9FB0
330
8
100
AcDbSymbolTableRecord
100
AcDbViewportTableRecord
  2
*Active
 70
     0
 10
0.0
 20
0.0
 11
1.0
 21
1.0
 12
8495.129401401431
 22
526.8608592663647
 13
0.0
 23
0.0
 14
10.0
 24
10.0
 15
10.0
 25
10.0
 16
0.0
 26
0.0
 36
1.0
 17
0.0
 27
0.0
 37
0.0
 40
922.9451149249484
 41
2.031862745098039
 42
50.0
 43
0.0
 44
0.0
 50
0.0
 51
0.0
 71
     0
 72
   100
 73
     1
 74
     3
 75
     0
 76
     1
 77
     0
 78
     0
281
     0
 65
     1
110
0.0
120
0.0
130
0.0
111
1.0
121
0.0
131
0.0
112
0.0
122
1.0
132
0.0
 79
     0
146
0.0
  0
ENDTAB
  0
TABLE
  2
LTYPE
  5
5
330
0
100
AcDbSymbolTable
 70
     5
  0
LTYPE
  5
14
330
5
100
AcDbSymbolTableRecord
100
AcDbLinetypeTableRecord
  2
ByBlock
 70
     0
  3

 72
    65
 73
     0
 40
0.0
  0
LTYPE
  5
15
330
5
100
AcDbSymbolTableRecord
100
AcDbLinetypeTableRecord
  2
ByLayer
 70
     0
  3

 72
    65
 73
     0
 40
0.0
  0
LTYPE
  5
16
330
5
100
AcDbSymbolTableRecord
100
AcDbLinetypeTableRecord
  2
Continuous
 70
     0
  3
Solid line
 72
    65
 73
     0
 40
0.0
  0
LTYPE
  5
33
330
5
100
AcDbSymbolTableRecord
100
AcDbLinetypeTableRecord
  2
DASHED
 70
     0
  3
Dashed __ __ __ __ __ __ __ __ __ __ __ __ __ _
 72
    65
 73
     2
 40
19.04999999999999
 49
12.7
 74
     0
 49
-6.349999999999999
 74
     0
  0
LTYPE
  5
34
330
5
100
AcDbSymbolTableRecord
100
AcDbLinetypeTableRecord
  2
DASHDOT2
 70
     0
  3
Dash dot (.5x) _._._._._._._._._._._._._._._.
 72
    65
 73
     4
 40
12.7
 49
6.349999999999999
 74
     0
 49
-3.174999999999999
 74
     0
 49
0.0
 74
     0
 49
-3.174999999999999
 74
     0
  0
LTYPE
  5
35
330
5
100
AcDbSymbolTableRecord
100
AcDbLinetypeTableRecord
  2
CIKCAK
 70
     0
  3
Cik-cak /\/\/\/\/\/\/\/\/\/\/\/\/\/\/\/\/\/\/\/
 72
    65
 73
     4
 40
20.32254
 49
0.00254
 74
     0
 49
-5.08
 74
     4
 75
   131
340
3E
 46
5.08
 50
0.0
 44
-5.08
 45
0.0
 49
-10.16
 74
     4
 75
   131
340
3E
 46
5.08
 50
180.0
 44
5.08
 45
0.0
 49
-5.08
 74
     0
  0
LTYPE
  5
36
330
5
100
AcDbSymbolTableRecord
100
AcDbLinetypeTableRecord
  2
IZOLACE
 70
     0
  3
Izolace SSSSSSSSSSSSSSSSSSSSSSSSSSSSSSSSSSSSSSS
 72
    65
 73
     4
 40
10.16253999999999
 49
0.00254
 74
     0
 49
-2.54
 74
     4
 75
   134
340
3E
 46
2.54
 50
0.0
 44
-2.54
 45
0.0
 49
-5.08
 74
     4
 75
   134
340
3E
 46
2.54
 50
180.0
 44
2.54
 45
0.0
 49
-2.54
 74
     0
  0
ENDTAB
  0
TABLE
  2
LAYER
  5
2
330
0
100
AcDbSymbolTable
 70
     8
  0
LAYER
  5
10
330
2
100
AcDbSymbolTableRecord
100
AcDbLayerTableRecord
  2
0
 70
     0
 62
     7
  6
Continuous
370
    -3
390
F
  0
LAYER
  5
37
330
2
100
AcDbSymbolTableRecord
100
AcDbLayerTableRecord
  2
POPIS
 70
     0
 62
    30
  6
Continuous
370
    -3
390
F
  0
LAYER
  5
38
330
2
100
AcDbSymbolTableRecord
100
AcDbLayerTableRecord
  2
SPOJOVACÍ
 70
     0
 62
   180
  6
Continuous
370
    -3
390
F
  0
LAYER
  5
39
330
2
100
AcDbSymbolTableRecord
100
AcDbLayerTableRecord
  2
CETRIS
 70
     0
 62
     1
  6
Continuous
370
    -3
390
F
  0
LAYER
  5
3A
330
2
100
AcDbSymbolTableRecord
100
AcDbLayerTableRecord
  2
NOSNÉ KONSTRUKCE
 70
     0
 62
    33
  6
Continuous
370
    -3
390
F
  0
LAYER
  5
3B
330
2
100
AcDbSymbolTableRecord
100
AcDbLayerTableRecord
  2
izolace
 70
     0
 62
    73
  6
Continuous
370
    -3
390
F
  0
LAYER
  5
3C
330
2
100
AcDbSymbolTableRecord
100
AcDbLayerTableRecord
  2
STAVBA OBRYS
 70
     0
 62
     6
  6
Continuous
370
    -3
390
F
  0
LAYER
  5
1B41
330
2
100
AcDbSymbolTableRecord
100
AcDbLayerTableRecord
  2
Defpoints
 70
     0
 62
     7
  6
Continuous
290
     0
370
    -3
390
F
  0
ENDTAB
  0
TABLE
  2
STYLE
  5
3
330
0
100
AcDbSymbolTable
 70
     3
  0
STYLE
  5
11
330
3
100
AcDbSymbolTableRecord
100
AcDbTextStyleTableRecord
  2
Standard
 70
     0
 40
0.0
 41
1.0
 50
0.0
 71
     0
 42
2.5
  3
txt
  4

  0
STYLE
  5
3D
330
3
100
AcDbSymbolTableRecord
100
AcDbTextStyleTableRecord
  2
SIMPLEX7
 70
     0
 40
0.0
 41
0.85
 50
0.0
 71
     0
 42
102.0
  3
ARIAL.TTF
  4

1001
ACAD
1000
Arial CE
1071
    60962
  0
STYLE
  5
3E
330
3
100
AcDbSymbolTableRecord
100
AcDbTextStyleTableRecord
  2

 70
     1
 40
0.0
 41
1.0
 50
0.0
 71
     0
 42
2.5
  3
ltypeshp.shx
  4

  0
ENDTAB
  0
TABLE
  2
VIEW
  5
6
330
0
100
AcDbSymbolTable
 70
     0
  0
ENDTAB
  0
TABLE
  2
UCS
  5
7
330
0
100
AcDbSymbolTable
 70
     0
  0
ENDTAB
  0
TABLE
  2
APPID
  5
9
330
0
100
AcDbSymbolTable
 70
     1
  0
APPID
  5
12
330
9
100
AcDbSymbolTableRecord
100
AcDbRegAppTableRecord
  2
ACAD
 70
     0
  0
ENDTAB
  0
TABLE
  2
DIMSTYLE
  5
A
330
0
100
AcDbSymbolTable
 70
     1
100
AcDbDimStyleTable
 71
     1
340
27
  0
DIMSTYLE
105
27
330
A
100
AcDbSymbolTableRecord
100
AcDbDimStyleTableRecord
  2
ISO-25
 70
     0
 41
2.5
 42
0.625
 43
3.75
 44
1.25
 73
     0
 74
     0
 77
     1
 78
     8
140
2.5
141
2.5
143
0.03937007874016
147
0.625
171
     3
172
     1
271
     2
272
     2
274
     3
278
    44
283
     0
284
     8
340
11
  0
ENDTAB
  0
TABLE
  2
BLOCK_RECORD
  5
1
330
0
100
AcDbSymbolTable
 70
     3
  0
BLOCK_RECORD
  5
1F
330
1
100
AcDbSymbolTableRecord
100
AcDbBlockTableRecord
  2
*Model_Space
340
22
  0
BLOCK_RECORD
  5
1B
330
1
100
AcDbSymbolTableRecord
100
AcDbBlockTableRecord
  2
*Paper_Space
340
1E
  0
BLOCK_RECORD
  5
23
330
1
100
AcDbSymbolTableRecord
100
AcDbBlockTableRecord
  2
*Paper_Space0
340
26
  0
BLOCK_RECORD
  5
2B
330
1
100
AcDbSymbolTableRecord
100
AcDbBlockTableRecord
  2
E_PUNKT
340
0
102
{BLKREFS
331
D05
331
D1A
331
D1D
331
1138
331
1350
331
1351
331
1352
331
1353
331
1414
331
1415
331
1416
331
EAD
331
EB1
331
EB4
331
EB9
331
EBF
331
EC1
331
15BB
331
15BC
331
15C2
331
15C3
331
15CA
331
1D1A
331
1FE7
331
2073
331
2074
331
208A
331
208C
331
2113
331
23A8
331
2669
331
25ED
331
2AB6
331
2B8E
331
2BEE
331
2F0B
331
2E50
331
2E2C
331
2DB0
331
2F0A
331
3527
331
365E
331
371B
331
3C9E
331
3C9F
331
3CA8
331
3CAB
331
3CAC
331
3CAE
331
449A
331
4533
331
45E9
331
45B0
331
4420
331
4498
331
4379
331
45F5
331
47D7
331
4CE5
331
4CE8
331
4CEB
331
5176
331
519A
331
5197
331
5199
331
5198
331
519B
331
519D
331
51A1
331
524F
331
5251
331
5413
331
5412
331
5414
331
5417
331
541A
331
541D
331
567D
331
5667
331
56B3
331
56D8
331
56DC
331
56D9
331
5D48
331
5D4C
331
5F2A
331
5F30
331
5F31
331
5F39
331
5F3B
331
60B5
331
60B6
331
611F
331
6123
331
6126
331
6131
331
612F
331
6130
331
6148
331
6C59
331
6C5A
331
6AD5
331
7412
331
6C86
331
74A2
331
6C7B
331
745F
331
6A75
331
74D0
331
7592
331
74DB
331
74DA
331
75EE
331
75F4
331
75F7
331
75FB
331
75FC
331
7601
331
79D9
331
79DA
331
79DC
331
8178
331
8177
331
8179
331
817D
331
8180
331
8182
331
8186
331
8189
331
818C
331
8B1A
331
8B1F
331
8B21
331
8A05
331
8B1D
331
88E8
331
8CB1
331
8CB9
102
}
  0
BLOCK_RECORD
  5
2F
330
1
100
AcDbSymbolTableRecord
100
AcDbBlockTableRecord
  2
_ArchTick
340
0
102
{BLKREFS
331
B3F
331
B47
331
B48
331
205C
331
205D
102
}
  0
ENDTAB
  0
ENDSEC
  0
SECTION
  2
BLOCKS
  0
BLOCK
  5
20
330
1F
100
AcDbEntity
  8
0
100
AcDbBlockBegin
  2
*Model_Space
 70
     0
 10
0.0
 20
0.0
 30
0.0
  3
*Model_Space
  1

  0
ENDBLK
  5
21
330
1F
100
AcDbEntity
  8
0
100
AcDbBlockEnd
  0
BLOCK
  5
1C
330
1B
100
AcDbEntity
 67
     1
  8
0
100
AcDbBlockBegin
  2
*Paper_Space
 70
     0
 10
0.0
 20
0.0
 30
0.0
  3
*Paper_Space
  1

  0
ENDBLK
  5
1D
330
1B
100
AcDbEntity
 67
     1
  8
0
100
AcDbBlockEnd
  0
BLOCK
  5
24
330
23
100
AcDbEntity
  8
0
100
AcDbBlockBegin
  2
*Paper_Space0
 70
     0
 10
0.0
 20
0.0
 30
0.0
  3
*Paper_Space0
  1

  0
ENDBLK
  5
25
330
23
100
AcDbEntity
  8
0
100
AcDbBlockEnd
  0
BLOCK
  5
2D
330
2B
100
AcDbEntity
  8
0
100
AcDbBlockBegin
  2
E_PUNKT
 70
     0
 10
0.0
 20
0.0
 30
0.0
  3
E_PUNKT
  1

  0
LWPOLYLINE
  5
2C
330
2B
100
AcDbEntity
  8
POPIS
100
AcDbPolyline
 90
        2
 70
     1
 43
2.5
 10
1.27761037562675
 20
0.0290683308725193
 42
-1.0
 10
-1.222389624373249
 20
0.0290683308725193
 42
-1.0
  0
ENDBLK
  5
2E
330
2B
100
AcDbEntity
  8
0
100
AcDbBlockEnd
  0
BLOCK
  5
31
330
2F
100
AcDbEntity
  8
0
100
AcDbBlockBegin
  2
_ArchTick
 70
     0
 10
0.0
 20
0.0
 30
0.0
  3
_ArchTick
  1

  0
LWPOLYLINE
  5
30
330
2F
100
AcDbEntity
  8
0
  6
ByBlock
 62
     0
100
AcDbPolyline
 90
        2
 70
     0
 43
0.15
 10
-0.5
 20
-0.5
 10
0.5
 20
0.5
  0
ENDBLK
  5
32
330
2F
100
AcDbEntity
  8
0
100
AcDbBlockEnd
  0
ENDSEC
  0
SECTION
  2
ENTITIES
  0
TEXT
  5
15B2
330
1F
100
AcDbEntity
  8
POPIS
100
AcDbText
 10
8135.425140418639
 20
853.696470066594
 30
0.0
 40
45.0
  1
Požárně dělící příčka (stěna) - jednovrstvé opláštění
 41
0.7
  7
SIMPLEX7
100
AcDbText
  0
LINE
  5
257B
330
1F
100
AcDbEntity
  8
POPIS
100
AcDbLine
 10
8131.295930885274
 20
288.9918909360403
 30
0.0
 11
8159.893095017208
 21
444.2592793173662
 31
0.0
  0
LINE
  5
257C
330
1F
100
AcDbEntity
  8
izolace
  6
IZOLACE
 48
2.2
100
AcDbLine
 10
8146.126688390964
 20
369.5150146626344
 30
0.0
 11
8668.653895160989
 21
369.5150146626344
 31
0.0
  0
LINE
  5
257D
330
1F
100
AcDbEntity
  8
NOSNÉ KONSTRUKCE
  6
DASHED
100
AcDbLine
 10
8149.266728933609
 20
386.563764399453
 30
0.0
 11
8668.653895160989
 21
386.563764399453
 31
0.0
  0
LINE
  5
257E
330
1F
100
AcDbEntity
  8
NOSNÉ KONSTRUKCE
100
AcDbLine
 10
8150.64773623993
 20
394.0618994172691
 30
0.0
 11
8668.653895160989
 21
394.0618994172691
 31
0.0
  0
LINE
  5
257F
330
1F
100
AcDbEntity
  8
CETRIS
100
AcDbLine
 10
8153.12092893299
 20
407.4900200743928
 30
0.0
 11
8668.653895160989
 21
407.4900200743932
 31
0.0
  0
LINE
  5
2580
330
1F
100
AcDbEntity
  8
NOSNÉ KONSTRUKCE
100
AcDbLine
 10
8152.929119368891
 20
406.4485961784182
 30
0.0
 11
8668.653895160989
 21
406.4485961784182
 31
0.0
  0
LINE
  5
2581
330
1F
100
AcDbEntity
  8
CETRIS
100
AcDbLine
 10
8155.331090211289
 20
419.4900200743915
 30
0.0
 11
8668.653895160987
 21
419.490020074392
 31
0.0
  0
LINE
  5
2582
330
1F
100
AcDbEntity
  8
CETRIS
100
AcDbLine
 10
8139.080464218181
 20
331.2577657896413
 30
0.0
 11
8668.653895160989
 21
331.2577657896413
 31
0.0
  0
LINE
  5
2583
330
1F
100
AcDbEntity
  8
NOSNÉ KONSTRUKCE
100
AcDbLine
 10
8139.255302990642
 20
332.207047314982
 30
0.0
 11
8668.653895160989
 21
332.2070473149819
 31
0.0
  0
LINE
  5
2584
330
1F
100
AcDbEntity
  8
NOSNÉ KONSTRUKCE
100
AcDbLine
 10
8141.500293020552
 20
344.3961489083482
 30
0.0
 11
8668.653895160989
 21
344.3961489083483
 31
0.0
  0
LINE
  5
2585
330
1F
100
AcDbEntity
  8
CETRIS
100
AcDbLine
 10
8136.870302939881
 20
319.2577657896413
 30
0.0
 11
8558.301262998034
 21
319.2577657896413
 31
0.0
  0
LINE
  5
2587
330
1F
100
AcDbEntity
  8
izolace
  6
IZOLACE
 48
2.2
100
AcDbLine
 10
8635.396646287997
 20
426.4729888667402
 30
0.0
 11
8635.396646287999
 21
780.7201785398506
 31
0.0
  0
LINE
  5
2588
330
1F
100
AcDbEntity
  8
NOSNÉ KONSTRUKCE
100
AcDbLine
 10
8672.704613635648
 20
424.7838097641774
 30
0.0
 11
8672.704613635648
 21
792.0818019708145
 31
0.0
  0
LINE
  5
2589
330
1F
100
AcDbEntity
  8
NOSNÉ KONSTRUKCE
100
AcDbLine
 10
8598.463064772211
 20
424.7838097641774
 30
0.0
 11
8598.463064772211
 21
769.4725691155979
 31
0.0
  0
LINE
  5
258A
330
1F
100
AcDbEntity
  8
CETRIS
100
AcDbLine
 10
8597.421640876239
 20
424.7080650555813
 30
0.0
 11
8597.421640876239
 21
769.1554179283517
 31
0.0
  0
LINE
  5
258B
330
1F
100
AcDbEntity
  8
CETRIS
100
AcDbLine
 10
8585.421640876239
 20
424.7080650555813
 30
0.0
 11
8585.421640876241
 21
765.5009845495218
 31
0.0
  0
LINE
  5
258C
330
1F
100
AcDbEntity
  8
CETRIS
100
AcDbLine
 10
8685.653895160989
 20
319.2577657896413
 30
0.0
 11
8685.653895160989
 21
796.0253258573211
 31
0.0
  0
LINE
  5
258D
330
1F
100
AcDbEntity
  8
CETRIS
100
AcDbLine
 10
8673.653895160988
 20
319.2577657896413
 30
0.0
 11
8673.653895160988
 21
792.3708924784908
 31
0.0
  0
LINE
  5
258E
330
1F
100
AcDbEntity
  8
NOSNÉ KONSTRUKCE
100
AcDbLine
 10
8610.849761533362
 20
424.7838097641774
 30
0.0
 11
8610.849761533362
 21
773.2447656237144
 31
0.0
  0
LINE
  5
258F
330
1F
100
AcDbEntity
  8
NOSNÉ KONSTRUKCE
  6
DASHED
100
AcDbLine
 10
8618.347896551176
 20
424.7838097641774
 30
0.0
 11
8618.347896551176
 21
775.5282185310542
 31
0.0
  0
LINE
  5
2590
330
1F
100
AcDbEntity
  8
NOSNÉ KONSTRUKCE
  6
DASHED
100
AcDbLine
 10
8652.349316842512
 20
424.7838097641774
 30
0.0
 11
8652.349316842512
 21
785.8828789677454
 31
0.0
  0
LINE
  5
2591
330
1F
100
AcDbEntity
  8
NOSNÉ KONSTRUKCE
100
AcDbLine
 10
8660.515512042282
 20
424.7838097641774
 30
0.0
 11
8660.515512042282
 21
788.369780327419
 31
0.0
  0
HATCH
  5
2592
330
1F
100
AcDbEntity
  8
NOSNÉ KONSTRUKCE
100
AcDbHatch
 10
0.0
 20
0.0
 30
0.0
210
0.0
220
0.0
230
1.0
  2
SOLID
 70
     1
 71
     0
 91
        1
 92
        7
 72
     1
 73
     1
 93
       60
 10
8618.325865359926
 20
423.4858278204828
 42
0.0
 10
8652.718859394379
 20
423.4858278204828
 42
-0.3073346934841183
 10
8654.460169610693
 20
424.6504699405031
 42
0.0
 10
8658.278681387875
 20
424.6504699405031
 42
-0.307334693483106
 10
8660.019991604178
 20
423.4858278204824
 42
0.0
 10
8670.518925704202
 20
423.4858278204828
 42
0.4142135623730951
 10
8672.518925704201
 20
425.4858278204824
 42
0.0
 10
8672.518925704201
 20
433.6846811819882
 42
-0.7595816512230912
 10
8672.518925704201
 20
437.2761233497445
 42
0.0
 10
8672.518925704199
 20
446.4519927543042
 42
-0.7595816493590427
 10
8672.518925704201
 20
450.0434349550219
 42
0.0
 10
8672.518925704201
 20
459.2193023258005
 42
-0.7767342353201953
 10
8672.596882887027
 20
462.8307609100288
 42
0.0
 10
8672.596882887027
 20
469.3988701465041
 42
0.4142135623730868
 10
8670.596882887029
 20
471.3988701465036
 42
0.0
 10
8667.771557095333
 20
471.3988701465041
 42
0.0
 10
8667.771557095333
 20
470.3988701465041
 42
0.0
 10
8670.596882887029
 20
470.3988701465041
 42
-0.4142135623730951
 10
8671.596882887028
 20
469.3988701465041
 42
0.0
 10
8671.596882887028
 20
463.5011740994046
 42
0.5694936494219963
 10
8671.518925704203
 20
458.5752287159066
 42
0.0
 10
8671.518925704203
 20
450.6875105389536
 42
0.5590616644338513
 10
8671.518925704198
 20
445.8079171703738
 42
0.0
 10
8671.518925704203
 20
437.9201989342673
 42
0.5590616643157284
 10
8671.518925704203
 20
433.0406055974654
 42
0.0
 10
8671.518925704203
 20
425.4858278204828
 42
-0.4142135623731451
 10
8670.518925704202
 20
424.4858278204828
 42
0.0
 10
8660.585921513378
 20
424.4858278204824
 42
0.2364174637114482
 10
8658.304071856365
 20
425.6412869069331
 42
0.0
 10
8654.434779142198
 20
425.6412869069331
 42
0.2364174637115772
 10
8652.152929485181
 20
424.4858278204828
 42
0.0
 10
8618.888155609296
 20
424.4858278204828
 42
0.2353201211467568
 10
8616.61274009347
 20
425.6304583928426
 42
0.0
 10
8612.743448013629
 20
425.6282428228578
 42
0.2364174637122881
 10
8610.462260350434
 20
424.4714773310638
 42
0.0
 10
8600.529257788
 20
424.4657896595513
 42
-0.4142135623730951
 10
8599.528685348584
 20
425.4652168922603
 42
0.0
 10
8599.524359457491
 20
433.0199934307329
 42
0.5590616643157161
 10
8599.521565385982
 20
437.8995859675874
 42
0.0
 10
8599.517048852071
 20
445.7873029106026
 42
0.5590616644338511
 10
8599.514254780538
 20
450.6668954792348
 42
0.0
 10
8599.509738246657
 20
458.5546123630965
 42
0.5694936494220229
 10
8599.428960463763
 20
463.4805123005039
 42
0.0
 10
8599.425583423226
 20
469.378207380751
 42
-0.4142135623730951
 10
8600.425010655936
 20
470.3787798201674
 42
0.0
 10
8603.250335984453
 20
470.3803976111912
 42
0.0
 10
8603.2497633811
 20
471.3803974472539
 42
0.0
 10
8600.424438052582
 20
471.3787796562301
 42
0.4142135623730618
 10
8598.425583587165
 20
469.3776347773973
 42
0.0
 10
8598.429344508542
 20
462.8095266176801
 42
-0.7767342353201953
 10
8598.509369611885
 20
459.1981132640494
 42
0.0
 10
8598.514623744314
 20
450.0222473975372
 42
-0.759581649359043
 10
8598.516680216169
 20
446.4308057855914
 42
0.0
 10
8598.52193434976
 20
437.2549378852986
 42
-0.7595816512230912
 10
8598.523990821588
 20
433.6634963063143
 42
0.0
 10
8598.528685512521
 20
425.4646442889066
 42
0.4142135623731117
 10
8600.529830391353
 20
423.4657898234891
 42
0.0
 10
8611.028762770208
 20
423.4718015483654
 42
-0.3073346934834261
 10
8612.769405823069
 20
424.6374405575275
 42
0.0
 10
8616.587916974255
 20
424.6396270501772
 42
-0.3057747226774016
 97
        0
 75
     0
 76
     1
 47
0.1180065091547201
 98
        1
 10
8627.687244636353
 20
423.8864916980624
  0
LINE
  5
2593
330
1F
100
AcDbEntity
  8
SPOJOVACÍ
  6
DASHDOT2
100
AcDbLine
 10
8635.181588653798
 20
436.3698638670079
 30
0.0
 11
8635.181588653798
 21
379.0229366315525
 31
0.0
  0
LINE
  5
2594
330
1F
100
AcDbEntity
  8
SPOJOVACÍ
  6
Continuous
100
AcDbLine
 10
8592.021238147326
 20
444.0111819851276
 30
0.0
 11
8596.964192326256
 21
444.0111819851276
 31
0.0
  0
LINE
  5
2595
330
1F
100
AcDbEntity
  8
SPOJOVACÍ
  6
Continuous
100
AcDbLine
 10
8592.021238147326
 20
441.3118118223914
 30
0.0
 11
8596.059131277007
 21
441.3118118223914
 31
0.0
  0
LINE
  5
2596
330
1F
100
AcDbEntity
  8
SPOJOVACÍ
  6
Continuous
100
AcDbLine
 10
8587.876374801295
 20
445.8092117951432
 30
0.0
 11
8586.958291290853
 21
447.0463456040429
 31
0.0
  0
LINE
  5
2597
330
1F
100
AcDbEntity
  8
SPOJOVACÍ
  6
Continuous
100
AcDbLine
 10
8586.958291290853
 20
447.0463456040429
 30
0.0
 11
8586.62156765297
 21
447.7616507902107
 31
0.0
  0
LINE
  5
2598
330
1F
100
AcDbEntity
  8
SPOJOVACÍ
  6
Continuous
100
AcDbLine
 10
8585.421640876239
 20
447.7616507902107
 30
0.0
 11
8586.62156765297
 21
447.7616507902107
 31
0.0
  0
LINE
  5
2599
330
1F
100
AcDbEntity
  8
SPOJOVACÍ
  6
Continuous
100
AcDbLine
 10
8592.021238147326
 20
444.0111819851276
 30
0.0
 11
8590.497610193898
 21
444.238144876011
 31
0.0
  0
LINE
  5
259A
330
1F
100
AcDbEntity
  8
SPOJOVACÍ
  6
Continuous
100
AcDbLine
 10
8590.497610193898
 20
444.238144876011
 30
0.0
 11
8589.083742984193
 21
444.8511307251587
 31
0.0
  0
LINE
  5
259B
330
1F
100
AcDbEntity
  8
SPOJOVACÍ
  6
Continuous
100
AcDbLine
 10
8589.083742984193
 20
444.8511307251587
 30
0.0
 11
8587.876374801295
 21
445.8092117951432
 31
0.0
  0
LINE
  5
259C
330
1F
100
AcDbEntity
  8
SPOJOVACÍ
  6
Continuous
100
AcDbLine
 10
8586.62156765297
 20
437.5613430129428
 30
0.0
 11
8587.365708289445
 21
438.9110280964937
 31
0.0
  0
LINE
  5
259D
330
1F
100
AcDbEntity
  8
SPOJOVACÍ
  6
Continuous
100
AcDbLine
 10
8587.365708289445
 20
438.9110280964937
 30
0.0
 11
8588.434480278856
 21
440.0216579968523
 31
0.0
  0
LINE
  5
259E
330
1F
100
AcDbEntity
  8
SPOJOVACÍ
  6
Continuous
100
AcDbLine
 10
8588.434480278856
 20
440.0216579968523
 30
0.0
 11
8589.753469557154
 21
440.8178884761705
 31
0.0
  0
LINE
  5
259F
330
1F
100
AcDbEntity
  8
SPOJOVACÍ
  6
Continuous
100
AcDbLine
 10
8589.753469557154
 20
440.8178884761705
 30
0.0
 11
8591.234309424205
 21
441.2457693404698
 31
0.0
  0
LINE
  5
25A0
330
1F
100
AcDbEntity
  8
SPOJOVACÍ
  6
Continuous
100
AcDbLine
 10
8591.234309424205
 20
441.2457693404698
 30
0.0
 11
8592.021238147326
 21
441.3118118223914
 31
0.0
  0
LINE
  5
25A1
330
1F
100
AcDbEntity
  8
SPOJOVACÍ
  6
Continuous
100
AcDbLine
 10
8585.421640876239
 20
437.5613430129428
 30
0.0
 11
8586.62156765297
 21
437.5613430129428
 31
0.0
  0
LINE
  5
25A2
330
1F
100
AcDbEntity
  8
SPOJOVACÍ
  6
Continuous
100
AcDbLine
 10
8586.62156765297
 20
437.5613430129428
 30
0.0
 11
8586.62156765297
 21
447.7616507902107
 31
0.0
  0
LINE
  5
25A3
330
1F
100
AcDbEntity
  8
SPOJOVACÍ
  6
Continuous
100
AcDbLine
 10
8585.421640876239
 20
437.5613430129428
 30
0.0
 11
8585.421640876239
 21
447.7616507902107
 31
0.0
  0
LINE
  5
25A4
330
1F
100
AcDbEntity
  8
SPOJOVACÍ
  6
Continuous
100
AcDbLine
 10
8673.507659619657
 20
444.0111819851276
 30
0.0
 11
8670.988743564629
 21
444.0111819851276
 31
0.0
  0
LINE
  5
25A5
330
1F
100
AcDbEntity
  8
SPOJOVACÍ
  6
Continuous
100
AcDbLine
 10
8671.733814377075
 20
440.2616433486523
 30
0.0
 11
8670.533887600335
 21
445.0613504545012
 31
0.0
  0
LINE
  5
25A6
330
1F
100
AcDbEntity
  8
SPOJOVACÍ
  6
Continuous
100
AcDbLine
 10
8671.515223065048
 20
440.6392947239632
 30
0.0
 11
8670.156236227484
 21
444.6836990835558
 31
0.0
  0
LINE
  5
25A7
330
1F
100
AcDbEntity
  8
SPOJOVACÍ
  6
Continuous
100
AcDbLine
 10
8672.111465750203
 20
440.6392947239632
 30
0.0
 11
8670.752478912362
 21
444.6836990835558
 31
0.0
  0
LINE
  5
25A8
330
1F
100
AcDbEntity
  8
SPOJOVACÍ
  6
Continuous
100
AcDbLine
 10
8597.421838817654
 20
445.0613504545012
 30
0.0
 11
8597.203247505628
 21
444.6836990835558
 31
0.0
  0
LINE
  5
25A9
330
1F
100
AcDbEntity
  8
SPOJOVACÍ
  6
Continuous
100
AcDbLine
 10
8597.421838817654
 20
445.0613504545012
 30
0.0
 11
8597.799490190782
 21
444.6836990835558
 31
0.0
  0
LINE
  5
25AA
330
1F
100
AcDbEntity
  8
SPOJOVACÍ
  6
Continuous
100
AcDbLine
 10
8599.341721660154
 20
440.2616433486523
 30
0.0
 11
8598.964070287026
 21
440.6392947239632
 31
0.0
  0
LINE
  5
25AB
330
1F
100
AcDbEntity
  8
SPOJOVACÍ
  6
Continuous
100
AcDbLine
 10
8599.341721660154
 20
440.2616433486523
 30
0.0
 11
8599.56031297218
 21
440.6392947239632
 31
0.0
  0
LINE
  5
25AC
330
1F
100
AcDbEntity
  8
SPOJOVACÍ
  6
Continuous
100
AcDbLine
 10
8596.221912041192
 20
440.2616433486523
 30
0.0
 11
8595.843330492362
 21
440.6392947239632
 31
0.0
  0
LINE
  5
25AD
330
1F
100
AcDbEntity
  8
SPOJOVACÍ
  6
Continuous
100
AcDbLine
 10
8596.221912041192
 20
440.2616433486523
 30
0.0
 11
8596.43957317724
 21
440.6392947239632
 31
0.0
  0
LINE
  5
25AE
330
1F
100
AcDbEntity
  8
SPOJOVACÍ
  6
Continuous
100
AcDbLine
 10
8596.654443786183
 20
441.3118118223914
 30
0.0
 11
8599.173359841213
 21
441.3118118223914
 31
0.0
  0
LINE
  5
25AF
330
1F
100
AcDbEntity
  8
SPOJOVACÍ
  6
Continuous
100
AcDbLine
 10
8595.843330492362
 20
440.6392947239632
 30
0.0
 11
8597.203247505628
 21
444.6836990835558
 31
0.0
  0
LINE
  5
25B0
330
1F
100
AcDbEntity
  8
SPOJOVACÍ
  6
Continuous
100
AcDbLine
 10
8596.43957317724
 20
440.6392947239632
 30
0.0
 11
8597.799490190782
 21
444.6836990835558
 31
0.0
  0
LINE
  5
25B1
330
1F
100
AcDbEntity
  8
SPOJOVACÍ
  6
Continuous
100
AcDbLine
 10
8596.221912041192
 20
440.2616433486523
 30
0.0
 11
8597.421838817654
 21
445.0613504545012
 31
0.0
  0
LINE
  5
25B2
330
1F
100
AcDbEntity
  8
SPOJOVACÍ
  6
Continuous
100
AcDbLine
 10
8609.902007469763
 20
445.0613504545012
 30
0.0
 11
8609.683416157738
 21
444.6836990835558
 31
0.0
  0
LINE
  5
25B3
330
1F
100
AcDbEntity
  8
SPOJOVACÍ
  6
Continuous
100
AcDbLine
 10
8609.902007469763
 20
445.0613504545012
 30
0.0
 11
8610.279658842891
 21
444.6836990835558
 31
0.0
  0
LINE
  5
25B4
330
1F
100
AcDbEntity
  8
SPOJOVACÍ
  6
Continuous
100
AcDbLine
 10
8606.781267674824
 20
445.0613504545012
 30
0.0
 11
8606.563606538776
 21
444.6836990835558
 31
0.0
  0
LINE
  5
25B5
330
1F
100
AcDbEntity
  8
SPOJOVACÍ
  6
Continuous
100
AcDbLine
 10
8606.781267674824
 20
445.0613504545012
 30
0.0
 11
8607.159849223654
 21
444.6836990835558
 31
0.0
  0
LINE
  5
25B6
330
1F
100
AcDbEntity
  8
SPOJOVACÍ
  6
Continuous
100
AcDbLine
 10
8603.661458055855
 20
445.0613504545012
 30
0.0
 11
8603.443796919536
 21
444.6836990835558
 31
0.0
  0
LINE
  5
25B7
330
1F
100
AcDbEntity
  8
SPOJOVACÍ
  6
Continuous
100
AcDbLine
 10
8603.661458055855
 20
445.0613504545012
 30
0.0
 11
8604.040039604685
 21
444.6836990835558
 31
0.0
  0
LINE
  5
25B8
330
1F
100
AcDbEntity
  8
SPOJOVACÍ
  6
Continuous
100
AcDbLine
 10
8615.427251696683
 20
444.1962869656103
 30
0.0
 11
8615.209590560635
 21
443.8186355946649
 31
0.0
  0
LINE
  5
25B9
330
1F
100
AcDbEntity
  8
SPOJOVACÍ
  6
Continuous
100
AcDbLine
 10
8615.427251696683
 20
444.1962869656103
 30
0.0
 11
8615.805833245513
 21
443.8186355946649
 31
0.0
  0
LINE
  5
25BA
330
1F
100
AcDbEntity
  8
SPOJOVACÍ
  6
Continuous
100
AcDbLine
 10
8612.752066107921
 20
444.6409109958162
 30
0.0
 11
8612.534404971873
 21
444.2632596248708
 31
0.0
  0
LINE
  5
25BB
330
1F
100
AcDbEntity
  8
SPOJOVACÍ
  6
Continuous
100
AcDbLine
 10
8612.752066107921
 20
444.6409109958162
 30
0.0
 11
8613.130647657026
 21
444.2632596248708
 31
0.0
  0
LINE
  5
25BC
330
1F
100
AcDbEntity
  8
SPOJOVACÍ
  6
Continuous
100
AcDbLine
 10
8600.541648436893
 20
445.0613504545012
 30
0.0
 11
8600.323057124866
 21
444.6836990835558
 31
0.0
  0
LINE
  5
25BD
330
1F
100
AcDbEntity
  8
SPOJOVACÍ
  6
Continuous
100
AcDbLine
 10
8600.541648436893
 20
445.0613504545012
 30
0.0
 11
8600.919299809744
 21
444.6836990835558
 31
0.0
  0
LINE
  5
25BE
330
1F
100
AcDbEntity
  8
SPOJOVACÍ
  6
Continuous
100
AcDbLine
 10
8612.357671570523
 20
443.7656155736599
 30
0.0
 11
8610.386629059236
 21
444.0111819851276
 31
0.0
  0
LINE
  5
25BF
330
1F
100
AcDbEntity
  8
SPOJOVACÍ
  6
Continuous
100
AcDbLine
 10
8610.049905421353
 20
444.0111819851276
 30
0.0
 11
8610.386629059236
 21
444.0111819851276
 31
0.0
  0
LINE
  5
25C0
330
1F
100
AcDbEntity
  8
SPOJOVACÍ
  6
Continuous
100
AcDbLine
 10
8606.927305274739
 20
444.0111819851276
 30
0.0
 11
8609.446221329768
 21
444.0111819851276
 31
0.0
  0
LINE
  5
25C1
330
1F
100
AcDbEntity
  8
SPOJOVACÍ
  6
Continuous
100
AcDbLine
 10
8603.805635304096
 20
444.0111819851276
 30
0.0
 11
8606.326411710806
 21
444.0111819851276
 31
0.0
  0
LINE
  5
25C2
330
1F
100
AcDbEntity
  8
SPOJOVACÍ
  6
Continuous
100
AcDbLine
 10
8600.683035157754
 20
444.0111819851276
 30
0.0
 11
8603.211252970622
 21
444.0111819851276
 31
0.0
  0
LINE
  5
25C3
330
1F
100
AcDbEntity
  8
SPOJOVACÍ
  6
Continuous
100
AcDbLine
 10
8608.702080693301
 20
440.2616433486523
 30
0.0
 11
8608.323499144196
 21
440.6392947239632
 31
0.0
  0
LINE
  5
25C4
330
1F
100
AcDbEntity
  8
SPOJOVACÍ
  6
Continuous
100
AcDbLine
 10
8608.702080693301
 20
440.2616433486523
 30
0.0
 11
8608.91974182935
 21
440.6392947239632
 31
0.0
  0
LINE
  5
25C5
330
1F
100
AcDbEntity
  8
SPOJOVACÍ
  6
Continuous
100
AcDbLine
 10
8605.581340898361
 20
440.2616433486523
 30
0.0
 11
8605.203689525232
 21
440.6392947239632
 31
0.0
  0
LINE
  5
25C6
330
1F
100
AcDbEntity
  8
SPOJOVACÍ
  6
Continuous
100
AcDbLine
 10
8605.581340898361
 20
440.2616433486523
 30
0.0
 11
8605.799932210381
 21
440.6392947239632
 31
0.0
  0
LINE
  5
25C7
330
1F
100
AcDbEntity
  8
SPOJOVACÍ
  6
Continuous
100
AcDbLine
 10
8602.461531279393
 20
440.2616433486523
 30
0.0
 11
8602.083879906265
 21
440.6392947239632
 31
0.0
  0
LINE
  5
25C8
330
1F
100
AcDbEntity
  8
SPOJOVACÍ
  6
Continuous
100
AcDbLine
 10
8602.461531279393
 20
440.2616433486523
 30
0.0
 11
8602.680122591419
 21
440.6392947239632
 31
0.0
  0
LINE
  5
25C9
330
1F
100
AcDbEntity
  8
SPOJOVACÍ
  6
Continuous
100
AcDbLine
 10
8617.429920185104
 20
442.022466130596
 30
0.0
 11
8617.900589137688
 21
443.4214505301619
 31
0.0
  0
LINE
  5
25CA
330
1F
100
AcDbEntity
  8
SPOJOVACÍ
  6
Continuous
100
AcDbLine
 10
8618.026162870252
 20
442.022466130596
 30
0.0
 11
8618.496831822836
 21
443.4214505301619
 31
0.0
  0
LINE
  5
25CB
330
1F
100
AcDbEntity
  8
SPOJOVACÍ
  6
Continuous
100
AcDbLine
 10
8617.807571558232
 20
441.6448147596506
 30
0.0
 11
8617.429920185104
 21
442.022466130596
 31
0.0
  0
LINE
  5
25CC
330
1F
100
AcDbEntity
  8
SPOJOVACÍ
  6
Continuous
100
AcDbLine
 10
8617.807571558232
 20
441.6448147596506
 30
0.0
 11
8618.026162870252
 21
442.022466130596
 31
0.0
  0
LINE
  5
25CD
330
1F
100
AcDbEntity
  8
SPOJOVACÍ
  6
Continuous
100
AcDbLine
 10
8614.793801979912
 20
441.0801980491791
 30
0.0
 11
8614.415220430807
 21
441.4578494244901
 31
0.0
  0
LINE
  5
25CE
330
1F
100
AcDbEntity
  8
SPOJOVACÍ
  6
Continuous
100
AcDbLine
 10
8614.793801979912
 20
441.0801980491791
 30
0.0
 11
8615.01146311596
 21
441.4578494244901
 31
0.0
  0
LINE
  5
25CF
330
1F
100
AcDbEntity
  8
SPOJOVACÍ
  6
Continuous
100
AcDbLine
 10
8611.779102225616
 20
440.5155813430733
 30
0.0
 11
8611.401450852488
 21
440.8941628913575
 31
0.0
  0
LINE
  5
25D0
330
1F
100
AcDbEntity
  8
SPOJOVACÍ
  6
Continuous
100
AcDbLine
 10
8611.779102225616
 20
440.5155813430733
 30
0.0
 11
8611.997693537642
 21
440.8941628913575
 31
0.0
  0
LINE
  5
25D1
330
1F
100
AcDbEntity
  8
SPOJOVACÍ
  6
Continuous
100
AcDbLine
 10
8617.781526635853
 20
443.0875174199295
 30
0.0
 11
8615.63654125087
 21
443.3554080482403
 31
0.0
  0
LINE
  5
25D2
330
1F
100
AcDbEntity
  8
SPOJOVACÍ
  6
Continuous
100
AcDbLine
 10
8618.097786406385
 20
442.2754739476781
 30
0.0
 11
8621.18690022419
 21
442.6614969015767
 31
0.0
  0
LINE
  5
25D3
330
1F
100
AcDbEntity
  8
SPOJOVACÍ
  6
Continuous
100
AcDbLine
 10
8615.156570540175
 20
441.9080545099982
 30
0.0
 11
8617.477359150532
 21
442.1982693551521
 31
0.0
  0
LINE
  5
25D4
330
1F
100
AcDbEntity
  8
SPOJOVACÍ
  6
Continuous
100
AcDbLine
 10
8612.204192564446
 20
441.5387747176405
 30
0.0
 11
8614.52591135051
 21
441.82898956716
 31
0.0
  0
LINE
  5
25D5
330
1F
100
AcDbEntity
  8
SPOJOVACÍ
  6
Continuous
100
AcDbLine
 10
8621.18690022419
 20
442.6614969015767
 30
0.0
 11
8618.350794222921
 21
443.0158938827057
 31
0.0
  0
LINE
  5
25D6
330
1F
100
AcDbEntity
  8
SPOJOVACÍ
  6
Continuous
100
AcDbLine
 10
8610.386629059236
 20
441.3118118223914
 30
0.0
 11
8611.583765308592
 21
441.4615701251145
 31
0.0
  0
LINE
  5
25D7
330
1F
100
AcDbEntity
  8
SPOJOVACÍ
  6
Continuous
100
AcDbLine
 10
8609.139263317347
 20
441.3118118223914
 30
0.0
 11
8610.386629059236
 21
441.3118118223914
 31
0.0
  0
LINE
  5
25D8
330
1F
100
AcDbEntity
  8
SPOJOVACÍ
  6
Continuous
100
AcDbLine
 10
8606.025034752866
 20
441.3118118223914
 30
0.0
 11
8608.543020632193
 21
441.3118118223914
 31
0.0
  0
LINE
  5
25D9
330
1F
100
AcDbEntity
  8
SPOJOVACÍ
  6
Continuous
100
AcDbLine
 10
8602.892202672711
 20
441.3118118223914
 30
0.0
 11
8605.420420485579
 21
441.3118118223914
 31
0.0
  0
LINE
  5
25DA
330
1F
100
AcDbEntity
  8
SPOJOVACÍ
  6
Continuous
100
AcDbLine
 10
8608.323499144196
 20
440.6392947239632
 30
0.0
 11
8609.683416157738
 21
444.6836990835558
 31
0.0
  0
LINE
  5
25DB
330
1F
100
AcDbEntity
  8
SPOJOVACÍ
  6
Continuous
100
AcDbLine
 10
8608.91974182935
 20
440.6392947239632
 30
0.0
 11
8610.279658842891
 21
444.6836990835558
 31
0.0
  0
LINE
  5
25DC
330
1F
100
AcDbEntity
  8
SPOJOVACÍ
  6
Continuous
100
AcDbLine
 10
8608.702080693301
 20
440.2616433486523
 30
0.0
 11
8609.902007469763
 21
445.0613504545012
 31
0.0
  0
LINE
  5
25DD
330
1F
100
AcDbEntity
  8
SPOJOVACÍ
  6
Continuous
100
AcDbLine
 10
8605.203689525232
 20
440.6392947239632
 30
0.0
 11
8606.563606538776
 21
444.6836990835558
 31
0.0
  0
LINE
  5
25DE
330
1F
100
AcDbEntity
  8
SPOJOVACÍ
  6
Continuous
100
AcDbLine
 10
8605.799932210381
 20
440.6392947239632
 30
0.0
 11
8607.159849223654
 21
444.6836990835558
 31
0.0
  0
LINE
  5
25DF
330
1F
100
AcDbEntity
  8
SPOJOVACÍ
  6
Continuous
100
AcDbLine
 10
8605.581340898361
 20
440.2616433486523
 30
0.0
 11
8606.781267674824
 21
445.0613504545012
 31
0.0
  0
LINE
  5
25E0
330
1F
100
AcDbEntity
  8
SPOJOVACÍ
  6
Continuous
100
AcDbLine
 10
8602.083879906265
 20
440.6392947239632
 30
0.0
 11
8603.443796919536
 21
444.6836990835558
 31
0.0
  0
LINE
  5
25E1
330
1F
100
AcDbEntity
  8
SPOJOVACÍ
  6
Continuous
100
AcDbLine
 10
8602.680122591419
 20
440.6392947239632
 30
0.0
 11
8604.040039604685
 21
444.6836990835558
 31
0.0
  0
LINE
  5
25E2
330
1F
100
AcDbEntity
  8
SPOJOVACÍ
  6
Continuous
100
AcDbLine
 10
8602.461531279393
 20
440.2616433486523
 30
0.0
 11
8603.661458055855
 21
445.0613504545012
 31
0.0
  0
LINE
  5
25E3
330
1F
100
AcDbEntity
  8
SPOJOVACÍ
  6
Continuous
100
AcDbLine
 10
8617.807571558232
 20
441.6448147596506
 30
0.0
 11
8618.118250274006
 21
443.7991019011073
 31
0.0
  0
LINE
  5
25E4
330
1F
100
AcDbEntity
  8
SPOJOVACÍ
  6
Continuous
100
AcDbLine
 10
8618.118250274006
 20
443.7991019011073
 30
0.0
 11
8617.900589137688
 21
443.4214505301619
 31
0.0
  0
LINE
  5
25E5
330
1F
100
AcDbEntity
  8
SPOJOVACÍ
  6
Continuous
100
AcDbLine
 10
8618.118250274006
 20
443.7991019011073
 30
0.0
 11
8618.496831822836
 21
443.4214505301619
 31
0.0
  0
LINE
  5
25E6
330
1F
100
AcDbEntity
  8
SPOJOVACÍ
  6
Continuous
100
AcDbLine
 10
8614.793801979912
 20
441.0801980491791
 30
0.0
 11
8615.427251696683
 21
444.1962869656103
 31
0.0
  0
LINE
  5
25E7
330
1F
100
AcDbEntity
  8
SPOJOVACÍ
  6
Continuous
100
AcDbLine
 10
8614.415220430807
 20
441.4578494244901
 30
0.0
 11
8615.209590560635
 21
443.8186355946649
 31
0.0
  0
LINE
  5
25E8
330
1F
100
AcDbEntity
  8
SPOJOVACÍ
  6
Continuous
100
AcDbLine
 10
8615.01146311596
 20
441.4578494244901
 30
0.0
 11
8615.805833245513
 21
443.8186355946649
 31
0.0
  0
LINE
  5
25E9
330
1F
100
AcDbEntity
  8
SPOJOVACÍ
  6
Continuous
100
AcDbLine
 10
8611.779102225616
 20
440.5155813430733
 30
0.0
 11
8612.752066107921
 21
444.6409109958162
 31
0.0
  0
LINE
  5
25EA
330
1F
100
AcDbEntity
  8
SPOJOVACÍ
  6
Continuous
100
AcDbLine
 10
8611.401450852488
 20
440.8941628913575
 30
0.0
 11
8612.534404971873
 21
444.2632596248708
 31
0.0
  0
LINE
  5
25EB
330
1F
100
AcDbEntity
  8
SPOJOVACÍ
  6
Continuous
100
AcDbLine
 10
8611.997693537642
 20
440.8941628913575
 30
0.0
 11
8613.130647657026
 21
444.2632596248708
 31
0.0
  0
LINE
  5
25EC
330
1F
100
AcDbEntity
  8
SPOJOVACÍ
  6
Continuous
100
AcDbLine
 10
8615.06448313642
 20
443.4270315810985
 30
0.0
 11
8612.927869333567
 21
443.6939920364361
 31
0.0
  0
INSERT
  5
25ED
330
1F
100
AcDbEntity
  8
POPIS
100
AcDbBlockReference
  2
E_PUNKT
 10
8669.586020419819
 20
421.6890273216713
 30
0.0
 50
90.0
  0
LINE
  5
25EE
330
1F
100
AcDbEntity
  8
SPOJOVACÍ
  6
Continuous
100
AcDbLine
 10
8598.964070287026
 20
440.6392947239632
 30
0.0
 11
8600.323057124866
 21
444.6836990835558
 31
0.0
  0
LINE
  5
25EF
330
1F
100
AcDbEntity
  8
SPOJOVACÍ
  6
Continuous
100
AcDbLine
 10
8599.56031297218
 20
440.6392947239632
 30
0.0
 11
8600.919299809744
 21
444.6836990835558
 31
0.0
  0
LINE
  5
25F0
330
1F
100
AcDbEntity
  8
SPOJOVACÍ
  6
Continuous
100
AcDbLine
 10
8599.341721660154
 20
440.2616433486523
 30
0.0
 11
8600.541648436893
 21
445.0613504545012
 31
0.0
  0
LINE
  5
25F1
330
1F
100
AcDbEntity
  8
SPOJOVACÍ
  6
Continuous
100
AcDbLine
 10
8597.567876417569
 20
444.0111819851276
 30
0.0
 11
8600.0867924726
 21
444.0111819851276
 31
0.0
  0
LINE
  5
25F2
330
1F
100
AcDbEntity
  8
SPOJOVACÍ
  6
Continuous
100
AcDbLine
 10
8599.777043932526
 20
441.3118118223914
 30
0.0
 11
8602.297820339236
 21
441.3118118223914
 31
0.0
  0
LINE
  5
25F3
330
1F
100
AcDbEntity
  8
SPOJOVACÍ
  6
Continuous
100
AcDbLine
 10
8649.88863581304
 20
442.6614969015767
 30
0.0
 11
8652.724741814308
 21
443.0158938827057
 31
0.0
  0
LINE
  5
25F4
330
1F
100
AcDbEntity
  8
SPOJOVACÍ
  6
Continuous
100
AcDbLine
 10
8652.977749630844
 20
442.2754739476781
 30
0.0
 11
8649.88863581304
 21
442.6614969015767
 31
0.0
  0
LINE
  5
25F5
330
1F
100
AcDbEntity
  8
SPOJOVACÍ
  6
Continuous
100
AcDbLine
 10
8653.267964478995
 20
441.6448147596506
 30
0.0
 11
8653.049373166977
 21
442.022466130596
 31
0.0
  0
LINE
  5
25F6
330
1F
100
AcDbEntity
  8
SPOJOVACÍ
  6
Continuous
100
AcDbLine
 10
8653.049373166977
 20
442.022466130596
 30
0.0
 11
8652.578704214391
 21
443.4214505301619
 31
0.0
  0
LINE
  5
25F7
330
1F
100
AcDbEntity
  8
SPOJOVACÍ
  6
Continuous
100
AcDbLine
 10
8652.957285763221
 20
443.7991019011073
 30
0.0
 11
8652.578704214391
 21
443.4214505301619
 31
0.0
  0
LINE
  5
25F8
330
1F
100
AcDbEntity
  8
SPOJOVACÍ
  6
Continuous
100
AcDbLine
 10
8652.957285763221
 20
443.7991019011073
 30
0.0
 11
8653.174946899538
 21
443.4214505301619
 31
0.0
  0
LINE
  5
25F9
330
1F
100
AcDbEntity
  8
SPOJOVACÍ
  6
Continuous
100
AcDbLine
 10
8653.267964478995
 20
441.6448147596506
 30
0.0
 11
8652.957285763221
 21
443.7991019011073
 31
0.0
  0
LINE
  5
25FA
330
1F
100
AcDbEntity
  8
SPOJOVACÍ
  6
Continuous
100
AcDbLine
 10
8670.392500879474
 20
444.0111819851276
 30
0.0
 11
8667.864283066604
 21
444.0111819851276
 31
0.0
  0
LINE
  5
25FB
330
1F
100
AcDbEntity
  8
SPOJOVACÍ
  6
Continuous
100
AcDbLine
 10
8667.269900733129
 20
444.0111819851276
 30
0.0
 11
8664.749124326421
 21
444.0111819851276
 31
0.0
  0
LINE
  5
25FC
330
1F
100
AcDbEntity
  8
SPOJOVACÍ
  6
Continuous
100
AcDbLine
 10
8664.148230762489
 20
444.0111819851276
 30
0.0
 11
8661.629314707459
 21
444.0111819851276
 31
0.0
  0
LINE
  5
25FD
330
1F
100
AcDbEntity
  8
SPOJOVACÍ
  6
Continuous
100
AcDbLine
 10
8661.025630615876
 20
444.0111819851276
 30
0.0
 11
8660.688906977993
 21
444.0111819851276
 31
0.0
  0
LINE
  5
25FE
330
1F
100
AcDbEntity
  8
SPOJOVACÍ
  6
Continuous
100
AcDbLine
 10
8658.717864466707
 20
443.7656155736599
 30
0.0
 11
8660.688906977993
 21
444.0111819851276
 31
0.0
  0
LINE
  5
25FF
330
1F
100
AcDbEntity
  8
SPOJOVACÍ
  6
Continuous
100
AcDbLine
 10
8670.533887600335
 20
445.0613504545012
 30
0.0
 11
8670.156236227484
 21
444.6836990835558
 31
0.0
  0
LINE
  5
2600
330
1F
100
AcDbEntity
  8
SPOJOVACÍ
  6
Continuous
100
AcDbLine
 10
8670.533887600335
 20
445.0613504545012
 30
0.0
 11
8670.752478912362
 21
444.6836990835558
 31
0.0
  0
LINE
  5
2601
330
1F
100
AcDbEntity
  8
SPOJOVACÍ
  6
Continuous
100
AcDbLine
 10
8658.323469929309
 20
444.6409109958162
 30
0.0
 11
8657.944888380201
 21
444.2632596248708
 31
0.0
  0
LINE
  5
2602
330
1F
100
AcDbEntity
  8
SPOJOVACÍ
  6
Continuous
100
AcDbLine
 10
8658.323469929309
 20
444.6409109958162
 30
0.0
 11
8658.541131065357
 21
444.2632596248708
 31
0.0
  0
LINE
  5
2603
330
1F
100
AcDbEntity
  8
SPOJOVACÍ
  6
Continuous
100
AcDbLine
 10
8655.648284340545
 20
444.1962869656103
 30
0.0
 11
8655.269702791715
 21
443.8186355946649
 31
0.0
  0
LINE
  5
2604
330
1F
100
AcDbEntity
  8
SPOJOVACÍ
  6
Continuous
100
AcDbLine
 10
8655.648284340545
 20
444.1962869656103
 30
0.0
 11
8655.865945476593
 21
443.8186355946649
 31
0.0
  0
LINE
  5
2605
330
1F
100
AcDbEntity
  8
SPOJOVACÍ
  6
Continuous
100
AcDbLine
 10
8667.414077981375
 20
445.0613504545012
 30
0.0
 11
8667.035496432545
 21
444.6836990835558
 31
0.0
  0
LINE
  5
2606
330
1F
100
AcDbEntity
  8
SPOJOVACÍ
  6
Continuous
100
AcDbLine
 10
8667.414077981375
 20
445.0613504545012
 30
0.0
 11
8667.631739117691
 21
444.6836990835558
 31
0.0
  0
LINE
  5
2607
330
1F
100
AcDbEntity
  8
SPOJOVACÍ
  6
Continuous
100
AcDbLine
 10
8664.294268362404
 20
445.0613504545012
 30
0.0
 11
8663.915686813574
 21
444.6836990835558
 31
0.0
  0
LINE
  5
2608
330
1F
100
AcDbEntity
  8
SPOJOVACÍ
  6
Continuous
100
AcDbLine
 10
8664.294268362404
 20
445.0613504545012
 30
0.0
 11
8664.511929498452
 21
444.6836990835558
 31
0.0
  0
LINE
  5
2609
330
1F
100
AcDbEntity
  8
SPOJOVACÍ
  6
Continuous
100
AcDbLine
 10
8661.173528567465
 20
445.0613504545012
 30
0.0
 11
8660.795877194336
 21
444.6836990835558
 31
0.0
  0
LINE
  5
260A
330
1F
100
AcDbEntity
  8
SPOJOVACÍ
  6
Continuous
100
AcDbLine
 10
8661.173528567465
 20
445.0613504545012
 30
0.0
 11
8661.392119879492
 21
444.6836990835558
 31
0.0
  0
LINE
  5
260B
330
1F
100
AcDbEntity
  8
SPOJOVACÍ
  6
Continuous
100
AcDbLine
 10
8671.298492104702
 20
441.3118118223914
 30
0.0
 11
8668.777715697991
 21
441.3118118223914
 31
0.0
  0
LINE
  5
260C
330
1F
100
AcDbEntity
  8
SPOJOVACÍ
  6
Continuous
100
AcDbLine
 10
8668.183333364517
 20
441.3118118223914
 30
0.0
 11
8665.655115551649
 21
441.3118118223914
 31
0.0
  0
LINE
  5
260D
330
1F
100
AcDbEntity
  8
SPOJOVACÍ
  6
Continuous
100
AcDbLine
 10
8665.050501284362
 20
441.3118118223914
 30
0.0
 11
8662.532515405036
 21
441.3118118223914
 31
0.0
  0
LINE
  5
260E
330
1F
100
AcDbEntity
  8
SPOJOVACÍ
  6
Continuous
100
AcDbLine
 10
8661.936272719881
 20
441.3118118223914
 30
0.0
 11
8660.688906977993
 21
441.3118118223914
 31
0.0
  0
LINE
  5
260F
330
1F
100
AcDbEntity
  8
SPOJOVACÍ
  6
Continuous
100
AcDbLine
 10
8660.688906977993
 20
441.3118118223914
 30
0.0
 11
8659.491770728635
 21
441.4615701251145
 31
0.0
  0
LINE
  5
2610
330
1F
100
AcDbEntity
  8
SPOJOVACÍ
  6
Continuous
100
AcDbLine
 10
8658.871343472782
 20
441.5387747176405
 30
0.0
 11
8656.549624686716
 21
441.82898956716
 31
0.0
  0
LINE
  5
2611
330
1F
100
AcDbEntity
  8
SPOJOVACÍ
  6
Continuous
100
AcDbLine
 10
8655.918965497052
 20
441.9080545099982
 30
0.0
 11
8653.598176886697
 21
442.1982693551521
 31
0.0
  0
LINE
  5
2612
330
1F
100
AcDbEntity
  8
SPOJOVACÍ
  6
Continuous
100
AcDbLine
 10
8659.296433811613
 20
440.5155813430733
 30
0.0
 11
8659.077842499586
 21
440.8941628913575
 31
0.0
  0
LINE
  5
2613
330
1F
100
AcDbEntity
  8
SPOJOVACÍ
  6
Continuous
100
AcDbLine
 10
8659.296433811613
 20
440.5155813430733
 30
0.0
 11
8659.674085184741
 21
440.8941628913575
 31
0.0
  0
LINE
  5
2614
330
1F
100
AcDbEntity
  8
SPOJOVACÍ
  6
Continuous
100
AcDbLine
 10
8656.281734057314
 20
441.0801980491791
 30
0.0
 11
8656.064072921266
 21
441.4578494244901
 31
0.0
  0
LINE
  5
2615
330
1F
100
AcDbEntity
  8
SPOJOVACÍ
  6
Continuous
100
AcDbLine
 10
8656.281734057314
 20
441.0801980491791
 30
0.0
 11
8656.660315606421
 21
441.4578494244901
 31
0.0
  0
LINE
  5
2616
330
1F
100
AcDbEntity
  8
SPOJOVACÍ
  6
Continuous
100
AcDbLine
 10
8668.614004757836
 20
440.2616433486523
 30
0.0
 11
8668.395413445809
 21
440.6392947239632
 31
0.0
  0
LINE
  5
2617
330
1F
100
AcDbEntity
  8
SPOJOVACÍ
  6
Continuous
100
AcDbLine
 10
8668.614004757836
 20
440.2616433486523
 30
0.0
 11
8668.991656130964
 21
440.6392947239632
 31
0.0
  0
LINE
  5
2618
330
1F
100
AcDbEntity
  8
SPOJOVACÍ
  6
Continuous
100
AcDbLine
 10
8665.494195138867
 20
440.2616433486523
 30
0.0
 11
8665.275603826847
 21
440.6392947239632
 31
0.0
  0
LINE
  5
2619
330
1F
100
AcDbEntity
  8
SPOJOVACÍ
  6
Continuous
100
AcDbLine
 10
8665.494195138867
 20
440.2616433486523
 30
0.0
 11
8665.871846511995
 21
440.6392947239632
 31
0.0
  0
LINE
  5
261A
330
1F
100
AcDbEntity
  8
SPOJOVACÍ
  6
Continuous
100
AcDbLine
 10
8662.373455343926
 20
440.2616433486523
 30
0.0
 11
8662.155794207878
 21
440.6392947239632
 31
0.0
  0
LINE
  5
261B
330
1F
100
AcDbEntity
  8
SPOJOVACÍ
  6
Continuous
100
AcDbLine
 10
8662.373455343926
 20
440.2616433486523
 30
0.0
 11
8662.752036893033
 21
440.6392947239632
 31
0.0
  0
LINE
  5
261C
330
1F
100
AcDbEntity
  8
SPOJOVACÍ
  6
Continuous
100
AcDbLine
 10
8656.011052900806
 20
443.4270315810985
 30
0.0
 11
8658.14766670366
 21
443.6939920364361
 31
0.0
  0
LINE
  5
261D
330
1F
100
AcDbEntity
  8
SPOJOVACÍ
  6
Continuous
100
AcDbLine
 10
8659.077842499586
 20
440.8941628913575
 30
0.0
 11
8657.944888380201
 21
444.2632596248708
 31
0.0
  0
LINE
  5
261E
330
1F
100
AcDbEntity
  8
SPOJOVACÍ
  6
Continuous
100
AcDbLine
 10
8659.674085184741
 20
440.8941628913575
 30
0.0
 11
8658.541131065357
 21
444.2632596248708
 31
0.0
  0
LINE
  5
261F
330
1F
100
AcDbEntity
  8
SPOJOVACÍ
  6
Continuous
100
AcDbLine
 10
8659.296433811613
 20
440.5155813430733
 30
0.0
 11
8658.323469929309
 21
444.6409109958162
 31
0.0
  0
LINE
  5
2620
330
1F
100
AcDbEntity
  8
SPOJOVACÍ
  6
Continuous
100
AcDbLine
 10
8656.064072921266
 20
441.4578494244901
 30
0.0
 11
8655.269702791715
 21
443.8186355946649
 31
0.0
  0
LINE
  5
2621
330
1F
100
AcDbEntity
  8
SPOJOVACÍ
  6
Continuous
100
AcDbLine
 10
8656.660315606421
 20
441.4578494244901
 30
0.0
 11
8655.865945476593
 21
443.8186355946649
 31
0.0
  0
LINE
  5
2622
330
1F
100
AcDbEntity
  8
SPOJOVACÍ
  6
Continuous
100
AcDbLine
 10
8656.281734057314
 20
441.0801980491791
 30
0.0
 11
8655.648284340545
 21
444.1962869656103
 31
0.0
  0
LINE
  5
2623
330
1F
100
AcDbEntity
  8
SPOJOVACÍ
  6
Continuous
100
AcDbLine
 10
8668.614004757836
 20
440.2616433486523
 30
0.0
 11
8667.414077981375
 21
445.0613504545012
 31
0.0
  0
LINE
  5
2624
330
1F
100
AcDbEntity
  8
SPOJOVACÍ
  6
Continuous
100
AcDbLine
 10
8668.395413445809
 20
440.6392947239632
 30
0.0
 11
8667.035496432545
 21
444.6836990835558
 31
0.0
  0
LINE
  5
2625
330
1F
100
AcDbEntity
  8
SPOJOVACÍ
  6
Continuous
100
AcDbLine
 10
8668.991656130964
 20
440.6392947239632
 30
0.0
 11
8667.631739117691
 21
444.6836990835558
 31
0.0
  0
LINE
  5
2626
330
1F
100
AcDbEntity
  8
SPOJOVACÍ
  6
Continuous
100
AcDbLine
 10
8665.494195138867
 20
440.2616433486523
 30
0.0
 11
8664.294268362404
 21
445.0613504545012
 31
0.0
  0
LINE
  5
2627
330
1F
100
AcDbEntity
  8
SPOJOVACÍ
  6
Continuous
100
AcDbLine
 10
8665.275603826847
 20
440.6392947239632
 30
0.0
 11
8663.915686813574
 21
444.6836990835558
 31
0.0
  0
LINE
  5
2628
330
1F
100
AcDbEntity
  8
SPOJOVACÍ
  6
Continuous
100
AcDbLine
 10
8665.871846511995
 20
440.6392947239632
 30
0.0
 11
8664.511929498452
 21
444.6836990835558
 31
0.0
  0
LINE
  5
2629
330
1F
100
AcDbEntity
  8
SPOJOVACÍ
  6
Continuous
100
AcDbLine
 10
8662.373455343926
 20
440.2616433486523
 30
0.0
 11
8661.173528567465
 21
445.0613504545012
 31
0.0
  0
LINE
  5
262A
330
1F
100
AcDbEntity
  8
SPOJOVACÍ
  6
Continuous
100
AcDbLine
 10
8662.155794207878
 20
440.6392947239632
 30
0.0
 11
8660.795877194336
 21
444.6836990835558
 31
0.0
  0
LINE
  5
262B
330
1F
100
AcDbEntity
  8
SPOJOVACÍ
  6
Continuous
100
AcDbLine
 10
8662.752036893033
 20
440.6392947239632
 30
0.0
 11
8661.392119879492
 21
444.6836990835558
 31
0.0
  0
LINE
  5
262C
330
1F
100
AcDbEntity
  8
SPOJOVACÍ
  6
Continuous
100
AcDbLine
 10
8653.294009401374
 20
443.0875174199295
 30
0.0
 11
8655.438994786358
 21
443.3554080482403
 31
0.0
  0
LINE
  5
262D
330
1F
100
AcDbEntity
  8
SPOJOVACÍ
  6
Continuous
100
AcDbLine
 10
8653.267964478995
 20
441.6448147596506
 30
0.0
 11
8653.645615852123
 21
442.022466130596
 31
0.0
  0
LINE
  5
262E
330
1F
100
AcDbEntity
  8
SPOJOVACÍ
  6
Continuous
100
AcDbLine
 10
8653.645615852123
 20
442.022466130596
 30
0.0
 11
8653.174946899538
 21
443.4214505301619
 31
0.0
  0
LINE
  5
262F
330
1F
100
AcDbEntity
  8
SPOJOVACÍ
  6
Continuous
100
AcDbLine
 10
8679.054297889901
 20
444.0111819851276
 30
0.0
 11
8674.111343710974
 21
444.0111819851276
 31
0.0
  0
LINE
  5
2630
330
1F
100
AcDbEntity
  8
SPOJOVACÍ
  6
Continuous
100
AcDbLine
 10
8673.653697219574
 20
445.0613504545012
 30
0.0
 11
8673.276045846446
 21
444.6836990835558
 31
0.0
  0
LINE
  5
2631
330
1F
100
AcDbEntity
  8
SPOJOVACÍ
  6
Continuous
100
AcDbLine
 10
8673.653697219574
 20
445.0613504545012
 30
0.0
 11
8673.872288531601
 21
444.6836990835558
 31
0.0
  0
LINE
  5
2632
330
1F
100
AcDbEntity
  8
SPOJOVACÍ
  6
Continuous
100
AcDbLine
 10
8679.841226613024
 20
441.2457693404698
 30
0.0
 11
8679.054297889901
 21
441.3118118223914
 31
0.0
  0
LINE
  5
2633
330
1F
100
AcDbEntity
  8
SPOJOVACÍ
  6
Continuous
100
AcDbLine
 10
8679.054297889901
 20
441.3118118223914
 30
0.0
 11
8675.016404760221
 21
441.3118118223914
 31
0.0
  0
LINE
  5
2634
330
1F
100
AcDbEntity
  8
SPOJOVACÍ
  6
Continuous
100
AcDbLine
 10
8674.421092251044
 20
441.3118118223914
 30
0.0
 11
8671.902176196017
 21
441.3118118223914
 31
0.0
  0
LINE
  5
2635
330
1F
100
AcDbEntity
  8
SPOJOVACÍ
  6
Continuous
100
AcDbLine
 10
8674.853623996035
 20
440.2616433486523
 30
0.0
 11
8674.635962859987
 21
440.6392947239632
 31
0.0
  0
LINE
  5
2636
330
1F
100
AcDbEntity
  8
SPOJOVACÍ
  6
Continuous
100
AcDbLine
 10
8674.853623996035
 20
440.2616433486523
 30
0.0
 11
8675.232205544865
 21
440.6392947239632
 31
0.0
  0
LINE
  5
2637
330
1F
100
AcDbEntity
  8
SPOJOVACÍ
  6
Continuous
100
AcDbLine
 10
8671.733814377075
 20
440.2616433486523
 30
0.0
 11
8671.515223065048
 21
440.6392947239632
 31
0.0
  0
LINE
  5
2638
330
1F
100
AcDbEntity
  8
SPOJOVACÍ
  6
Continuous
100
AcDbLine
 10
8671.733814377075
 20
440.2616433486523
 30
0.0
 11
8672.111465750203
 21
440.6392947239632
 31
0.0
  0
LINE
  5
2639
330
1F
100
AcDbEntity
  8
SPOJOVACÍ
  6
Continuous
100
AcDbLine
 10
8674.853623996035
 20
440.2616433486523
 30
0.0
 11
8673.653697219574
 21
445.0613504545012
 31
0.0
  0
LINE
  5
263A
330
1F
100
AcDbEntity
  8
SPOJOVACÍ
  6
Continuous
100
AcDbLine
 10
8674.635962859987
 20
440.6392947239632
 30
0.0
 11
8673.276045846446
 21
444.6836990835558
 31
0.0
  0
LINE
  5
263B
330
1F
100
AcDbEntity
  8
SPOJOVACÍ
  6
Continuous
100
AcDbLine
 10
8675.232205544865
 20
440.6392947239632
 30
0.0
 11
8673.872288531601
 21
444.6836990835558
 31
0.0
  0
LINE
  5
263C
330
1F
100
AcDbEntity
  8
SPOJOVACÍ
  6
Continuous
100
AcDbLine
 10
8681.991793053034
 20
444.8511307251587
 30
0.0
 11
8683.199161235933
 21
445.8092117951432
 31
0.0
  0
LINE
  5
263D
330
1F
100
AcDbEntity
  8
SPOJOVACÍ
  6
Continuous
100
AcDbLine
 10
8680.57792584333
 20
444.238144876011
 30
0.0
 11
8681.991793053034
 21
444.8511307251587
 31
0.0
  0
LINE
  5
263E
330
1F
100
AcDbEntity
  8
SPOJOVACÍ
  6
Continuous
100
AcDbLine
 10
8685.653895160989
 20
447.7616507902107
 30
0.0
 11
8684.453968384259
 21
447.7616507902107
 31
0.0
  0
LINE
  5
263F
330
1F
100
AcDbEntity
  8
SPOJOVACÍ
  6
Continuous
100
AcDbLine
 10
8684.117244746374
 20
447.0463456040429
 30
0.0
 11
8684.453968384259
 21
447.7616507902107
 31
0.0
  0
LINE
  5
2640
330
1F
100
AcDbEntity
  8
SPOJOVACÍ
  6
Continuous
100
AcDbLine
 10
8683.199161235933
 20
445.8092117951432
 30
0.0
 11
8684.117244746374
 21
447.0463456040429
 31
0.0
  0
LINE
  5
2641
330
1F
100
AcDbEntity
  8
SPOJOVACÍ
  6
Continuous
100
AcDbLine
 10
8685.653895160989
 20
437.5613430129428
 30
0.0
 11
8684.453968384259
 21
437.5613430129428
 31
0.0
  0
LINE
  5
2642
330
1F
100
AcDbEntity
  8
SPOJOVACÍ
  6
Continuous
100
AcDbLine
 10
8682.641055758372
 20
440.0216579968523
 30
0.0
 11
8681.322066480074
 21
440.8178884761705
 31
0.0
  0
LINE
  5
2643
330
1F
100
AcDbEntity
  8
SPOJOVACÍ
  6
Continuous
100
AcDbLine
 10
8683.709827747783
 20
438.9110280964937
 30
0.0
 11
8682.641055758372
 21
440.0216579968523
 31
0.0
  0
LINE
  5
2644
330
1F
100
AcDbEntity
  8
SPOJOVACÍ
  6
Continuous
100
AcDbLine
 10
8684.453968384259
 20
437.5613430129428
 30
0.0
 11
8683.709827747783
 21
438.9110280964937
 31
0.0
  0
LINE
  5
2645
330
1F
100
AcDbEntity
  8
SPOJOVACÍ
  6
Continuous
100
AcDbLine
 10
8685.653895160989
 20
437.5613430129428
 30
0.0
 11
8685.653895160989
 21
447.7616507902107
 31
0.0
  0
LINE
  5
2646
330
1F
100
AcDbEntity
  8
SPOJOVACÍ
  6
Continuous
100
AcDbLine
 10
8684.453968384259
 20
437.5613430129428
 30
0.0
 11
8684.453968384259
 21
447.7616507902107
 31
0.0
  0
LINE
  5
2647
330
1F
100
AcDbEntity
  8
SPOJOVACÍ
  6
Continuous
100
AcDbLine
 10
8679.054297889901
 20
444.0111819851276
 30
0.0
 11
8680.57792584333
 21
444.238144876011
 31
0.0
  0
LINE
  5
2648
330
1F
100
AcDbEntity
  8
SPOJOVACÍ
  6
Continuous
100
AcDbLine
 10
8681.322066480074
 20
440.8178884761705
 30
0.0
 11
8679.841226613024
 21
441.2457693404698
 31
0.0
  0
LWPOLYLINE
  5
2649
330
1F
100
AcDbEntity
  8
izolace
100
AcDbPolyline
 90
        4
 70
     1
 43
0.0
 10
8585.421640876239
 20
424.7080650555813
 10
8585.421640876239
 20
419.4900200743918
 10
8597.421640876239
 20
419.4900200743918
 10
8597.421640876239
 20
424.7080650555813
  0
LINE
  5
264A
330
1F
100
AcDbEntity
  8
CETRIS
100
AcDbLine
 10
8597.421640876239
 20
424.7080650555776
 30
0.0
 11
8585.421640876239
 21
424.7080650555813
 31
0.0
  0
LINE
  5
2651
330
1F
100
AcDbEntity
  8
SPOJOVACÍ
  6
Continuous
100
AcDbLine
 10
8652.325331866812
 20
346.0403174778498
 30
0.0
 11
8652.615546716331
 21
348.3620362639144
 31
0.0
  0
LINE
  5
2652
330
1F
100
AcDbEntity
  8
SPOJOVACÍ
  6
Continuous
100
AcDbLine
 10
8655.427468144988
 20
346.5881910213234
 30
0.0
 11
8655.049816774043
 21
346.3705298852751
 31
0.0
  0
LINE
  5
2653
330
1F
100
AcDbEntity
  8
SPOJOVACÍ
  6
Continuous
100
AcDbLine
 10
8651.680720040529
 20
345.8338184510453
 30
0.0
 11
8655.049816774043
 21
346.9667725704298
 31
0.0
  0
LINE
  5
2654
330
1F
100
AcDbEntity
  8
SPOJOVACÍ
  6
Continuous
100
AcDbLine
 10
8651.302138492246
 20
345.6152271390187
 30
0.0
 11
8655.427468144988
 21
346.5881910213234
 31
0.0
  0
LINE
  5
2656
330
1F
100
AcDbEntity
  8
izolace
100
AcDbLine
 10
8611.334465067066
 20
422.9865562347136
 30
0.0
 11
8673.370739923132
 21
422.9865562347136
 31
0.0
  0
LINE
  5
2657
330
1F
100
AcDbEntity
  8
izolace
100
AcDbLine
 10
8611.334465067066
 20
420.9865562347099
 30
0.0
 11
8673.370739923132
 21
420.9865562347099
 31
0.0
  0
HATCH
  5
2658
330
1F
100
AcDbEntity
  8
izolace
100
AcDbHatch
 10
0.0
 20
0.0
 30
0.0
210
0.0
220
0.0
230
1.0
  2
SOLID
 70
     1
 71
     0
 91
        4
 92
        7
 72
     0
 73
     1
 93
        4
 10
8598.833388060091
 20
422.9865562347136
 10
8611.334465067066
 20
422.9865562347136
 10
8611.334465067066
 20
420.9865562347099
 10
8598.833388060091
 20
420.9865562347099
 97
        0
 92
        7
 72
     0
 73
     1
 93
        4
 10
8618.991175981664
 20
422.9865562347136
 10
8631.492252988643
 20
422.986556234714
 10
8631.492252988643
 20
420.9865562347099
 10
8618.991175981664
 20
420.9865562347103
 97
        0
 92
        7
 72
     0
 73
     1
 93
        4
 10
8639.725412003294
 20
422.9865562347136
 10
8652.226489010272
 20
422.986556234714
 10
8652.226489010272
 20
420.9865562347099
 10
8639.725412003294
 20
420.9865562347103
 97
        0
 92
        7
 72
     1
 73
     1
 93
        7
 10
8660.869662916157
 20
422.5076305725929
 42
0.0
 10
8660.869662916157
 20
422.9865562347136
 42
0.0
 10
8673.370739923132
 20
422.9865562347136
 42
0.0
 10
8673.370739923132
 20
420.9865562347099
 42
0.0
 10
8661.106050910412
 20
420.9865562347099
 42
0.0
 10
8660.869662916157
 20
421.1451636067913
 42
0.0
 10
8660.869662916157
 20
421.22083614878
 42
0.2771233679601331
 97
        0
 75
     0
 76
     1
 47
0.1334780420591298
 98
        4
 10
8604.054163631568
 20
421.6845671261671
 10
8619.816249963877
 20
421.6845671261671
 10
8646.798807600083
 20
421.6845671261671
 10
8665.098858658991
 20
421.6845671261671
  0
LINE
  5
2659
330
1F
100
AcDbEntity
  8
SPOJOVACÍ
  6
Continuous
100
AcDbLine
 10
8655.047936220743
 20
389.8471778142097
 30
0.0
 11
8655.314896676079
 21
391.9837916170631
 31
0.0
  0
LINE
  5
265A
330
1F
100
AcDbEntity
  8
SPOJOVACÍ
  6
Continuous
100
AcDbLine
 10
8653.159679357285
 20
392.7074683861842
 30
0.0
 11
8653.449894206804
 21
390.3857496001196
 31
0.0
  0
LINE
  5
265B
330
1F
100
AcDbEntity
  8
SPOJOVACÍ
  6
DASHED
100
AcDbLine
 10
8635.181588653798
 20
381.6685164948192
 30
0.0
 11
8636.892526153797
 21
394.3737766185129
 31
0.0
  0
LINE
  5
265C
330
1F
100
AcDbEntity
  8
SPOJOVACÍ
  6
DASHED
100
AcDbLine
 10
8635.181588653798
 20
381.6685164948192
 30
0.0
 11
8633.470651153798
 21
394.3737766185129
 31
0.0
  0
LINE
  5
265D
330
1F
100
AcDbEntity
  8
SPOJOVACÍ
  6
Continuous
100
AcDbLine
 10
8632.783383258784
 20
391.899597119004
 30
0.0
 11
8637.579794053989
 21
390.2868205357615
 31
0.0
  0
LINE
  5
265E
330
1F
100
AcDbEntity
  8
SPOJOVACÍ
  6
Continuous
100
AcDbLine
 10
8638.027664976718
 20
390.7346914610814
 30
0.0
 11
8637.579794053989
 21
390.9939270951824
 31
0.0
  0
LINE
  5
265F
330
1F
100
AcDbEntity
  8
SPOJOVACÍ
  6
Continuous
100
AcDbLine
 10
8632.335512330875
 20
392.1577296225393
 30
0.0
 11
8638.027664976718
 21
390.7346914610814
 31
0.0
  0
LINE
  5
2660
330
1F
100
AcDbEntity
  8
SPOJOVACÍ
100
AcDbLine
 10
8628.431588653796
 20
425.0314005002706
 30
0.0
 11
8641.931588653797
 21
425.0314005002706
 31
0.0
  0
LINE
  5
2661
330
1F
100
AcDbEntity
  8
SPOJOVACÍ
100
AcDbLine
 10
8628.431588653796
 20
426.4729888667402
 30
0.0
 11
8641.931588653797
 21
426.4729888667402
 31
0.0
  0
LINE
  5
2662
330
1F
100
AcDbEntity
  8
SPOJOVACÍ
  6
DASHED
100
AcDbLine
 10
8628.431588653796
 20
425.0314005002706
 30
0.0
 11
8633.470651153798
 21
421.8487661976955
 31
0.0
  0
LINE
  5
2663
330
1F
100
AcDbEntity
  8
SPOJOVACÍ
  6
Continuous
100
AcDbLine
 10
8632.783383261372
 20
420.8934617848986
 30
0.0
 11
8637.579794056577
 21
419.2806852016524
 31
0.0
  0
LINE
  5
2664
330
1F
100
AcDbEntity
  8
SPOJOVACÍ
  6
Continuous
100
AcDbLine
 10
8632.783383261372
 20
420.186355225474
 30
0.0
 11
8637.579794056577
 21
418.5735786422315
 31
0.0
  0
LINE
  5
2665
330
1F
100
AcDbEntity
  8
SPOJOVACÍ
  6
Continuous
100
AcDbLine
 10
8632.335512333463
 20
420.4444877290093
 30
0.0
 11
8638.027664979308
 21
419.0214495675514
 31
0.0
  0
LINE
  5
2666
330
1F
100
AcDbEntity
  8
SPOJOVACÍ
  6
Continuous
100
AcDbLine
 10
8632.783383261372
 20
417.4974718706485
 30
0.0
 11
8637.579794056577
 21
415.8846952874023
 31
0.0
  0
LINE
  5
2667
330
1F
100
AcDbEntity
  8
SPOJOVACÍ
  6
Continuous
100
AcDbLine
 10
8632.783383261372
 20
416.7903653112238
 30
0.0
 11
8637.579794056577
 21
415.1775887279813
 31
0.0
  0
LINE
  5
2668
330
1F
100
AcDbEntity
  8
SPOJOVACÍ
  6
Continuous
100
AcDbLine
 10
8632.335512333463
 20
417.0484978147592
 30
0.0
 11
8638.027664979308
 21
415.6254596533012
 31
0.0
  0
INSERT
  5
2669
330
1F
100
AcDbEntity
  8
POPIS
100
AcDbBlockReference
  2
E_PUNKT
 10
8635.21065698467
 20
398.9197600462589
 30
0.0
 50
90.0
  0
LINE
  5
266A
330
1F
100
AcDbEntity
  8
SPOJOVACÍ
  6
Continuous
100
AcDbLine
 10
8632.335512330875
 20
406.8605280728784
 30
0.0
 11
8638.027664976718
 21
405.4374899114204
 31
0.0
  0
LINE
  5
266B
330
1F
100
AcDbEntity
  8
SPOJOVACÍ
  6
Continuous
100
AcDbLine
 10
8632.783383258784
 20
406.6023955693431
 30
0.0
 11
8637.579794053989
 21
404.9896189861006
 31
0.0
  0
LINE
  5
266C
330
1F
100
AcDbEntity
  8
SPOJOVACÍ
  6
Continuous
100
AcDbLine
 10
8632.783383258784
 20
407.3095021287676
 30
0.0
 11
8637.579794053989
 21
405.6967255455215
 31
0.0
  0
LINE
  5
266D
330
1F
100
AcDbEntity
  8
SPOJOVACÍ
  6
Continuous
100
AcDbLine
 10
8632.335512330875
 20
410.2565179871285
 30
0.0
 11
8638.027664976718
 21
408.8334798256705
 31
0.0
  0
LINE
  5
266E
330
1F
100
AcDbEntity
  8
SPOJOVACÍ
  6
Continuous
100
AcDbLine
 10
8632.783383258784
 20
409.9983854835931
 30
0.0
 11
8637.579794053989
 21
408.3856089003506
 31
0.0
  0
LINE
  5
266F
330
1F
100
AcDbEntity
  8
SPOJOVACÍ
  6
Continuous
100
AcDbLine
 10
8632.783383258784
 20
410.7054920430178
 30
0.0
 11
8637.579794053989
 21
409.0927154597716
 31
0.0
  0
LINE
  5
2670
330
1F
100
AcDbEntity
  8
SPOJOVACÍ
  6
Continuous
100
AcDbLine
 10
8632.783383258784
 20
403.9135122145175
 30
0.0
 11
8637.579794053989
 21
402.3007356312714
 31
0.0
  0
LINE
  5
2671
330
1F
100
AcDbEntity
  8
SPOJOVACÍ
  6
Continuous
100
AcDbLine
 10
8632.783383258784
 20
403.206405655093
 30
0.0
 11
8637.579794053989
 21
401.5936290718505
 31
0.0
  0
LINE
  5
2672
330
1F
100
AcDbEntity
  8
SPOJOVACÍ
  6
Continuous
100
AcDbLine
 10
8632.335512330875
 20
403.4645381586283
 30
0.0
 11
8638.027664976718
 21
402.0414999971704
 31
0.0
  0
LINE
  5
2673
330
1F
100
AcDbEntity
  8
SPOJOVACÍ
  6
Continuous
100
AcDbLine
 10
8632.783383258784
 20
400.5175223002675
 30
0.0
 11
8637.579794053989
 21
398.9047457170213
 31
0.0
  0
LINE
  5
2674
330
1F
100
AcDbEntity
  8
SPOJOVACÍ
  6
Continuous
100
AcDbLine
 10
8632.783383258784
 20
399.8104157408429
 30
0.0
 11
8637.579794053989
 21
398.1976391576004
 31
0.0
  0
LINE
  5
2675
330
1F
100
AcDbEntity
  8
SPOJOVACÍ
  6
Continuous
100
AcDbLine
 10
8632.335512330875
 20
400.0685482443782
 30
0.0
 11
8638.027664976718
 21
398.6455100829203
 31
0.0
  0
LINE
  5
2676
330
1F
100
AcDbEntity
  8
SPOJOVACÍ
  6
Continuous
100
AcDbLine
 10
8632.783383258784
 20
392.6067036784286
 30
0.0
 11
8637.579794053989
 21
390.9939270951824
 31
0.0
  0
LINE
  5
2677
330
1F
100
AcDbEntity
  8
SPOJOVACÍ
  6
Continuous
100
AcDbLine
 10
8632.335512330875
 20
395.5537195367894
 30
0.0
 11
8638.027664976718
 21
394.1306813753314
 31
0.0
  0
LINE
  5
2678
330
1F
100
AcDbEntity
  8
SPOJOVACÍ
  6
Continuous
100
AcDbLine
 10
8632.783383258784
 20
395.2955870332541
 30
0.0
 11
8637.579794053989
 21
393.6828104500116
 31
0.0
  0
LINE
  5
2679
330
1F
100
AcDbEntity
  8
SPOJOVACÍ
  6
Continuous
100
AcDbLine
 10
8632.783383258784
 20
396.0026935926787
 30
0.0
 11
8637.579794053989
 21
394.3899170094325
 31
0.0
  0
LINE
  5
267A
330
1F
100
AcDbEntity
  8
SPOJOVACÍ
  6
Continuous
100
AcDbLine
 10
8632.335512333463
 20
413.6525079005091
 30
0.0
 11
8638.027664979308
 21
412.2294697390511
 31
0.0
  0
LINE
  5
267B
330
1F
100
AcDbEntity
  8
SPOJOVACÍ
  6
Continuous
100
AcDbLine
 10
8632.783383261372
 20
413.3943753969738
 30
0.0
 11
8637.579794056577
 21
411.7815988137313
 31
0.0
  0
LINE
  5
267C
330
1F
100
AcDbEntity
  8
SPOJOVACÍ
  6
Continuous
100
AcDbLine
 10
8632.783383261372
 20
414.1014819563983
 30
0.0
 11
8637.579794056577
 21
412.4887053731522
 31
0.0
  0
LINE
  5
267D
330
1F
100
AcDbEntity
  8
SPOJOVACÍ
100
AcDbLine
 10
8628.431588653796
 20
426.4729888667402
 30
0.0
 11
8628.431588653796
 21
425.0314005002706
 31
0.0
  0
LINE
  5
267E
330
1F
100
AcDbEntity
  8
SPOJOVACÍ
100
AcDbLine
 10
8628.431588653796
 20
425.0314005002706
 30
0.0
 11
8628.431588653796
 21
425.908311122404
 31
0.0
  0
LINE
  5
267F
330
1F
100
AcDbEntity
  8
SPOJOVACÍ
100
AcDbLine
 10
8628.431588653796
 20
425.908311122404
 30
0.0
 11
8628.431588653796
 21
425.0314005002706
 31
0.0
  0
LINE
  5
2680
330
1F
100
AcDbEntity
  8
SPOJOVACÍ
  6
Continuous
100
AcDbLine
 10
8632.335512333463
 20
413.6525079005091
 30
0.0
 11
8632.783383261372
 21
413.3943753969738
 31
0.0
  0
LINE
  5
2681
330
1F
100
AcDbEntity
  8
SPOJOVACÍ
  6
Continuous
100
AcDbLine
 10
8632.335512333463
 20
413.6525079005091
 30
0.0
 11
8632.783383261372
 21
414.1014819563983
 31
0.0
  0
LINE
  5
2682
330
1F
100
AcDbEntity
  8
SPOJOVACÍ
  6
Continuous
100
AcDbLine
 10
8632.335512333463
 20
420.4444877290093
 30
0.0
 11
8632.783383261372
 21
420.8934617848986
 31
0.0
  0
LINE
  5
2683
330
1F
100
AcDbEntity
  8
SPOJOVACÍ
  6
Continuous
100
AcDbLine
 10
8632.335512333463
 20
420.4444877290093
 30
0.0
 11
8632.783383261372
 21
420.186355225474
 31
0.0
  0
LINE
  5
2684
330
1F
100
AcDbEntity
  8
SPOJOVACÍ
  6
Continuous
100
AcDbLine
 10
8632.335512333463
 20
417.0484978147592
 30
0.0
 11
8632.783383261372
 21
417.4974718706485
 31
0.0
  0
LINE
  5
2685
330
1F
100
AcDbEntity
  8
SPOJOVACÍ
  6
Continuous
100
AcDbLine
 10
8632.335512333463
 20
417.0484978147592
 30
0.0
 11
8632.783383261372
 21
416.7903653112238
 31
0.0
  0
LINE
  5
2686
330
1F
100
AcDbEntity
  8
SPOJOVACÍ
  6
Continuous
100
AcDbLine
 10
8632.335512330875
 20
406.8605280728784
 30
0.0
 11
8632.783383258784
 21
406.6023955693431
 31
0.0
  0
LINE
  5
2687
330
1F
100
AcDbEntity
  8
SPOJOVACÍ
  6
Continuous
100
AcDbLine
 10
8632.335512330875
 20
406.8605280728784
 30
0.0
 11
8632.783383258784
 21
407.3095021287676
 31
0.0
  0
LINE
  5
2688
330
1F
100
AcDbEntity
  8
SPOJOVACÍ
  6
Continuous
100
AcDbLine
 10
8632.335512330875
 20
410.2565179871285
 30
0.0
 11
8632.783383258784
 21
409.9983854835931
 31
0.0
  0
LINE
  5
2689
330
1F
100
AcDbEntity
  8
SPOJOVACÍ
  6
Continuous
100
AcDbLine
 10
8632.335512330875
 20
410.2565179871285
 30
0.0
 11
8632.783383258784
 21
410.7054920430178
 31
0.0
  0
LINE
  5
268A
330
1F
100
AcDbEntity
  8
SPOJOVACÍ
  6
Continuous
100
AcDbLine
 10
8632.335512330875
 20
403.4645381586283
 30
0.0
 11
8632.783383258784
 21
403.9135122145175
 31
0.0
  0
LINE
  5
268B
330
1F
100
AcDbEntity
  8
SPOJOVACÍ
  6
Continuous
100
AcDbLine
 10
8632.335512330875
 20
403.4645381586283
 30
0.0
 11
8632.783383258784
 21
403.206405655093
 31
0.0
  0
LINE
  5
268C
330
1F
100
AcDbEntity
  8
SPOJOVACÍ
  6
Continuous
100
AcDbLine
 10
8632.335512330875
 20
400.0685482443782
 30
0.0
 11
8632.783383258784
 21
400.5175223002675
 31
0.0
  0
LINE
  5
268D
330
1F
100
AcDbEntity
  8
SPOJOVACÍ
  6
Continuous
100
AcDbLine
 10
8632.335512330875
 20
400.0685482443782
 30
0.0
 11
8632.783383258784
 21
399.8104157408429
 31
0.0
  0
LINE
  5
268E
330
1F
100
AcDbEntity
  8
SPOJOVACÍ
  6
Continuous
100
AcDbLine
 10
8632.335512330875
 20
395.5537195367894
 30
0.0
 11
8632.783383258784
 21
395.2955870332541
 31
0.0
  0
LINE
  5
268F
330
1F
100
AcDbEntity
  8
SPOJOVACÍ
  6
Continuous
100
AcDbLine
 10
8632.335512330875
 20
395.5537195367894
 30
0.0
 11
8632.783383258784
 21
396.0026935926787
 31
0.0
  0
LINE
  5
2690
330
1F
100
AcDbEntity
  8
SPOJOVACÍ
  6
Continuous
100
AcDbLine
 10
8632.335512330875
 20
392.1577296225393
 30
0.0
 11
8632.783383258784
 21
392.6067036784286
 31
0.0
  0
LINE
  5
2691
330
1F
100
AcDbEntity
  8
SPOJOVACÍ
  6
Continuous
100
AcDbLine
 10
8632.335512330875
 20
392.1577296225393
 30
0.0
 11
8632.783383258784
 21
391.899597119004
 31
0.0
  0
LINE
  5
2692
330
1F
100
AcDbEntity
  8
SPOJOVACÍ
  6
Continuous
100
AcDbLine
 10
8652.260199363608
 20
396.5881618064354
 30
0.0
 11
8656.304603723199
 21
395.2282447928932
 31
0.0
  0
LINE
  5
2693
330
1F
100
AcDbEntity
  8
SPOJOVACÍ
  6
Continuous
100
AcDbLine
 10
8652.260199363608
 20
395.9919191212807
 30
0.0
 11
8656.304603723199
 21
394.6320021077385
 31
0.0
  0
LINE
  5
2694
330
1F
100
AcDbEntity
  8
SPOJOVACÍ
  6
Continuous
100
AcDbLine
 10
8656.682255094144
 20
395.0096534808667
 30
0.0
 11
8656.304603723199
 21
395.2282447928932
 31
0.0
  0
LINE
  5
2695
330
1F
100
AcDbEntity
  8
SPOJOVACÍ
  6
Continuous
100
AcDbLine
 10
8656.682255094144
 20
395.0096534808667
 30
0.0
 11
8656.304603723199
 21
394.6320021077385
 31
0.0
  0
LINE
  5
2696
330
1F
100
AcDbEntity
  8
SPOJOVACÍ
  6
Continuous
100
AcDbLine
 10
8651.882547988297
 20
396.2095802573289
 30
0.0
 11
8652.260199363608
 21
396.5881618064354
 31
0.0
  0
LINE
  5
2697
330
1F
100
AcDbEntity
  8
SPOJOVACÍ
  6
Continuous
100
AcDbLine
 10
8651.882547988297
 20
396.2095802573289
 30
0.0
 11
8652.260199363608
 21
395.9919191212807
 31
0.0
  0
LINE
  5
2698
330
1F
100
AcDbEntity
  8
SPOJOVACÍ
  6
Continuous
100
AcDbLine
 10
8651.882547988297
 20
396.2095802573289
 30
0.0
 11
8656.682255094144
 21
395.0096534808667
 31
0.0
  0
LINE
  5
2699
330
1F
100
AcDbEntity
  8
SPOJOVACÍ
  6
Continuous
100
AcDbLine
 10
8652.260199363608
 20
399.7079714253973
 30
0.0
 11
8656.304603723199
 21
398.3480544118551
 31
0.0
  0
LINE
  5
269A
330
1F
100
AcDbEntity
  8
SPOJOVACÍ
  6
Continuous
100
AcDbLine
 10
8652.260199363608
 20
399.1117287402498
 30
0.0
 11
8656.304603723199
 21
397.7518117269769
 31
0.0
  0
LINE
  5
269B
330
1F
100
AcDbEntity
  8
SPOJOVACÍ
  6
Continuous
100
AcDbLine
 10
8656.682255094144
 20
398.1303932758068
 30
0.0
 11
8656.304603723199
 21
398.3480544118551
 31
0.0
  0
LINE
  5
269C
330
1F
100
AcDbEntity
  8
SPOJOVACÍ
  6
Continuous
100
AcDbLine
 10
8656.682255094144
 20
398.1303932758068
 30
0.0
 11
8656.304603723199
 21
397.7518117269769
 31
0.0
  0
LINE
  5
269D
330
1F
100
AcDbEntity
  8
SPOJOVACÍ
  6
Continuous
100
AcDbLine
 10
8651.882547988297
 20
399.3303200522691
 30
0.0
 11
8652.260199363608
 21
399.7079714253973
 31
0.0
  0
LINE
  5
269E
330
1F
100
AcDbEntity
  8
SPOJOVACÍ
  6
Continuous
100
AcDbLine
 10
8651.882547988297
 20
399.3303200522691
 30
0.0
 11
8652.260199363608
 21
399.1117287402498
 31
0.0
  0
LINE
  5
269F
330
1F
100
AcDbEntity
  8
SPOJOVACÍ
  6
Continuous
100
AcDbLine
 10
8651.882547988297
 20
399.3303200522691
 30
0.0
 11
8656.682255094144
 21
398.1303932758068
 31
0.0
  0
LINE
  5
26A0
330
1F
100
AcDbEntity
  8
SPOJOVACÍ
  6
Continuous
100
AcDbLine
 10
8652.260199363608
 20
402.8277810443665
 30
0.0
 11
8656.304603723199
 21
401.4678640310935
 31
0.0
  0
LINE
  5
26A1
330
1F
100
AcDbEntity
  8
SPOJOVACÍ
  6
Continuous
100
AcDbLine
 10
8652.260199363608
 20
402.2315383592117
 30
0.0
 11
8656.304603723199
 21
400.8716213459461
 31
0.0
  0
LINE
  5
26A2
330
1F
100
AcDbEntity
  8
SPOJOVACÍ
  6
Continuous
100
AcDbLine
 10
8656.682255094144
 20
401.2502028947761
 30
0.0
 11
8656.304603723199
 21
401.4678640310935
 31
0.0
  0
LINE
  5
26A3
330
1F
100
AcDbEntity
  8
SPOJOVACÍ
  6
Continuous
100
AcDbLine
 10
8656.682255094144
 20
401.2502028947761
 30
0.0
 11
8656.304603723199
 21
400.8716213459461
 31
0.0
  0
LINE
  5
26A4
330
1F
100
AcDbEntity
  8
SPOJOVACÍ
  6
Continuous
100
AcDbLine
 10
8651.882547988297
 20
402.4501296712383
 30
0.0
 11
8652.260199363608
 21
402.8277810443665
 31
0.0
  0
LINE
  5
26A5
330
1F
100
AcDbEntity
  8
SPOJOVACÍ
  6
Continuous
100
AcDbLine
 10
8651.882547988297
 20
402.4501296712383
 30
0.0
 11
8652.260199363608
 21
402.2315383592117
 31
0.0
  0
LINE
  5
26A6
330
1F
100
AcDbEntity
  8
SPOJOVACÍ
  6
Continuous
100
AcDbLine
 10
8651.882547988297
 20
402.4501296712383
 30
0.0
 11
8656.682255094144
 21
401.2502028947761
 31
0.0
  0
LINE
  5
26A7
330
1F
100
AcDbEntity
  8
SPOJOVACÍ
  6
Continuous
100
AcDbLine
 10
8652.136485982717
 20
393.1325587250153
 30
0.0
 11
8656.26181563546
 21
392.1595948427107
 31
0.0
  0
LINE
  5
26A8
330
1F
100
AcDbEntity
  8
SPOJOVACÍ
  6
Continuous
100
AcDbLine
 10
8652.515067531002
 20
393.5102100981434
 30
0.0
 11
8655.884164264515
 21
392.3772559787589
 31
0.0
  0
LINE
  5
26A9
330
1F
100
AcDbEntity
  8
SPOJOVACÍ
  6
Continuous
100
AcDbLine
 10
8652.515067531002
 20
392.9139674129887
 30
0.0
 11
8655.884164264515
 21
391.7810132936042
 31
0.0
  0
LINE
  5
26AA
330
1F
100
AcDbEntity
  8
SPOJOVACÍ
  6
Continuous
100
AcDbLine
 10
8656.26181563546
 20
392.1595948427107
 30
0.0
 11
8655.884164264515
 21
392.3772559787589
 31
0.0
  0
LINE
  5
26AB
330
1F
100
AcDbEntity
  8
SPOJOVACÍ
  6
Continuous
100
AcDbLine
 10
8656.26181563546
 20
392.1595948427107
 30
0.0
 11
8655.884164264515
 21
391.7810132936042
 31
0.0
  0
LINE
  5
26AC
330
1F
100
AcDbEntity
  8
SPOJOVACÍ
  6
Continuous
100
AcDbLine
 10
8652.136485982717
 20
393.1325587250153
 30
0.0
 11
8652.515067531002
 21
393.5102100981434
 31
0.0
  0
LINE
  5
26AD
330
1F
100
AcDbEntity
  8
SPOJOVACÍ
  6
Continuous
100
AcDbLine
 10
8652.136485982717
 20
393.1325587250153
 30
0.0
 11
8652.515067531002
 21
392.9139674129887
 31
0.0
  0
LINE
  5
26AE
330
1F
100
AcDbEntity
  8
SPOJOVACÍ
  6
Continuous
100
AcDbLine
 10
8652.260199363608
 20
405.9475906636048
 30
0.0
 11
8656.304603723199
 21
404.5886038257645
 31
0.0
  0
LINE
  5
26AF
330
1F
100
AcDbEntity
  8
SPOJOVACÍ
  6
Continuous
100
AcDbLine
 10
8652.260199363608
 20
405.3513479784501
 30
0.0
 11
8656.304603723199
 21
403.9923611408863
 31
0.0
  0
LINE
  5
26B0
330
1F
100
AcDbEntity
  8
SPOJOVACÍ
  6
Continuous
100
AcDbLine
 10
8656.682255094144
 20
404.3700125137379
 30
0.0
 11
8656.304603723199
 21
404.5886038257645
 31
0.0
  0
LINE
  5
26B1
330
1F
100
AcDbEntity
  8
SPOJOVACÍ
  6
Continuous
100
AcDbLine
 10
8656.682255094144
 20
404.3700125137379
 30
0.0
 11
8656.304603723199
 21
403.9923611408863
 31
0.0
  0
LINE
  5
26B2
330
1F
100
AcDbEntity
  8
SPOJOVACÍ
  6
Continuous
100
AcDbLine
 10
8651.882547988297
 20
405.5699392904767
 30
0.0
 11
8652.260199363608
 21
405.9475906636048
 31
0.0
  0
LINE
  5
26B3
330
1F
100
AcDbEntity
  8
SPOJOVACÍ
  6
Continuous
100
AcDbLine
 10
8651.882547988297
 20
405.5699392904767
 30
0.0
 11
8652.260199363608
 21
405.3513479784501
 31
0.0
  0
LINE
  5
26B4
330
1F
100
AcDbEntity
  8
SPOJOVACÍ
  6
Continuous
100
AcDbLine
 10
8651.882547988297
 20
405.5699392904767
 30
0.0
 11
8656.682255094144
 21
404.3700125137379
 31
0.0
  0
LINE
  5
26B5
330
1F
100
AcDbEntity
  8
SPOJOVACÍ
  6
Continuous
100
AcDbLine
 10
8652.260199363608
 20
409.0683304582685
 30
0.0
 11
8656.304603723199
 21
407.7084134450029
 31
0.0
  0
LINE
  5
26B6
330
1F
100
AcDbEntity
  8
SPOJOVACÍ
  6
Continuous
100
AcDbLine
 10
8652.260199363608
 20
408.4720877733903
 30
0.0
 11
8656.304603723199
 21
407.1121707598481
 31
0.0
  0
LINE
  5
26B7
330
1F
100
AcDbEntity
  8
SPOJOVACÍ
  6
Continuous
100
AcDbLine
 10
8656.682255094144
 20
407.4898221329763
 30
0.0
 11
8656.304603723199
 21
407.7084134450029
 31
0.0
  0
LINE
  5
26B8
330
1F
100
AcDbEntity
  8
SPOJOVACÍ
  6
Continuous
100
AcDbLine
 10
8656.682255094144
 20
407.4898221329763
 30
0.0
 11
8656.304603723199
 21
407.1121707598481
 31
0.0
  0
LINE
  5
26B9
330
1F
100
AcDbEntity
  8
SPOJOVACÍ
  6
Continuous
100
AcDbLine
 10
8651.882547988297
 20
408.6897489094385
 30
0.0
 11
8652.260199363608
 21
409.0683304582685
 31
0.0
  0
LINE
  5
26BA
330
1F
100
AcDbEntity
  8
SPOJOVACÍ
  6
Continuous
100
AcDbLine
 10
8651.882547988297
 20
408.6897489094385
 30
0.0
 11
8652.260199363608
 21
408.4720877733903
 31
0.0
  0
LINE
  5
26BB
330
1F
100
AcDbEntity
  8
SPOJOVACÍ
  6
Continuous
100
AcDbLine
 10
8651.882547988297
 20
408.6897489094385
 30
0.0
 11
8656.682255094144
 21
407.4898221329763
 31
0.0
  0
LINE
  5
26BC
330
1F
100
AcDbEntity
  8
SPOJOVACÍ
  6
Continuous
100
AcDbLine
 10
8655.386520213303
 20
392.5539893801083
 30
0.0
 11
8655.632086624772
 21
394.5250318913945
 31
0.0
  0
LINE
  5
26BD
330
1F
100
AcDbEntity
  8
SPOJOVACÍ
  6
Continuous
100
AcDbLine
 10
8652.932716462036
 20
394.5250318913945
 30
0.0
 11
8653.082474764758
 21
393.3278956420376
 31
0.0
  0
LINE
  5
26BE
330
1F
100
AcDbEntity
  8
SPOJOVACÍ
  6
Continuous
100
AcDbLine
 10
8655.632086624772
 20
394.861755529278
 30
0.0
 11
8655.632086624772
 21
394.5250318913945
 31
0.0
  0
LINE
  5
26BF
330
1F
100
AcDbEntity
  8
SPOJOVACÍ
  6
Continuous
100
AcDbLine
 10
8655.632086624772
 20
397.984355675891
 30
0.0
 11
8655.632086624772
 21
395.465439620862
 31
0.0
  0
LINE
  5
26C0
330
1F
100
AcDbEntity
  8
SPOJOVACÍ
  6
Continuous
100
AcDbLine
 10
8652.932716462036
 20
395.7723976332831
 30
0.0
 11
8652.932716462036
 21
394.5250318913945
 31
0.0
  0
LINE
  5
26C1
330
1F
100
AcDbEntity
  8
SPOJOVACÍ
  6
Continuous
100
AcDbLine
 10
8652.932716462036
 20
398.886626197765
 30
0.0
 11
8652.932716462036
 21
396.3686403184378
 31
0.0
  0
LINE
  5
26C2
330
1F
100
AcDbEntity
  8
SPOJOVACÍ
  6
Continuous
100
AcDbLine
 10
8655.632086624772
 20
401.106025646533
 30
0.0
 11
8655.632086624772
 21
398.5852492398239
 31
0.0
  0
LINE
  5
26C3
330
1F
100
AcDbEntity
  8
SPOJOVACÍ
  6
Continuous
100
AcDbLine
 10
8655.632086624772
 20
404.2286257928767
 30
0.0
 11
8655.632086624772
 21
401.7004079800076
 31
0.0
  0
LINE
  5
26C4
330
1F
100
AcDbEntity
  8
SPOJOVACÍ
  6
Continuous
100
AcDbLine
 10
8655.632086624772
 20
407.3437845330604
 30
0.0
 11
8655.632086624772
 21
404.8248684780315
 31
0.0
  0
LINE
  5
26C5
330
1F
100
AcDbEntity
  8
SPOJOVACÍ
  6
Continuous
100
AcDbLine
 10
8652.932716462036
 20
402.01945827792
 30
0.0
 11
8652.932716462036
 21
399.4912404650508
 31
0.0
  0
LINE
  5
26C6
330
1F
100
AcDbEntity
  8
SPOJOVACÍ
  6
Continuous
100
AcDbLine
 10
8652.932716462036
 20
405.1346170181036
 30
0.0
 11
8652.932716462036
 21
402.6138406113946
 31
0.0
  0
LINE
  5
26C7
330
1F
100
AcDbEntity
  8
SPOJOVACÍ
  6
Continuous
100
AcDbLine
 10
8652.932716462036
 20
408.2572171644474
 30
0.0
 11
8652.932716462036
 21
405.7383011094184
 31
0.0
  0
LINE
  5
26C8
330
1F
100
AcDbEntity
  8
SPOJOVACÍ
  6
Continuous
100
AcDbLine
 10
8652.932716462036
 20
412.8904228033039
 30
0.0
 11
8652.932716462036
 21
408.8525296736238
 31
0.0
  0
LINE
  5
26C9
330
1F
100
AcDbEntity
  8
SPOJOVACÍ
  6
Continuous
100
AcDbLine
 10
8655.632086624772
 20
412.8904228033039
 30
0.0
 11
8655.632086624772
 21
407.9474686243752
 31
0.0
  0
LINE
  5
26CA
330
1F
100
AcDbEntity
  8
SPOJOVACÍ
  6
Continuous
100
AcDbLine
 10
8652.866673980113
 20
413.6773515264263
 30
0.0
 11
8652.932716462036
 21
412.8904228033039
 31
0.0
  0
LINE
  5
26CB
330
1F
100
AcDbEntity
  8
SPOJOVACÍ
  6
Continuous
100
AcDbLine
 10
8649.182247652587
 20
418.2900932976604
 30
0.0
 11
8650.531932736138
 21
417.5459526611862
 31
0.0
  0
LINE
  5
26CC
330
1F
100
AcDbEntity
  8
SPOJOVACÍ
  6
Continuous
100
AcDbLine
 10
8650.531932736138
 20
417.5459526611862
 30
0.0
 11
8651.642562636496
 21
416.477180671774
 31
0.0
  0
LINE
  5
26CD
330
1F
100
AcDbEntity
  8
SPOJOVACÍ
  6
Continuous
100
AcDbLine
 10
8651.642562636496
 20
416.477180671774
 30
0.0
 11
8652.438793115814
 21
415.1581913934765
 31
0.0
  0
LINE
  5
26CE
330
1F
100
AcDbEntity
  8
SPOJOVACÍ
  6
Continuous
100
AcDbLine
 10
8657.430116434786
 20
417.0352861493352
 30
0.0
 11
8658.667250243686
 21
417.9533696597768
 31
0.0
  0
LINE
  5
26CF
330
1F
100
AcDbEntity
  8
SPOJOVACÍ
  6
Continuous
100
AcDbLine
 10
8658.667250243686
 20
417.9533696597768
 30
0.0
 11
8659.382555429855
 21
418.2900932976604
 31
0.0
  0
LINE
  5
26D0
330
1F
100
AcDbEntity
  8
SPOJOVACÍ
  6
Continuous
100
AcDbLine
 10
8649.182247652587
 20
418.2900932976604
 30
0.0
 11
8659.382555429855
 21
418.2900932976604
 31
0.0
  0
LINE
  5
26D1
330
1F
100
AcDbEntity
  8
SPOJOVACÍ
  6
Continuous
100
AcDbLine
 10
8649.182247652587
 20
419.4900200743918
 30
0.0
 11
8649.182247652587
 21
418.2900932976604
 31
0.0
  0
LINE
  5
26D2
330
1F
100
AcDbEntity
  8
SPOJOVACÍ
  6
Continuous
100
AcDbLine
 10
8649.182247652587
 20
419.4900200743918
 30
0.0
 11
8659.382555429855
 21
419.4900200743918
 31
0.0
  0
LINE
  5
26D3
330
1F
100
AcDbEntity
  8
SPOJOVACÍ
  6
Continuous
100
AcDbLine
 10
8659.382555429855
 20
419.4900200743918
 30
0.0
 11
8659.382555429855
 21
418.2900932976604
 31
0.0
  0
LINE
  5
26D4
330
1F
100
AcDbEntity
  8
SPOJOVACÍ
  6
Continuous
100
AcDbLine
 10
8655.859049515655
 20
414.4140507567331
 30
0.0
 11
8656.472035364803
 21
415.8279179664364
 31
0.0
  0
LINE
  5
26D5
330
1F
100
AcDbEntity
  8
SPOJOVACÍ
  6
Continuous
100
AcDbLine
 10
8656.472035364803
 20
415.8279179664364
 30
0.0
 11
8657.430116434786
 21
417.0352861493352
 31
0.0
  0
LINE
  5
26D6
330
1F
100
AcDbEntity
  8
SPOJOVACÍ
  6
Continuous
100
AcDbLine
 10
8652.438793115814
 20
415.1581913934765
 30
0.0
 11
8652.866673980113
 21
413.6773515264263
 31
0.0
  0
LINE
  5
26D7
330
1F
100
AcDbEntity
  8
SPOJOVACÍ
  6
Continuous
100
AcDbLine
 10
8655.632086624772
 20
412.8904228033039
 30
0.0
 11
8655.859049515655
 21
414.4140507567331
 31
0.0
  0
LINE
  5
26D8
330
1F
100
AcDbEntity
  8
SPOJOVACÍ
100
AcDbLine
 10
8641.931588653797
 20
426.4729888667402
 30
0.0
 11
8641.931588653797
 21
425.0314005002706
 31
0.0
  0
LINE
  5
26D9
330
1F
100
AcDbEntity
  8
SPOJOVACÍ
100
AcDbLine
 10
8641.931588653797
 20
425.0314005002706
 30
0.0
 11
8641.931588653797
 21
425.908311122404
 31
0.0
  0
LINE
  5
26DA
330
1F
100
AcDbEntity
  8
SPOJOVACÍ
100
AcDbLine
 10
8641.931588653797
 20
425.0314005002706
 30
0.0
 11
8636.892526153797
 21
421.8487661976919
 31
0.0
  0
LINE
  5
26DB
330
1F
100
AcDbEntity
  8
SPOJOVACÍ
  6
Continuous
100
AcDbLine
 10
8638.027664979308
 20
419.0214495675514
 30
0.0
 11
8637.579794056577
 21
419.2806852016524
 31
0.0
  0
LINE
  5
26DC
330
1F
100
AcDbEntity
  8
SPOJOVACÍ
  6
Continuous
100
AcDbLine
 10
8638.027664979308
 20
419.0214495675514
 30
0.0
 11
8637.579794056577
 21
418.5735786422315
 31
0.0
  0
LINE
  5
26DD
330
1F
100
AcDbEntity
  8
SPOJOVACÍ
  6
Continuous
100
AcDbLine
 10
8638.027664979308
 20
415.6254596533012
 30
0.0
 11
8637.579794056577
 21
415.8846952874023
 31
0.0
  0
LINE
  5
26DE
330
1F
100
AcDbEntity
  8
SPOJOVACÍ
  6
Continuous
100
AcDbLine
 10
8638.027664979308
 20
415.6254596533012
 30
0.0
 11
8637.579794056577
 21
415.1775887279813
 31
0.0
  0
LINE
  5
26DF
330
1F
100
AcDbEntity
  8
SPOJOVACÍ
  6
Continuous
100
AcDbLine
 10
8638.027664976718
 20
405.4374899114204
 30
0.0
 11
8637.579794053989
 21
404.9896189861006
 31
0.0
  0
LINE
  5
26E0
330
1F
100
AcDbEntity
  8
SPOJOVACÍ
  6
Continuous
100
AcDbLine
 10
8638.027664976718
 20
405.4374899114204
 30
0.0
 11
8637.579794053989
 21
405.6967255455215
 31
0.0
  0
LINE
  5
26E1
330
1F
100
AcDbEntity
  8
SPOJOVACÍ
  6
Continuous
100
AcDbLine
 10
8638.027664976718
 20
408.8334798256705
 30
0.0
 11
8637.579794053989
 21
408.3856089003506
 31
0.0
  0
LINE
  5
26E2
330
1F
100
AcDbEntity
  8
SPOJOVACÍ
  6
Continuous
100
AcDbLine
 10
8638.027664976718
 20
408.8334798256705
 30
0.0
 11
8637.579794053989
 21
409.0927154597716
 31
0.0
  0
LINE
  5
26E3
330
1F
100
AcDbEntity
  8
SPOJOVACÍ
  6
Continuous
100
AcDbLine
 10
8638.027664976718
 20
402.0414999971704
 30
0.0
 11
8637.579794053989
 21
402.3007356312714
 31
0.0
  0
LINE
  5
26E4
330
1F
100
AcDbEntity
  8
SPOJOVACÍ
  6
Continuous
100
AcDbLine
 10
8638.027664976718
 20
402.0414999971704
 30
0.0
 11
8637.579794053989
 21
401.5936290718505
 31
0.0
  0
LINE
  5
26E5
330
1F
100
AcDbEntity
  8
SPOJOVACÍ
  6
Continuous
100
AcDbLine
 10
8638.027664976718
 20
398.6455100829203
 30
0.0
 11
8637.579794053989
 21
398.9047457170213
 31
0.0
  0
LINE
  5
26E6
330
1F
100
AcDbEntity
  8
SPOJOVACÍ
  6
Continuous
100
AcDbLine
 10
8638.027664976718
 20
398.6455100829203
 30
0.0
 11
8637.579794053989
 21
398.1976391576004
 31
0.0
  0
LINE
  5
26E7
330
1F
100
AcDbEntity
  8
SPOJOVACÍ
  6
Continuous
100
AcDbLine
 10
8638.027664979308
 20
412.2294697390511
 30
0.0
 11
8637.579794056577
 21
411.7815988137313
 31
0.0
  0
LINE
  5
26E8
330
1F
100
AcDbEntity
  8
SPOJOVACÍ
  6
Continuous
100
AcDbLine
 10
8638.027664979308
 20
412.2294697390511
 30
0.0
 11
8637.579794056577
 21
412.4887053731522
 31
0.0
  0
LINE
  5
26E9
330
1F
100
AcDbEntity
  8
SPOJOVACÍ
  6
Continuous
100
AcDbLine
 10
8638.027664976718
 20
394.1306813753314
 30
0.0
 11
8637.579794053989
 21
393.6828104500116
 31
0.0
  0
LINE
  5
26EA
330
1F
100
AcDbEntity
  8
SPOJOVACÍ
  6
Continuous
100
AcDbLine
 10
8638.027664976718
 20
394.1306813753314
 30
0.0
 11
8637.579794053989
 21
394.3899170094325
 31
0.0
  0
LINE
  5
26EB
330
1F
100
AcDbEntity
  8
SPOJOVACÍ
100
AcDbLine
 10
8636.892526153797
 20
394.3737766185138
 30
0.0
 11
8636.892526153797
 21
421.8487661976919
 31
0.0
  0
LINE
  5
26EC
330
1F
100
AcDbEntity
  8
SPOJOVACÍ
100
AcDbLine
 10
8633.470651153798
 20
394.3737766185138
 30
0.0
 11
8633.470651153798
 21
421.8487661976955
 31
0.0
  0
LINE
  5
26ED
330
1F
100
AcDbEntity
  8
SPOJOVACÍ
  6
Continuous
100
AcDbLine
 10
8632.968613234091
 20
388.8917443307243
 30
0.0
 11
8637.222859438482
 21
387.8883753270954
 31
0.0
  0
LINE
  5
26EE
330
1F
100
AcDbEntity
  8
SPOJOVACÍ
  6
Continuous
100
AcDbLine
 10
8632.968613234091
 20
388.8917443307243
 30
0.0
 11
8633.359025455758
 21
389.2811973092637
 31
0.0
  0
LINE
  5
26EF
330
1F
100
AcDbEntity
  8
SPOJOVACÍ
  6
Continuous
100
AcDbLine
 10
8632.968613234091
 20
388.8917443307243
 30
0.0
 11
8633.359025455758
 21
388.6663220401958
 31
0.0
  0
LINE
  5
26F0
330
1F
100
AcDbEntity
  8
SPOJOVACÍ
  6
Continuous
100
AcDbLine
 10
8653.448054050748
 20
355.0230251375928
 30
0.0
 11
8653.802451031877
 21
352.1869191363244
 31
0.0
  0
LINE
  5
26F1
330
1F
100
AcDbEntity
  8
SPOJOVACÍ
  6
Continuous
100
AcDbLine
 10
8652.694611659169
 20
348.992695453579
 30
0.0
 11
8652.984826504324
 21
351.3134840639345
 31
0.0
  0
LINE
  5
26F2
330
1F
100
AcDbEntity
  8
SPOJOVACÍ
  6
Continuous
100
AcDbLine
 10
8653.062031096849
 20
351.9339113197879
 30
0.0
 11
8653.448054050748
 21
355.0230251375928
 31
0.0
  0
LINE
  5
26F3
330
1F
100
AcDbEntity
  8
SPOJOVACÍ
  6
Continuous
100
AcDbLine
 10
8653.874074569101
 20
351.6176515492575
 30
0.0
 11
8654.141965197412
 21
349.472666164273
 31
0.0
  0
LINE
  5
26F4
330
1F
100
AcDbEntity
  8
SPOJOVACÍ
  6
Continuous
100
AcDbLine
 10
8654.21358873027
 20
348.9006080498243
 30
0.0
 11
8654.480549185608
 21
346.7639942469709
 31
0.0
  0
LINE
  5
26F5
330
1F
100
AcDbEntity
  8
SPOJOVACÍ
  6
Continuous
100
AcDbLine
 10
8655.427468144988
 20
346.5881910213234
 30
0.0
 11
8655.049816774043
 21
346.9667725704298
 31
0.0
  0
LINE
  5
26F6
330
1F
100
AcDbEntity
  8
SPOJOVACÍ
  6
Continuous
100
AcDbLine
 10
8651.866755198351
 20
348.6299268933166
 30
0.0
 11
8652.244406573663
 21
348.8475880293649
 31
0.0
  0
LINE
  5
26F7
330
1F
100
AcDbEntity
  8
SPOJOVACÍ
  6
Continuous
100
AcDbLine
 10
8651.866755198351
 20
348.6299268933166
 30
0.0
 11
8652.244406573663
 21
348.2513453442102
 31
0.0
  0
LINE
  5
26F8
330
1F
100
AcDbEntity
  8
SPOJOVACÍ
  6
Continuous
100
AcDbLine
 10
8654.982844114782
 20
349.2633766100866
 30
0.0
 11
8654.605192743836
 21
349.6419581589166
 31
0.0
  0
LINE
  5
26F9
330
1F
100
AcDbEntity
  8
SPOJOVACÍ
  6
Continuous
100
AcDbLine
 10
8654.982844114782
 20
349.2633766100866
 30
0.0
 11
8654.605192743836
 21
349.0457154740383
 31
0.0
  0
LINE
  5
26FA
330
1F
100
AcDbEntity
  8
SPOJOVACÍ
  6
Continuous
100
AcDbLine
 10
8652.244406573663
 20
348.8475880293649
 30
0.0
 11
8654.605192743836
 21
349.6419581589166
 31
0.0
  0
LINE
  5
26FB
330
1F
100
AcDbEntity
  8
SPOJOVACÍ
  6
Continuous
100
AcDbLine
 10
8652.244406573663
 20
348.2513453442102
 30
0.0
 11
8654.605192743836
 21
349.0457154740383
 31
0.0
  0
LINE
  5
26FC
330
1F
100
AcDbEntity
  8
SPOJOVACÍ
  6
Continuous
100
AcDbLine
 10
8651.866755198351
 20
348.6299268933166
 30
0.0
 11
8654.982844114782
 21
349.2633766100866
 31
0.0
  0
LINE
  5
26FD
330
1F
100
AcDbEntity
  8
SPOJOVACÍ
  6
Continuous
100
AcDbLine
 10
8652.431371908823
 20
351.6436964716362
 30
0.0
 11
8652.809023279768
 21
351.8622877836556
 31
0.0
  0
LINE
  5
26FE
330
1F
100
AcDbEntity
  8
SPOJOVACÍ
  6
Continuous
100
AcDbLine
 10
8652.431371908823
 20
351.6436964716362
 30
0.0
 11
8652.809023279768
 21
351.2660450985081
 31
0.0
  0
LINE
  5
26FF
330
1F
100
AcDbEntity
  8
SPOJOVACÍ
  6
Continuous
100
AcDbLine
 10
8654.58565905028
 20
351.9543751874103
 30
0.0
 11
8654.208007679335
 21
352.3329567362402
 31
0.0
  0
LINE
  5
2700
330
1F
100
AcDbEntity
  8
SPOJOVACÍ
  6
Continuous
100
AcDbLine
 10
8654.58565905028
 20
351.9543751874103
 30
0.0
 11
8654.208007679335
 21
351.7367140510927
 31
0.0
  0
LINE
  5
2701
330
1F
100
AcDbEntity
  8
SPOJOVACÍ
  6
Continuous
100
AcDbLine
 10
8652.809023279768
 20
351.8622877836556
 30
0.0
 11
8654.208007679335
 21
352.3329567362402
 31
0.0
  0
LINE
  5
2702
330
1F
100
AcDbEntity
  8
SPOJOVACÍ
  6
Continuous
100
AcDbLine
 10
8652.809023279768
 20
351.2660450985081
 30
0.0
 11
8654.208007679335
 21
351.7367140510927
 31
0.0
  0
LINE
  5
2703
330
1F
100
AcDbEntity
  8
SPOJOVACÍ
  6
Continuous
100
AcDbLine
 10
8652.431371908823
 20
351.6436964716362
 30
0.0
 11
8654.58565905028
 21
351.9543751874103
 31
0.0
  0
LINE
  5
2718
330
1F
100
AcDbEntity
  8
SPOJOVACÍ
  6
Continuous
100
AcDbLine
 10
8653.265719399295
 20
387.1040893923977
 30
0.0
 11
8655.420006540751
 21
386.7934106766238
 31
0.0
  0
LINE
  5
2719
330
1F
100
AcDbEntity
  8
SPOJOVACÍ
  6
Continuous
100
AcDbLine
 10
8653.64337077024
 20
386.8854980803785
 30
0.0
 11
8655.042355169806
 21
386.4148291277938
 31
0.0
  0
LINE
  5
271A
330
1F
100
AcDbEntity
  8
SPOJOVACÍ
  6
Continuous
100
AcDbLine
 10
8655.420006540751
 20
386.7934106766238
 30
0.0
 11
8655.042355169806
 21
387.0110718129412
 31
0.0
  0
LINE
  5
271B
330
1F
100
AcDbEntity
  8
SPOJOVACÍ
  6
Continuous
100
AcDbLine
 10
8655.420006540751
 20
386.7934106766238
 30
0.0
 11
8655.042355169806
 21
386.4148291277938
 31
0.0
  0
LINE
  5
271C
330
1F
100
AcDbEntity
  8
SPOJOVACÍ
  6
Continuous
100
AcDbLine
 10
8653.265719399295
 20
387.1040893923977
 30
0.0
 11
8653.64337077024
 21
386.8854980803785
 31
0.0
  0
LINE
  5
271D
330
1F
100
AcDbEntity
  8
SPOJOVACÍ
  6
Continuous
100
AcDbLine
 10
8653.896378587322
 20
386.8138745442461
 30
0.0
 11
8654.282401541221
 21
383.7247607264412
 31
0.0
  0
LINE
  5
271E
330
1F
100
AcDbEntity
  8
SPOJOVACÍ
  6
Continuous
100
AcDbLine
 10
8654.282401541221
 20
383.7247607264412
 30
0.0
 11
8654.63679852235
 21
386.5608667277097
 31
0.0
  0
LINE
  5
271F
330
1F
100
AcDbEntity
  8
SPOJOVACÍ
  6
Continuous
100
AcDbLine
 10
8652.701102688823
 20
390.1178589707173
 30
0.0
 11
8655.817191605255
 21
389.4844092539474
 31
0.0
  0
LINE
  5
2720
330
1F
100
AcDbEntity
  8
SPOJOVACÍ
  6
Continuous
100
AcDbLine
 10
8653.078754064134
 20
390.4964405198238
 30
0.0
 11
8655.43954023431
 21
389.7020703899956
 31
0.0
  0
LINE
  5
2721
330
1F
100
AcDbEntity
  8
SPOJOVACÍ
  6
Continuous
100
AcDbLine
 10
8653.078754064134
 20
389.9001978346691
 30
0.0
 11
8655.43954023431
 21
389.1058277051174
 31
0.0
  0
LINE
  5
2722
330
1F
100
AcDbEntity
  8
SPOJOVACÍ
  6
Continuous
100
AcDbLine
 10
8655.817191605255
 20
389.4844092539474
 30
0.0
 11
8655.43954023431
 21
389.7020703899956
 31
0.0
  0
LINE
  5
2723
330
1F
100
AcDbEntity
  8
SPOJOVACÍ
  6
Continuous
100
AcDbLine
 10
8655.817191605255
 20
389.4844092539474
 30
0.0
 11
8655.43954023431
 21
389.1058277051174
 31
0.0
  0
LINE
  5
2724
330
1F
100
AcDbEntity
  8
SPOJOVACÍ
  6
Continuous
100
AcDbLine
 10
8652.701102688823
 20
390.1178589707173
 30
0.0
 11
8653.078754064134
 21
390.4964405198238
 31
0.0
  0
LINE
  5
2725
330
1F
100
AcDbEntity
  8
SPOJOVACÍ
  6
Continuous
100
AcDbLine
 10
8652.701102688823
 20
390.1178589707173
 30
0.0
 11
8653.078754064134
 21
389.9001978346691
 31
0.0
  0
LINE
  5
2726
330
1F
100
AcDbEntity
  8
SPOJOVACÍ
  6
Continuous
100
AcDbLine
 10
8653.528959149642
 20
389.755090410455
 30
0.0
 11
8653.819173994795
 21
387.4343018000995
 31
0.0
  0
LINE
  5
2727
330
1F
100
AcDbEntity
  8
SPOJOVACÍ
  6
Continuous
100
AcDbLine
 10
8653.64337077024
 20
387.4817407655259
 30
0.0
 11
8655.042355169806
 21
387.0110718129412
 31
0.0
  0
LINE
  5
2728
330
1F
100
AcDbEntity
  8
SPOJOVACÍ
  6
Continuous
100
AcDbLine
 10
8653.265719399295
 20
387.1040893923977
 30
0.0
 11
8653.64337077024
 21
387.4817407655259
 31
0.0
  0
LINE
  5
2729
330
1F
100
AcDbEntity
  8
SPOJOVACÍ
  6
Continuous
100
AcDbLine
 10
8654.708422059574
 20
387.1301343147765
 30
0.0
 11
8654.976312687884
 21
389.275119699761
 31
0.0
  0
LINE
  5
272A
330
1F
100
AcDbEntity
  8
SPOJOVACÍ
  6
Continuous
100
AcDbLine
 10
8638.027664976718
 20
390.7346914610814
 30
0.0
 11
8637.579794053989
 21
390.2868205357615
 31
0.0
  0
LINE
  5
272B
330
1F
100
AcDbEntity
  8
SPOJOVACÍ
  6
Continuous
100
AcDbLine
 10
8634.133135194936
 20
382.6748853314627
 30
0.0
 11
8636.354743809564
 21
382.3544979058194
 31
0.0
  0
LINE
  5
272C
330
1F
100
AcDbEntity
  8
SPOJOVACÍ
  6
Continuous
100
AcDbLine
 10
8634.522588171224
 20
383.0643383099984
 30
0.0
 11
8635.965290833276
 21
382.5789609526498
 31
0.0
  0
LINE
  5
272D
330
1F
100
AcDbEntity
  8
SPOJOVACÍ
  6
Continuous
100
AcDbLine
 10
8634.522588171224
 20
382.4494630409414
 30
0.0
 11
8635.965290833276
 21
381.9640856835856
 31
0.0
  0
LINE
  5
272E
330
1F
100
AcDbEntity
  8
SPOJOVACÍ
  6
Continuous
100
AcDbLine
 10
8636.354743809564
 20
382.3544979058194
 30
0.0
 11
8635.965290833276
 21
382.5789609526498
 31
0.0
  0
LINE
  5
272F
330
1F
100
AcDbEntity
  8
SPOJOVACÍ
  6
Continuous
100
AcDbLine
 10
8636.354743809564
 20
382.3544979058194
 30
0.0
 11
8635.965290833276
 21
381.9640856835856
 31
0.0
  0
LINE
  5
2730
330
1F
100
AcDbEntity
  8
SPOJOVACÍ
  6
Continuous
100
AcDbLine
 10
8634.133135194936
 20
382.6748853314627
 30
0.0
 11
8634.522588171224
 21
383.0643383099984
 31
0.0
  0
LINE
  5
2731
330
1F
100
AcDbEntity
  8
SPOJOVACÍ
  6
Continuous
100
AcDbLine
 10
8634.133135194936
 20
382.6748853314627
 30
0.0
 11
8634.522588171224
 21
382.4494630409414
 31
0.0
  0
LINE
  5
2732
330
1F
100
AcDbEntity
  8
SPOJOVACÍ
  6
Continuous
100
AcDbLine
 10
8633.550874212263
 20
385.7828352091044
 30
0.0
 11
8636.764340907332
 21
385.1295901886867
 31
0.0
  0
LINE
  5
2733
330
1F
100
AcDbEntity
  8
SPOJOVACÍ
  6
Continuous
100
AcDbLine
 10
8633.940327193052
 20
386.1732474316184
 30
0.0
 11
8636.374887931046
 21
385.3540532352333
 31
0.0
  0
LINE
  5
2734
330
1F
100
AcDbEntity
  8
SPOJOVACÍ
  6
Continuous
100
AcDbLine
 10
8633.940327193052
 20
385.5583721625541
 30
0.0
 11
8636.374887931046
 21
384.7391779664565
 31
0.0
  0
LINE
  5
2735
330
1F
100
AcDbEntity
  8
SPOJOVACÍ
  6
Continuous
100
AcDbLine
 10
8636.764340907332
 20
385.1295901886867
 30
0.0
 11
8636.374887931046
 21
385.3540532352333
 31
0.0
  0
LINE
  5
2736
330
1F
100
AcDbEntity
  8
SPOJOVACÍ
  6
Continuous
100
AcDbLine
 10
8636.764340907332
 20
385.1295901886867
 30
0.0
 11
8636.374887931046
 21
384.7391779664565
 31
0.0
  0
LINE
  5
2737
330
1F
100
AcDbEntity
  8
SPOJOVACÍ
  6
Continuous
100
AcDbLine
 10
8633.550874212263
 20
385.7828352091044
 30
0.0
 11
8633.940327193052
 21
386.1732474316184
 31
0.0
  0
LINE
  5
2738
330
1F
100
AcDbEntity
  8
SPOJOVACÍ
  6
Continuous
100
AcDbLine
 10
8633.550874212263
 20
385.7828352091044
 30
0.0
 11
8633.940327193052
 21
385.5583721625541
 31
0.0
  0
LINE
  5
2739
330
1F
100
AcDbEntity
  8
SPOJOVACÍ
  6
Continuous
100
AcDbLine
 10
8633.359025455758
 20
389.2811973092637
 30
0.0
 11
8636.833406462194
 21
388.1128383736456
 31
0.0
  0
LINE
  5
273A
330
1F
100
AcDbEntity
  8
SPOJOVACÍ
  6
Continuous
100
AcDbLine
 10
8633.359025455758
 20
388.6663220401958
 30
0.0
 11
8636.833406462194
 21
387.4979631045814
 31
0.0
  0
LINE
  5
273B
330
1F
100
AcDbEntity
  8
SPOJOVACÍ
  6
Continuous
100
AcDbLine
 10
8637.222859438482
 20
387.8883753270954
 30
0.0
 11
8636.833406462194
 21
388.1128383736456
 31
0.0
  0
LINE
  5
273C
330
1F
100
AcDbEntity
  8
SPOJOVACÍ
  6
Continuous
100
AcDbLine
 10
8637.222859438482
 20
387.8883753270954
 30
0.0
 11
8636.833406462194
 21
387.4979631045814
 31
0.0
  0
LINE
  5
273F
330
1F
100
AcDbEntity
  8
SPOJOVACÍ
  6
Continuous
100
AcDbLine
 10
8655.63768787433
 20
322.9198678975976
 30
0.0
 11
8656.595768944315
 21
321.7124997146989
 31
0.0
  0
LINE
  5
2740
330
1F
100
AcDbEntity
  8
SPOJOVACÍ
  6
Continuous
100
AcDbLine
 10
8655.024702025183
 20
324.3337351073009
 30
0.0
 11
8655.63768787433
 21
322.9198678975976
 31
0.0
  0
LINE
  5
2741
330
1F
100
AcDbEntity
  8
SPOJOVACÍ
  6
Continuous
100
AcDbLine
 10
8654.7977391343
 20
325.8573630607302
 30
0.0
 11
8655.024702025183
 21
324.3337351073009
 31
0.0
  0
LINE
  5
2742
330
1F
100
AcDbEntity
  8
SPOJOVACÍ
  6
Continuous
100
AcDbLine
 10
8658.548207939382
 20
319.2577657896422
 30
0.0
 11
8658.548207939382
 21
320.4576925663737
 31
0.0
  0
LINE
  5
2743
330
1F
100
AcDbEntity
  8
SPOJOVACÍ
  6
Continuous
100
AcDbLine
 10
8648.347900162114
 20
319.2577657896422
 30
0.0
 11
8658.548207939382
 21
319.2577657896422
 31
0.0
  0
LINE
  5
2744
330
1F
100
AcDbEntity
  8
SPOJOVACÍ
  6
Continuous
100
AcDbLine
 10
8648.347900162114
 20
319.2577657896422
 30
0.0
 11
8648.347900162114
 21
320.4576925663737
 31
0.0
  0
LINE
  5
2745
330
1F
100
AcDbEntity
  8
SPOJOVACÍ
  6
Continuous
100
AcDbLine
 10
8648.347900162114
 20
320.4576925663737
 30
0.0
 11
8658.548207939382
 21
320.4576925663737
 31
0.0
  0
LINE
  5
2746
330
1F
100
AcDbEntity
  8
SPOJOVACÍ
  6
Continuous
100
AcDbLine
 10
8657.832902753215
 20
320.7944162042572
 30
0.0
 11
8658.548207939382
 21
320.4576925663737
 31
0.0
  0
LINE
  5
2747
330
1F
100
AcDbEntity
  8
SPOJOVACÍ
  6
Continuous
100
AcDbLine
 10
8656.595768944315
 20
321.7124997146989
 30
0.0
 11
8657.832902753215
 21
320.7944162042572
 31
0.0
  0
LINE
  5
2748
330
1F
100
AcDbEntity
  8
SPOJOVACÍ
  6
Continuous
100
AcDbLine
 10
8652.032326489642
 20
325.0704343376078
 30
0.0
 11
8652.098368971563
 21
325.8573630607302
 31
0.0
  0
LINE
  5
2749
330
1F
100
AcDbEntity
  8
SPOJOVACÍ
  6
Continuous
100
AcDbLine
 10
8651.604445625343
 20
323.5895944705575
 30
0.0
 11
8652.032326489642
 21
325.0704343376078
 31
0.0
  0
LINE
  5
274A
330
1F
100
AcDbEntity
  8
SPOJOVACÍ
  6
Continuous
100
AcDbLine
 10
8650.808215146025
 20
322.27060519226
 30
0.0
 11
8651.604445625343
 21
323.5895944705575
 31
0.0
  0
LINE
  5
274B
330
1F
100
AcDbEntity
  8
SPOJOVACÍ
  6
Continuous
100
AcDbLine
 10
8649.697585245666
 20
321.2018332028478
 30
0.0
 11
8650.808215146025
 21
322.27060519226
 31
0.0
  0
LINE
  5
274C
330
1F
100
AcDbEntity
  8
SPOJOVACÍ
  6
Continuous
100
AcDbLine
 10
8648.347900162114
 20
320.4576925663737
 30
0.0
 11
8649.697585245666
 21
321.2018332028478
 31
0.0
  0
LINE
  5
274D
330
1F
100
AcDbEntity
  8
SPOJOVACÍ
  6
Continuous
100
AcDbLine
 10
8654.7977391343
 20
325.8573630607302
 30
0.0
 11
8654.7977391343
 21
330.8003172396588
 31
0.0
  0
LINE
  5
274E
330
1F
100
AcDbEntity
  8
SPOJOVACÍ
  6
Continuous
100
AcDbLine
 10
8652.098368971563
 20
325.8573630607302
 30
0.0
 11
8652.098368971563
 21
329.8952561904102
 31
0.0
  0
LINE
  5
274F
330
1F
100
AcDbEntity
  8
SPOJOVACÍ
  6
Continuous
100
AcDbLine
 10
8652.098368971563
 20
330.4905686995866
 30
0.0
 11
8652.098368971563
 21
333.0094847546156
 31
0.0
  0
LINE
  5
2750
330
1F
100
AcDbEntity
  8
SPOJOVACÍ
  6
Continuous
100
AcDbLine
 10
8651.048200497823
 20
330.0580369545955
 30
0.0
 11
8655.847907603673
 21
331.2579637310577
 31
0.0
  0
LINE
  5
2751
330
1F
100
AcDbEntity
  8
SPOJOVACÍ
  6
Continuous
100
AcDbLine
 10
8651.048200497823
 20
330.0580369545955
 30
0.0
 11
8651.425851873135
 21
330.2756980906437
 31
0.0
  0
LINE
  5
2752
330
1F
100
AcDbEntity
  8
SPOJOVACÍ
  6
Continuous
100
AcDbLine
 10
8651.048200497823
 20
330.0580369545955
 30
0.0
 11
8651.425851873135
 21
329.6794554057655
 31
0.0
  0
LINE
  5
2753
330
1F
100
AcDbEntity
  8
SPOJOVACÍ
  6
Continuous
100
AcDbLine
 10
8655.847907603673
 20
331.2579637310577
 30
0.0
 11
8655.470256232728
 21
331.6356151041859
 31
0.0
  0
LINE
  5
2754
330
1F
100
AcDbEntity
  8
SPOJOVACÍ
  6
Continuous
100
AcDbLine
 10
8655.847907603673
 20
331.2579637310577
 30
0.0
 11
8655.470256232728
 21
331.0393724190312
 31
0.0
  0
LINE
  5
2755
330
1F
100
AcDbEntity
  8
SPOJOVACÍ
  6
Continuous
100
AcDbLine
 10
8651.425851873135
 20
330.2756980906437
 30
0.0
 11
8655.470256232728
 21
331.6356151041859
 31
0.0
  0
LINE
  5
2756
330
1F
100
AcDbEntity
  8
SPOJOVACÍ
  6
Continuous
100
AcDbLine
 10
8651.425851873135
 20
329.6794554057655
 30
0.0
 11
8655.470256232728
 21
331.0393724190312
 31
0.0
  0
LINE
  5
2757
330
1F
100
AcDbEntity
  8
SPOJOVACÍ
  6
Continuous
100
AcDbLine
 10
8651.048200497823
 20
333.1778465735574
 30
0.0
 11
8651.425851873135
 21
333.3964378855839
 31
0.0
  0
LINE
  5
2758
330
1F
100
AcDbEntity
  8
SPOJOVACÍ
  6
Continuous
100
AcDbLine
 10
8651.048200497823
 20
333.1778465735574
 30
0.0
 11
8651.425851873135
 21
332.8001952004292
 31
0.0
  0
LINE
  5
2759
330
1F
100
AcDbEntity
  8
SPOJOVACÍ
  6
Continuous
100
AcDbLine
 10
8652.098368971563
 20
336.7283275861141
 30
0.0
 11
8652.098368971563
 21
339.2565453989832
 31
0.0
  0
LINE
  5
275A
330
1F
100
AcDbEntity
  8
SPOJOVACÍ
  6
Continuous
100
AcDbLine
 10
8654.7977391343
 20
334.5191600711573
 30
0.0
 11
8654.7977391343
 21
337.0473778840264
 31
0.0
  0
LINE
  5
275B
330
1F
100
AcDbEntity
  8
SPOJOVACÍ
  6
Continuous
100
AcDbLine
 10
8654.7977391343
 20
337.641760217501
 30
0.0
 11
8654.7977391343
 21
340.1625366242101
 31
0.0
  0
LINE
  5
275C
330
1F
100
AcDbEntity
  8
SPOJOVACÍ
  6
Continuous
100
AcDbLine
 10
8652.098368971563
 20
339.861159666269
 30
0.0
 11
8652.098368971563
 21
342.3791455455962
 31
0.0
  0
LINE
  5
275D
330
1F
100
AcDbEntity
  8
SPOJOVACÍ
  6
Continuous
100
AcDbLine
 10
8652.098368971563
 20
342.9753882307509
 30
0.0
 11
8652.098368971563
 21
344.2227539726395
 31
0.0
  0
LINE
  5
275E
330
1F
100
AcDbEntity
  8
SPOJOVACÍ
  6
Continuous
100
AcDbLine
 10
8654.7977391343
 20
340.763430188143
 30
0.0
 11
8654.7977391343
 21
343.282346243172
 31
0.0
  0
LINE
  5
275F
330
1F
100
AcDbEntity
  8
SPOJOVACÍ
  6
Continuous
100
AcDbLine
 10
8654.7977391343
 20
343.886030334756
 30
0.0
 11
8654.7977391343
 21
344.2227539726395
 31
0.0
  0
LINE
  5
2760
330
1F
100
AcDbEntity
  8
SPOJOVACÍ
  6
Continuous
100
AcDbLine
 10
8652.098368971563
 20
344.2227539726395
 30
0.0
 11
8652.248127274287
 21
345.4198902219964
 31
0.0
  0
LINE
  5
2761
330
1F
100
AcDbEntity
  8
SPOJOVACÍ
  6
Continuous
100
AcDbLine
 10
8654.552172722832
 20
346.1937964839258
 30
0.0
 11
8654.7977391343
 21
344.2227539726395
 31
0.0
  0
LINE
  5
2762
330
1F
100
AcDbEntity
  8
SPOJOVACÍ
  6
Continuous
100
AcDbLine
 10
8655.847907603673
 20
334.3777733502961
 30
0.0
 11
8655.470256232728
 21
334.7554247231478
 31
0.0
  0
LINE
  5
2763
330
1F
100
AcDbEntity
  8
SPOJOVACÍ
  6
Continuous
100
AcDbLine
 10
8655.847907603673
 20
334.3777733502961
 30
0.0
 11
8655.470256232728
 21
334.1591820382696
 31
0.0
  0
LINE
  5
2764
330
1F
100
AcDbEntity
  8
SPOJOVACÍ
  6
Continuous
100
AcDbLine
 10
8651.302138492246
 20
345.6152271390187
 30
0.0
 11
8651.680720040529
 21
345.8338184510453
 31
0.0
  0
LINE
  5
2765
330
1F
100
AcDbEntity
  8
SPOJOVACÍ
  6
Continuous
100
AcDbLine
 10
8651.302138492246
 20
345.6152271390187
 30
0.0
 11
8651.680720040529
 21
345.2375757658906
 31
0.0
  0
LINE
  5
2766
330
1F
100
AcDbEntity
  8
SPOJOVACÍ
  6
Continuous
100
AcDbLine
 10
8651.680720040529
 20
345.2375757658906
 30
0.0
 11
8655.049816774043
 21
346.3705298852751
 31
0.0
  0
LINE
  5
2767
330
1F
100
AcDbEntity
  8
SPOJOVACÍ
  6
Continuous
100
AcDbLine
 10
8651.048200497823
 20
336.2976561927958
 30
0.0
 11
8655.847907603673
 21
337.497582969258
 31
0.0
  0
LINE
  5
2768
330
1F
100
AcDbEntity
  8
SPOJOVACÍ
  6
Continuous
100
AcDbLine
 10
8651.048200497823
 20
336.2976561927958
 30
0.0
 11
8651.425851873135
 21
336.5162475048223
 31
0.0
  0
LINE
  5
2769
330
1F
100
AcDbEntity
  8
SPOJOVACÍ
  6
Continuous
100
AcDbLine
 10
8651.048200497823
 20
336.2976561927958
 30
0.0
 11
8651.425851873135
 21
335.9200048196676
 31
0.0
  0
LINE
  5
276A
330
1F
100
AcDbEntity
  8
SPOJOVACÍ
  6
Continuous
100
AcDbLine
 10
8655.847907603673
 20
337.497582969258
 30
0.0
 11
8655.470256232728
 21
337.876164518088
 31
0.0
  0
LINE
  5
276B
330
1F
100
AcDbEntity
  8
SPOJOVACÍ
  6
Continuous
100
AcDbLine
 10
8655.847907603673
 20
337.497582969258
 30
0.0
 11
8655.470256232728
 21
337.2799218329405
 31
0.0
  0
LINE
  5
276C
330
1F
100
AcDbEntity
  8
SPOJOVACÍ
  6
Continuous
100
AcDbLine
 10
8651.425851873135
 20
336.5162475048223
 30
0.0
 11
8655.470256232728
 21
337.876164518088
 31
0.0
  0
LINE
  5
276D
330
1F
100
AcDbEntity
  8
SPOJOVACÍ
  6
Continuous
100
AcDbLine
 10
8651.425851873135
 20
335.9200048196676
 30
0.0
 11
8655.470256232728
 21
337.2799218329405
 31
0.0
  0
LINE
  5
276E
330
1F
100
AcDbEntity
  8
SPOJOVACÍ
  6
Continuous
100
AcDbLine
 10
8651.048200497823
 20
339.4174658117649
 30
0.0
 11
8655.847907603673
 21
340.6173925882271
 31
0.0
  0
LINE
  5
276F
330
1F
100
AcDbEntity
  8
SPOJOVACÍ
  6
Continuous
100
AcDbLine
 10
8651.048200497823
 20
339.4174658117649
 30
0.0
 11
8651.425851873135
 21
339.6360571237842
 31
0.0
  0
LINE
  5
2770
330
1F
100
AcDbEntity
  8
SPOJOVACÍ
  6
Continuous
100
AcDbLine
 10
8651.048200497823
 20
339.4174658117649
 30
0.0
 11
8651.425851873135
 21
339.0398144386367
 31
0.0
  0
LINE
  5
2771
330
1F
100
AcDbEntity
  8
SPOJOVACÍ
  6
Continuous
100
AcDbLine
 10
8655.847907603673
 20
340.6173925882271
 30
0.0
 11
8655.470256232728
 21
340.9959741370571
 31
0.0
  0
LINE
  5
2772
330
1F
100
AcDbEntity
  8
SPOJOVACÍ
  6
Continuous
100
AcDbLine
 10
8655.847907603673
 20
340.6173925882271
 30
0.0
 11
8655.470256232728
 21
340.3997314521788
 31
0.0
  0
LINE
  5
2773
330
1F
100
AcDbEntity
  8
SPOJOVACÍ
  6
Continuous
100
AcDbLine
 10
8651.425851873135
 20
339.6360571237842
 30
0.0
 11
8655.470256232728
 21
340.9959741370571
 31
0.0
  0
LINE
  5
2774
330
1F
100
AcDbEntity
  8
SPOJOVACÍ
  6
Continuous
100
AcDbLine
 10
8651.425851873135
 20
339.0398144386367
 30
0.0
 11
8655.470256232728
 21
340.3997314521788
 31
0.0
  0
LINE
  5
2775
330
1F
100
AcDbEntity
  8
SPOJOVACÍ
  6
Continuous
100
AcDbLine
 10
8651.048200497823
 20
342.538205606705
 30
0.0
 11
8655.847907603673
 21
343.7381323831673
 31
0.0
  0
LINE
  5
2776
330
1F
100
AcDbEntity
  8
SPOJOVACÍ
  6
Continuous
100
AcDbLine
 10
8651.048200497823
 20
342.538205606705
 30
0.0
 11
8651.425851873135
 21
342.7558667427533
 31
0.0
  0
LINE
  5
2777
330
1F
100
AcDbEntity
  8
SPOJOVACÍ
  6
Continuous
100
AcDbLine
 10
8651.048200497823
 20
342.538205606705
 30
0.0
 11
8651.425851873135
 21
342.1596240575986
 31
0.0
  0
LINE
  5
2778
330
1F
100
AcDbEntity
  8
SPOJOVACÍ
  6
Continuous
100
AcDbLine
 10
8655.847907603673
 20
343.7381323831673
 30
0.0
 11
8655.470256232728
 21
344.1157837562955
 31
0.0
  0
LINE
  5
2779
330
1F
100
AcDbEntity
  8
SPOJOVACÍ
  6
Continuous
100
AcDbLine
 10
8655.847907603673
 20
343.7381323831673
 30
0.0
 11
8655.470256232728
 21
343.5195410711408
 31
0.0
  0
LINE
  5
277A
330
1F
100
AcDbEntity
  8
SPOJOVACÍ
  6
Continuous
100
AcDbLine
 10
8651.425851873135
 20
342.7558667427533
 30
0.0
 11
8655.470256232728
 21
344.1157837562955
 31
0.0
  0
LINE
  5
277B
330
1F
100
AcDbEntity
  8
SPOJOVACÍ
  6
Continuous
100
AcDbLine
 10
8651.425851873135
 20
342.1596240575986
 30
0.0
 11
8655.470256232728
 21
343.5195410711408
 31
0.0
  0
LINE
  5
277C
330
1F
100
AcDbEntity
  8
SPOJOVACÍ
  6
Continuous
100
AcDbLine
 10
8652.098368971563
 20
333.6131688459304
 30
0.0
 11
8652.098368971563
 21
336.1339452526394
 31
0.0
  0
LINE
  5
277D
330
1F
100
AcDbEntity
  8
SPOJOVACÍ
  6
Continuous
100
AcDbLine
 10
8654.7977391343
 20
331.4040013309736
 30
0.0
 11
8654.7977391343
 21
333.9229173860026
 31
0.0
  0
LINE
  5
277E
330
1F
100
AcDbEntity
  8
SPOJOVACÍ
  6
Continuous
100
AcDbLine
 10
8651.048200497823
 20
333.1778465735574
 30
0.0
 11
8655.847907603673
 21
334.3777733502961
 31
0.0
  0
LINE
  5
277F
330
1F
100
AcDbEntity
  8
SPOJOVACÍ
  6
Continuous
100
AcDbLine
 10
8651.425851873135
 20
333.3964378855839
 30
0.0
 11
8655.470256232728
 21
334.7554247231478
 31
0.0
  0
LINE
  5
2780
330
1F
100
AcDbEntity
  8
SPOJOVACÍ
  6
Continuous
100
AcDbLine
 10
8651.425851873135
 20
332.8001952004292
 30
0.0
 11
8655.470256232728
 21
334.1591820382696
 31
0.0
  0
HATCH
  5
27C5
330
1F
100
AcDbEntity
  8
izolace
100
AcDbHatch
 10
0.0
 20
0.0
 30
0.0
210
0.0
220
0.0
230
1.0
  2
AR-SAND
 70
     0
 71
     0
 91
        1
 92
        7
 72
     0
 73
     1
 93
        4
 10
8673.653895160988
 20
319.2577657896421
 10
8668.653895160989
 20
319.257765789643
 10
8668.653895160989
 20
331.2577657896421
 10
8673.653895160988
 20
331.2577657896421
 97
        0
 75
     0
 76
     1
 52
90.0
 41
0.05
 77
     0
 78
     4
 53
232.5
 43
-15286.47655068784
 44
1807.755043047268
 45
-2.447066186646711
 46
0.0800015647992021
 79
     6
 49
0.0
 49
-1.9304
 49
0.0
 49
-2.159
 49
0.0
 49
-2.06375
 53
262.5000000000001
 43
-15286.47655068784
 44
1807.755043047268
 45
-3.584125502841771
 46
-2.247616415690013
 79
     6
 49
0.0
 49
-1.041399999999999
 49
0.0
 49
-1.7399
 49
0.0
 49
-0.66675
 53
302.4999999999999
 43
-15286.47655068784
 44
1809.317143047269
 45
-0.0071859233927282
 46
-3.95496185120729
 79
     6
 49
0.0
 49
-0.635
 49
0.0
 49
-2.286
 49
0.0
 49
-2.9845
 53
312.5
 43
-15286.47655068784
 44
1809.317143047269
 45
-1.11464661628608
 46
-3.817782262361486
 79
     6
 49
0.0
 49
-0.3175
 49
0.0
 49
-1.498599999999999
 49
0.0
 49
-1.7145
 47
0.2359071171925059
 98
        1
 10
8670.678047258183
 20
325.4242998904268
  0
LWPOLYLINE
  5
27C6
330
1F
100
AcDbEntity
  8
izolace
100
AcDbPolyline
 90
        4
 70
     0
 43
0.0
 10
8668.653895160989
 20
319.2577657896421
 10
8668.653895160989
 20
331.2577657896421
 10
8673.653895160988
 20
331.2577657896421
 10
8673.653895160988
 20
319.2577657896421
  0
LINE
  5
27C7
330
1F
100
AcDbEntity
  8
CETRIS
100
AcDbLine
 10
8673.653895160988
 20
331.2577657896422
 30
0.0
 11
8673.653895160988
 21
319.2577657896422
 31
0.0
  0
LINE
  5
27C8
330
1F
100
AcDbEntity
  8
CETRIS
100
AcDbLine
 10
8668.653895160989
 20
331.2577657896422
 30
0.0
 11
8668.653895160989
 21
319.2577657896422
 31
0.0
  0
LINE
  5
27C9
330
1F
100
AcDbEntity
  8
POPIS
100
AcDbLine
 10
8541.505074617326
 20
752.1268040811728
 30
0.0
 11
8715.066450409578
 21
804.9825111620821
 31
0.0
  0
LINE
  5
2A0E
330
1F
100
AcDbEntity
  8
POPIS
100
AcDbLine
 10
8558.301262998034
 20
319.2577657896413
 30
0.0
 11
8668.653895160989
 21
319.2577657896413
 31
0.0
  0
HATCH
  5
2A0F
330
1F
100
AcDbEntity
  8
NOSNÉ KONSTRUKCE
100
AcDbHatch
 10
0.0
 20
0.0
 30
0.0
210
0.0
220
0.0
230
1.0
  2
SOLID
 70
     1
 71
     0
 91
        1
 92
        7
 72
     1
 73
     1
 93
       60
 10
8672.279848860112
 20
352.1619902733279
 42
0.0
 10
8672.279848860112
 20
386.5549843077829
 42
-0.3073346934841183
 10
8671.11520674009
 20
388.2962945240953
 42
0.0
 10
8671.11520674009
 20
392.1148063012763
 42
-0.307334693483106
 10
8672.279848860112
 20
393.8561165175817
 42
0.0
 10
8672.279848860112
 20
404.3550506176051
 42
0.4142135623730951
 10
8670.279848860111
 20
406.3550506176048
 42
0.0
 10
8662.080995498607
 20
406.3550506176048
 42
-0.7595816512230912
 10
8658.48955333085
 20
406.3550506176052
 42
0.0
 10
8649.31368392629
 20
406.3550506176008
 42
-0.7595816493590427
 10
8645.722241725572
 20
406.3550506176048
 42
0.0
 10
8636.546374354793
 20
406.3550506176048
 42
-0.7767342353201953
 10
8632.934915770567
 20
406.4330078004322
 42
0.0
 10
8626.36680653409
 20
406.4330078004319
 42
0.4142135623730868
 10
8624.366806534089
 20
404.4330078004322
 42
0.0
 10
8624.366806534089
 20
401.6076820087371
 42
0.0
 10
8625.36680653409
 20
401.607682008737
 42
0.0
 10
8625.36680653409
 20
404.4330078004319
 42
-0.4142135623730951
 10
8626.36680653409
 20
405.4330078004319
 42
0.0
 10
8632.264502581191
 20
405.4330078004319
 42
0.5694936494219963
 10
8637.190447964687
 20
405.3550506176049
 42
0.0
 10
8645.07816614164
 20
405.3550506176049
 42
0.5590616644338513
 10
8649.95775951022
 20
405.3550506176012
 42
0.0
 10
8657.845477746326
 20
405.3550506176049
 42
0.5590616643157284
 10
8662.725071083128
 20
405.3550506176049
 42
0.0
 10
8670.279848860111
 20
405.3550506176049
 42
-0.4142135623731451
 10
8671.279848860111
 20
404.3550506176051
 42
0.0
 10
8671.279848860111
 20
394.4220464267809
 42
0.2364174637114482
 10
8670.124389773659
 20
392.1401967697671
 42
0.0
 10
8670.124389773659
 20
388.2709040555991
 42
0.2364174637115772
 10
8671.279848860111
 20
385.9890543985838
 42
0.0
 10
8671.279848860111
 20
352.7242805226989
 42
0.2353201211467568
 10
8670.135218287752
 20
350.4488650068749
 42
0.0
 10
8670.137433857737
 20
346.5795729270316
 42
0.2364174637122881
 10
8671.29419934953
 20
344.298385263837
 42
0.0
 10
8671.299887021042
 20
334.3653827014029
 42
-0.4142135623730951
 10
8670.300459788334
 20
333.3648102619866
 42
0.0
 10
8662.745683249861
 20
333.3604843708947
 42
0.5590616643157161
 10
8657.866090713007
 20
333.357690299385
 42
0.0
 10
8649.978373769991
 20
333.3531737654731
 42
0.5590616644338511
 10
8645.09878120136
 20
333.3503796939417
 42
0.0
 10
8637.211064317499
 20
333.34586316006
 42
0.5694936494220229
 10
8632.285164380091
 20
333.2650853771659
 42
0.0
 10
8626.387469299844
 20
333.26170833663
 42
-0.4142135623730951
 10
8625.386896860428
 20
334.2611355693388
 42
0.0
 10
8625.385279069403
 20
337.0864608978572
 42
0.0
 10
8624.38527923334
 20
337.0858882945035
 42
0.0
 10
8624.386897024363
 20
334.2605629659848
 42
0.4142135623730618
 10
8626.388041903195
 20
332.2617085005673
 42
0.0
 10
8632.956150062915
 20
332.2654694219437
 42
-0.7767342353201953
 10
8636.567563416546
 20
332.3454945252882
 42
0.0
 10
8645.743429283056
 20
332.3507486577184
 42
-0.759581649359043
 10
8649.334870895003
 20
332.3528051295713
 42
0.0
 10
8658.510738795296
 20
332.3580592631617
 42
-0.7595816512230912
 10
8662.102180374281
 20
332.3601157349922
 42
0.0
 10
8670.301032391689
 20
332.364810425924
 42
0.4142135623731117
 10
8672.299886857105
 20
334.3659553047567
 42
0.0
 10
8672.293875132229
 20
344.8648876836131
 42
-0.3073346934834261
 10
8671.128236123065
 20
346.6055307364711
 42
0.0
 10
8671.126049630416
 20
350.4240418876571
 42
-0.3057747226774016
 97
        0
 75
     0
 76
     1
 47
0.1180065091547201
 98
        1
 10
8671.879184982532
 20
361.5233695497562
  0
LINE
  5
2A10
330
1F
100
AcDbEntity
  8
SPOJOVACÍ
  6
Continuous
100
AcDbLine
 10
8673.507659619657
 20
363.4165919929241
 30
0.0
 11
8670.988743564629
 21
363.4165919929241
 31
0.0
  0
LINE
  5
2A11
330
1F
100
AcDbEntity
  8
SPOJOVACÍ
  6
Continuous
100
AcDbLine
 10
8671.733814377075
 20
359.6670533564488
 30
0.0
 11
8670.533887600335
 21
364.4667604622977
 31
0.0
  0
LINE
  5
2A12
330
1F
100
AcDbEntity
  8
SPOJOVACÍ
  6
Continuous
100
AcDbLine
 10
8671.515223065048
 20
360.0447047317597
 30
0.0
 11
8670.156236227484
 21
364.0891090913523
 31
0.0
  0
LINE
  5
2A13
330
1F
100
AcDbEntity
  8
SPOJOVACÍ
  6
Continuous
100
AcDbLine
 10
8672.111465750203
 20
360.0447047317597
 30
0.0
 11
8670.752478912362
 21
364.0891090913523
 31
0.0
  0
LINE
  5
2A14
330
1F
100
AcDbEntity
  8
SPOJOVACÍ
  6
Continuous
100
AcDbLine
 10
8649.88863581304
 20
362.0669069093732
 30
0.0
 11
8652.724741814308
 21
362.4213038905022
 31
0.0
  0
LINE
  5
2A15
330
1F
100
AcDbEntity
  8
SPOJOVACÍ
  6
Continuous
100
AcDbLine
 10
8652.977749630844
 20
361.6808839554746
 30
0.0
 11
8649.88863581304
 21
362.0669069093732
 31
0.0
  0
LINE
  5
2A16
330
1F
100
AcDbEntity
  8
SPOJOVACÍ
  6
Continuous
100
AcDbLine
 10
8653.267964478995
 20
361.0502247674471
 30
0.0
 11
8653.049373166977
 21
361.4278761383925
 31
0.0
  0
LINE
  5
2A17
330
1F
100
AcDbEntity
  8
SPOJOVACÍ
  6
Continuous
100
AcDbLine
 10
8653.049373166977
 20
361.4278761383925
 30
0.0
 11
8652.578704214391
 21
362.8268605379584
 31
0.0
  0
LINE
  5
2A18
330
1F
100
AcDbEntity
  8
SPOJOVACÍ
  6
Continuous
100
AcDbLine
 10
8652.957285763221
 20
363.2045119089038
 30
0.0
 11
8652.578704214391
 21
362.8268605379584
 31
0.0
  0
LINE
  5
2A19
330
1F
100
AcDbEntity
  8
SPOJOVACÍ
  6
Continuous
100
AcDbLine
 10
8652.957285763221
 20
363.2045119089038
 30
0.0
 11
8653.174946899538
 21
362.8268605379584
 31
0.0
  0
LINE
  5
2A1A
330
1F
100
AcDbEntity
  8
SPOJOVACÍ
  6
Continuous
100
AcDbLine
 10
8653.267964478995
 20
361.0502247674471
 30
0.0
 11
8652.957285763221
 21
363.2045119089038
 31
0.0
  0
LINE
  5
2A1B
330
1F
100
AcDbEntity
  8
SPOJOVACÍ
  6
Continuous
100
AcDbLine
 10
8670.392500879474
 20
363.4165919929241
 30
0.0
 11
8667.864283066604
 21
363.4165919929241
 31
0.0
  0
LINE
  5
2A1C
330
1F
100
AcDbEntity
  8
SPOJOVACÍ
  6
Continuous
100
AcDbLine
 10
8667.269900733129
 20
363.4165919929241
 30
0.0
 11
8664.749124326421
 21
363.4165919929241
 31
0.0
  0
LINE
  5
2A1D
330
1F
100
AcDbEntity
  8
SPOJOVACÍ
  6
Continuous
100
AcDbLine
 10
8664.148230762489
 20
363.4165919929241
 30
0.0
 11
8661.629314707459
 21
363.4165919929241
 31
0.0
  0
LINE
  5
2A1E
330
1F
100
AcDbEntity
  8
SPOJOVACÍ
  6
Continuous
100
AcDbLine
 10
8661.025630615876
 20
363.4165919929241
 30
0.0
 11
8660.688906977993
 21
363.4165919929241
 31
0.0
  0
LINE
  5
2A1F
330
1F
100
AcDbEntity
  8
SPOJOVACÍ
  6
Continuous
100
AcDbLine
 10
8658.717864466707
 20
363.1710255814564
 30
0.0
 11
8660.688906977993
 21
363.4165919929241
 31
0.0
  0
LINE
  5
2A20
330
1F
100
AcDbEntity
  8
SPOJOVACÍ
  6
Continuous
100
AcDbLine
 10
8670.533887600335
 20
364.4667604622977
 30
0.0
 11
8670.156236227484
 21
364.0891090913523
 31
0.0
  0
LINE
  5
2A21
330
1F
100
AcDbEntity
  8
SPOJOVACÍ
  6
Continuous
100
AcDbLine
 10
8670.533887600335
 20
364.4667604622977
 30
0.0
 11
8670.752478912362
 21
364.0891090913523
 31
0.0
  0
LINE
  5
2A22
330
1F
100
AcDbEntity
  8
SPOJOVACÍ
  6
Continuous
100
AcDbLine
 10
8658.323469929309
 20
364.0463210036127
 30
0.0
 11
8657.944888380201
 21
363.6686696326673
 31
0.0
  0
LINE
  5
2A23
330
1F
100
AcDbEntity
  8
SPOJOVACÍ
  6
Continuous
100
AcDbLine
 10
8658.323469929309
 20
364.0463210036127
 30
0.0
 11
8658.541131065357
 21
363.6686696326673
 31
0.0
  0
LINE
  5
2A24
330
1F
100
AcDbEntity
  8
SPOJOVACÍ
  6
Continuous
100
AcDbLine
 10
8655.648284340545
 20
363.6016969734068
 30
0.0
 11
8655.269702791715
 21
363.2240456024614
 31
0.0
  0
LINE
  5
2A25
330
1F
100
AcDbEntity
  8
SPOJOVACÍ
  6
Continuous
100
AcDbLine
 10
8655.648284340545
 20
363.6016969734068
 30
0.0
 11
8655.865945476593
 21
363.2240456024614
 31
0.0
  0
LINE
  5
2A26
330
1F
100
AcDbEntity
  8
SPOJOVACÍ
  6
Continuous
100
AcDbLine
 10
8667.414077981375
 20
364.4667604622977
 30
0.0
 11
8667.035496432545
 21
364.0891090913523
 31
0.0
  0
LINE
  5
2A27
330
1F
100
AcDbEntity
  8
SPOJOVACÍ
  6
Continuous
100
AcDbLine
 10
8667.414077981375
 20
364.4667604622977
 30
0.0
 11
8667.631739117691
 21
364.0891090913523
 31
0.0
  0
LINE
  5
2A28
330
1F
100
AcDbEntity
  8
SPOJOVACÍ
  6
Continuous
100
AcDbLine
 10
8664.294268362404
 20
364.4667604622977
 30
0.0
 11
8663.915686813574
 21
364.0891090913523
 31
0.0
  0
LINE
  5
2A29
330
1F
100
AcDbEntity
  8
SPOJOVACÍ
  6
Continuous
100
AcDbLine
 10
8664.294268362404
 20
364.4667604622977
 30
0.0
 11
8664.511929498452
 21
364.0891090913523
 31
0.0
  0
LINE
  5
2A2A
330
1F
100
AcDbEntity
  8
SPOJOVACÍ
  6
Continuous
100
AcDbLine
 10
8661.173528567465
 20
364.4667604622977
 30
0.0
 11
8660.795877194336
 21
364.0891090913523
 31
0.0
  0
LINE
  5
2A2B
330
1F
100
AcDbEntity
  8
SPOJOVACÍ
  6
Continuous
100
AcDbLine
 10
8661.173528567465
 20
364.4667604622977
 30
0.0
 11
8661.392119879492
 21
364.0891090913523
 31
0.0
  0
LINE
  5
2A2C
330
1F
100
AcDbEntity
  8
SPOJOVACÍ
  6
Continuous
100
AcDbLine
 10
8671.298492104702
 20
360.7172218301879
 30
0.0
 11
8668.777715697991
 21
360.7172218301879
 31
0.0
  0
LINE
  5
2A2D
330
1F
100
AcDbEntity
  8
SPOJOVACÍ
  6
Continuous
100
AcDbLine
 10
8668.183333364517
 20
360.7172218301879
 30
0.0
 11
8665.655115551649
 21
360.7172218301879
 31
0.0
  0
LINE
  5
2A2E
330
1F
100
AcDbEntity
  8
SPOJOVACÍ
  6
Continuous
100
AcDbLine
 10
8665.050501284362
 20
360.7172218301879
 30
0.0
 11
8662.532515405036
 21
360.7172218301879
 31
0.0
  0
LINE
  5
2A2F
330
1F
100
AcDbEntity
  8
SPOJOVACÍ
  6
Continuous
100
AcDbLine
 10
8661.936272719881
 20
360.7172218301879
 30
0.0
 11
8660.688906977993
 21
360.7172218301879
 31
0.0
  0
LINE
  5
2A30
330
1F
100
AcDbEntity
  8
SPOJOVACÍ
  6
Continuous
100
AcDbLine
 10
8660.688906977993
 20
360.7172218301879
 30
0.0
 11
8659.491770728635
 21
360.866980132911
 31
0.0
  0
LINE
  5
2A31
330
1F
100
AcDbEntity
  8
SPOJOVACÍ
  6
Continuous
100
AcDbLine
 10
8658.871343472782
 20
360.944184725437
 30
0.0
 11
8656.549624686716
 21
361.2343995749565
 31
0.0
  0
LINE
  5
2A32
330
1F
100
AcDbEntity
  8
SPOJOVACÍ
  6
Continuous
100
AcDbLine
 10
8655.918965497052
 20
361.3134645177947
 30
0.0
 11
8653.598176886697
 21
361.6036793629486
 31
0.0
  0
LINE
  5
2A33
330
1F
100
AcDbEntity
  8
SPOJOVACÍ
  6
Continuous
100
AcDbLine
 10
8659.296433811613
 20
359.9209913508698
 30
0.0
 11
8659.077842499586
 21
360.299572899154
 31
0.0
  0
LINE
  5
2A34
330
1F
100
AcDbEntity
  8
SPOJOVACÍ
  6
Continuous
100
AcDbLine
 10
8659.296433811613
 20
359.9209913508698
 30
0.0
 11
8659.674085184741
 21
360.299572899154
 31
0.0
  0
LINE
  5
2A35
330
1F
100
AcDbEntity
  8
SPOJOVACÍ
  6
Continuous
100
AcDbLine
 10
8656.281734057314
 20
360.4856080569756
 30
0.0
 11
8656.064072921266
 21
360.8632594322866
 31
0.0
  0
LINE
  5
2A36
330
1F
100
AcDbEntity
  8
SPOJOVACÍ
  6
Continuous
100
AcDbLine
 10
8656.281734057314
 20
360.4856080569756
 30
0.0
 11
8656.660315606421
 21
360.8632594322866
 31
0.0
  0
LINE
  5
2A37
330
1F
100
AcDbEntity
  8
SPOJOVACÍ
  6
Continuous
100
AcDbLine
 10
8668.614004757836
 20
359.6670533564488
 30
0.0
 11
8668.395413445809
 21
360.0447047317597
 31
0.0
  0
LINE
  5
2A38
330
1F
100
AcDbEntity
  8
SPOJOVACÍ
  6
Continuous
100
AcDbLine
 10
8668.614004757836
 20
359.6670533564488
 30
0.0
 11
8668.991656130964
 21
360.0447047317597
 31
0.0
  0
LINE
  5
2A39
330
1F
100
AcDbEntity
  8
SPOJOVACÍ
  6
Continuous
100
AcDbLine
 10
8665.494195138867
 20
359.6670533564488
 30
0.0
 11
8665.275603826847
 21
360.0447047317597
 31
0.0
  0
LINE
  5
2A3A
330
1F
100
AcDbEntity
  8
SPOJOVACÍ
  6
Continuous
100
AcDbLine
 10
8665.494195138867
 20
359.6670533564488
 30
0.0
 11
8665.871846511995
 21
360.0447047317597
 31
0.0
  0
LINE
  5
2A3B
330
1F
100
AcDbEntity
  8
SPOJOVACÍ
  6
Continuous
100
AcDbLine
 10
8662.373455343926
 20
359.6670533564488
 30
0.0
 11
8662.155794207878
 21
360.0447047317597
 31
0.0
  0
LINE
  5
2A3C
330
1F
100
AcDbEntity
  8
SPOJOVACÍ
  6
Continuous
100
AcDbLine
 10
8662.373455343926
 20
359.6670533564488
 30
0.0
 11
8662.752036893033
 21
360.0447047317597
 31
0.0
  0
LINE
  5
2A3D
330
1F
100
AcDbEntity
  8
SPOJOVACÍ
  6
Continuous
100
AcDbLine
 10
8656.011052900806
 20
362.832441588895
 30
0.0
 11
8658.14766670366
 21
363.0994020442326
 31
0.0
  0
LINE
  5
2A3E
330
1F
100
AcDbEntity
  8
SPOJOVACÍ
  6
Continuous
100
AcDbLine
 10
8659.077842499586
 20
360.299572899154
 30
0.0
 11
8657.944888380201
 21
363.6686696326673
 31
0.0
  0
LINE
  5
2A3F
330
1F
100
AcDbEntity
  8
SPOJOVACÍ
  6
Continuous
100
AcDbLine
 10
8659.674085184741
 20
360.299572899154
 30
0.0
 11
8658.541131065357
 21
363.6686696326673
 31
0.0
  0
LINE
  5
2A40
330
1F
100
AcDbEntity
  8
SPOJOVACÍ
  6
Continuous
100
AcDbLine
 10
8659.296433811613
 20
359.9209913508698
 30
0.0
 11
8658.323469929309
 21
364.0463210036127
 31
0.0
  0
LINE
  5
2A41
330
1F
100
AcDbEntity
  8
SPOJOVACÍ
  6
Continuous
100
AcDbLine
 10
8656.064072921266
 20
360.8632594322866
 30
0.0
 11
8655.269702791715
 21
363.2240456024614
 31
0.0
  0
LINE
  5
2A42
330
1F
100
AcDbEntity
  8
SPOJOVACÍ
  6
Continuous
100
AcDbLine
 10
8656.660315606421
 20
360.8632594322866
 30
0.0
 11
8655.865945476593
 21
363.2240456024614
 31
0.0
  0
LINE
  5
2A43
330
1F
100
AcDbEntity
  8
SPOJOVACÍ
  6
Continuous
100
AcDbLine
 10
8656.281734057314
 20
360.4856080569756
 30
0.0
 11
8655.648284340545
 21
363.6016969734068
 31
0.0
  0
LINE
  5
2A44
330
1F
100
AcDbEntity
  8
SPOJOVACÍ
  6
Continuous
100
AcDbLine
 10
8668.614004757836
 20
359.6670533564488
 30
0.0
 11
8667.414077981375
 21
364.4667604622977
 31
0.0
  0
LINE
  5
2A45
330
1F
100
AcDbEntity
  8
SPOJOVACÍ
  6
Continuous
100
AcDbLine
 10
8668.395413445809
 20
360.0447047317597
 30
0.0
 11
8667.035496432545
 21
364.0891090913523
 31
0.0
  0
LINE
  5
2A46
330
1F
100
AcDbEntity
  8
SPOJOVACÍ
  6
Continuous
100
AcDbLine
 10
8668.991656130964
 20
360.0447047317597
 30
0.0
 11
8667.631739117691
 21
364.0891090913523
 31
0.0
  0
LINE
  5
2A47
330
1F
100
AcDbEntity
  8
SPOJOVACÍ
  6
Continuous
100
AcDbLine
 10
8665.494195138867
 20
359.6670533564488
 30
0.0
 11
8664.294268362404
 21
364.4667604622977
 31
0.0
  0
LINE
  5
2A48
330
1F
100
AcDbEntity
  8
SPOJOVACÍ
  6
Continuous
100
AcDbLine
 10
8665.275603826847
 20
360.0447047317597
 30
0.0
 11
8663.915686813574
 21
364.0891090913523
 31
0.0
  0
LINE
  5
2A49
330
1F
100
AcDbEntity
  8
SPOJOVACÍ
  6
Continuous
100
AcDbLine
 10
8665.871846511995
 20
360.0447047317597
 30
0.0
 11
8664.511929498452
 21
364.0891090913523
 31
0.0
  0
LINE
  5
2A4A
330
1F
100
AcDbEntity
  8
SPOJOVACÍ
  6
Continuous
100
AcDbLine
 10
8662.373455343926
 20
359.6670533564488
 30
0.0
 11
8661.173528567465
 21
364.4667604622977
 31
0.0
  0
LINE
  5
2A4B
330
1F
100
AcDbEntity
  8
SPOJOVACÍ
  6
Continuous
100
AcDbLine
 10
8662.155794207878
 20
360.0447047317597
 30
0.0
 11
8660.795877194336
 21
364.0891090913523
 31
0.0
  0
LINE
  5
2A4C
330
1F
100
AcDbEntity
  8
SPOJOVACÍ
  6
Continuous
100
AcDbLine
 10
8662.752036893033
 20
360.0447047317597
 30
0.0
 11
8661.392119879492
 21
364.0891090913523
 31
0.0
  0
LINE
  5
2A4D
330
1F
100
AcDbEntity
  8
SPOJOVACÍ
  6
Continuous
100
AcDbLine
 10
8653.294009401374
 20
362.492927427726
 30
0.0
 11
8655.438994786358
 21
362.7608180560368
 31
0.0
  0
LINE
  5
2A4E
330
1F
100
AcDbEntity
  8
SPOJOVACÍ
  6
Continuous
100
AcDbLine
 10
8653.267964478995
 20
361.0502247674471
 30
0.0
 11
8653.645615852123
 21
361.4278761383925
 31
0.0
  0
LINE
  5
2A4F
330
1F
100
AcDbEntity
  8
SPOJOVACÍ
  6
Continuous
100
AcDbLine
 10
8653.645615852123
 20
361.4278761383925
 30
0.0
 11
8653.174946899538
 21
362.8268605379584
 31
0.0
  0
LINE
  5
2A50
330
1F
100
AcDbEntity
  8
SPOJOVACÍ
  6
Continuous
100
AcDbLine
 10
8679.054297889901
 20
363.4165919929241
 30
0.0
 11
8674.111343710974
 21
363.4165919929241
 31
0.0
  0
LINE
  5
2A51
330
1F
100
AcDbEntity
  8
SPOJOVACÍ
  6
Continuous
100
AcDbLine
 10
8673.653697219574
 20
364.4667604622977
 30
0.0
 11
8673.276045846446
 21
364.0891090913523
 31
0.0
  0
LINE
  5
2A52
330
1F
100
AcDbEntity
  8
SPOJOVACÍ
  6
Continuous
100
AcDbLine
 10
8673.653697219574
 20
364.4667604622977
 30
0.0
 11
8673.872288531601
 21
364.0891090913523
 31
0.0
  0
LINE
  5
2A53
330
1F
100
AcDbEntity
  8
SPOJOVACÍ
  6
Continuous
100
AcDbLine
 10
8679.841226613024
 20
360.6511793482663
 30
0.0
 11
8679.054297889901
 21
360.7172218301879
 31
0.0
  0
LINE
  5
2A54
330
1F
100
AcDbEntity
  8
SPOJOVACÍ
  6
Continuous
100
AcDbLine
 10
8679.054297889901
 20
360.7172218301879
 30
0.0
 11
8675.016404760221
 21
360.7172218301879
 31
0.0
  0
LINE
  5
2A55
330
1F
100
AcDbEntity
  8
SPOJOVACÍ
  6
Continuous
100
AcDbLine
 10
8674.421092251044
 20
360.7172218301879
 30
0.0
 11
8671.902176196017
 21
360.7172218301879
 31
0.0
  0
LINE
  5
2A56
330
1F
100
AcDbEntity
  8
SPOJOVACÍ
  6
Continuous
100
AcDbLine
 10
8674.853623996035
 20
359.6670533564488
 30
0.0
 11
8674.635962859987
 21
360.0447047317597
 31
0.0
  0
LINE
  5
2A57
330
1F
100
AcDbEntity
  8
SPOJOVACÍ
  6
Continuous
100
AcDbLine
 10
8674.853623996035
 20
359.6670533564488
 30
0.0
 11
8675.232205544865
 21
360.0447047317597
 31
0.0
  0
LINE
  5
2A58
330
1F
100
AcDbEntity
  8
SPOJOVACÍ
  6
Continuous
100
AcDbLine
 10
8671.733814377075
 20
359.6670533564488
 30
0.0
 11
8671.515223065048
 21
360.0447047317597
 31
0.0
  0
LINE
  5
2A59
330
1F
100
AcDbEntity
  8
SPOJOVACÍ
  6
Continuous
100
AcDbLine
 10
8671.733814377075
 20
359.6670533564488
 30
0.0
 11
8672.111465750203
 21
360.0447047317597
 31
0.0
  0
LINE
  5
2A5A
330
1F
100
AcDbEntity
  8
SPOJOVACÍ
  6
Continuous
100
AcDbLine
 10
8674.853623996035
 20
359.6670533564488
 30
0.0
 11
8673.653697219574
 21
364.4667604622977
 31
0.0
  0
LINE
  5
2A5B
330
1F
100
AcDbEntity
  8
SPOJOVACÍ
  6
Continuous
100
AcDbLine
 10
8674.635962859987
 20
360.0447047317597
 30
0.0
 11
8673.276045846446
 21
364.0891090913523
 31
0.0
  0
LINE
  5
2A5C
330
1F
100
AcDbEntity
  8
SPOJOVACÍ
  6
Continuous
100
AcDbLine
 10
8675.232205544865
 20
360.0447047317597
 30
0.0
 11
8673.872288531601
 21
364.0891090913523
 31
0.0
  0
LINE
  5
2A5D
330
1F
100
AcDbEntity
  8
SPOJOVACÍ
  6
Continuous
100
AcDbLine
 10
8681.991793053034
 20
364.2565407329552
 30
0.0
 11
8683.199161235933
 21
365.2146218029397
 31
0.0
  0
LINE
  5
2A5E
330
1F
100
AcDbEntity
  8
SPOJOVACÍ
  6
Continuous
100
AcDbLine
 10
8680.57792584333
 20
363.6435548838075
 30
0.0
 11
8681.991793053034
 21
364.2565407329552
 31
0.0
  0
LINE
  5
2A5F
330
1F
100
AcDbEntity
  8
SPOJOVACÍ
  6
Continuous
100
AcDbLine
 10
8685.653895160989
 20
367.1670607980072
 30
0.0
 11
8684.453968384259
 21
367.1670607980072
 31
0.0
  0
LINE
  5
2A60
330
1F
100
AcDbEntity
  8
SPOJOVACÍ
  6
Continuous
100
AcDbLine
 10
8684.117244746374
 20
366.4517556118394
 30
0.0
 11
8684.453968384259
 21
367.1670607980072
 31
0.0
  0
LINE
  5
2A61
330
1F
100
AcDbEntity
  8
SPOJOVACÍ
  6
Continuous
100
AcDbLine
 10
8683.199161235933
 20
365.2146218029397
 30
0.0
 11
8684.117244746374
 21
366.4517556118394
 31
0.0
  0
LINE
  5
2A62
330
1F
100
AcDbEntity
  8
SPOJOVACÍ
  6
Continuous
100
AcDbLine
 10
8685.653895160989
 20
356.9667530207393
 30
0.0
 11
8684.453968384259
 21
356.9667530207393
 31
0.0
  0
LINE
  5
2A63
330
1F
100
AcDbEntity
  8
SPOJOVACÍ
  6
Continuous
100
AcDbLine
 10
8682.641055758372
 20
359.4270680046488
 30
0.0
 11
8681.322066480074
 21
360.223298483967
 31
0.0
  0
LINE
  5
2A64
330
1F
100
AcDbEntity
  8
SPOJOVACÍ
  6
Continuous
100
AcDbLine
 10
8683.709827747783
 20
358.3164381042902
 30
0.0
 11
8682.641055758372
 21
359.4270680046488
 31
0.0
  0
LINE
  5
2A65
330
1F
100
AcDbEntity
  8
SPOJOVACÍ
  6
Continuous
100
AcDbLine
 10
8684.453968384259
 20
356.9667530207393
 30
0.0
 11
8683.709827747783
 21
358.3164381042902
 31
0.0
  0
LINE
  5
2A66
330
1F
100
AcDbEntity
  8
SPOJOVACÍ
  6
Continuous
100
AcDbLine
 10
8685.653895160989
 20
356.9667530207393
 30
0.0
 11
8685.653895160989
 21
367.1670607980072
 31
0.0
  0
LINE
  5
2A67
330
1F
100
AcDbEntity
  8
SPOJOVACÍ
  6
Continuous
100
AcDbLine
 10
8684.453968384259
 20
356.9667530207393
 30
0.0
 11
8684.453968384259
 21
367.1670607980072
 31
0.0
  0
LINE
  5
2A68
330
1F
100
AcDbEntity
  8
SPOJOVACÍ
  6
Continuous
100
AcDbLine
 10
8679.054297889901
 20
363.4165919929241
 30
0.0
 11
8680.57792584333
 21
363.6435548838075
 31
0.0
  0
LINE
  5
2A69
330
1F
100
AcDbEntity
  8
SPOJOVACÍ
  6
Continuous
100
AcDbLine
 10
8681.322066480074
 20
360.223298483967
 30
0.0
 11
8679.841226613024
 21
360.6511793482663
 31
0.0
  0
LINE
  5
2A6A
330
1F
100
AcDbEntity
  8
POPIS
100
AcDbLine
 10
8673.653895160988
 20
319.2577657896413
 30
0.0
 11
8685.653895160989
 21
319.2577657896413
 31
0.0
  0
LINE
  5
2A6B
330
1F
100
AcDbEntity
  8
CETRIS
100
AcDbLine
 10
8668.653895160989
 20
407.4900200743932
 30
0.0
 11
8668.653895160987
 21
419.490020074392
 31
0.0
  0
LINE
  5
2A6D
330
1F
100
AcDbEntity
  8
NOSNÉ KONSTRUKCE
  6
DASHED
100
AcDbLine
 10
8143.004343722351
 20
352.5623441081179
 30
0.0
 11
8668.653895160989
 21
352.5623441081179
 31
0.0
  0
TEXT
  5
5178
330
1F
100
AcDbEntity
  8
POPIS
100
AcDbText
 10
8866.064741342622
 20
508.4812091442443
 30
0.0
 40
25.0
  1
Vrut 4,2x35 (45,55) mm
 41
0.7
  7
SIMPLEX7
100
AcDbText
  0
TEXT
  5
5179
330
1F
100
AcDbEntity
  8
POPIS
100
AcDbText
 10
8866.064741342622
 20
368.4544866907369
 30
0.0
 40
25.0
  1
UW profil (ocelový nosník I, U)
 41
0.7
  7
SIMPLEX7
100
AcDbText
  0
TEXT
  5
517A
330
1F
100
AcDbEntity
  8
POPIS
100
AcDbText
 10
8866.064741342622
 20
545.0762207598716
 30
0.0
 40
25.0
  1
Deska CETRIS   
 41
0.7
  7
SIMPLEX7
100
AcDbText
  0
TEXT
  5
517B
330
1F
100
AcDbEntity
  8
POPIS
100
AcDbText
 10
8866.064741342622
 20
437.7439194481856
 30
0.0
 40
25.0
  1
Minerální plsť (vzduchová mezera)
 41
0.7
  7
SIMPLEX7
100
AcDbText
  0
TEXT
  5
517C
330
1F
100
AcDbEntity
  8
POPIS
100
AcDbText
 10
8866.064741342622
 20
402.3397582300228
 30
0.0
 40
25.0
  1
CW profil (ocelový nosník I, U) - stojina
 41
0.7
  7
SIMPLEX7
100
AcDbText
  0
TEXT
  5
517D
330
1F
100
AcDbEntity
  8
POPIS
100
AcDbText
 10
8866.064741342622
 20
331.6189466878447
 30
0.0
 40
25.0
  1
Tmel DEXAFLAMM - R
 41
0.7
  7
SIMPLEX7
100
AcDbText
  0
TEXT
  5
517E
330
1F
100
AcDbEntity
  8
POPIS
100
AcDbText
 10
8866.064741342622
 20
297.3655541486466
 30
0.0
 40
25.0
  1
Podtmelení profilu (papír SIBRAL)
 41
0.7
  7
SIMPLEX7
100
AcDbText
  0
TEXT
  5
517F
330
1F
100
AcDbEntity
  8
POPIS
100
AcDbText
 10
8811.721038182879
 20
331.6189466878447
 30
0.0
 40
25.0
  1
06
 41
0.85
  7
SIMPLEX7
100
AcDbText
  0
TEXT
  5
5180
330
1F
100
AcDbEntity
  8
POPIS
100
AcDbText
 10
8866.064741342622
 20
264.2003557848463
 30
0.0
 40
25.0
  1
Hmoždinka
 41
0.7
  7
SIMPLEX7
100
AcDbText
  0
TEXT
  5
5181
330
1F
100
AcDbEntity
  8
POPIS
100
AcDbText
 10
8811.721038182879
 20
264.2003557848463
 30
0.0
 40
25.0
  1
08
 41
0.85
  7
SIMPLEX7
100
AcDbText
  0
TEXT
  5
5182
330
1F
100
AcDbEntity
  8
POPIS
100
AcDbText
 10
8811.721038182879
 20
297.3655541486466
 30
0.0
 40
25.0
  1
07
 41
0.85
  7
SIMPLEX7
100
AcDbText
  0
TEXT
  5
5183
330
1F
100
AcDbEntity
  8
POPIS
100
AcDbText
 10
8811.721038182879
 20
508.4812091442443
 30
0.0
 40
25.0
  1
02
 41
0.85
  7
SIMPLEX7
100
AcDbText
  0
TEXT
  5
5184
330
1F
100
AcDbEntity
  8
POPIS
100
AcDbText
 10
8811.721038182879
 20
402.3397582300228
 30
0.0
 40
25.0
  1
04
 41
0.85
  7
SIMPLEX7
100
AcDbText
  0
TEXT
  5
5185
330
1F
100
AcDbEntity
  8
POPIS
100
AcDbText
 10
8811.721038182879
 20
368.4544866907369
 30
0.0
 40
25.0
  1
05
 41
0.85
  7
SIMPLEX7
100
AcDbText
  0
TEXT
  5
5186
330
1F
100
AcDbEntity
  8
POPIS
100
AcDbText
 10
8811.721038182879
 20
437.7439194481856
 30
0.0
 40
25.0
  1
03
 41
0.85
  7
SIMPLEX7
100
AcDbText
  0
TEXT
  5
5187
330
1F
100
AcDbEntity
  8
POPIS
100
AcDbText
 10
8811.721038182879
 20
545.0762207598716
 30
0.0
 40
25.0
  1
01
 41
0.85
  7
SIMPLEX7
100
AcDbText
  0
CIRCLE
  5
5188
330
1F
100
AcDbEntity
  8
POPIS
100
AcDbCircle
 10
9038.449955636847
 20
575.5968766131397
 30
0.0
 40
11.13656048292026
  0
TEXT
  5
5189
330
1F
100
AcDbEntity
  8
POPIS
100
AcDbText
 10
9033.690926581668
 20
570.0515308681522
 30
0.0
 40
12.0
  1
R
 41
0.85
  7
SIMPLEX7
100
AcDbText
  0
HATCH
  5
555C
330
1F
100
AcDbEntity
  8
NOSNÉ KONSTRUKCE
100
AcDbHatch
 10
0.0
 20
0.0
 30
0.0
210
0.0
220
0.0
230
1.0
  2
SOLID
 70
     1
 71
     0
 91
        1
 92
        7
 72
     1
 73
     1
 93
       60
 10
8314.507537860409
 20
352.1619902733279
 42
0.0
 10
8314.507537860409
 20
386.5549843077829
 42
-0.3073346934841183
 10
8313.342895740388
 20
388.2962945240953
 42
0.0
 10
8313.342895740388
 20
392.1148063012763
 42
-0.307334693483106
 10
8314.507537860409
 20
393.8561165175817
 42
0.0
 10
8314.507537860409
 20
404.3550506176051
 42
0.4142135623730951
 10
8312.50753786041
 20
406.3550506176048
 42
0.0
 10
8304.308684498904
 20
406.3550506176048
 42
-0.7595816512230912
 10
8300.717242331147
 20
406.3550506176052
 42
0.0
 10
8291.541372926587
 20
406.3550506176008
 42
-0.7595816493590427
 10
8287.94993072587
 20
406.3550506176048
 42
0.0
 10
8278.774063355092
 20
406.3550506176048
 42
-0.7767342353201953
 10
8275.162604770864
 20
406.4330078004322
 42
0.0
 10
8268.594495534387
 20
406.4330078004319
 42
0.4142135623730868
 10
8266.594495534388
 20
404.4330078004322
 42
0.0
 10
8266.594495534388
 20
401.6076820087371
 42
0.0
 10
8267.594495534387
 20
401.607682008737
 42
0.0
 10
8267.594495534387
 20
404.4330078004319
 42
-0.4142135623730951
 10
8268.594495534387
 20
405.4330078004319
 42
0.0
 10
8274.492191581488
 20
405.4330078004319
 42
0.5694936494219963
 10
8279.418136964984
 20
405.3550506176049
 42
0.0
 10
8287.305855141937
 20
405.3550506176049
 42
0.5590616644338513
 10
8292.185448510519
 20
405.3550506176012
 42
0.0
 10
8300.073166746624
 20
405.3550506176049
 42
0.5590616643157284
 10
8304.952760083427
 20
405.3550506176049
 42
0.0
 10
8312.50753786041
 20
405.3550506176049
 42
-0.4142135623731451
 10
8313.507537860408
 20
404.3550506176051
 42
0.0
 10
8313.507537860408
 20
394.4220464267809
 42
0.2364174637114482
 10
8312.352078773958
 20
392.1401967697671
 42
0.0
 10
8312.352078773958
 20
388.2709040555991
 42
0.2364174637115772
 10
8313.507537860408
 20
385.9890543985838
 42
0.0
 10
8313.507537860408
 20
352.7242805226989
 42
0.2353201211467568
 10
8312.362907288051
 20
350.4488650068749
 42
0.0
 10
8312.365122858034
 20
346.5795729270316
 42
0.2364174637122881
 10
8313.521888349827
 20
344.298385263837
 42
0.0
 10
8313.527576021341
 20
334.3653827014029
 42
-0.4142135623730951
 10
8312.528148788631
 20
333.3648102619866
 42
0.0
 10
8304.973372250158
 20
333.3604843708947
 42
0.5590616643157161
 10
8300.093779713305
 20
333.357690299385
 42
0.0
 10
8292.206062770288
 20
333.3531737654731
 42
0.5590616644338511
 10
8287.326470201657
 20
333.3503796939417
 42
0.0
 10
8279.438753317796
 20
333.34586316006
 42
0.5694936494220229
 10
8274.512853380388
 20
333.2650853771659
 42
0.0
 10
8268.615158300141
 20
333.26170833663
 42
-0.4142135623730951
 10
8267.614585860725
 20
334.2611355693388
 42
0.0
 10
8267.612968069702
 20
337.0864608978572
 42
0.0
 10
8266.612968233637
 20
337.0858882945035
 42
0.0
 10
8266.614586024662
 20
334.2605629659848
 42
0.4142135623730618
 10
8268.615730903494
 20
332.2617085005673
 42
0.0
 10
8275.183839063211
 20
332.2654694219437
 42
-0.7767342353201953
 10
8278.795252416843
 20
332.3454945252882
 42
0.0
 10
8287.971118283355
 20
332.3507486577184
 42
-0.759581649359043
 10
8291.562559895302
 20
332.3528051295713
 42
0.0
 10
8300.738427795593
 20
332.3580592631617
 42
-0.7595816512230912
 10
8304.329869374578
 20
332.3601157349922
 42
0.0
 10
8312.528721391986
 20
332.364810425924
 42
0.4142135623731117
 10
8314.527575857402
 20
334.3659553047567
 42
0.0
 10
8314.521564132526
 20
344.8648876836131
 42
-0.3073346934834261
 10
8313.355925123364
 20
346.6055307364711
 42
0.0
 10
8313.353738630715
 20
350.4240418876571
 42
-0.3057747226774016
 97
        0
 75
     0
 76
     1
 47
0.1180065091547201
 98
        1
 10
8314.106873982829
 20
361.5233695497562
  0
LINE
  5
555D
330
1F
100
AcDbEntity
  8
SPOJOVACÍ
  6
Continuous
100
AcDbLine
 10
8297.025428134597
 20
325.8573630607302
 30
0.0
 11
8297.25239102548
 21
324.3337351073009
 31
0.0
  0
LINE
  5
555E
330
1F
100
AcDbEntity
  8
SPOJOVACÍ
  6
Continuous
100
AcDbLine
 10
8293.83213462564
 20
323.5895944705575
 30
0.0
 11
8294.260015489939
 21
325.0704343376078
 31
0.0
  0
LINE
  5
5560
330
1F
100
AcDbEntity
  8
SPOJOVACÍ
  6
Continuous
100
AcDbLine
 10
8297.865376874629
 20
322.9198678975976
 30
0.0
 11
8298.823457944612
 21
321.7124997146989
 31
0.0
  0
LINE
  5
5561
330
1F
100
AcDbEntity
  8
SPOJOVACÍ
  6
Continuous
100
AcDbLine
 10
8297.25239102548
 20
324.3337351073009
 30
0.0
 11
8297.865376874629
 21
322.9198678975976
 31
0.0
  0
LINE
  5
5562
330
1F
100
AcDbEntity
  8
SPOJOVACÍ
  6
Continuous
100
AcDbLine
 10
8300.775896939681
 20
319.2577657896422
 30
0.0
 11
8300.775896939681
 21
320.4576925663737
 31
0.0
  0
LINE
  5
5563
330
1F
100
AcDbEntity
  8
SPOJOVACÍ
  6
Continuous
100
AcDbLine
 10
8290.575589162413
 20
319.2577657896422
 30
0.0
 11
8300.775896939681
 21
319.2577657896422
 31
0.0
  0
LINE
  5
5564
330
1F
100
AcDbEntity
  8
SPOJOVACÍ
  6
Continuous
100
AcDbLine
 10
8290.575589162413
 20
319.2577657896422
 30
0.0
 11
8290.575589162413
 21
320.4576925663737
 31
0.0
  0
LINE
  5
5565
330
1F
100
AcDbEntity
  8
SPOJOVACÍ
  6
Continuous
100
AcDbLine
 10
8290.575589162413
 20
320.4576925663737
 30
0.0
 11
8300.775896939681
 21
320.4576925663737
 31
0.0
  0
LINE
  5
5566
330
1F
100
AcDbEntity
  8
SPOJOVACÍ
  6
Continuous
100
AcDbLine
 10
8300.060591753512
 20
320.7944162042572
 30
0.0
 11
8300.775896939681
 21
320.4576925663737
 31
0.0
  0
LINE
  5
5567
330
1F
100
AcDbEntity
  8
SPOJOVACÍ
  6
Continuous
100
AcDbLine
 10
8298.823457944612
 20
321.7124997146989
 30
0.0
 11
8300.060591753512
 21
320.7944162042572
 31
0.0
  0
LINE
  5
5568
330
1F
100
AcDbEntity
  8
SPOJOVACÍ
  6
Continuous
100
AcDbLine
 10
8293.035904146321
 20
322.27060519226
 30
0.0
 11
8293.83213462564
 21
323.5895944705575
 31
0.0
  0
LINE
  5
5569
330
1F
100
AcDbEntity
  8
SPOJOVACÍ
  6
Continuous
100
AcDbLine
 10
8291.925274245963
 20
321.2018332028478
 30
0.0
 11
8293.035904146321
 21
322.27060519226
 31
0.0
  0
LINE
  5
556A
330
1F
100
AcDbEntity
  8
SPOJOVACÍ
  6
Continuous
100
AcDbLine
 10
8290.575589162413
 20
320.4576925663737
 30
0.0
 11
8291.925274245963
 21
321.2018332028478
 31
0.0
  0
LINE
  5
556B
330
1F
100
AcDbEntity
  8
SPOJOVACÍ
  6
Continuous
100
AcDbLine
 10
8294.553020867111
 20
346.0403174778498
 30
0.0
 11
8294.84323571663
 21
348.3620362639144
 31
0.0
  0
LINE
  5
556C
330
1F
100
AcDbEntity
  8
SPOJOVACÍ
  6
Continuous
100
AcDbLine
 10
8297.655157145285
 20
346.5881910213234
 30
0.0
 11
8297.27750577434
 21
346.3705298852751
 31
0.0
  0
LINE
  5
556D
330
1F
100
AcDbEntity
  8
SPOJOVACÍ
  6
Continuous
100
AcDbLine
 10
8293.908409040827
 20
345.8338184510453
 30
0.0
 11
8297.27750577434
 21
346.9667725704298
 31
0.0
  0
LINE
  5
556E
330
1F
100
AcDbEntity
  8
SPOJOVACÍ
  6
Continuous
100
AcDbLine
 10
8293.529827492543
 20
345.6152271390187
 30
0.0
 11
8297.655157145285
 21
346.5881910213234
 31
0.0
  0
LINE
  5
556F
330
1F
100
AcDbEntity
  8
SPOJOVACÍ
  6
Continuous
100
AcDbLine
 10
8295.675743051047
 20
355.0230251375928
 30
0.0
 11
8296.030140032176
 21
352.1869191363244
 31
0.0
  0
LINE
  5
5570
330
1F
100
AcDbEntity
  8
SPOJOVACÍ
  6
Continuous
100
AcDbLine
 10
8294.922300659468
 20
348.992695453579
 30
0.0
 11
8295.212515504621
 21
351.3134840639345
 31
0.0
  0
LINE
  5
5571
330
1F
100
AcDbEntity
  8
SPOJOVACÍ
  6
Continuous
100
AcDbLine
 10
8295.289720097148
 20
351.9339113197879
 30
0.0
 11
8295.675743051047
 21
355.0230251375928
 31
0.0
  0
LINE
  5
5572
330
1F
100
AcDbEntity
  8
SPOJOVACÍ
  6
Continuous
100
AcDbLine
 10
8296.101763569399
 20
351.6176515492575
 30
0.0
 11
8296.369654197709
 21
349.472666164273
 31
0.0
  0
LINE
  5
5573
330
1F
100
AcDbEntity
  8
SPOJOVACÍ
  6
Continuous
100
AcDbLine
 10
8296.441277730568
 20
348.9006080498243
 30
0.0
 11
8296.708238185905
 21
346.7639942469709
 31
0.0
  0
LINE
  5
5574
330
1F
100
AcDbEntity
  8
SPOJOVACÍ
  6
Continuous
100
AcDbLine
 10
8297.655157145285
 20
346.5881910213234
 30
0.0
 11
8297.27750577434
 21
346.9667725704298
 31
0.0
  0
LINE
  5
5575
330
1F
100
AcDbEntity
  8
SPOJOVACÍ
  6
Continuous
100
AcDbLine
 10
8294.094444198648
 20
348.6299268933166
 30
0.0
 11
8294.47209557396
 21
348.8475880293649
 31
0.0
  0
LINE
  5
5576
330
1F
100
AcDbEntity
  8
SPOJOVACÍ
  6
Continuous
100
AcDbLine
 10
8294.094444198648
 20
348.6299268933166
 30
0.0
 11
8294.47209557396
 21
348.2513453442102
 31
0.0
  0
LINE
  5
5577
330
1F
100
AcDbEntity
  8
SPOJOVACÍ
  6
Continuous
100
AcDbLine
 10
8297.21053311508
 20
349.2633766100866
 30
0.0
 11
8296.832881744135
 21
349.6419581589166
 31
0.0
  0
LINE
  5
5578
330
1F
100
AcDbEntity
  8
SPOJOVACÍ
  6
Continuous
100
AcDbLine
 10
8297.21053311508
 20
349.2633766100866
 30
0.0
 11
8296.832881744135
 21
349.0457154740383
 31
0.0
  0
LINE
  5
5579
330
1F
100
AcDbEntity
  8
SPOJOVACÍ
  6
Continuous
100
AcDbLine
 10
8294.47209557396
 20
348.8475880293649
 30
0.0
 11
8296.832881744135
 21
349.6419581589166
 31
0.0
  0
LINE
  5
557A
330
1F
100
AcDbEntity
  8
SPOJOVACÍ
  6
Continuous
100
AcDbLine
 10
8294.47209557396
 20
348.2513453442102
 30
0.0
 11
8296.832881744135
 21
349.0457154740383
 31
0.0
  0
LINE
  5
557B
330
1F
100
AcDbEntity
  8
SPOJOVACÍ
  6
Continuous
100
AcDbLine
 10
8294.094444198648
 20
348.6299268933166
 30
0.0
 11
8297.21053311508
 21
349.2633766100866
 31
0.0
  0
LINE
  5
557C
330
1F
100
AcDbEntity
  8
SPOJOVACÍ
  6
Continuous
100
AcDbLine
 10
8294.65906090912
 20
351.6436964716362
 30
0.0
 11
8295.036712280065
 21
351.8622877836556
 31
0.0
  0
LINE
  5
557D
330
1F
100
AcDbEntity
  8
SPOJOVACÍ
  6
Continuous
100
AcDbLine
 10
8294.65906090912
 20
351.6436964716362
 30
0.0
 11
8295.036712280065
 21
351.2660450985081
 31
0.0
  0
LINE
  5
557E
330
1F
100
AcDbEntity
  8
SPOJOVACÍ
  6
Continuous
100
AcDbLine
 10
8296.813348050577
 20
351.9543751874103
 30
0.0
 11
8296.435696679631
 21
352.3329567362402
 31
0.0
  0
LINE
  5
557F
330
1F
100
AcDbEntity
  8
SPOJOVACÍ
  6
Continuous
100
AcDbLine
 10
8296.813348050577
 20
351.9543751874103
 30
0.0
 11
8296.435696679631
 21
351.7367140510927
 31
0.0
  0
LINE
  5
5580
330
1F
100
AcDbEntity
  8
SPOJOVACÍ
  6
Continuous
100
AcDbLine
 10
8295.036712280065
 20
351.8622877836556
 30
0.0
 11
8296.435696679631
 21
352.3329567362402
 31
0.0
  0
LINE
  5
5581
330
1F
100
AcDbEntity
  8
SPOJOVACÍ
  6
Continuous
100
AcDbLine
 10
8295.036712280065
 20
351.2660450985081
 30
0.0
 11
8296.435696679631
 21
351.7367140510927
 31
0.0
  0
LINE
  5
5582
330
1F
100
AcDbEntity
  8
SPOJOVACÍ
  6
Continuous
100
AcDbLine
 10
8294.65906090912
 20
351.6436964716362
 30
0.0
 11
8296.813348050577
 21
351.9543751874103
 31
0.0
  0
LINE
  5
5583
330
1F
100
AcDbEntity
  8
SPOJOVACÍ
  6
Continuous
100
AcDbLine
 10
8294.260015489939
 20
325.0704343376078
 30
0.0
 11
8294.326057971861
 21
325.8573630607302
 31
0.0
  0
LINE
  5
5584
330
1F
100
AcDbEntity
  8
SPOJOVACÍ
  6
Continuous
100
AcDbLine
 10
8297.025428134597
 20
325.8573630607302
 30
0.0
 11
8297.025428134597
 21
330.8003172396588
 31
0.0
  0
LINE
  5
5585
330
1F
100
AcDbEntity
  8
SPOJOVACÍ
  6
Continuous
100
AcDbLine
 10
8294.326057971861
 20
325.8573630607302
 30
0.0
 11
8294.326057971861
 21
329.8952561904102
 31
0.0
  0
LINE
  5
5586
330
1F
100
AcDbEntity
  8
SPOJOVACÍ
  6
Continuous
100
AcDbLine
 10
8294.326057971861
 20
330.4905686995866
 30
0.0
 11
8294.326057971861
 21
333.0094847546156
 31
0.0
  0
LINE
  5
5587
330
1F
100
AcDbEntity
  8
SPOJOVACÍ
  6
Continuous
100
AcDbLine
 10
8293.275889498122
 20
330.0580369545955
 30
0.0
 11
8298.07559660397
 21
331.2579637310577
 31
0.0
  0
LINE
  5
5588
330
1F
100
AcDbEntity
  8
SPOJOVACÍ
  6
Continuous
100
AcDbLine
 10
8293.275889498122
 20
330.0580369545955
 30
0.0
 11
8293.653540873433
 21
330.2756980906437
 31
0.0
  0
LINE
  5
5589
330
1F
100
AcDbEntity
  8
SPOJOVACÍ
  6
Continuous
100
AcDbLine
 10
8293.275889498122
 20
330.0580369545955
 30
0.0
 11
8293.653540873433
 21
329.6794554057655
 31
0.0
  0
LINE
  5
558A
330
1F
100
AcDbEntity
  8
SPOJOVACÍ
  6
Continuous
100
AcDbLine
 10
8298.07559660397
 20
331.2579637310577
 30
0.0
 11
8297.697945233025
 21
331.6356151041859
 31
0.0
  0
LINE
  5
558B
330
1F
100
AcDbEntity
  8
SPOJOVACÍ
  6
Continuous
100
AcDbLine
 10
8298.07559660397
 20
331.2579637310577
 30
0.0
 11
8297.697945233025
 21
331.0393724190312
 31
0.0
  0
LINE
  5
558C
330
1F
100
AcDbEntity
  8
SPOJOVACÍ
  6
Continuous
100
AcDbLine
 10
8293.653540873433
 20
330.2756980906437
 30
0.0
 11
8297.697945233025
 21
331.6356151041859
 31
0.0
  0
LINE
  5
558D
330
1F
100
AcDbEntity
  8
SPOJOVACÍ
  6
Continuous
100
AcDbLine
 10
8293.653540873433
 20
329.6794554057655
 30
0.0
 11
8297.697945233025
 21
331.0393724190312
 31
0.0
  0
LINE
  5
558E
330
1F
100
AcDbEntity
  8
SPOJOVACÍ
  6
Continuous
100
AcDbLine
 10
8293.275889498122
 20
333.1778465735574
 30
0.0
 11
8293.653540873433
 21
333.3964378855839
 31
0.0
  0
LINE
  5
558F
330
1F
100
AcDbEntity
  8
SPOJOVACÍ
  6
Continuous
100
AcDbLine
 10
8293.275889498122
 20
333.1778465735574
 30
0.0
 11
8293.653540873433
 21
332.8001952004292
 31
0.0
  0
LINE
  5
5590
330
1F
100
AcDbEntity
  8
SPOJOVACÍ
  6
Continuous
100
AcDbLine
 10
8294.326057971861
 20
336.7283275861141
 30
0.0
 11
8294.326057971861
 21
339.2565453989832
 31
0.0
  0
LINE
  5
5591
330
1F
100
AcDbEntity
  8
SPOJOVACÍ
  6
Continuous
100
AcDbLine
 10
8297.025428134597
 20
334.5191600711573
 30
0.0
 11
8297.025428134597
 21
337.0473778840264
 31
0.0
  0
LINE
  5
5592
330
1F
100
AcDbEntity
  8
SPOJOVACÍ
  6
Continuous
100
AcDbLine
 10
8297.025428134597
 20
337.641760217501
 30
0.0
 11
8297.025428134597
 21
340.1625366242101
 31
0.0
  0
LINE
  5
5593
330
1F
100
AcDbEntity
  8
SPOJOVACÍ
  6
Continuous
100
AcDbLine
 10
8294.326057971861
 20
339.861159666269
 30
0.0
 11
8294.326057971861
 21
342.3791455455962
 31
0.0
  0
LINE
  5
5594
330
1F
100
AcDbEntity
  8
SPOJOVACÍ
  6
Continuous
100
AcDbLine
 10
8294.326057971861
 20
342.9753882307509
 30
0.0
 11
8294.326057971861
 21
344.2227539726395
 31
0.0
  0
LINE
  5
5595
330
1F
100
AcDbEntity
  8
SPOJOVACÍ
  6
Continuous
100
AcDbLine
 10
8297.025428134597
 20
340.763430188143
 30
0.0
 11
8297.025428134597
 21
343.282346243172
 31
0.0
  0
LINE
  5
5596
330
1F
100
AcDbEntity
  8
SPOJOVACÍ
  6
Continuous
100
AcDbLine
 10
8297.025428134597
 20
343.886030334756
 30
0.0
 11
8297.025428134597
 21
344.2227539726395
 31
0.0
  0
LINE
  5
5597
330
1F
100
AcDbEntity
  8
SPOJOVACÍ
  6
Continuous
100
AcDbLine
 10
8294.326057971861
 20
344.2227539726395
 30
0.0
 11
8294.475816274584
 21
345.4198902219964
 31
0.0
  0
LINE
  5
5598
330
1F
100
AcDbEntity
  8
SPOJOVACÍ
  6
Continuous
100
AcDbLine
 10
8296.779861723129
 20
346.1937964839258
 30
0.0
 11
8297.025428134597
 21
344.2227539726395
 31
0.0
  0
LINE
  5
5599
330
1F
100
AcDbEntity
  8
SPOJOVACÍ
  6
Continuous
100
AcDbLine
 10
8298.07559660397
 20
334.3777733502961
 30
0.0
 11
8297.697945233025
 21
334.7554247231478
 31
0.0
  0
LINE
  5
559A
330
1F
100
AcDbEntity
  8
SPOJOVACÍ
  6
Continuous
100
AcDbLine
 10
8298.07559660397
 20
334.3777733502961
 30
0.0
 11
8297.697945233025
 21
334.1591820382696
 31
0.0
  0
LINE
  5
559B
330
1F
100
AcDbEntity
  8
SPOJOVACÍ
  6
Continuous
100
AcDbLine
 10
8293.529827492543
 20
345.6152271390187
 30
0.0
 11
8293.908409040827
 21
345.8338184510453
 31
0.0
  0
LINE
  5
559C
330
1F
100
AcDbEntity
  8
SPOJOVACÍ
  6
Continuous
100
AcDbLine
 10
8293.529827492543
 20
345.6152271390187
 30
0.0
 11
8293.908409040827
 21
345.2375757658906
 31
0.0
  0
LINE
  5
559D
330
1F
100
AcDbEntity
  8
SPOJOVACÍ
  6
Continuous
100
AcDbLine
 10
8293.908409040827
 20
345.2375757658906
 30
0.0
 11
8297.27750577434
 21
346.3705298852751
 31
0.0
  0
LINE
  5
559E
330
1F
100
AcDbEntity
  8
SPOJOVACÍ
  6
Continuous
100
AcDbLine
 10
8293.275889498122
 20
336.2976561927958
 30
0.0
 11
8298.07559660397
 21
337.497582969258
 31
0.0
  0
LINE
  5
559F
330
1F
100
AcDbEntity
  8
SPOJOVACÍ
  6
Continuous
100
AcDbLine
 10
8293.275889498122
 20
336.2976561927958
 30
0.0
 11
8293.653540873433
 21
336.5162475048223
 31
0.0
  0
LINE
  5
55A0
330
1F
100
AcDbEntity
  8
SPOJOVACÍ
  6
Continuous
100
AcDbLine
 10
8293.275889498122
 20
336.2976561927958
 30
0.0
 11
8293.653540873433
 21
335.9200048196676
 31
0.0
  0
LINE
  5
55A1
330
1F
100
AcDbEntity
  8
SPOJOVACÍ
  6
Continuous
100
AcDbLine
 10
8298.07559660397
 20
337.497582969258
 30
0.0
 11
8297.697945233025
 21
337.876164518088
 31
0.0
  0
LINE
  5
55A2
330
1F
100
AcDbEntity
  8
SPOJOVACÍ
  6
Continuous
100
AcDbLine
 10
8298.07559660397
 20
337.497582969258
 30
0.0
 11
8297.697945233025
 21
337.2799218329405
 31
0.0
  0
LINE
  5
55A3
330
1F
100
AcDbEntity
  8
SPOJOVACÍ
  6
Continuous
100
AcDbLine
 10
8293.653540873433
 20
336.5162475048223
 30
0.0
 11
8297.697945233025
 21
337.876164518088
 31
0.0
  0
LINE
  5
55A4
330
1F
100
AcDbEntity
  8
SPOJOVACÍ
  6
Continuous
100
AcDbLine
 10
8293.653540873433
 20
335.9200048196676
 30
0.0
 11
8297.697945233025
 21
337.2799218329405
 31
0.0
  0
LINE
  5
55A5
330
1F
100
AcDbEntity
  8
SPOJOVACÍ
  6
Continuous
100
AcDbLine
 10
8293.275889498122
 20
339.4174658117649
 30
0.0
 11
8298.07559660397
 21
340.6173925882271
 31
0.0
  0
LINE
  5
55A6
330
1F
100
AcDbEntity
  8
SPOJOVACÍ
  6
Continuous
100
AcDbLine
 10
8293.275889498122
 20
339.4174658117649
 30
0.0
 11
8293.653540873433
 21
339.6360571237842
 31
0.0
  0
LINE
  5
55A7
330
1F
100
AcDbEntity
  8
SPOJOVACÍ
  6
Continuous
100
AcDbLine
 10
8293.275889498122
 20
339.4174658117649
 30
0.0
 11
8293.653540873433
 21
339.0398144386367
 31
0.0
  0
LINE
  5
55A8
330
1F
100
AcDbEntity
  8
SPOJOVACÍ
  6
Continuous
100
AcDbLine
 10
8298.07559660397
 20
340.6173925882271
 30
0.0
 11
8297.697945233025
 21
340.9959741370571
 31
0.0
  0
LINE
  5
55A9
330
1F
100
AcDbEntity
  8
SPOJOVACÍ
  6
Continuous
100
AcDbLine
 10
8298.07559660397
 20
340.6173925882271
 30
0.0
 11
8297.697945233025
 21
340.3997314521788
 31
0.0
  0
LINE
  5
55AA
330
1F
100
AcDbEntity
  8
SPOJOVACÍ
  6
Continuous
100
AcDbLine
 10
8293.653540873433
 20
339.6360571237842
 30
0.0
 11
8297.697945233025
 21
340.9959741370571
 31
0.0
  0
LINE
  5
55AB
330
1F
100
AcDbEntity
  8
SPOJOVACÍ
  6
Continuous
100
AcDbLine
 10
8293.653540873433
 20
339.0398144386367
 30
0.0
 11
8297.697945233025
 21
340.3997314521788
 31
0.0
  0
LINE
  5
55AC
330
1F
100
AcDbEntity
  8
SPOJOVACÍ
  6
Continuous
100
AcDbLine
 10
8293.275889498122
 20
342.538205606705
 30
0.0
 11
8298.07559660397
 21
343.7381323831673
 31
0.0
  0
LINE
  5
55AD
330
1F
100
AcDbEntity
  8
SPOJOVACÍ
  6
Continuous
100
AcDbLine
 10
8293.275889498122
 20
342.538205606705
 30
0.0
 11
8293.653540873433
 21
342.7558667427533
 31
0.0
  0
LINE
  5
55AE
330
1F
100
AcDbEntity
  8
SPOJOVACÍ
  6
Continuous
100
AcDbLine
 10
8293.275889498122
 20
342.538205606705
 30
0.0
 11
8293.653540873433
 21
342.1596240575986
 31
0.0
  0
LINE
  5
55AF
330
1F
100
AcDbEntity
  8
SPOJOVACÍ
  6
Continuous
100
AcDbLine
 10
8298.07559660397
 20
343.7381323831673
 30
0.0
 11
8297.697945233025
 21
344.1157837562955
 31
0.0
  0
LINE
  5
55B0
330
1F
100
AcDbEntity
  8
SPOJOVACÍ
  6
Continuous
100
AcDbLine
 10
8298.07559660397
 20
343.7381323831673
 30
0.0
 11
8297.697945233025
 21
343.5195410711408
 31
0.0
  0
LINE
  5
55B1
330
1F
100
AcDbEntity
  8
SPOJOVACÍ
  6
Continuous
100
AcDbLine
 10
8293.653540873433
 20
342.7558667427533
 30
0.0
 11
8297.697945233025
 21
344.1157837562955
 31
0.0
  0
LINE
  5
55B2
330
1F
100
AcDbEntity
  8
SPOJOVACÍ
  6
Continuous
100
AcDbLine
 10
8293.653540873433
 20
342.1596240575986
 30
0.0
 11
8297.697945233025
 21
343.5195410711408
 31
0.0
  0
LINE
  5
55B3
330
1F
100
AcDbEntity
  8
SPOJOVACÍ
  6
Continuous
100
AcDbLine
 10
8294.326057971861
 20
333.6131688459304
 30
0.0
 11
8294.326057971861
 21
336.1339452526394
 31
0.0
  0
LINE
  5
55B4
330
1F
100
AcDbEntity
  8
SPOJOVACÍ
  6
Continuous
100
AcDbLine
 10
8297.025428134597
 20
331.4040013309736
 30
0.0
 11
8297.025428134597
 21
333.9229173860026
 31
0.0
  0
LINE
  5
55B5
330
1F
100
AcDbEntity
  8
SPOJOVACÍ
  6
Continuous
100
AcDbLine
 10
8293.275889498122
 20
333.1778465735574
 30
0.0
 11
8298.07559660397
 21
334.3777733502961
 31
0.0
  0
LINE
  5
55B6
330
1F
100
AcDbEntity
  8
SPOJOVACÍ
  6
Continuous
100
AcDbLine
 10
8293.653540873433
 20
333.3964378855839
 30
0.0
 11
8297.697945233025
 21
334.7554247231478
 31
0.0
  0
LINE
  5
55B7
330
1F
100
AcDbEntity
  8
SPOJOVACÍ
  6
Continuous
100
AcDbLine
 10
8293.653540873433
 20
332.8001952004292
 30
0.0
 11
8297.697945233025
 21
334.1591820382696
 31
0.0
  0
TEXT
  5
5612
330
1F
100
AcDbEntity
  8
POPIS
100
AcDbText
 10
8326.017284647511
 20
483.85174654465
 30
0.0
 40
25.0
  1
04
 41
0.85
  7
SIMPLEX7
100
AcDbText
  0
LINE
  5
5613
330
1F
100
AcDbEntity
  8
POPIS
100
AcDbLine
 10
8233.620878959515
 20
479.1506834081262
 30
0.0
 11
8273.270683972649
 21
449.3203517412601
 31
0.0
  0
TEXT
  5
5614
330
1F
100
AcDbEntity
  8
POPIS
100
AcDbText
 10
8217.159760271171
 20
483.85174654465
 30
0.0
 40
25.0
  1
02
 41
0.85
  7
SIMPLEX7
100
AcDbText
  0
LINE
  5
5615
330
1F
100
AcDbEntity
  8
POPIS
100
AcDbLine
 10
8290.880684196814
 20
419.4900200743911
 30
0.0
 11
8290.880684196814
 21
479.1506834081262
 31
0.0
  0
LINE
  5
5616
330
1F
100
AcDbEntity
  8
POPIS
100
AcDbLine
 10
8340.568367399658
 20
479.1506834081262
 30
0.0
 11
8300.918562386524
 21
449.3203517412601
 31
0.0
  0
LINE
  5
5617
330
1F
100
AcDbEntity
  8
POPIS
100
AcDbLine
 10
8273.270683972652
 20
419.4900200743911
 30
0.0
 11
8273.270683972649
 21
449.3203517412601
 31
0.0
  0
LINE
  5
5618
330
1F
100
AcDbEntity
  8
POPIS
100
AcDbLine
 10
8300.918562386518
 20
406.4485961784182
 30
0.0
 11
8300.918562386524
 21
449.3203517412601
 31
0.0
  0
TEXT
  5
5619
330
1F
100
AcDbEntity
  8
POPIS
100
AcDbText
 10
8273.224236708363
 20
483.85174654465
 30
0.0
 40
25.0
  1
06
 41
0.85
  7
SIMPLEX7
100
AcDbText
  0
LINE
  5
561A
330
1F
100
AcDbEntity
  8
SPOJOVACÍ
  6
Continuous
100
AcDbLine
 10
8270.772207355523
 20
396.5881618064347
 30
0.0
 11
8274.816611715115
 21
395.2282447928926
 31
0.0
  0
LINE
  5
561B
330
1F
100
AcDbEntity
  8
SPOJOVACÍ
  6
Continuous
100
AcDbLine
 10
8270.394555980212
 20
396.2095802573283
 30
0.0
 11
8270.772207355523
 21
395.99191912128
 31
0.0
  0
LINE
  5
561C
330
1F
100
AcDbEntity
  8
SPOJOVACÍ
  6
Continuous
100
AcDbLine
 10
8270.394555980212
 20
396.2095802573283
 30
0.0
 11
8275.194263086062
 21
395.009653480866
 31
0.0
  0
LINE
  5
561D
330
1F
100
AcDbEntity
  8
SPOJOVACÍ
  6
Continuous
100
AcDbLine
 10
8274.144094616687
 20
397.9843556758903
 30
0.0
 11
8274.144094616687
 21
395.4654396208614
 31
0.0
  0
LINE
  5
561E
330
1F
100
AcDbEntity
  8
SPOJOVACÍ
  6
Continuous
100
AcDbLine
 10
8306.856406670068
 20
397.9843556758903
 30
0.0
 11
8306.856406670068
 21
395.4654396208614
 31
0.0
  0
LINE
  5
561F
330
1F
100
AcDbEntity
  8
SPOJOVACÍ
  6
Continuous
100
AcDbLine
 10
8310.605945306543
 20
396.2095802573283
 30
0.0
 11
8305.806238200693
 21
395.009653480866
 31
0.0
  0
LINE
  5
5620
330
1F
100
AcDbEntity
  8
SPOJOVACÍ
  6
Continuous
100
AcDbLine
 10
8310.605945306543
 20
396.2095802573283
 30
0.0
 11
8310.228293931231
 21
395.99191912128
 31
0.0
  0
LINE
  5
5621
330
1F
100
AcDbEntity
  8
SPOJOVACÍ
  6
Continuous
100
AcDbLine
 10
8310.228293931231
 20
396.5881618064347
 30
0.0
 11
8306.18388957164
 21
395.2282447928926
 31
0.0
  0
LINE
  5
5622
330
1F
100
AcDbEntity
  8
SPOJOVACÍ
  6
Continuous
100
AcDbLine
 10
8270.772207355523
 20
395.99191912128
 30
0.0
 11
8274.816611715115
 21
394.6320021077379
 31
0.0
  0
LINE
  5
5623
330
1F
100
AcDbEntity
  8
SPOJOVACÍ
  6
Continuous
100
AcDbLine
 10
8275.194263086062
 20
395.009653480866
 30
0.0
 11
8274.816611715115
 21
395.2282447928926
 31
0.0
  0
LINE
  5
5624
330
1F
100
AcDbEntity
  8
SPOJOVACÍ
  6
Continuous
100
AcDbLine
 10
8275.194263086062
 20
395.009653480866
 30
0.0
 11
8274.816611715115
 21
394.6320021077379
 31
0.0
  0
LINE
  5
5625
330
1F
100
AcDbEntity
  8
SPOJOVACÍ
  6
Continuous
100
AcDbLine
 10
8271.77772739121
 20
387.1040893923971
 30
0.0
 11
8273.932014532666
 21
386.7934106766231
 31
0.0
  0
LINE
  5
5626
330
1F
100
AcDbEntity
  8
SPOJOVACÍ
  6
Continuous
100
AcDbLine
 10
8272.155378762155
 20
387.4817407655252
 30
0.0
 11
8273.554363161721
 21
387.0110718129406
 31
0.0
  0
LINE
  5
5627
330
1F
100
AcDbEntity
  8
SPOJOVACÍ
  6
Continuous
100
AcDbLine
 10
8272.155378762155
 20
386.8854980803778
 30
0.0
 11
8273.554363161721
 21
386.4148291277931
 31
0.0
  0
LINE
  5
5628
330
1F
100
AcDbEntity
  8
SPOJOVACÍ
  6
Continuous
100
AcDbLine
 10
8273.932014532666
 20
386.7934106766231
 30
0.0
 11
8273.554363161721
 21
387.0110718129406
 31
0.0
  0
LINE
  5
5629
330
1F
100
AcDbEntity
  8
SPOJOVACÍ
  6
Continuous
100
AcDbLine
 10
8273.932014532666
 20
386.7934106766231
 30
0.0
 11
8273.554363161721
 21
386.4148291277931
 31
0.0
  0
LINE
  5
562A
330
1F
100
AcDbEntity
  8
SPOJOVACÍ
  6
Continuous
100
AcDbLine
 10
8271.77772739121
 20
387.1040893923971
 30
0.0
 11
8272.155378762155
 21
387.4817407655252
 31
0.0
  0
LINE
  5
562B
330
1F
100
AcDbEntity
  8
SPOJOVACÍ
  6
Continuous
100
AcDbLine
 10
8271.77772739121
 20
387.1040893923971
 30
0.0
 11
8272.155378762155
 21
386.8854980803778
 31
0.0
  0
LINE
  5
562C
330
1F
100
AcDbEntity
  8
SPOJOVACÍ
  6
Continuous
100
AcDbLine
 10
8271.213110680738
 20
390.1178589707167
 30
0.0
 11
8274.32919959717
 21
389.4844092539467
 31
0.0
  0
LINE
  5
562D
330
1F
100
AcDbEntity
  8
SPOJOVACÍ
  6
Continuous
100
AcDbLine
 10
8271.59076205605
 20
390.4964405198231
 30
0.0
 11
8273.951548226225
 21
389.702070389995
 31
0.0
  0
LINE
  5
562E
330
1F
100
AcDbEntity
  8
SPOJOVACÍ
  6
Continuous
100
AcDbLine
 10
8271.59076205605
 20
389.9001978346684
 30
0.0
 11
8273.951548226225
 21
389.1058277051167
 31
0.0
  0
LINE
  5
562F
330
1F
100
AcDbEntity
  8
SPOJOVACÍ
  6
Continuous
100
AcDbLine
 10
8274.32919959717
 20
389.4844092539467
 30
0.0
 11
8273.951548226225
 21
389.702070389995
 31
0.0
  0
LINE
  5
5630
330
1F
100
AcDbEntity
  8
SPOJOVACÍ
  6
Continuous
100
AcDbLine
 10
8274.32919959717
 20
389.4844092539467
 30
0.0
 11
8273.951548226225
 21
389.1058277051167
 31
0.0
  0
LINE
  5
5631
330
1F
100
AcDbEntity
  8
SPOJOVACÍ
  6
Continuous
100
AcDbLine
 10
8271.213110680738
 20
390.1178589707167
 30
0.0
 11
8271.59076205605
 21
390.4964405198231
 31
0.0
  0
LINE
  5
5632
330
1F
100
AcDbEntity
  8
SPOJOVACÍ
  6
Continuous
100
AcDbLine
 10
8271.213110680738
 20
390.1178589707167
 30
0.0
 11
8271.59076205605
 21
389.9001978346684
 31
0.0
  0
LINE
  5
5633
330
1F
100
AcDbEntity
  8
SPOJOVACÍ
  6
Continuous
100
AcDbLine
 10
8270.648493974633
 20
393.1325587250146
 30
0.0
 11
8274.773823627375
 21
392.15959484271
 31
0.0
  0
LINE
  5
5634
330
1F
100
AcDbEntity
  8
SPOJOVACÍ
  6
Continuous
100
AcDbLine
 10
8271.027075522917
 20
393.5102100981428
 30
0.0
 11
8274.39617225643
 21
392.3772559787582
 31
0.0
  0
LINE
  5
5635
330
1F
100
AcDbEntity
  8
SPOJOVACÍ
  6
Continuous
100
AcDbLine
 10
8271.027075522917
 20
392.913967412988
 30
0.0
 11
8274.39617225643
 21
391.7810132936035
 31
0.0
  0
LINE
  5
5636
330
1F
100
AcDbEntity
  8
SPOJOVACÍ
  6
Continuous
100
AcDbLine
 10
8274.773823627375
 20
392.15959484271
 30
0.0
 11
8274.39617225643
 21
392.3772559787582
 31
0.0
  0
LINE
  5
5637
330
1F
100
AcDbEntity
  8
SPOJOVACÍ
  6
Continuous
100
AcDbLine
 10
8274.773823627375
 20
392.15959484271
 30
0.0
 11
8274.39617225643
 21
391.7810132936035
 31
0.0
  0
LINE
  5
5638
330
1F
100
AcDbEntity
  8
SPOJOVACÍ
  6
Continuous
100
AcDbLine
 10
8270.648493974633
 20
393.1325587250146
 30
0.0
 11
8271.027075522917
 21
393.5102100981428
 31
0.0
  0
LINE
  5
5639
330
1F
100
AcDbEntity
  8
SPOJOVACÍ
  6
Continuous
100
AcDbLine
 10
8270.648493974633
 20
393.1325587250146
 30
0.0
 11
8271.027075522917
 21
392.913967412988
 31
0.0
  0
LINE
  5
563A
330
1F
100
AcDbEntity
  8
SPOJOVACÍ
  6
Continuous
100
AcDbLine
 10
8273.89852820522
 20
392.5539893801076
 30
0.0
 11
8274.144094616687
 21
394.5250318913938
 31
0.0
  0
LINE
  5
563B
330
1F
100
AcDbEntity
  8
SPOJOVACÍ
  6
Continuous
100
AcDbLine
 10
8273.559944212658
 20
389.8471778142091
 30
0.0
 11
8273.826904667997
 21
391.9837916170624
 31
0.0
  0
LINE
  5
563C
330
1F
100
AcDbEntity
  8
SPOJOVACÍ
  6
Continuous
100
AcDbLine
 10
8273.220430051489
 20
387.1301343147758
 30
0.0
 11
8273.488320679801
 21
389.2751196997603
 31
0.0
  0
LINE
  5
563D
330
1F
100
AcDbEntity
  8
SPOJOVACÍ
  6
Continuous
100
AcDbLine
 10
8272.408386579238
 20
386.8138745442454
 30
0.0
 11
8272.794409533137
 21
383.7247607264405
 31
0.0
  0
LINE
  5
563E
330
1F
100
AcDbEntity
  8
SPOJOVACÍ
  6
Continuous
100
AcDbLine
 10
8272.040967141558
 20
389.7550904104543
 30
0.0
 11
8272.331181986713
 21
387.4343018000988
 31
0.0
  0
LINE
  5
563F
330
1F
100
AcDbEntity
  8
SPOJOVACÍ
  6
Continuous
100
AcDbLine
 10
8271.671687349201
 20
392.7074683861835
 30
0.0
 11
8271.96190219872
 21
390.3857496001189
 31
0.0
  0
LINE
  5
5640
330
1F
100
AcDbEntity
  8
SPOJOVACÍ
  6
Continuous
100
AcDbLine
 10
8272.794409533137
 20
383.7247607264405
 30
0.0
 11
8273.148806514265
 21
386.560866727709
 31
0.0
  0
LINE
  5
5641
330
1F
100
AcDbEntity
  8
SPOJOVACÍ
  6
Continuous
100
AcDbLine
 10
8271.444724453951
 20
394.5250318913938
 30
0.0
 11
8271.594482756674
 21
393.327895642037
 31
0.0
  0
LINE
  5
5642
330
1F
100
AcDbEntity
  8
SPOJOVACÍ
  6
Continuous
100
AcDbLine
 10
8274.144094616687
 20
394.8617555292774
 30
0.0
 11
8274.144094616687
 21
394.5250318913938
 31
0.0
  0
LINE
  5
5643
330
1F
100
AcDbEntity
  8
SPOJOVACÍ
  6
Continuous
100
AcDbLine
 10
8271.444724453951
 20
395.7723976332824
 30
0.0
 11
8271.444724453951
 21
394.5250318913938
 31
0.0
  0
LINE
  5
5644
330
1F
100
AcDbEntity
  8
SPOJOVACÍ
  6
Continuous
100
AcDbLine
 10
8309.555776832803
 20
395.7723976332824
 30
0.0
 11
8309.555776832803
 21
394.5250318913938
 31
0.0
  0
LINE
  5
5645
330
1F
100
AcDbEntity
  8
SPOJOVACÍ
  6
Continuous
100
AcDbLine
 10
8306.856406670068
 20
394.8617555292774
 30
0.0
 11
8306.856406670068
 21
394.5250318913938
 31
0.0
  0
LINE
  5
5646
330
1F
100
AcDbEntity
  8
SPOJOVACÍ
  6
Continuous
100
AcDbLine
 10
8309.555776832803
 20
394.5250318913938
 30
0.0
 11
8309.406018530081
 21
393.327895642037
 31
0.0
  0
LINE
  5
5647
330
1F
100
AcDbEntity
  8
SPOJOVACÍ
  6
Continuous
100
AcDbLine
 10
8308.206091753618
 20
383.7247607264405
 30
0.0
 11
8307.851694772489
 21
386.560866727709
 31
0.0
  0
LINE
  5
5648
330
1F
100
AcDbEntity
  8
SPOJOVACÍ
  6
Continuous
100
AcDbLine
 10
8309.328813937554
 20
392.7074683861835
 30
0.0
 11
8309.038599088035
 21
390.3857496001189
 31
0.0
  0
LINE
  5
5649
330
1F
100
AcDbEntity
  8
SPOJOVACÍ
  6
Continuous
100
AcDbLine
 10
8308.959534145197
 20
389.7550904104543
 30
0.0
 11
8308.669319300042
 21
387.4343018000988
 31
0.0
  0
LINE
  5
564A
330
1F
100
AcDbEntity
  8
SPOJOVACÍ
  6
Continuous
100
AcDbLine
 10
8308.592114707517
 20
386.8138745442454
 30
0.0
 11
8308.206091753618
 21
383.7247607264405
 31
0.0
  0
LINE
  5
564B
330
1F
100
AcDbEntity
  8
SPOJOVACÍ
  6
Continuous
100
AcDbLine
 10
8307.780071235265
 20
387.1301343147758
 30
0.0
 11
8307.512180606954
 21
389.2751196997603
 31
0.0
  0
LINE
  5
564C
330
1F
100
AcDbEntity
  8
SPOJOVACÍ
  6
Continuous
100
AcDbLine
 10
8307.440557074096
 20
389.8471778142091
 30
0.0
 11
8307.173596618758
 21
391.9837916170624
 31
0.0
  0
LINE
  5
564D
330
1F
100
AcDbEntity
  8
SPOJOVACÍ
  6
Continuous
100
AcDbLine
 10
8307.101973081534
 20
392.5539893801076
 30
0.0
 11
8306.856406670068
 21
394.5250318913938
 31
0.0
  0
LINE
  5
564E
330
1F
100
AcDbEntity
  8
SPOJOVACÍ
  6
Continuous
100
AcDbLine
 10
8310.352007312122
 20
393.1325587250146
 30
0.0
 11
8309.973425763837
 21
392.913967412988
 31
0.0
  0
LINE
  5
564F
330
1F
100
AcDbEntity
  8
SPOJOVACÍ
  6
Continuous
100
AcDbLine
 10
8310.352007312122
 20
393.1325587250146
 30
0.0
 11
8309.973425763837
 21
393.5102100981428
 31
0.0
  0
LINE
  5
5650
330
1F
100
AcDbEntity
  8
SPOJOVACÍ
  6
Continuous
100
AcDbLine
 10
8306.226677659379
 20
392.15959484271
 30
0.0
 11
8306.604329030324
 21
391.7810132936035
 31
0.0
  0
LINE
  5
5651
330
1F
100
AcDbEntity
  8
SPOJOVACÍ
  6
Continuous
100
AcDbLine
 10
8306.226677659379
 20
392.15959484271
 30
0.0
 11
8306.604329030324
 21
392.3772559787582
 31
0.0
  0
LINE
  5
5652
330
1F
100
AcDbEntity
  8
SPOJOVACÍ
  6
Continuous
100
AcDbLine
 10
8309.973425763837
 20
392.913967412988
 30
0.0
 11
8306.604329030324
 21
391.7810132936035
 31
0.0
  0
LINE
  5
5653
330
1F
100
AcDbEntity
  8
SPOJOVACÍ
  6
Continuous
100
AcDbLine
 10
8309.973425763837
 20
393.5102100981428
 30
0.0
 11
8306.604329030324
 21
392.3772559787582
 31
0.0
  0
LINE
  5
5654
330
1F
100
AcDbEntity
  8
SPOJOVACÍ
  6
Continuous
100
AcDbLine
 10
8310.352007312122
 20
393.1325587250146
 30
0.0
 11
8306.226677659379
 21
392.15959484271
 31
0.0
  0
LINE
  5
5655
330
1F
100
AcDbEntity
  8
SPOJOVACÍ
  6
Continuous
100
AcDbLine
 10
8309.787390606016
 20
390.1178589707167
 30
0.0
 11
8309.409739230705
 21
389.9001978346684
 31
0.0
  0
LINE
  5
5656
330
1F
100
AcDbEntity
  8
SPOJOVACÍ
  6
Continuous
100
AcDbLine
 10
8309.787390606016
 20
390.1178589707167
 30
0.0
 11
8309.409739230705
 21
390.4964405198231
 31
0.0
  0
LINE
  5
5657
330
1F
100
AcDbEntity
  8
SPOJOVACÍ
  6
Continuous
100
AcDbLine
 10
8306.671301689585
 20
389.4844092539467
 30
0.0
 11
8307.04895306053
 21
389.1058277051167
 31
0.0
  0
LINE
  5
5658
330
1F
100
AcDbEntity
  8
SPOJOVACÍ
  6
Continuous
100
AcDbLine
 10
8306.671301689585
 20
389.4844092539467
 30
0.0
 11
8307.04895306053
 21
389.702070389995
 31
0.0
  0
LINE
  5
5659
330
1F
100
AcDbEntity
  8
SPOJOVACÍ
  6
Continuous
100
AcDbLine
 10
8309.409739230705
 20
389.9001978346684
 30
0.0
 11
8307.04895306053
 21
389.1058277051167
 31
0.0
  0
LINE
  5
565A
330
1F
100
AcDbEntity
  8
SPOJOVACÍ
  6
Continuous
100
AcDbLine
 10
8309.409739230705
 20
390.4964405198231
 30
0.0
 11
8307.04895306053
 21
389.702070389995
 31
0.0
  0
LINE
  5
565B
330
1F
100
AcDbEntity
  8
SPOJOVACÍ
  6
Continuous
100
AcDbLine
 10
8309.787390606016
 20
390.1178589707167
 30
0.0
 11
8306.671301689585
 21
389.4844092539467
 31
0.0
  0
LINE
  5
565C
330
1F
100
AcDbEntity
  8
SPOJOVACÍ
  6
Continuous
100
AcDbLine
 10
8309.222773895545
 20
387.1040893923971
 30
0.0
 11
8308.8451225246
 21
386.8854980803778
 31
0.0
  0
LINE
  5
565D
330
1F
100
AcDbEntity
  8
SPOJOVACÍ
  6
Continuous
100
AcDbLine
 10
8309.222773895545
 20
387.1040893923971
 30
0.0
 11
8308.8451225246
 21
387.4817407655252
 31
0.0
  0
LINE
  5
565E
330
1F
100
AcDbEntity
  8
SPOJOVACÍ
  6
Continuous
100
AcDbLine
 10
8307.068486754088
 20
386.7934106766231
 30
0.0
 11
8307.446138125033
 21
386.4148291277931
 31
0.0
  0
LINE
  5
565F
330
1F
100
AcDbEntity
  8
SPOJOVACÍ
  6
Continuous
100
AcDbLine
 10
8307.068486754088
 20
386.7934106766231
 30
0.0
 11
8307.446138125033
 21
387.0110718129406
 31
0.0
  0
LINE
  5
5660
330
1F
100
AcDbEntity
  8
SPOJOVACÍ
  6
Continuous
100
AcDbLine
 10
8308.8451225246
 20
386.8854980803778
 30
0.0
 11
8307.446138125033
 21
386.4148291277931
 31
0.0
  0
LINE
  5
5661
330
1F
100
AcDbEntity
  8
SPOJOVACÍ
  6
Continuous
100
AcDbLine
 10
8308.8451225246
 20
387.4817407655252
 30
0.0
 11
8307.446138125033
 21
387.0110718129406
 31
0.0
  0
LINE
  5
5662
330
1F
100
AcDbEntity
  8
SPOJOVACÍ
  6
Continuous
100
AcDbLine
 10
8309.222773895545
 20
387.1040893923971
 30
0.0
 11
8307.068486754088
 21
386.7934106766231
 31
0.0
  0
LINE
  5
5663
330
1F
100
AcDbEntity
  8
SPOJOVACÍ
  6
Continuous
100
AcDbLine
 10
8305.806238200693
 20
395.009653480866
 30
0.0
 11
8306.18388957164
 21
394.6320021077379
 31
0.0
  0
LINE
  5
5664
330
1F
100
AcDbEntity
  8
SPOJOVACÍ
  6
Continuous
100
AcDbLine
 10
8305.806238200693
 20
395.009653480866
 30
0.0
 11
8306.18388957164
 21
395.2282447928926
 31
0.0
  0
LINE
  5
5665
330
1F
100
AcDbEntity
  8
SPOJOVACÍ
  6
Continuous
100
AcDbLine
 10
8310.228293931231
 20
395.99191912128
 30
0.0
 11
8306.18388957164
 21
394.6320021077379
 31
0.0
  0
LWPOLYLINE
  5
5666
330
1F
100
AcDbEntity
  8
izolace
100
AcDbPolyline
 90
        4
 70
     1
 43
0.0
 10
8293.000250643379
 20
419.4900200743911
 10
8288.000250643378
 20
419.4900200743911
 10
8288.000250643378
 20
407.4900200743911
 10
8293.000250643379
 20
407.4900200743911
  0
INSERT
  5
5667
330
1F
100
AcDbEntity
  8
POPIS
100
AcDbBlockReference
  2
E_PUNKT
 10
8290.853073821187
 20
419.460951743518
 30
0.0
  0
HATCH
  5
5668
330
1F
100
AcDbEntity
  8
izolace
100
AcDbHatch
 10
0.0
 20
0.0
 30
0.0
210
0.0
220
0.0
230
1.0
  2
AR-SAND
 70
     0
 71
     0
 91
        1
 92
        7
 72
     0
 73
     1
 93
        4
 10
8293.000250643379
 20
419.4900200743911
 10
8288.000250643378
 20
419.4900200743902
 10
8288.000250643378
 20
407.4900200743911
 10
8293.000250643379
 20
407.4900200743911
 97
        0
 75
     0
 76
     1
 52
90.0
 41
0.05
 77
     0
 78
     4
 53
127.5
 43
-15667.13019520546
 44
-1069.007257183235
 45
-2.447066186646711
 46
-0.0800015647992021
 79
     6
 49
0.0
 49
-1.9304
 49
0.0
 49
-2.159
 49
0.0
 49
-2.06375
 53
97.49999999999985
 43
-15667.13019520546
 44
-1069.007257183235
 45
-3.584125502841771
 46
2.247616415690013
 79
     6
 49
0.0
 49
-1.041399999999999
 49
0.0
 49
-1.7399
 49
0.0
 49
-0.66675
 53
57.5
 43
-15667.13019520546
 44
-1070.569357183235
 45
-0.0071859233927282
 46
3.95496185120729
 79
     6
 49
0.0
 49
-0.635
 49
0.0
 49
-2.286
 49
0.0
 49
-2.9845
 53
47.5
 43
-15667.13019520546
 44
-1070.569357183235
 45
-1.11464661628608
 46
3.817782262361486
 79
     6
 49
0.0
 49
-0.3175
 49
0.0
 49
-1.498599999999999
 49
0.0
 49
-1.7145
 47
0.2359071171925059
 98
        1
 10
8290.024402740572
 20
413.3234859736064
  0
LINE
  5
5669
330
1F
100
AcDbEntity
  8
SPOJOVACÍ
  6
Continuous
100
AcDbLine
 10
8277.894563421771
 20
419.4900200743911
 30
0.0
 11
8277.894563421771
 21
418.2900932976597
 31
0.0
  0
LINE
  5
566A
330
1F
100
AcDbEntity
  8
SPOJOVACÍ
  6
Continuous
100
AcDbLine
 10
8277.179258235603
 20
417.9533696597761
 30
0.0
 11
8277.894563421771
 21
418.2900932976597
 31
0.0
  0
LINE
  5
566B
330
1F
100
AcDbEntity
  8
SPOJOVACÍ
  6
Continuous
100
AcDbLine
 10
8275.942124426704
 20
417.0352861493345
 30
0.0
 11
8277.179258235603
 21
417.9533696597761
 31
0.0
  0
LINE
  5
566C
330
1F
100
AcDbEntity
  8
SPOJOVACÍ
  6
Continuous
100
AcDbLine
 10
8274.984043356718
 20
415.8279179664357
 30
0.0
 11
8275.942124426704
 21
417.0352861493345
 31
0.0
  0
LINE
  5
566D
330
1F
100
AcDbEntity
  8
SPOJOVACÍ
  6
Continuous
100
AcDbLine
 10
8274.37105750757
 20
414.4140507567324
 30
0.0
 11
8274.984043356718
 21
415.8279179664357
 31
0.0
  0
LINE
  5
566E
330
1F
100
AcDbEntity
  8
SPOJOVACÍ
  6
Continuous
100
AcDbLine
 10
8274.144094616687
 20
412.8904228033031
 30
0.0
 11
8274.37105750757
 21
414.4140507567324
 31
0.0
  0
LINE
  5
566F
330
1F
100
AcDbEntity
  8
SPOJOVACÍ
  6
Continuous
100
AcDbLine
 10
8274.144094616687
 20
412.8904228033031
 30
0.0
 11
8274.144094616687
 21
407.9474686243745
 31
0.0
  0
LINE
  5
5670
330
1F
100
AcDbEntity
  8
SPOJOVACÍ
  6
Continuous
100
AcDbLine
 10
8270.772207355523
 20
409.0683304582678
 30
0.0
 11
8274.816611715115
 21
407.7084134450021
 31
0.0
  0
LINE
  5
5671
330
1F
100
AcDbEntity
  8
SPOJOVACÍ
  6
Continuous
100
AcDbLine
 10
8275.194263086062
 20
407.4898221329756
 30
0.0
 11
8274.816611715115
 21
407.7084134450021
 31
0.0
  0
LINE
  5
5672
330
1F
100
AcDbEntity
  8
SPOJOVACÍ
  6
Continuous
100
AcDbLine
 10
8271.378681972029
 20
413.6773515264255
 30
0.0
 11
8271.444724453951
 21
412.8904228033031
 31
0.0
  0
LINE
  5
5673
330
1F
100
AcDbEntity
  8
SPOJOVACÍ
  6
Continuous
100
AcDbLine
 10
8270.95080110773
 20
415.1581913934758
 30
0.0
 11
8271.378681972029
 21
413.6773515264255
 31
0.0
  0
LINE
  5
5674
330
1F
100
AcDbEntity
  8
SPOJOVACÍ
  6
Continuous
100
AcDbLine
 10
8270.154570628411
 20
416.4771806717733
 30
0.0
 11
8270.95080110773
 21
415.1581913934758
 31
0.0
  0
LINE
  5
5675
330
1F
100
AcDbEntity
  8
SPOJOVACÍ
  6
Continuous
100
AcDbLine
 10
8269.043940728053
 20
417.5459526611855
 30
0.0
 11
8270.154570628411
 21
416.4771806717733
 31
0.0
  0
LINE
  5
5676
330
1F
100
AcDbEntity
  8
SPOJOVACÍ
  6
Continuous
100
AcDbLine
 10
8267.694255644503
 20
418.2900932976597
 30
0.0
 11
8269.043940728053
 21
417.5459526611855
 31
0.0
  0
LINE
  5
5677
330
1F
100
AcDbEntity
  8
SPOJOVACÍ
  6
Continuous
100
AcDbLine
 10
8267.694255644503
 20
419.4900200743911
 30
0.0
 11
8267.694255644503
 21
418.2900932976597
 31
0.0
  0
LINE
  5
5678
330
1F
100
AcDbEntity
  8
SPOJOVACÍ
  6
Continuous
100
AcDbLine
 10
8271.444724453951
 20
408.2572171644467
 30
0.0
 11
8271.444724453951
 21
405.7383011094177
 31
0.0
  0
LINE
  5
5679
330
1F
100
AcDbEntity
  8
SPOJOVACÍ
  6
Continuous
100
AcDbLine
 10
8270.772207355523
 20
408.4720877733896
 30
0.0
 11
8274.816611715115
 21
407.1121707598474
 31
0.0
  0
LINE
  5
567A
330
1F
100
AcDbEntity
  8
SPOJOVACÍ
  6
Continuous
100
AcDbLine
 10
8270.394555980212
 20
408.6897489094378
 30
0.0
 11
8270.772207355523
 21
408.4720877733896
 31
0.0
  0
LINE
  5
567B
330
1F
100
AcDbEntity
  8
SPOJOVACÍ
  6
Continuous
100
AcDbLine
 10
8270.394555980212
 20
408.6897489094378
 30
0.0
 11
8270.772207355523
 21
409.0683304582678
 31
0.0
  0
LINE
  5
567C
330
1F
100
AcDbEntity
  8
SPOJOVACÍ
  6
Continuous
100
AcDbLine
 10
8271.444724453951
 20
412.8904228033031
 30
0.0
 11
8271.444724453951
 21
408.8525296736231
 31
0.0
  0
INSERT
  5
567D
330
1F
100
AcDbEntity
  8
POPIS
100
AcDbBlockReference
  2
E_PUNKT
 10
8273.243073597027
 20
419.460951743518
 30
0.0
  0
LINE
  5
567E
330
1F
100
AcDbEntity
  8
CETRIS
100
AcDbLine
 10
8288.000250643378
 20
407.4900200743911
 30
0.0
 11
8288.000250643378
 21
419.4900200743911
 31
0.0
  0
LINE
  5
567F
330
1F
100
AcDbEntity
  8
SPOJOVACÍ
  6
Continuous
100
AcDbLine
 10
8270.772207355523
 20
405.9475906636041
 30
0.0
 11
8274.816611715115
 21
404.5886038257638
 31
0.0
  0
LINE
  5
5680
330
1F
100
AcDbEntity
  8
SPOJOVACÍ
  6
Continuous
100
AcDbLine
 10
8270.772207355523
 20
405.3513479784494
 30
0.0
 11
8274.816611715115
 21
403.9923611408855
 31
0.0
  0
LINE
  5
5681
330
1F
100
AcDbEntity
  8
SPOJOVACÍ
  6
Continuous
100
AcDbLine
 10
8270.394555980212
 20
405.569939290476
 30
0.0
 11
8275.194263086062
 21
404.3700125137372
 31
0.0
  0
LINE
  5
5682
330
1F
100
AcDbEntity
  8
SPOJOVACÍ
  6
Continuous
100
AcDbLine
 10
8274.144094616687
 20
407.3437845330597
 30
0.0
 11
8274.144094616687
 21
404.8248684780308
 31
0.0
  0
LINE
  5
5683
330
1F
100
AcDbEntity
  8
SPOJOVACÍ
  6
Continuous
100
AcDbLine
 10
8271.444724453951
 20
405.1346170181029
 30
0.0
 11
8271.444724453951
 21
402.6138406113939
 31
0.0
  0
LINE
  5
5684
330
1F
100
AcDbEntity
  8
SPOJOVACÍ
  6
Continuous
100
AcDbLine
 10
8270.394555980212
 20
396.2095802573283
 30
0.0
 11
8270.772207355523
 21
396.5881618064347
 31
0.0
  0
LINE
  5
5685
330
1F
100
AcDbEntity
  8
SPOJOVACÍ
  6
Continuous
100
AcDbLine
 10
8270.772207355523
 20
399.7079714253966
 30
0.0
 11
8274.816611715115
 21
398.3480544118545
 31
0.0
  0
LINE
  5
5686
330
1F
100
AcDbEntity
  8
SPOJOVACÍ
  6
Continuous
100
AcDbLine
 10
8270.772207355523
 20
399.1117287402492
 30
0.0
 11
8274.816611715115
 21
397.7518117269762
 31
0.0
  0
LINE
  5
5687
330
1F
100
AcDbEntity
  8
SPOJOVACÍ
  6
Continuous
100
AcDbLine
 10
8275.194263086062
 20
398.1303932758062
 30
0.0
 11
8274.816611715115
 21
398.3480544118545
 31
0.0
  0
LINE
  5
5688
330
1F
100
AcDbEntity
  8
SPOJOVACÍ
  6
Continuous
100
AcDbLine
 10
8275.194263086062
 20
398.1303932758062
 30
0.0
 11
8274.816611715115
 21
397.7518117269762
 31
0.0
  0
LINE
  5
5689
330
1F
100
AcDbEntity
  8
SPOJOVACÍ
  6
Continuous
100
AcDbLine
 10
8270.394555980212
 20
399.3303200522684
 30
0.0
 11
8270.772207355523
 21
399.7079714253966
 31
0.0
  0
LINE
  5
568A
330
1F
100
AcDbEntity
  8
SPOJOVACÍ
  6
Continuous
100
AcDbLine
 10
8270.394555980212
 20
399.3303200522684
 30
0.0
 11
8270.772207355523
 21
399.1117287402492
 31
0.0
  0
LINE
  5
568B
330
1F
100
AcDbEntity
  8
SPOJOVACÍ
  6
Continuous
100
AcDbLine
 10
8270.394555980212
 20
399.3303200522684
 30
0.0
 11
8275.194263086062
 21
398.1303932758062
 31
0.0
  0
LINE
  5
568C
330
1F
100
AcDbEntity
  8
SPOJOVACÍ
  6
Continuous
100
AcDbLine
 10
8270.772207355523
 20
402.8277810443658
 30
0.0
 11
8274.816611715115
 21
401.4678640310928
 31
0.0
  0
LINE
  5
568D
330
1F
100
AcDbEntity
  8
SPOJOVACÍ
  6
Continuous
100
AcDbLine
 10
8270.772207355523
 20
402.231538359211
 30
0.0
 11
8274.816611715115
 21
400.8716213459454
 31
0.0
  0
LINE
  5
568E
330
1F
100
AcDbEntity
  8
SPOJOVACÍ
  6
Continuous
100
AcDbLine
 10
8275.194263086062
 20
401.2502028947753
 30
0.0
 11
8274.816611715115
 21
401.4678640310928
 31
0.0
  0
LINE
  5
568F
330
1F
100
AcDbEntity
  8
SPOJOVACÍ
  6
Continuous
100
AcDbLine
 10
8275.194263086062
 20
401.2502028947753
 30
0.0
 11
8274.816611715115
 21
400.8716213459454
 31
0.0
  0
LINE
  5
5690
330
1F
100
AcDbEntity
  8
SPOJOVACÍ
  6
Continuous
100
AcDbLine
 10
8270.394555980212
 20
402.4501296712376
 30
0.0
 11
8270.772207355523
 21
402.8277810443658
 31
0.0
  0
LINE
  5
5691
330
1F
100
AcDbEntity
  8
SPOJOVACÍ
  6
Continuous
100
AcDbLine
 10
8270.394555980212
 20
402.4501296712376
 30
0.0
 11
8270.772207355523
 21
402.231538359211
 31
0.0
  0
LINE
  5
5692
330
1F
100
AcDbEntity
  8
SPOJOVACÍ
  6
Continuous
100
AcDbLine
 10
8270.394555980212
 20
402.4501296712376
 30
0.0
 11
8275.194263086062
 21
401.2502028947753
 31
0.0
  0
LINE
  5
5693
330
1F
100
AcDbEntity
  8
SPOJOVACÍ
  6
Continuous
100
AcDbLine
 10
8275.194263086062
 20
404.3700125137372
 30
0.0
 11
8274.816611715115
 21
404.5886038257638
 31
0.0
  0
LINE
  5
5694
330
1F
100
AcDbEntity
  8
SPOJOVACÍ
  6
Continuous
100
AcDbLine
 10
8275.194263086062
 20
404.3700125137372
 30
0.0
 11
8274.816611715115
 21
403.9923611408855
 31
0.0
  0
LINE
  5
5695
330
1F
100
AcDbEntity
  8
SPOJOVACÍ
  6
Continuous
100
AcDbLine
 10
8271.444724453951
 20
398.8866261977643
 30
0.0
 11
8271.444724453951
 21
396.3686403184372
 31
0.0
  0
LINE
  5
5696
330
1F
100
AcDbEntity
  8
SPOJOVACÍ
  6
Continuous
100
AcDbLine
 10
8274.144094616687
 20
401.1060256465323
 30
0.0
 11
8274.144094616687
 21
398.5852492398232
 31
0.0
  0
LINE
  5
5697
330
1F
100
AcDbEntity
  8
SPOJOVACÍ
  6
Continuous
100
AcDbLine
 10
8274.144094616687
 20
404.228625792876
 30
0.0
 11
8274.144094616687
 21
401.7004079800069
 31
0.0
  0
LINE
  5
5698
330
1F
100
AcDbEntity
  8
SPOJOVACÍ
  6
Continuous
100
AcDbLine
 10
8271.444724453951
 20
402.0194582779192
 30
0.0
 11
8271.444724453951
 21
399.4912404650501
 31
0.0
  0
LINE
  5
5699
330
1F
100
AcDbEntity
  8
SPOJOVACÍ
  6
Continuous
100
AcDbLine
 10
8270.394555980212
 20
405.569939290476
 30
0.0
 11
8270.772207355523
 21
405.9475906636041
 31
0.0
  0
LINE
  5
569A
330
1F
100
AcDbEntity
  8
SPOJOVACÍ
  6
Continuous
100
AcDbLine
 10
8270.394555980212
 20
405.569939290476
 30
0.0
 11
8270.772207355523
 21
405.3513479784494
 31
0.0
  0
LINE
  5
569B
330
1F
100
AcDbEntity
  8
SPOJOVACÍ
  6
Continuous
100
AcDbLine
 10
8275.194263086062
 20
407.4898221329756
 30
0.0
 11
8274.816611715115
 21
407.1121707598474
 31
0.0
  0
LINE
  5
569C
330
1F
100
AcDbEntity
  8
SPOJOVACÍ
  6
Continuous
100
AcDbLine
 10
8270.394555980212
 20
408.6897489094378
 30
0.0
 11
8275.194263086062
 21
407.4898221329756
 31
0.0
  0
LINE
  5
569D
330
1F
100
AcDbEntity
  8
SPOJOVACÍ
  6
Continuous
100
AcDbLine
 10
8267.694255644503
 20
418.2900932976597
 30
0.0
 11
8277.894563421771
 21
418.2900932976597
 31
0.0
  0
LINE
  5
569E
330
1F
100
AcDbEntity
  8
SPOJOVACÍ
  6
Continuous
100
AcDbLine
 10
8267.694255644503
 20
419.4900200743911
 30
0.0
 11
8277.894563421771
 21
419.4900200743911
 31
0.0
  0
LINE
  5
569F
330
1F
100
AcDbEntity
  8
SPOJOVACÍ
  6
Continuous
100
AcDbLine
 10
8306.629443779184
 20
414.4140507567324
 30
0.0
 11
8306.016457930036
 21
415.8279179664357
 31
0.0
  0
LINE
  5
56A0
330
1F
100
AcDbEntity
  8
SPOJOVACÍ
  6
Continuous
100
AcDbLine
 10
8306.016457930036
 20
415.8279179664357
 30
0.0
 11
8305.058376860051
 21
417.0352861493345
 31
0.0
  0
LINE
  5
56A1
330
1F
100
AcDbEntity
  8
SPOJOVACÍ
  6
Continuous
100
AcDbLine
 10
8305.058376860051
 20
417.0352861493345
 30
0.0
 11
8303.821243051151
 21
417.9533696597761
 31
0.0
  0
LINE
  5
56A2
330
1F
100
AcDbEntity
  8
SPOJOVACÍ
  6
Continuous
100
AcDbLine
 10
8303.821243051151
 20
417.9533696597761
 30
0.0
 11
8303.105937864984
 21
418.2900932976597
 31
0.0
  0
LINE
  5
56A3
330
1F
100
AcDbEntity
  8
SPOJOVACÍ
  6
Continuous
100
AcDbLine
 10
8303.105937864984
 20
419.4900200743911
 30
0.0
 11
8303.105937864984
 21
418.2900932976597
 31
0.0
  0
LINE
  5
56A4
330
1F
100
AcDbEntity
  8
SPOJOVACÍ
  6
Continuous
100
AcDbLine
 10
8305.806238200693
 20
407.4898221329756
 30
0.0
 11
8306.18388957164
 21
407.7084134450021
 31
0.0
  0
LINE
  5
56A5
330
1F
100
AcDbEntity
  8
SPOJOVACÍ
  6
Continuous
100
AcDbLine
 10
8310.228293931231
 20
409.0683304582678
 30
0.0
 11
8306.18388957164
 21
407.7084134450021
 31
0.0
  0
LINE
  5
56A6
330
1F
100
AcDbEntity
  8
SPOJOVACÍ
  6
Continuous
100
AcDbLine
 10
8306.856406670068
 20
412.8904228033031
 30
0.0
 11
8306.856406670068
 21
407.9474686243745
 31
0.0
  0
LINE
  5
56A7
330
1F
100
AcDbEntity
  8
SPOJOVACÍ
  6
Continuous
100
AcDbLine
 10
8306.856406670068
 20
412.8904228033031
 30
0.0
 11
8306.629443779184
 21
414.4140507567324
 31
0.0
  0
LINE
  5
56A8
330
1F
100
AcDbEntity
  8
SPOJOVACÍ
  6
Continuous
100
AcDbLine
 10
8313.306245642252
 20
419.4900200743911
 30
0.0
 11
8313.306245642252
 21
418.2900932976597
 31
0.0
  0
LINE
  5
56A9
330
1F
100
AcDbEntity
  8
SPOJOVACÍ
  6
Continuous
100
AcDbLine
 10
8313.306245642252
 20
418.2900932976597
 30
0.0
 11
8311.956560558702
 21
417.5459526611855
 31
0.0
  0
LINE
  5
56AA
330
1F
100
AcDbEntity
  8
SPOJOVACÍ
  6
Continuous
100
AcDbLine
 10
8311.956560558702
 20
417.5459526611855
 30
0.0
 11
8310.845930658343
 21
416.4771806717733
 31
0.0
  0
LINE
  5
56AB
330
1F
100
AcDbEntity
  8
SPOJOVACÍ
  6
Continuous
100
AcDbLine
 10
8310.845930658343
 20
416.4771806717733
 30
0.0
 11
8310.049700179025
 21
415.1581913934758
 31
0.0
  0
LINE
  5
56AC
330
1F
100
AcDbEntity
  8
SPOJOVACÍ
  6
Continuous
100
AcDbLine
 10
8310.049700179025
 20
415.1581913934758
 30
0.0
 11
8309.621819314726
 21
413.6773515264255
 31
0.0
  0
LINE
  5
56AD
330
1F
100
AcDbEntity
  8
SPOJOVACÍ
  6
Continuous
100
AcDbLine
 10
8309.621819314726
 20
413.6773515264255
 30
0.0
 11
8309.555776832803
 21
412.8904228033031
 31
0.0
  0
LINE
  5
56AE
330
1F
100
AcDbEntity
  8
SPOJOVACÍ
  6
Continuous
100
AcDbLine
 10
8309.555776832803
 20
412.8904228033031
 30
0.0
 11
8309.555776832803
 21
408.8525296736231
 31
0.0
  0
LINE
  5
56AF
330
1F
100
AcDbEntity
  8
SPOJOVACÍ
  6
Continuous
100
AcDbLine
 10
8310.605945306543
 20
408.6897489094378
 30
0.0
 11
8310.228293931231
 21
409.0683304582678
 31
0.0
  0
LINE
  5
56B0
330
1F
100
AcDbEntity
  8
SPOJOVACÍ
  6
Continuous
100
AcDbLine
 10
8310.605945306543
 20
408.6897489094378
 30
0.0
 11
8310.228293931231
 21
408.4720877733896
 31
0.0
  0
LINE
  5
56B1
330
1F
100
AcDbEntity
  8
SPOJOVACÍ
  6
Continuous
100
AcDbLine
 10
8310.228293931231
 20
408.4720877733896
 30
0.0
 11
8306.18388957164
 21
407.1121707598474
 31
0.0
  0
LINE
  5
56B2
330
1F
100
AcDbEntity
  8
SPOJOVACÍ
  6
Continuous
100
AcDbLine
 10
8309.555776832803
 20
408.2572171644467
 30
0.0
 11
8309.555776832803
 21
405.7383011094177
 31
0.0
  0
INSERT
  5
56B3
330
1F
100
AcDbEntity
  8
POPIS
100
AcDbBlockReference
  2
E_PUNKT
 10
8300.661047969844
 20
404.2701622404836
 30
0.0
  0
LINE
  5
56B4
330
1F
100
AcDbEntity
  8
CETRIS
100
AcDbLine
 10
8293.000250643379
 20
407.4900200743911
 30
0.0
 11
8293.000250643379
 21
419.4900200743911
 31
0.0
  0
LINE
  5
56B5
330
1F
100
AcDbEntity
  8
SPOJOVACÍ
  6
Continuous
100
AcDbLine
 10
8309.555776832803
 20
405.1346170181029
 30
0.0
 11
8309.555776832803
 21
402.6138406113939
 31
0.0
  0
LINE
  5
56B6
330
1F
100
AcDbEntity
  8
SPOJOVACÍ
  6
Continuous
100
AcDbLine
 10
8306.856406670068
 20
407.3437845330597
 30
0.0
 11
8306.856406670068
 21
404.8248684780308
 31
0.0
  0
LINE
  5
56B7
330
1F
100
AcDbEntity
  8
SPOJOVACÍ
  6
Continuous
100
AcDbLine
 10
8310.605945306543
 20
405.569939290476
 30
0.0
 11
8305.806238200693
 21
404.3700125137372
 31
0.0
  0
LINE
  5
56B8
330
1F
100
AcDbEntity
  8
SPOJOVACÍ
  6
Continuous
100
AcDbLine
 10
8310.228293931231
 20
405.3513479784494
 30
0.0
 11
8306.18388957164
 21
403.9923611408855
 31
0.0
  0
LINE
  5
56B9
330
1F
100
AcDbEntity
  8
SPOJOVACÍ
  6
Continuous
100
AcDbLine
 10
8310.228293931231
 20
405.9475906636041
 30
0.0
 11
8306.18388957164
 21
404.5886038257638
 31
0.0
  0
LINE
  5
56BA
330
1F
100
AcDbEntity
  8
NOSNÉ KONSTRUKCE
100
AcDbLine
 10
8313.080034746233
 20
401.3994587190188
 30
0.0
 11
8314.580034746233
 21
401.3994587190188
 31
0.0
  0
LINE
  5
56BB
330
1F
100
AcDbEntity
  8
SPOJOVACÍ
  6
Continuous
100
AcDbLine
 10
8309.555776832803
 20
402.0194582779192
 30
0.0
 11
8309.555776832803
 21
399.4912404650501
 31
0.0
  0
LINE
  5
56BC
330
1F
100
AcDbEntity
  8
SPOJOVACÍ
  6
Continuous
100
AcDbLine
 10
8306.856406670068
 20
404.228625792876
 30
0.0
 11
8306.856406670068
 21
401.7004079800069
 31
0.0
  0
LINE
  5
56BD
330
1F
100
AcDbEntity
  8
SPOJOVACÍ
  6
Continuous
100
AcDbLine
 10
8306.856406670068
 20
401.1060256465323
 30
0.0
 11
8306.856406670068
 21
398.5852492398232
 31
0.0
  0
LINE
  5
56BE
330
1F
100
AcDbEntity
  8
SPOJOVACÍ
  6
Continuous
100
AcDbLine
 10
8309.555776832803
 20
398.8866261977643
 30
0.0
 11
8309.555776832803
 21
396.3686403184372
 31
0.0
  0
LINE
  5
56BF
330
1F
100
AcDbEntity
  8
SPOJOVACÍ
  6
Continuous
100
AcDbLine
 10
8305.806238200693
 20
404.3700125137372
 30
0.0
 11
8306.18388957164
 21
403.9923611408855
 31
0.0
  0
LINE
  5
56C0
330
1F
100
AcDbEntity
  8
SPOJOVACÍ
  6
Continuous
100
AcDbLine
 10
8305.806238200693
 20
404.3700125137372
 30
0.0
 11
8306.18388957164
 21
404.5886038257638
 31
0.0
  0
LINE
  5
56C1
330
1F
100
AcDbEntity
  8
SPOJOVACÍ
  6
Continuous
100
AcDbLine
 10
8310.605945306543
 20
402.4501296712376
 30
0.0
 11
8305.806238200693
 21
401.2502028947753
 31
0.0
  0
LINE
  5
56C2
330
1F
100
AcDbEntity
  8
SPOJOVACÍ
  6
Continuous
100
AcDbLine
 10
8310.605945306543
 20
402.4501296712376
 30
0.0
 11
8310.228293931231
 21
402.231538359211
 31
0.0
  0
LINE
  5
56C3
330
1F
100
AcDbEntity
  8
SPOJOVACÍ
  6
Continuous
100
AcDbLine
 10
8310.605945306543
 20
402.4501296712376
 30
0.0
 11
8310.228293931231
 21
402.8277810443658
 31
0.0
  0
LINE
  5
56C4
330
1F
100
AcDbEntity
  8
SPOJOVACÍ
  6
Continuous
100
AcDbLine
 10
8305.806238200693
 20
401.2502028947753
 30
0.0
 11
8306.18388957164
 21
400.8716213459454
 31
0.0
  0
LINE
  5
56C5
330
1F
100
AcDbEntity
  8
SPOJOVACÍ
  6
Continuous
100
AcDbLine
 10
8305.806238200693
 20
401.2502028947753
 30
0.0
 11
8306.18388957164
 21
401.4678640310928
 31
0.0
  0
LINE
  5
56C6
330
1F
100
AcDbEntity
  8
SPOJOVACÍ
  6
Continuous
100
AcDbLine
 10
8310.228293931231
 20
402.231538359211
 30
0.0
 11
8306.18388957164
 21
400.8716213459454
 31
0.0
  0
LINE
  5
56C7
330
1F
100
AcDbEntity
  8
SPOJOVACÍ
  6
Continuous
100
AcDbLine
 10
8310.228293931231
 20
402.8277810443658
 30
0.0
 11
8306.18388957164
 21
401.4678640310928
 31
0.0
  0
LINE
  5
56C8
330
1F
100
AcDbEntity
  8
SPOJOVACÍ
  6
Continuous
100
AcDbLine
 10
8310.605945306543
 20
399.3303200522684
 30
0.0
 11
8305.806238200693
 21
398.1303932758062
 31
0.0
  0
LINE
  5
56C9
330
1F
100
AcDbEntity
  8
SPOJOVACÍ
  6
Continuous
100
AcDbLine
 10
8310.605945306543
 20
399.3303200522684
 30
0.0
 11
8310.228293931231
 21
399.1117287402492
 31
0.0
  0
LINE
  5
56CA
330
1F
100
AcDbEntity
  8
SPOJOVACÍ
  6
Continuous
100
AcDbLine
 10
8310.605945306543
 20
399.3303200522684
 30
0.0
 11
8310.228293931231
 21
399.7079714253966
 31
0.0
  0
LINE
  5
56CB
330
1F
100
AcDbEntity
  8
SPOJOVACÍ
  6
Continuous
100
AcDbLine
 10
8305.806238200693
 20
398.1303932758062
 30
0.0
 11
8306.18388957164
 21
397.7518117269762
 31
0.0
  0
LINE
  5
56CC
330
1F
100
AcDbEntity
  8
SPOJOVACÍ
  6
Continuous
100
AcDbLine
 10
8305.806238200693
 20
398.1303932758062
 30
0.0
 11
8306.18388957164
 21
398.3480544118545
 31
0.0
  0
LINE
  5
56CD
330
1F
100
AcDbEntity
  8
SPOJOVACÍ
  6
Continuous
100
AcDbLine
 10
8310.228293931231
 20
399.1117287402492
 30
0.0
 11
8306.18388957164
 21
397.7518117269762
 31
0.0
  0
LINE
  5
56CE
330
1F
100
AcDbEntity
  8
SPOJOVACÍ
  6
Continuous
100
AcDbLine
 10
8310.228293931231
 20
399.7079714253966
 30
0.0
 11
8306.18388957164
 21
398.3480544118545
 31
0.0
  0
LINE
  5
56CF
330
1F
100
AcDbEntity
  8
SPOJOVACÍ
  6
Continuous
100
AcDbLine
 10
8310.605945306543
 20
396.2095802573283
 30
0.0
 11
8310.228293931231
 21
396.5881618064347
 31
0.0
  0
LINE
  5
56D0
330
1F
100
AcDbEntity
  8
SPOJOVACÍ
  6
Continuous
100
AcDbLine
 10
8313.306245642252
 20
419.4900200743911
 30
0.0
 11
8303.105937864984
 21
419.4900200743911
 31
0.0
  0
LINE
  5
56D1
330
1F
100
AcDbEntity
  8
SPOJOVACÍ
  6
Continuous
100
AcDbLine
 10
8313.306245642252
 20
418.2900932976597
 30
0.0
 11
8303.105937864984
 21
418.2900932976597
 31
0.0
  0
LINE
  5
56D2
330
1F
100
AcDbEntity
  8
SPOJOVACÍ
  6
Continuous
100
AcDbLine
 10
8310.605945306543
 20
408.6897489094378
 30
0.0
 11
8305.806238200693
 21
407.4898221329756
 31
0.0
  0
LINE
  5
56D3
330
1F
100
AcDbEntity
  8
SPOJOVACÍ
  6
Continuous
100
AcDbLine
 10
8305.806238200693
 20
407.4898221329756
 30
0.0
 11
8306.18388957164
 21
407.1121707598474
 31
0.0
  0
LINE
  5
56D4
330
1F
100
AcDbEntity
  8
SPOJOVACÍ
  6
Continuous
100
AcDbLine
 10
8310.605945306543
 20
405.569939290476
 30
0.0
 11
8310.228293931231
 21
405.3513479784494
 31
0.0
  0
LINE
  5
56D5
330
1F
100
AcDbEntity
  8
SPOJOVACÍ
  6
Continuous
100
AcDbLine
 10
8310.605945306543
 20
405.569939290476
 30
0.0
 11
8310.228293931231
 21
405.9475906636041
 31
0.0
  0
LINE
  5
56D6
330
1F
100
AcDbEntity
  8
POPIS
100
AcDbLine
 10
8193.212486327523
 20
419.4900200743939
 30
0.0
 11
8193.212486327523
 21
479.1506834081299
 31
0.0
  0
TEXT
  5
56D7
330
1F
100
AcDbEntity
  8
POPIS
100
AcDbText
 10
8175.556038839074
 20
483.8517465446536
 30
0.0
 40
25.0
  1
01
 41
0.85
  7
SIMPLEX7
100
AcDbText
  0
INSERT
  5
56D8
330
1F
100
AcDbEntity
  8
POPIS
100
AcDbBlockReference
  2
E_PUNKT
 10
8193.089753828783
 20
419.460951743518
 30
0.0
  0
INSERT
  5
56D9
330
1F
100
AcDbEntity
  8
POPIS
100
AcDbBlockReference
  2
E_PUNKT
 10
8479.438940465385
 20
394.5511594096103
 30
0.0
  0
LINE
  5
56DA
330
1F
100
AcDbEntity
  8
POPIS
100
AcDbLine
 10
8479.46655084101
 20
394.0618994172689
 30
0.0
 11
8479.46655084101
 21
479.1506834081262
 31
0.0
  0
LINE
  5
56DB
330
1F
100
AcDbEntity
  8
POPIS
100
AcDbLine
 10
8435.197157748476
 20
382.0150146626344
 30
0.0
 11
8435.197157748476
 21
479.1506834081262
 31
0.0
  0
INSERT
  5
56DC
330
1F
100
AcDbEntity
  8
POPIS
100
AcDbBlockReference
  2
E_PUNKT
 10
8435.169547372851
 20
381.9859463317614
 30
0.0
  0
TEXT
  5
56DD
330
1F
100
AcDbEntity
  8
POPIS
100
AcDbText
 10
8417.540710260025
 20
483.85174654465
 30
0.0
 40
25.0
  1
03
 41
0.85
  7
SIMPLEX7
100
AcDbText
  0
TEXT
  5
56DE
330
1F
100
AcDbEntity
  8
POPIS
100
AcDbText
 10
8463.036571387899
 20
483.85174654465
 30
0.0
 40
25.0
  1
05
 41
0.85
  7
SIMPLEX7
100
AcDbText
  0
LINE
  5
56F2
330
1F
100
AcDbEntity
  8
izolace
100
AcDbLine
 10
8673.653895160988
 20
319.2577657896413
 30
0.0
 11
8668.653895160989
 21
319.2577657896413
 31
0.0
  0
HATCH
  5
56F9
330
1F
100
AcDbEntity
  8
izolace
100
AcDbHatch
 10
0.0
 20
0.0
 30
0.0
210
0.0
220
0.0
230
1.0
  2
AR-SAND
 70
     0
 71
     0
 91
        1
 92
        7
 72
     0
 73
     1
 93
        4
 10
8597.421640876239
 20
424.7080650555776
 10
8585.421640876239
 20
424.7080650555813
 10
8585.421640876239
 20
419.4900200743918
 10
8597.421640876239
 20
419.4900200743918
 97
        0
 75
     0
 76
     1
 52
90.0
 41
0.05
 77
     0
 78
     4
 53
127.5
 43
2864.672500845434
 44
4.946143396813567
 45
-2.447066186646711
 46
-0.0800015647992021
 79
     6
 49
0.0
 49
-1.9304
 49
0.0
 49
-2.159
 49
0.0
 49
-2.06375
 53
97.49999999999994
 43
2864.672500845434
 44
4.946143396813567
 45
-3.584125502841771
 46
2.247616415690013
 79
     6
 49
0.0
 49
-1.0414
 49
0.0
 49
-1.7399
 49
0.0
 49
-0.6667500000000001
 53
57.5
 43
2864.672500845434
 44
3.384043396813567
 45
-0.0071859233927282
 46
3.95496185120729
 79
     6
 49
0.0
 49
-0.635
 49
0.0
 49
-2.286
 49
0.0
 49
-2.9845
 53
47.5
 43
2864.672500845434
 44
3.384043396813567
 45
-1.11464661628608
 46
3.817782262361486
 79
     6
 49
0.0
 49
-0.3175
 49
0.0
 49
-1.498599999999999
 49
0.0
 49
-1.7145
 47
0.1988116389723839
 98
        1
 10
8592.074871604603
 20
422.9443622285707
  0
LINE
  5
56FA
330
1F
100
AcDbEntity
  8
POPIS
100
AcDbLine
 10
8669.556952088946
 20
421.7166376972981
 30
0.0
 11
8743.006729315323
 21
421.7166376972981
 31
0.0
  0
LINE
  5
56FC
330
1F
100
AcDbEntity
  8
POPIS
100
AcDbLine
 10
8635.970072462622
 20
399.0587530679257
 30
0.0
 11
8743.006729315323
 21
399.0587530679257
 31
0.0
  0
TEXT
  5
56FE
330
1F
100
AcDbEntity
  8
POPIS
100
AcDbText
 10
8747.717272031897
 20
415.0283992490883
 30
0.0
 40
25.0
  1
07
 41
0.85
  7
SIMPLEX7
100
AcDbText
  0
TEXT
  5
56FF
330
1F
100
AcDbEntity
  8
POPIS
100
AcDbText
 10
8747.207084338477
 20
385.2332854657404
 30
0.0
 40
25.0
  1
08
 41
0.85
  7
SIMPLEX7
100
AcDbText
  0
HATCH
  5
5757
330
1F
100
AcDbEntity
  8
CETRIS
100
AcDbHatch
 10
0.0
 20
0.0
 30
0.0
210
0.0
220
0.0
230
1.0
  2
ANSI31
 70
     0
 71
     0
 91
        5
 92
        7
 72
     0
 73
     1
 93
       12
 10
8597.421640876239
 20
769.155417928352
 10
8585.421640876239
 20
765.5009845495218
 10
8585.421640876239
 20
447.7616507902107
 10
8586.62156765297
 20
447.7616507902107
 10
8586.958291290857
 20
447.0463456040378
 10
8587.876374801297
 20
445.8092117951416
 10
8589.083742984197
 20
444.8511307251581
 10
8590.497610193899
 20
444.2381448760113
 10
8592.021238147326
 20
444.0111819851277
 10
8596.977115951373
 20
444.0111819851276
 10
8597.203247505625
 20
444.6836990835559
 10
8597.421640876239
 20
445.0610084791216
 97
        0
 92
        7
 72
     0
 73
     1
 93
       15
 10
8597.421640876239
 20
441.3118118223914
 10
8596.665704731538
 20
441.3118118223914
 10
8596.439573177242
 20
440.639294723965
 10
8596.221912041192
 20
440.2616433486516
 10
8595.843330492362
 20
440.6392947239629
 10
8596.069462046617
 20
441.3118118223914
 10
8592.021238147324
 20
441.3118118223914
 10
8591.234309424207
 20
441.24576934047
 10
8589.753469557157
 20
440.8178884761708
 10
8588.434480278854
 20
440.0216579968523
 10
8587.365708289443
 20
438.9110280964938
 10
8586.62156765297
 20
437.5613430129428
 10
8585.421640876237
 20
437.5613430129428
 10
8585.421640876239
 20
424.7080650555813
 10
8597.421640876238
 20
424.7080650555775
 97
        0
 92
        7
 72
     0
 73
     1
 93
       12
 10
8668.653895160989
 20
331.2577657896413
 10
8655.847565628292
 20
331.2577657896413
 10
8655.470256232726
 20
331.0393724190307
 10
8654.7977391343
 20
330.8132408647777
 10
8654.7977391343
 20
325.8573630607331
 10
8655.024702025185
 20
324.3337351073005
 10
8655.63768787433
 20
322.9198678975931
 10
8656.595768944313
 20
321.7124997146985
 10
8657.832902753213
 20
320.7944162042582
 10
8658.548207939384
 20
320.4576925663738
 10
8658.548207939382
 20
319.2577657896413
 10
8668.653895160991
 20
319.2577657896413
 97
        0
 92
        7
 72
     0
 73
     1
 93
       24
 10
8652.03232648964
 20
325.0704343376042
 10
8652.098368971563
 20
325.8573630607383
 10
8652.098368971563
 20
329.9055869600189
 10
8651.425851873135
 20
329.6794554057655
 10
8651.048200497823
 20
330.0580369545958
 10
8651.425851873131
 20
330.2756980906435
 10
8652.098368971564
 20
330.5018296449442
 10
8652.098368971564
 20
331.2577657896413
 10
8298.07525462859
 20
331.2577657896413
 10
8297.697945233027
 20
331.0393724190319
 10
8297.025428134595
 20
330.8132408647779
 10
8297.025428134595
 20
325.8573630607321
 10
8297.252391025482
 20
324.3337351073003
 10
8297.865376874629
 20
322.9198678975977
 10
8298.823457944612
 20
321.7124997146978
 10
8300.060591753512
 20
320.7944162042585
 10
8300.775896939681
 20
320.4576925663739
 10
8300.775896939681
 20
319.2577657896413
 10
8558.301262998034
 20
319.2577657896413
 10
8648.347900162114
 20
319.2577657896413
 10
8648.347900162114
 20
320.4576925663736
 10
8649.697585245666
 20
321.2018332028482
 10
8650.808215146023
 20
322.270605192259
 10
8651.604445625341
 20
323.5895944705564
 97
        0
 92
        7
 72
     0
 73
     1
 93
       15
 10
8294.32605797186
 20
329.9055869600188
 10
8293.653540873432
 20
329.6794554057656
 10
8293.275889498124
 20
330.0580369545956
 10
8293.653540873432
 20
330.2756980906439
 10
8294.326057971863
 20
330.501829644944
 10
8294.326057971863
 20
331.2577657896413
 10
8139.080464218181
 20
331.2577657896413
 10
8136.870302939881
 20
319.2577657896413
 10
8290.575589162413
 20
319.2577657896413
 10
8290.575589162413
 20
320.4576925663735
 10
8291.925274245963
 20
321.201833202848
 10
8293.035904146321
 20
322.270605192261
 10
8293.83213462564
 20
323.5895944705577
 10
8294.260015489941
 20
325.0704343376056
 10
8294.326057971863
 20
325.8573630607364
 97
        0
 75
     0
 76
     1
 52
0.0
 41
2.5
 77
     0
 78
     1
 53
45.0
 43
2864.672500845434
 44
4.946143396813567
 45
-5.61266007566822
 46
5.612660075668221
 79
     0
 47
0.8929084291614799
 98
        5
 10
8588.434593835231
 20
551.2956336064307
 10
8592.008872603845
 20
437.0033546737613
 10
8663.494507274423
 20
328.0685210044139
 10
8613.454560040104
 20
323.603984701418
 10
8254.239254715194
 20
326.2827030837616
  0
HATCH
  5
581A
330
1F
100
AcDbEntity
  8
CETRIS
100
AcDbHatch
 10
0.0
 20
0.0
 30
0.0
210
0.0
220
0.0
230
1.0
  2
ANSI31
 70
     0
 71
     0
 91
       14
 92
        7
 72
     0
 73
     1
 93
       12
 10
8685.653895160989
 20
796.025325857321
 10
8673.653895160988
 20
792.3708924784907
 10
8673.653895160988
 20
445.0610084791207
 10
8673.872288531601
 20
444.6836990835571
 10
8674.098420085854
 20
444.0111819851276
 10
8679.054297889901
 20
444.0111819851276
 10
8680.57792584333
 20
444.238144876011
 10
8681.991793053033
 20
444.8511307251585
 10
8683.199161235933
 20
445.8092117951423
 10
8684.117244746376
 20
447.0463456040449
 10
8684.453968384259
 20
447.7616507902107
 10
8685.65389516099
 20
447.7616507902108
 97
        0
 92
        7
 72
     0
 73
     1
 93
       15
 10
8685.653895160989
 20
437.5613430129428
 10
8684.453968384259
 20
437.5613430129428
 10
8683.709827747785
 20
438.911028096493
 10
8682.641055758372
 20
440.0216579968505
 10
8681.322066480072
 20
440.8178884761708
 10
8679.841226613026
 20
441.2457693404698
 10
8679.0542978899
 20
441.3118118223914
 10
8675.006073990612
 20
441.3118118223915
 10
8675.232205544864
 20
440.6392947239636
 10
8674.853623996035
 20
440.2616433486516
 10
8674.635962859989
 20
440.6392947239631
 10
8674.409831305689
 20
441.3118118223914
 10
8673.653895160988
 20
441.3118118223915
 10
8673.653895160988
 20
421.7166376972981
 10
8685.653895160989
 20
421.7166376972981
 97
        0
 92
        7
 72
     0
 73
     1
 93
        4
 10
8685.653895160989
 20
421.7166376972981
 10
8673.653895160986
 20
421.7166376972981
 10
8673.653895160988
 20
399.0587530679258
 10
8685.653895160989
 20
399.0587530679258
 97
        0
 92
        7
 72
     0
 73
     1
 93
       12
 10
8685.653895160989
 20
399.0587530679257
 10
8673.653895160986
 20
399.0587530679257
 10
8673.653895160986
 20
364.4664184869189
 10
8673.872288531597
 20
364.0891090913537
 10
8674.098420085851
 20
363.4165919929241
 10
8679.054297889901
 20
363.4165919929241
 10
8680.577925843332
 20
363.6435548838075
 10
8681.991793053034
 20
364.2565407329547
 10
8683.199161235934
 20
365.2146218029404
 10
8684.117244746373
 20
366.4517556118348
 10
8684.453968384259
 20
367.1670607980073
 10
8685.65389516099
 20
367.1670607980073
 97
        0
 92
        7
 72
     0
 73
     1
 93
       15
 10
8685.653895160987
 20
356.9667530207393
 10
8684.453968384259
 20
356.9667530207393
 10
8683.709827747783
 20
358.3164381042906
 10
8682.64105575837
 20
359.4270680046494
 10
8681.322066480076
 20
360.2232984839657
 10
8679.841226613024
 20
360.6511793482663
 10
8679.0542978899
 20
360.7172218301879
 10
8675.006073990612
 20
360.7172218301879
 10
8675.232205544865
 20
360.0447047317603
 10
8674.853623996034
 20
359.6670533564483
 10
8674.635962859987
 20
360.0447047317589
 10
8674.409831305689
 20
360.7172218301879
 10
8673.653895160988
 20
360.7172218301879
 10
8673.653895160988
 20
319.2577657896413
 10
8685.653895160989
 20
319.2577657896413
 97
        0
 92
        7
 72
     0
 73
     1
 93
       33
 10
8650.531932736138
 20
417.545952661187
 10
8649.182247652587
 20
418.2900932976601
 10
8649.182247652587
 20
419.490020074392
 10
8637.218134661493
 20
419.490020074392
 10
8638.027664979308
 20
419.0214495675509
 10
8637.579794056575
 20
418.5735786422311
 10
8636.892526153797
 20
418.8046701036059
 10
8636.892526153797
 20
416.1157867487774
 10
8637.579794056579
 20
415.884695287402
 10
8638.027664979308
 20
415.6254596533014
 10
8637.579794056575
 20
415.1775887279814
 10
8636.892526153797
 20
415.4086801893559
 10
8636.892526153797
 20
412.7197968345281
 10
8637.579794056579
 20
412.488705373152
 10
8638.027664979308
 20
412.2294697390516
 10
8637.579794056577
 20
411.7815988137309
 10
8636.892526153797
 20
412.012690275106
 10
8636.892526153795
 20
409.323806920277
 10
8637.579794053989
 20
409.0927154597712
 10
8638.027664976718
 20
408.8334798256703
 10
8637.579794053989
 20
408.3856089003504
 10
8636.892526153797
 20
408.6167003608547
 10
8636.892526153799
 20
407.4900200743931
 10
8652.932716462034
 20
407.4900200743932
 10
8652.932716462036
 20
408.2459562190908
 10
8652.260199363608
 20
408.4720877733907
 10
8651.882547988298
 20
408.6897489094387
 10
8652.260199363608
 20
409.0683304582681
 10
8652.932716462034
 20
408.8421989040149
 10
8652.932716462037
 20
412.8904228033087
 10
8652.866673980113
 20
413.6773515264246
 10
8652.438793115814
 20
415.1581913934763
 10
8651.642562636496
 20
416.4771806717728
 97
        0
 92
        7
 72
     0
 73
     1
 93
       12
 10
8668.653895160987
 20
419.490020074392
 10
8659.382555429855
 20
419.4900200743919
 10
8659.382555429855
 20
418.2900932976602
 10
8658.667250243688
 20
417.9533696597776
 10
8657.430116434786
 20
417.0352861493358
 10
8656.472035364805
 20
415.82791796644
 10
8655.859049515655
 20
414.4140507567341
 10
8655.632086624772
 20
412.8904228032994
 10
8655.63208662477
 20
407.9345449992559
 10
8656.304603723196
 20
407.7084134450037
 10
8656.681913118763
 20
407.4900200743931
 10
8668.653895160987
 20
407.4900200743931
 97
        0
 92
        7
 72
     0
 73
     1
 93
       19
 10
8633.470651153798
 20
413.1632839390806
 10
8632.783383261372
 20
413.3943753969737
 10
8632.335512333462
 20
413.6525079005091
 10
8632.783383261372
 20
414.1014819563985
 10
8633.470651153798
 20
413.8703904985052
 10
8633.470651153798
 20
416.5592738533309
 10
8632.783383261372
 20
416.7903653112229
 10
8632.335512333462
 20
417.0484978147592
 10
8632.783383261372
 20
417.4974718706485
 10
8633.470651153798
 20
417.2663804127552
 10
8633.470651153798
 20
419.490020074392
 10
8479.46655084101
 20
419.4900200743919
 10
8479.46655084101
 20
407.4900200743931
 10
8633.470651153798
 20
407.4900200743932
 10
8633.470651153796
 20
409.7672940248294
 10
8632.783383258786
 20
409.9983854835922
 10
8632.335512330875
 20
410.2565179871284
 10
8632.783383258784
 20
410.7054920430181
 10
8633.470651153798
 20
410.4744005842546
 97
        0
 92
        7
 72
     0
 73
     1
 93
        4
 10
8479.46655084101
 20
419.4900200743918
 10
8435.197157748476
 20
419.4900200743918
 10
8435.197157748476
 20
407.490020074393
 10
8479.46655084101
 20
407.490020074393
 97
        0
 92
        7
 72
     0
 73
     1
 93
       15
 10
8435.197157748476
 20
419.4900200743918
 10
8313.306245642252
 20
419.4900200743916
 10
8313.306245642252
 20
418.2900932976601
 10
8311.956560558702
 20
417.5459526611851
 10
8310.84593065834
 20
416.477180671771
 10
8310.049700179023
 20
415.158191393478
 10
8309.621819314724
 20
413.6773515264215
 10
8309.555776832803
 20
412.8904228033114
 10
8309.555776832803
 20
408.8421989040146
 10
8310.228293931229
 20
409.0683304582674
 10
8310.605945306541
 20
408.6897489094376
 10
8310.228293931231
 20
408.4720877733897
 10
8309.555776832803
 20
408.2459562190896
 10
8309.555776832803
 20
407.4900200743929
 10
8435.197157748476
 20
407.490020074393
 97
        0
 92
        7
 72
     0
 73
     1
 93
       12
 10
8306.629443779183
 20
414.4140507567331
 10
8306.016457930036
 20
415.8279179664346
 10
8305.058376860051
 20
417.035286149334
 10
8303.821243051149
 20
417.953369659776
 10
8303.105937864984
 20
418.2900932976592
 10
8303.105937864984
 20
419.4900200743918
 10
8300.918562386522
 20
419.4900200743918
 10
8300.918562386518
 20
407.4900200743929
 10
8305.806580176078
 20
407.490020074393
 10
8306.18388957164
 20
407.7084134450027
 10
8306.856406670068
 20
407.9345449992557
 10
8306.856406670068
 20
412.8904228033098
 97
        0
 92
        7
 72
     0
 73
     1
 93
        4
 10
8300.918562386518
 20
419.4900200743917
 10
8293.000250643379
 20
419.4900200743917
 10
8293.000250643379
 20
407.4900200743929
 10
8300.918562386518
 20
407.4900200743929
 97
        0
 92
        7
 72
     0
 73
     1
 93
       12
 10
8288.000250643378
 20
419.4900200743917
 10
8277.894563421771
 20
419.4900200743917
 10
8277.894563421769
 20
418.2900932976598
 10
8277.179258235603
 20
417.9533696597762
 10
8275.942124426702
 20
417.035286149335
 10
8274.984043356718
 20
415.8279179664368
 10
8274.37105750757
 20
414.414050756735
 10
8274.144094616687
 20
412.8904228033055
 10
8274.144094616687
 20
407.9345449992556
 10
8274.816611715115
 20
407.7084134450013
 10
8275.193921110679
 20
407.490020074393
 10
8288.000250643378
 20
407.4900200743931
 97
        0
 92
        7
 72
     1
 73
     1
 93
       17
 10
8271.444724453951
 20
412.8904228033084
 42
0.0
 10
8271.378681972029
 20
413.6773515264217
 42
0.0
 10
8270.950801107728
 20
415.1581913934767
 42
0.0
 10
8270.154570628411
 20
416.4771806717726
 42
0.0
 10
8269.043940728051
 20
417.5459526611856
 42
0.0
 10
8267.694255644503
 20
418.29009329766
 42
0.0
 10
8267.694255644503
 20
419.4900200743917
 42
0.0
 10
8194.367364204408
 20
419.4900200743916
 42
-1.0
 10
8191.86736420441
 20
419.4900200743916
 42
0.0
 10
8155.331090211291
 20
419.4900200743917
 42
0.0
 10
8153.12092893299
 20
407.4900200743928
 42
0.0
 10
8271.444724453951
 20
407.4900200743928
 42
0.0
 10
8271.444724453949
 20
408.2459562190901
 42
0.0
 10
8270.772207355523
 20
408.4720877733892
 42
0.0
 10
8270.394555980212
 20
408.6897489094376
 42
0.0
 10
8270.772207355523
 20
409.0683304582676
 42
0.0
 10
8271.444724453949
 20
408.842198904014
 42
0.0
 97
        0
 75
     0
 76
     1
 52
90.0
 41
2.5
 77
     0
 78
     1
 53
135.0
 43
2864.672500845434
 44
4.946143396813567
 45
-5.612660075668221
 46
-5.61266007566822
 79
     0
 47
0.8929084291614799
 98
       14
 10
8681.365915942068
 20
604.8701372314608
 10
8682.259481928078
 20
431.6459009118043
 10
8682.259481928078
 20
416.4664570848945
 10
8680.472349956056
 20
394.1437500740103
 10
8680.472349956056
 20
343.2479648313237
 10
8647.410245403374
 20
417.3593660452207
 10
8661.707375302402
 20
412.8948212435898
 10
8576.818176718804
 20
412.8948212435898
 10
8446.356890480085
 20
412.0019207818987
 10
8381.126247360723
 20
411.1090118215725
 10
8303.385621138929
 20
413.787730203916
 10
8297.13062958771
 20
413.787730203916
 10
8279.259220920065
 20
412.0019207818987
 10
8235.474280061538
 20
412.0019207818987
  0
TEXT
  5
79A7
330
1F
100
AcDbEntity
  8
POPIS
100
AcDbText
 10
8132.233655344029
 20
593.7813867913173
 30
0.0
 40
25.0
  1
Vodorovný řez
 41
0.7
  7
SIMPLEX7
100
AcDbText
  0
TEXT
  5
79A8
330
1F
100
AcDbEntity
  8
POPIS
100
AcDbText
 10
8132.233655344029
 20
633.1962747922061
 30
0.0
 40
35.0
  1
L spoj
 41
0.85
  7
SIMPLEX7
100
AcDbText
  0
TEXT
  5
9F97
330
1F
100
AcDbEntity
  8
POPIS
100
AcDbText
 10
8811.160977001453
 20
474.6690347505821
 30
0.0
 40
25.0
  1
(v exteriéru vrut s viditelnou hlavou a těsnící podložkou)
 41
0.6
 51
10.0
  7
SIMPLEX7
100
AcDbText
  0
ENDSEC
  0
SECTION
  2
OBJECTS
  0
DICTIONARY
  5
C
330
0
100
AcDbDictionary
281
     1
  3
ACAD_GROUP
350
D
  3
ACAD_LAYOUT
350
1A
  3
ACAD_MLINESTYLE
350
17
  3
ACAD_PLOTSETTINGS
350
19
  3
ACAD_PLOTSTYLENAME
350
E
  3
AcDbVariableDictionary
350
17BD
  0
DICTIONARY
  5
D
102
{ACAD_REACTORS
330
C
102
}
330
C
100
AcDbDictionary
281
     1
  0
DICTIONARY
  5
1A
102
{ACAD_REACTORS
330
C
102
}
330
C
100
AcDbDictionary
281
     1
  3
Model
350
22
  3
Rozvržení1
350
1E
  3
Rozvržení2
350
26
  0
DICTIONARY
  5
17
102
{ACAD_REACTORS
330
C
102
}
330
C
100
AcDbDictionary
281
     1
  3
Standard
350
18
  0
DICTIONARY
  5
19
102
{ACAD_REACTORS
330
C
102
}
330
C
100
AcDbDictionary
281
     1
  0
ACDBDICTIONARYWDFLT
  5
E
102
{ACAD_REACTORS
330
C
102
}
330
C
100
AcDbDictionary
281
     1
  3
Normal
350
F
100
AcDbDictionaryWithDefault
340
F
  0
DICTIONARY
  5
17BD
102
{ACAD_REACTORS
330
C
102
}
330
C
100
AcDbDictionary
281
     1
  3
DIMASSOC
350
9F87
  3
SORTENTS
350
17BE
  0
LAYOUT
  5
22
102
{ACAD_REACTORS
330
1A
102
}
330
1A
100
AcDbPlotSettings
  1

  2
HP DeskJet 690C
  4

  6

 40
0.0
 41
0.0
 42
0.0
 43
0.0
 44
0.0
 45
0.0
 46
0.0
 47
0.0
 48
0.0
 49
0.0
140
0.0
141
0.0
142
1.0
143
1.0
 70
  1712
 72
     0
 73
     0
 74
     0
  7
monochrome.ctb
 75
     0
147
1.0
148
0.0
149
0.0
100
AcDbLayout
  1
Model
 70
     1
 71
     0
 10
0.0
 20
0.0
 11
12.0
 21
9.0
 12
0.0
 22
0.0
 32
0.0
 14
0.0
 24
0.0
 34
0.0
 15
0.0
 25
0.0
 35
0.0
146
0.0
 13
0.0
 23
0.0
 33
0.0
 16
1.0
 26
0.0
 36
0.0
 17
0.0
 27
1.0
 37
0.0
 76
     0
330
1F
  0
LAYOUT
  5
1E
102
{ACAD_REACTORS
330
1A
102
}
330
1A
100
AcDbPlotSettings
  1

  2
HP DeskJet 690C
  4

  6

 40
0.0
 41
0.0
 42
0.0
 43
0.0
 44
0.0
 45
0.0
 46
0.0
 47
0.0
 48
0.0
 49
0.0
140
0.0
141
0.0
142
1.0
143
1.0
 70
   688
 72
     0
 73
     0
 74
     5
  7
monochrome.ctb
 75
    16
147
1.0
148
0.0
149
0.0
100
AcDbLayout
  1
Rozvržení1
 70
     1
 71
     1
 10
0.0
 20
0.0
 11
420.0
 21
297.0
 12
0.0
 22
0.0
 32
0.0
 14
1.000000000000000E+20
 24
1.000000000000000E+20
 34
1.000000000000000E+20
 15
-1.000000000000000E+20
 25
-1.000000000000000E+20
 35
-1.000000000000000E+20
146
0.0
 13
0.0
 23
0.0
 33
0.0
 16
1.0
 26
0.0
 36
0.0
 17
0.0
 27
1.0
 37
0.0
 76
     0
330
1B
  0
LAYOUT
  5
26
102
{ACAD_REACTORS
330
1A
102
}
330
1A
100
AcDbPlotSettings
  1

  2
HP DeskJet 690C
  4

  6

 40
0.0
 41
0.0
 42
0.0
 43
0.0
 44
0.0
 45
0.0
 46
0.0
 47
0.0
 48
0.0
 49
0.0
140
0.0
141
0.0
142
1.0
143
1.0
 70
   688
 72
     0
 73
     0
 74
     5
  7
monochrome.ctb
 75
    16
147
1.0
148
0.0
149
0.0
100
AcDbLayout
  1
Rozvržení2
 70
     1
 71
     2
 10
0.0
 20
0.0
 11
12.0
 21
9.0
 12
0.0
 22
0.0
 32
0.0
 14
0.0
 24
0.0
 34
0.0
 15
0.0
 25
0.0
 35
0.0
146
0.0
 13
0.0
 23
0.0
 33
0.0
 16
1.0
 26
0.0
 36
0.0
 17
0.0
 27
1.0
 37
0.0
 76
     0
330
23
  0
MLINESTYLE
  5
18
102
{ACAD_REACTORS
330
17
102
}
330
17
100
AcDbMlineStyle
  2
STANDARD
 70
     0
  3

 62
   256
 51
90.0
 52
90.0
 71
     2
 49
0.5
 62
   256
  6
BYLAYER
 49
-0.5
 62
   256
  6
BYLAYER
  0
ACDBPLACEHOLDER
  5
F
102
{ACAD_REACTORS
330
E
102
}
330
E
  0
DICTIONARYVAR
  5
9F87
102
{ACAD_REACTORS
330
17BD
102
}
330
17BD
100
DictionaryVariables
280
     0
  1
1
  0
DICTIONARYVAR
  5
17BE
102
{ACAD_REACTORS
330
17BD
102
}
330
17BD
100
DictionaryVariables
280
     0
  1
96
  0
ENDSEC
  0
EOF
