  0
SECTION
  2
HEADER
  9
$ACADVER
  1
AC1015
  9
$ACADMAINTVER
 70
    14
  9
$DWGCODEPAGE
  3
ANSI_1250
  9
$INSBASE
 10
0.0
 20
0.0
 30
0.0
  9
$EXTMIN
 10
6651.620045153385
 20
202.8066543951717
 30
-0.0015258207003583
  9
$EXTMAX
 10
8052.358379368946
 20
745.1613464947841
 30
0.0000000349246037
  9
$LIMMIN
 10
0.0
 20
0.0
  9
$LIMMAX
 10
420.0
 20
297.0
  9
$ORTHOMODE
 70
     1
  9
$REGENMODE
 70
     1
  9
$FILLMODE
 70
     1
  9
$QTEXTMODE
 70
     0
  9
$MIRRTEXT
 70
     1
  9
$LTSCALE
 40
1.0
  9
$ATTMODE
 70
     1
  9
$TEXTSIZE
 40
2.5
  9
$TRACEWID
 40
1.0
  9
$TEXTSTYLE
  7
Standard
  9
$CLAYER
  8
CETRIS
  9
$CELTYPE
  6
ByLayer
  9
$CECOLOR
 62
   256
  9
$CELTSCALE
 40
1.0
  9
$DISPSILH
 70
     0
  9
$DIMSCALE
 40
1.0
  9
$DIMASZ
 40
2.5
  9
$DIMEXO
 40
0.625
  9
$DIMDLI
 40
3.75
  9
$DIMRND
 40
0.0
  9
$DIMDLE
 40
0.0
  9
$DIMEXE
 40
1.25
  9
$DIMTP
 40
0.0
  9
$DIMTM
 40
0.0
  9
$DIMTXT
 40
2.5
  9
$DIMCEN
 40
2.5
  9
$DIMTSZ
 40
0.0
  9
$DIMTOL
 70
     0
  9
$DIMLIM
 70
     0
  9
$DIMTIH
 70
     0
  9
$DIMTOH
 70
     0
  9
$DIMSE1
 70
     0
  9
$DIMSE2
 70
     0
  9
$DIMTAD
 70
     1
  9
$DIMZIN
 70
     8
  9
$DIMBLK
  1

  9
$DIMASO
 70
     1
  9
$DIMSHO
 70
     1
  9
$DIMPOST
  1

  9
$DIMAPOST
  1

  9
$DIMALT
 70
     0
  9
$DIMALTD
 70
     3
  9
$DIMALTF
 40
0.03937007874016
  9
$DIMLFAC
 40
1.0
  9
$DIMTOFL
 70
     1
  9
$DIMTVP
 40
0.0
  9
$DIMTIX
 70
     0
  9
$DIMSOXD
 70
     0
  9
$DIMSAH
 70
     0
  9
$DIMBLK1
  1

  9
$DIMBLK2
  1

  9
$DIMSTYLE
  2
ISO-25
  9
$DIMCLRD
 70
     0
  9
$DIMCLRE
 70
     0
  9
$DIMCLRT
 70
     0
  9
$DIMTFAC
 40
1.0
  9
$DIMGAP
 40
0.625
  9
$DIMJUST
 70
     0
  9
$DIMSD1
 70
     0
  9
$DIMSD2
 70
     0
  9
$DIMTOLJ
 70
     0
  9
$DIMTZIN
 70
     8
  9
$DIMALTZ
 70
     0
  9
$DIMALTTZ
 70
     0
  9
$DIMUPT
 70
     0
  9
$DIMDEC
 70
     2
  9
$DIMTDEC
 70
     2
  9
$DIMALTU
 70
     2
  9
$DIMALTTD
 70
     3
  9
$DIMTXSTY
  7
Standard
  9
$DIMAUNIT
 70
     0
  9
$DIMADEC
 70
     0
  9
$DIMALTRND
 40
0.0
  9
$DIMAZIN
 70
     0
  9
$DIMDSEP
 70
    44
  9
$DIMATFIT
 70
     3
  9
$DIMFRAC
 70
     0
  9
$DIMLDRBLK
  1

  9
$DIMLUNIT
 70
     2
  9
$DIMLWD
 70
    -2
  9
$DIMLWE
 70
    -2
  9
$DIMTMOVE
 70
     0
  9
$LUNITS
 70
     2
  9
$LUPREC
 70
     4
  9
$SKETCHINC
 40
1.0
  9
$FILLETRAD
 40
0.0
  9
$AUNITS
 70
     0
  9
$AUPREC
 70
     0
  9
$MENU
  1
.
  9
$ELEVATION
 40
0.0
  9
$PELEVATION
 40
0.0
  9
$THICKNESS
 40
0.0
  9
$LIMCHECK
 70
     0
  9
$CHAMFERA
 40
10.0
  9
$CHAMFERB
 40
10.0
  9
$CHAMFERC
 40
20.0
  9
$CHAMFERD
 40
0.0
  9
$SKPOLY
 70
     0
  9
$TDCREATE
 40
2452332.512107639
  9
$TDUCREATE
 40
2452332.470440972
  9
$TDUPDATE
 40
2455601.286175903
  9
$TDUUPDATE
 40
2455601.244509236
  9
$TDINDWG
 40
1.0582699769
  9
$TDUSRTIMER
 40
1.0582560880
  9
$USRTIMER
 70
     1
  9
$ANGBASE
 50
0.0
  9
$ANGDIR
 70
     0
  9
$PDMODE
 70
     0
  9
$PDSIZE
 40
0.0
  9
$PLINEWID
 40
0.0
  9
$SPLFRAME
 70
     0
  9
$SPLINETYPE
 70
     6
  9
$SPLINESEGS
 70
     8
  9
$HANDSEED
  5
9FB0
  9
$SURFTAB1
 70
     6
  9
$SURFTAB2
 70
     6
  9
$SURFTYPE
 70
     6
  9
$SURFU
 70
     6
  9
$SURFV
 70
     6
  9
$UCSBASE
  2

  9
$UCSNAME
  2

  9
$UCSORG
 10
0.0
 20
0.0
 30
0.0
  9
$UCSXDIR
 10
1.0
 20
0.0
 30
0.0
  9
$UCSYDIR
 10
0.0
 20
1.0
 30
0.0
  9
$UCSORTHOREF
  2

  9
$UCSORTHOVIEW
 70
     0
  9
$UCSORGTOP
 10
0.0
 20
0.0
 30
0.0
  9
$UCSORGBOTTOM
 10
0.0
 20
0.0
 30
0.0
  9
$UCSORGLEFT
 10
0.0
 20
0.0
 30
0.0
  9
$UCSORGRIGHT
 10
0.0
 20
0.0
 30
0.0
  9
$UCSORGFRONT
 10
0.0
 20
0.0
 30
0.0
  9
$UCSORGBACK
 10
0.0
 20
0.0
 30
0.0
  9
$PUCSBASE
  2

  9
$PUCSNAME
  2

  9
$PUCSORG
 10
0.0
 20
0.0
 30
0.0
  9
$PUCSXDIR
 10
1.0
 20
0.0
 30
0.0
  9
$PUCSYDIR
 10
0.0
 20
1.0
 30
0.0
  9
$PUCSORTHOREF
  2

  9
$PUCSORTHOVIEW
 70
     0
  9
$PUCSORGTOP
 10
0.0
 20
0.0
 30
0.0
  9
$PUCSORGBOTTOM
 10
0.0
 20
0.0
 30
0.0
  9
$PUCSORGLEFT
 10
0.0
 20
0.0
 30
0.0
  9
$PUCSORGRIGHT
 10
0.0
 20
0.0
 30
0.0
  9
$PUCSORGFRONT
 10
0.0
 20
0.0
 30
0.0
  9
$PUCSORGBACK
 10
0.0
 20
0.0
 30
0.0
  9
$USERI1
 70
     0
  9
$USERI2
 70
     0
  9
$USERI3
 70
     0
  9
$USERI4
 70
     0
  9
$USERI5
 70
     0
  9
$USERR1
 40
0.0
  9
$USERR2
 40
0.0
  9
$USERR3
 40
0.0
  9
$USERR4
 40
0.0
  9
$USERR5
 40
0.0
  9
$WORLDVIEW
 70
     1
  9
$SHADEDGE
 70
     3
  9
$SHADEDIF
 70
    70
  9
$TILEMODE
 70
     1
  9
$MAXACTVP
 70
    64
  9
$PINSBASE
 10
0.0
 20
0.0
 30
0.0
  9
$PLIMCHECK
 70
     0
  9
$PEXTMIN
 10
1.000000000000000E+20
 20
1.000000000000000E+20
 30
1.000000000000000E+20
  9
$PEXTMAX
 10
-1.000000000000000E+20
 20
-1.000000000000000E+20
 30
-1.000000000000000E+20
  9
$PLIMMIN
 10
0.0
 20
0.0
  9
$PLIMMAX
 10
420.0
 20
297.0
  9
$UNITMODE
 70
     0
  9
$VISRETAIN
 70
     1
  9
$PLINEGEN
 70
     0
  9
$PSLTSCALE
 70
     1
  9
$TREEDEPTH
 70
  3020
  9
$CMLSTYLE
  2
Standard
  9
$CMLJUST
 70
     0
  9
$CMLSCALE
 40
20.0
  9
$PROXYGRAPHICS
 70
     1
  9
$MEASUREMENT
 70
     1
  9
$CELWEIGHT
370
    -1
  9
$ENDCAPS
280
     0
  9
$JOINSTYLE
280
     0
  9
$LWDISPLAY
290
     0
  9
$INSUNITS
 70
     4
  9
$HYPERLINKBASE
  1

  9
$STYLESHEET
  1

  9
$XEDIT
290
     1
  9
$CEPSNTYPE
380
     0
  9
$PSTYLEMODE
290
     1
  9
$FINGERPRINTGUID
  2
{D99C744E-04C5-44F1-9703-862C59725F9B}
  9
$VERSIONGUID
  2
{496AF47E-A41C-4A51-9EEA-1DB7E9B359C6}
  9
$EXTNAMES
290
     1
  9
$PSVPSCALE
 40
0.0
  9
$OLESTARTUP
290
     0
  0
ENDSEC
  0
SECTION
  2
CLASSES
  0
CLASS
  1
ACDBDICTIONARYWDFLT
  2
AcDbDictionaryWithDefault
  3
AutoCAD 2000
 90
        0
280
     0
281
     0
  0
CLASS
  1
ACDBPLACEHOLDER
  2
AcDbPlaceHolder
  3
AutoCAD 2000
 90
        0
280
     0
281
     0
  0
CLASS
  1
LAYOUT
  2
AcDbLayout
  3
AutoCAD 2000
 90
        0
280
     0
281
     0
  0
CLASS
  1
DICTIONARYVAR
  2
AcDbDictionaryVar
  3
AutoCAD 2000
 90
        0
280
     0
281
     0
  0
ENDSEC
  0
SECTION
  2
TABLES
  0
TABLE
  2
VPORT
  5
8
330
0
100
AcDbSymbolTable
 70
     2
  0
VPORT
  5
9FAF
330
8
100
AcDbSymbolTableRecord
100
AcDbViewportTableRecord
  2
*Active
 70
     0
 10
0.0
 20
0.0
 11
1.0
 21
1.0
 12
7212.646434116774
 22
412.7883996790627
 13
0.0
 23
0.0
 14
10.0
 24
10.0
 15
10.0
 25
10.0
 16
0.0
 26
0.0
 36
1.0
 17
0.0
 27
0.0
 37
0.0
 40
968.2900675244679
 41
2.031862745098039
 42
50.0
 43
0.0
 44
0.0
 50
0.0
 51
0.0
 71
     0
 72
   100
 73
     1
 74
     3
 75
     0
 76
     1
 77
     0
 78
     0
281
     0
 65
     1
110
0.0
120
0.0
130
0.0
111
1.0
121
0.0
131
0.0
112
0.0
122
1.0
132
0.0
 79
     0
146
0.0
  0
ENDTAB
  0
TABLE
  2
LTYPE
  5
5
330
0
100
AcDbSymbolTable
 70
     5
  0
LTYPE
  5
14
330
5
100
AcDbSymbolTableRecord
100
AcDbLinetypeTableRecord
  2
ByBlock
 70
     0
  3

 72
    65
 73
     0
 40
0.0
  0
LTYPE
  5
15
330
5
100
AcDbSymbolTableRecord
100
AcDbLinetypeTableRecord
  2
ByLayer
 70
     0
  3

 72
    65
 73
     0
 40
0.0
  0
LTYPE
  5
16
330
5
100
AcDbSymbolTableRecord
100
AcDbLinetypeTableRecord
  2
Continuous
 70
     0
  3
Solid line
 72
    65
 73
     0
 40
0.0
  0
LTYPE
  5
33
330
5
100
AcDbSymbolTableRecord
100
AcDbLinetypeTableRecord
  2
DASHED
 70
     0
  3
Dashed __ __ __ __ __ __ __ __ __ __ __ __ __ _
 72
    65
 73
     2
 40
19.04999999999999
 49
12.7
 74
     0
 49
-6.349999999999999
 74
     0
  0
LTYPE
  5
34
330
5
100
AcDbSymbolTableRecord
100
AcDbLinetypeTableRecord
  2
DASHDOT2
 70
     0
  3
Dash dot (.5x) _._._._._._._._._._._._._._._.
 72
    65
 73
     4
 40
12.7
 49
6.349999999999999
 74
     0
 49
-3.174999999999999
 74
     0
 49
0.0
 74
     0
 49
-3.174999999999999
 74
     0
  0
LTYPE
  5
35
330
5
100
AcDbSymbolTableRecord
100
AcDbLinetypeTableRecord
  2
CIKCAK
 70
     0
  3
Cik-cak /\/\/\/\/\/\/\/\/\/\/\/\/\/\/\/\/\/\/\/
 72
    65
 73
     4
 40
20.32254
 49
0.00254
 74
     0
 49
-5.08
 74
     4
 75
   131
340
3E
 46
5.08
 50
0.0
 44
-5.08
 45
0.0
 49
-10.16
 74
     4
 75
   131
340
3E
 46
5.08
 50
180.0
 44
5.08
 45
0.0
 49
-5.08
 74
     0
  0
LTYPE
  5
36
330
5
100
AcDbSymbolTableRecord
100
AcDbLinetypeTableRecord
  2
IZOLACE
 70
     0
  3
Izolace SSSSSSSSSSSSSSSSSSSSSSSSSSSSSSSSSSSSSSS
 72
    65
 73
     4
 40
10.16253999999999
 49
0.00254
 74
     0
 49
-2.54
 74
     4
 75
   134
340
3E
 46
2.54
 50
0.0
 44
-2.54
 45
0.0
 49
-5.08
 74
     4
 75
   134
340
3E
 46
2.54
 50
180.0
 44
2.54
 45
0.0
 49
-2.54
 74
     0
  0
ENDTAB
  0
TABLE
  2
LAYER
  5
2
330
0
100
AcDbSymbolTable
 70
     8
  0
LAYER
  5
10
330
2
100
AcDbSymbolTableRecord
100
AcDbLayerTableRecord
  2
0
 70
     0
 62
     7
  6
Continuous
370
    -3
390
F
  0
LAYER
  5
37
330
2
100
AcDbSymbolTableRecord
100
AcDbLayerTableRecord
  2
POPIS
 70
     0
 62
    30
  6
Continuous
370
    -3
390
F
  0
LAYER
  5
38
330
2
100
AcDbSymbolTableRecord
100
AcDbLayerTableRecord
  2
SPOJOVACÍ
 70
     0
 62
   180
  6
Continuous
370
    -3
390
F
  0
LAYER
  5
39
330
2
100
AcDbSymbolTableRecord
100
AcDbLayerTableRecord
  2
CETRIS
 70
     0
 62
     1
  6
Continuous
370
    -3
390
F
  0
LAYER
  5
3A
330
2
100
AcDbSymbolTableRecord
100
AcDbLayerTableRecord
  2
NOSNÉ KONSTRUKCE
 70
     0
 62
    33
  6
Continuous
370
    -3
390
F
  0
LAYER
  5
3B
330
2
100
AcDbSymbolTableRecord
100
AcDbLayerTableRecord
  2
izolace
 70
     0
 62
    73
  6
Continuous
370
    -3
390
F
  0
LAYER
  5
3C
330
2
100
AcDbSymbolTableRecord
100
AcDbLayerTableRecord
  2
STAVBA OBRYS
 70
     0
 62
     6
  6
Continuous
370
    -3
390
F
  0
LAYER
  5
1B41
330
2
100
AcDbSymbolTableRecord
100
AcDbLayerTableRecord
  2
Defpoints
 70
     0
 62
     7
  6
Continuous
290
     0
370
    -3
390
F
  0
ENDTAB
  0
TABLE
  2
STYLE
  5
3
330
0
100
AcDbSymbolTable
 70
     3
  0
STYLE
  5
11
330
3
100
AcDbSymbolTableRecord
100
AcDbTextStyleTableRecord
  2
Standard
 70
     0
 40
0.0
 41
1.0
 50
0.0
 71
     0
 42
2.5
  3
txt
  4

  0
STYLE
  5
3D
330
3
100
AcDbSymbolTableRecord
100
AcDbTextStyleTableRecord
  2
SIMPLEX7
 70
     0
 40
0.0
 41
0.85
 50
0.0
 71
     0
 42
102.0
  3
ARIAL.TTF
  4

1001
ACAD
1000
Arial CE
1071
    60962
  0
STYLE
  5
3E
330
3
100
AcDbSymbolTableRecord
100
AcDbTextStyleTableRecord
  2

 70
     1
 40
0.0
 41
1.0
 50
0.0
 71
     0
 42
2.5
  3
ltypeshp.shx
  4

  0
ENDTAB
  0
TABLE
  2
VIEW
  5
6
330
0
100
AcDbSymbolTable
 70
     0
  0
ENDTAB
  0
TABLE
  2
UCS
  5
7
330
0
100
AcDbSymbolTable
 70
     0
  0
ENDTAB
  0
TABLE
  2
APPID
  5
9
330
0
100
AcDbSymbolTable
 70
     1
  0
APPID
  5
12
330
9
100
AcDbSymbolTableRecord
100
AcDbRegAppTableRecord
  2
ACAD
 70
     0
  0
ENDTAB
  0
TABLE
  2
DIMSTYLE
  5
A
330
0
100
AcDbSymbolTable
 70
     1
100
AcDbDimStyleTable
 71
     1
340
27
  0
DIMSTYLE
105
27
330
A
100
AcDbSymbolTableRecord
100
AcDbDimStyleTableRecord
  2
ISO-25
 70
     0
 41
2.5
 42
0.625
 43
3.75
 44
1.25
 73
     0
 74
     0
 77
     1
 78
     8
140
2.5
141
2.5
143
0.03937007874016
147
0.625
171
     3
172
     1
271
     2
272
     2
274
     3
278
    44
283
     0
284
     8
340
11
  0
ENDTAB
  0
TABLE
  2
BLOCK_RECORD
  5
1
330
0
100
AcDbSymbolTable
 70
     3
  0
BLOCK_RECORD
  5
1F
330
1
100
AcDbSymbolTableRecord
100
AcDbBlockTableRecord
  2
*Model_Space
340
22
  0
BLOCK_RECORD
  5
1B
330
1
100
AcDbSymbolTableRecord
100
AcDbBlockTableRecord
  2
*Paper_Space
340
1E
  0
BLOCK_RECORD
  5
23
330
1
100
AcDbSymbolTableRecord
100
AcDbBlockTableRecord
  2
*Paper_Space0
340
26
  0
BLOCK_RECORD
  5
2B
330
1
100
AcDbSymbolTableRecord
100
AcDbBlockTableRecord
  2
E_PUNKT
340
0
102
{BLKREFS
331
D05
331
D1A
331
D1D
331
1138
331
1350
331
1351
331
1352
331
1353
331
1414
331
1415
331
1416
331
EAD
331
EB1
331
EB4
331
EB9
331
EBF
331
EC1
331
15BB
331
15BC
331
15C2
331
15C3
331
15CA
331
1D1A
331
1FE7
331
2073
331
2074
331
208A
331
208C
331
2113
331
23A8
331
2669
331
25ED
331
2AB6
331
2B8E
331
2BEE
331
2F0B
331
2E50
331
2E2C
331
2DB0
331
2F0A
331
3527
331
365E
331
371B
331
3C9E
331
3C9F
331
3CA8
331
3CAB
331
3CAC
331
3CAE
331
449A
331
4533
331
45E9
331
45B0
331
4420
331
4498
331
4379
331
45F5
331
47D7
331
4CE5
331
4CE8
331
4CEB
331
5176
331
519A
331
5197
331
5199
331
5198
331
519B
331
519D
331
51A1
331
524F
331
5251
331
5413
331
5412
331
5414
331
5417
331
541A
331
541D
331
567D
331
5667
331
56B3
331
56D8
331
56DC
331
56D9
331
5D48
331
5D4C
331
5F2A
331
5F30
331
5F31
331
5F39
331
5F3B
331
60B5
331
60B6
331
611F
331
6123
331
6126
331
6131
331
612F
331
6130
331
6148
331
6C59
331
6C5A
331
6AD5
331
7412
331
6C86
331
74A2
331
6C7B
331
745F
331
6A75
331
74D0
331
7592
331
74DB
331
74DA
331
75EE
331
75F4
331
75F7
331
75FB
331
75FC
331
7601
331
79D9
331
79DA
331
79DC
331
8178
331
8177
331
8179
331
817D
331
8180
331
8182
331
8186
331
8189
331
818C
331
8B1A
331
8B1F
331
8B21
331
8A05
331
8B1D
331
88E8
331
8CB1
331
8CB9
102
}
  0
BLOCK_RECORD
  5
2F
330
1
100
AcDbSymbolTableRecord
100
AcDbBlockTableRecord
  2
_ArchTick
340
0
102
{BLKREFS
331
B3F
331
B47
331
B48
331
205C
331
205D
102
}
  0
ENDTAB
  0
ENDSEC
  0
SECTION
  2
BLOCKS
  0
BLOCK
  5
20
330
1F
100
AcDbEntity
  8
0
100
AcDbBlockBegin
  2
*Model_Space
 70
     0
 10
0.0
 20
0.0
 30
0.0
  3
*Model_Space
  1

  0
ENDBLK
  5
21
330
1F
100
AcDbEntity
  8
0
100
AcDbBlockEnd
  0
BLOCK
  5
1C
330
1B
100
AcDbEntity
 67
     1
  8
0
100
AcDbBlockBegin
  2
*Paper_Space
 70
     0
 10
0.0
 20
0.0
 30
0.0
  3
*Paper_Space
  1

  0
ENDBLK
  5
1D
330
1B
100
AcDbEntity
 67
     1
  8
0
100
AcDbBlockEnd
  0
BLOCK
  5
24
330
23
100
AcDbEntity
  8
0
100
AcDbBlockBegin
  2
*Paper_Space0
 70
     0
 10
0.0
 20
0.0
 30
0.0
  3
*Paper_Space0
  1

  0
ENDBLK
  5
25
330
23
100
AcDbEntity
  8
0
100
AcDbBlockEnd
  0
BLOCK
  5
2D
330
2B
100
AcDbEntity
  8
0
100
AcDbBlockBegin
  2
E_PUNKT
 70
     0
 10
0.0
 20
0.0
 30
0.0
  3
E_PUNKT
  1

  0
LWPOLYLINE
  5
2C
330
2B
100
AcDbEntity
  8
POPIS
100
AcDbPolyline
 90
        2
 70
     1
 43
2.5
 10
1.27761037562675
 20
0.0290683308725193
 42
-1.0
 10
-1.222389624373249
 20
0.0290683308725193
 42
-1.0
  0
ENDBLK
  5
2E
330
2B
100
AcDbEntity
  8
0
100
AcDbBlockEnd
  0
BLOCK
  5
31
330
2F
100
AcDbEntity
  8
0
100
AcDbBlockBegin
  2
_ArchTick
 70
     0
 10
0.0
 20
0.0
 30
0.0
  3
_ArchTick
  1

  0
LWPOLYLINE
  5
30
330
2F
100
AcDbEntity
  8
0
  6
ByBlock
 62
     0
100
AcDbPolyline
 90
        2
 70
     0
 43
0.15
 10
-0.5
 20
-0.5
 10
0.5
 20
0.5
  0
ENDBLK
  5
32
330
2F
100
AcDbEntity
  8
0
100
AcDbBlockEnd
  0
ENDSEC
  0
SECTION
  2
ENTITIES
  0
TEXT
  5
15B2
330
1F
100
AcDbEntity
  8
POPIS
100
AcDbText
 10
6651.790754616694
 20
688.1063873594484
 30
0.0
 40
45.0
  1
Požárně dělící příčka (stěna) - jednovrstvé opláštění
 41
0.7
  7
SIMPLEX7
100
AcDbText
  0
LINE
  5
22FF
330
1F
100
AcDbEntity
  8
POPIS
100
AcDbLine
 10
6662.989188039009
 20
288.9918909360403
 30
0.0
 11
6691.586352170943
 21
444.2592793173662
 31
0.0
  0
LINE
  5
2301
330
1F
100
AcDbEntity
  8
CETRIS
100
AcDbLine
 10
6687.024347365026
 20
419.4900200743914
 30
0.0
 11
6884.422017505066
 21
419.4900200743914
 31
0.0
  0
LINE
  5
2302
330
1F
100
AcDbEntity
  8
CETRIS
100
AcDbLine
 10
6684.814186086725
 20
407.4900200743917
 30
0.0
 11
6884.422017505066
 21
407.490020074392
 31
0.0
  0
LINE
  5
2303
330
1F
100
AcDbEntity
  8
NOSNÉ KONSTRUKCE
100
AcDbLine
 10
6684.622376522629
 20
406.4485961784182
 30
0.0
 11
6882.842430452559
 21
406.4485961784182
 31
0.0
  0
LINE
  5
2304
330
1F
100
AcDbEntity
  8
NOSNÉ KONSTRUKCE
100
AcDbLine
 10
6682.340993393665
 20
394.0618994172691
 30
0.0
 11
6882.842430452559
 21
394.0618994172691
 31
0.0
  0
LINE
  5
2305
330
1F
100
AcDbEntity
  8
NOSNÉ KONSTRUKCE
  6
DASHED
100
AcDbLine
 10
6680.959986087346
 20
386.5637643994531
 30
0.0
 11
6882.842430452559
 21
386.563764399453
 31
0.0
  0
LINE
  5
2306
330
1F
100
AcDbEntity
  8
izolace
  6
IZOLACE
 48
2.2
100
AcDbLine
 10
6677.819945544701
 20
369.5150146626344
 30
0.0
 11
6882.842430452559
 21
369.5150146626344
 31
0.0
  0
LINE
  5
2307
330
1F
100
AcDbEntity
  8
NOSNÉ KONSTRUKCE
  6
DASHED
100
AcDbLine
 10
6674.697600876088
 20
352.5623441081179
 30
0.0
 11
6882.842430452559
 21
352.5623441081179
 31
0.0
  0
LINE
  5
2308
330
1F
100
AcDbEntity
  8
NOSNÉ KONSTRUKCE
100
AcDbLine
 10
6673.193550174288
 20
344.3961489083483
 30
0.0
 11
6882.842430452559
 21
344.3961489083483
 31
0.0
  0
LINE
  5
2309
330
1F
100
AcDbEntity
  8
NOSNÉ KONSTRUKCE
100
AcDbLine
 10
6670.948560144378
 20
332.2070473149822
 30
0.0
 11
6882.842430452559
 21
332.2070473149822
 31
0.0
  0
LINE
  5
230A
330
1F
100
AcDbEntity
  8
CETRIS
100
AcDbLine
 10
6670.77372137192
 20
331.2577657896413
 30
0.0
 11
6884.422017505066
 21
331.2577657896413
 31
0.0
  0
LINE
  5
230B
330
1F
100
AcDbEntity
  8
CETRIS
100
AcDbLine
 10
6668.563560093618
 20
319.2577657896413
 30
0.0
 11
6884.422017505066
 21
319.2577657896413
 31
0.0
  0
HATCH
  5
2315
330
1F
100
AcDbEntity
  8
NOSNÉ KONSTRUKCE
100
AcDbHatch
 10
0.0
 20
0.0
 30
0.0
210
0.0
220
0.0
230
1.0
  2
SOLID
 70
     1
 71
     0
 91
        1
 92
        7
 72
     1
 73
     1
 93
       60
 10
7223.734339158797
 20
386.5857955907053
 42
0.0
 10
7223.734339158799
 20
352.1928015562504
 42
-0.3073346934841183
 10
7224.898981278818
 20
350.4514913399379
 42
0.0
 10
7224.898981278818
 20
346.632979562757
 42
-0.307334693483106
 10
7223.734339158797
 20
344.8916693464515
 42
0.0
 10
7223.734339158799
 20
334.3927352464281
 42
0.4142135623730951
 10
7225.734339158798
 20
332.3927352464284
 42
0.0
 10
7233.933192520304
 20
332.3927352464284
 42
-0.7595816512230912
 10
7237.52463468806
 20
332.392735246428
 42
0.0
 10
7246.700504092619
 20
332.3927352464323
 42
-0.7595816493590427
 10
7250.291946293337
 20
332.3927352464284
 42
0.0
 10
7259.467813664116
 20
332.3927352464284
 42
-0.7767342353201953
 10
7263.079272248344
 20
332.3147780636011
 42
0.0
 10
7269.64738148482
 20
332.3147780636013
 42
0.4142135623730868
 10
7271.647381484818
 20
334.314778063601
 42
0.0
 10
7271.64738148482
 20
337.1401038552961
 42
0.0
 10
7270.64738148482
 20
337.1401038552962
 42
0.0
 10
7270.64738148482
 20
334.3147780636013
 42
-0.4142135623730951
 10
7269.64738148482
 20
333.3147780636013
 42
0.0
 10
7263.74968543772
 20
333.3147780636013
 42
0.5694936494219963
 10
7258.823740054221
 20
333.3927352464284
 42
0.0
 10
7250.93602187727
 20
333.3927352464284
 42
0.5590616644338513
 10
7246.056428508689
 20
333.392735246432
 42
0.0
 10
7238.168710272583
 20
333.3927352464284
 42
0.5590616643157284
 10
7233.289116935781
 20
333.3927352464284
 42
0.0
 10
7225.734339158798
 20
333.3927352464284
 42
-0.4142135623731451
 10
7224.734339158799
 20
334.3927352464281
 42
0.0
 10
7224.734339158797
 20
344.3257394372523
 42
0.2364174637114482
 10
7225.889798245248
 20
346.6075890942661
 42
0.0
 10
7225.889798245248
 20
350.4768818084341
 42
0.2364174637115772
 10
7224.734339158799
 20
352.7587314654494
 42
0.0
 10
7224.734339158799
 20
386.0235053413343
 42
0.2353201211467568
 10
7225.878969731159
 20
388.2989208571583
 42
0.0
 10
7225.876754161173
 20
392.1682129370016
 42
0.2364174637122881
 10
7224.719988669379
 20
394.4494006001962
 42
0.0
 10
7224.714300997867
 20
404.3824031626303
 42
-0.4142135623730951
 10
7225.713728230577
 20
405.3829756020466
 42
0.0
 10
7233.268504769049
 20
405.3873014931386
 42
0.5590616643157161
 10
7238.148097305902
 20
405.3900955646482
 42
0.0
 10
7246.035814248918
 20
405.3946120985601
 42
0.5590616644338511
 10
7250.915406817551
 20
405.3974061700915
 42
0.0
 10
7258.803123701411
 20
405.4019227039732
 42
0.5694936494220229
 10
7263.72902363882
 20
405.4827004868672
 42
0.0
 10
7269.626718719066
 20
405.4860775274033
 42
-0.4142135623730951
 10
7270.627291158482
 20
404.4866502946944
 42
0.0
 10
7270.628908949506
 20
401.661324966176
 42
0.0
 10
7271.62890878557
 20
401.6618975695297
 42
0.0
 10
7271.627290994546
 20
404.4872228980485
 42
0.4142135623730618
 10
7269.626146115713
 20
406.4860773634659
 42
0.0
 10
7263.058037955996
 20
406.4823164420895
 42
-0.7767342353201953
 10
7259.446624602365
 20
406.402291338745
 42
0.0
 10
7250.270758735853
 20
406.3970372063148
 42
-0.759581649359043
 10
7246.679317123906
 20
406.3949807344618
 42
0.0
 10
7237.503449223614
 20
406.3897266008715
 42
-0.7595816512230912
 10
7233.912007644629
 20
406.387670129041
 42
0.0
 10
7225.713155627222
 20
406.3829754381092
 42
0.4142135623731117
 10
7223.714301161805
 20
404.3818305592765
 42
0.0
 10
7223.720312886681
 20
393.8828981804201
 42
-0.3073346934834261
 10
7224.885951895842
 20
392.1422551275621
 42
0.0
 10
7224.888138388493
 20
388.3237439763761
 42
-0.3057747226774016
 97
        0
 75
     0
 76
     1
 47
0.1180065091547201
 98
        1
 10
7224.135003036377
 20
377.224416314277
  0
HATCH
  5
238B
330
1F
100
AcDbEntity
  8
NOSNÉ KONSTRUKCE
100
AcDbHatch
 10
0.0
 20
0.0
 30
0.0
210
0.0
220
0.0
230
1.0
  2
SOLID
 70
     1
 71
     0
 91
        1
 92
        7
 72
     1
 73
     1
 93
       52
 10
6884.047872614925
 20
352.0173130413291
 42
0.0
 10
6884.047872614925
 20
386.4103070757837
 42
-0.3073346934841183
 10
6882.883230494904
 20
388.1516172920965
 42
0.0
 10
6882.883230494904
 20
391.9701290692774
 42
-0.307334693483106
 10
6884.047872614925
 20
393.7114392855828
 42
0.0
 10
6884.047872614925
 20
404.2103733856061
 42
0.4142135623730951
 10
6882.047872614926
 20
406.2103733856059
 42
0.0
 10
6873.84901925342
 20
406.2103733856059
 42
-0.7595816512230912
 10
6870.257577085664
 20
406.210373385606
 42
0.0
 10
6861.081707681103
 20
406.2103733856019
 42
-0.7595816493590427
 10
6857.490265480386
 20
406.2103733856059
 42
0.0
 10
6848.314398109607
 20
406.2103733856059
 42
-0.7767342353201953
 10
6844.70293952538
 20
406.2883305684331
 42
0.0
 10
6836.134830288904
 20
406.2883305684326
 42
0.0
 10
6836.134830288904
 20
405.2883305684331
 42
0.0
 10
6844.032526336004
 20
405.2883305684328
 42
0.5694936494219963
 10
6848.958471719503
 20
405.2103733856058
 42
0.0
 10
6856.846189896455
 20
405.2103733856058
 42
0.5590616644338513
 10
6861.725783265035
 20
405.2103733856021
 42
0.0
 10
6869.613501501142
 20
405.2103733856058
 42
0.5590616643157284
 10
6874.493094837943
 20
405.2103733856058
 42
0.0
 10
6882.047872614926
 20
405.2103733856058
 42
-0.4142135623731451
 10
6883.047872614927
 20
404.2103733856061
 42
0.0
 10
6883.047872614927
 20
394.2773691947818
 42
0.2364174637114482
 10
6881.892413528475
 20
391.9955195377681
 42
0.0
 10
6881.892413528475
 20
388.1262268236
 42
0.2364174637115772
 10
6883.047872614927
 20
385.8443771665847
 42
0.0
 10
6883.047872614927
 20
352.5796032906999
 42
0.2353201211467568
 10
6881.903242042565
 20
350.304187774876
 42
0.0
 10
6881.905457612551
 20
346.4348956950325
 42
0.2364174637122881
 10
6883.062223104345
 20
344.153708031838
 42
0.0
 10
6883.067910775857
 20
334.220705469404
 42
-0.4142135623730951
 10
6882.068483543149
 20
333.2201330299876
 42
0.0
 10
6874.513707004675
 20
333.2158071388958
 42
0.5590616643157161
 10
6869.634114467821
 20
333.2130130673858
 42
0.0
 10
6861.746397524806
 20
333.2084965334741
 42
0.5590616644338511
 10
6856.866804956173
 20
333.2057024619425
 42
0.0
 10
6848.979088072312
 20
333.201185928061
 42
0.5694936494220229
 10
6844.053188134904
 20
333.1204081451669
 42
0.0
 10
6836.154263004918
 20
333.1158851934051
 42
0.0
 10
6836.154835608272
 20
332.1158853573424
 42
0.0
 10
6844.724173817728
 20
332.1207921899447
 42
-0.7767342353201953
 10
6848.33558717136
 20
332.2008172932892
 42
0.0
 10
6857.511453037871
 20
332.2060714257195
 42
-0.759581649359043
 10
6861.102894649818
 20
332.2081278975724
 42
0.0
 10
6870.27876255011
 20
332.2133820311628
 42
-0.7595816512230912
 10
6873.870204129095
 20
332.2154385029932
 42
0.0
 10
6882.069056146502
 20
332.220133193925
 42
0.4142135623731117
 10
6884.06791061192
 20
334.2212780727577
 42
0.0
 10
6884.061898887043
 20
344.720210451614
 42
-0.3073346934834261
 10
6882.896259877881
 20
346.4608535044721
 42
0.0
 10
6882.89407338523
 20
350.2793646556581
 42
-0.3057747226774016
 97
        0
 75
     0
 76
     1
 47
0.1192862808561033
 98
        1
 10
6883.495552598458
 20
359.5682911880858
  0
LINE
  5
238C
330
1F
100
AcDbEntity
  8
CETRIS
100
AcDbLine
 10
7223.637344432574
 20
319.2577657896413
 30
0.0
 11
7223.637344432574
 21
419.4900200743916
 31
0.0
  0
LINE
  5
238D
330
1F
100
AcDbEntity
  8
CETRIS
100
AcDbLine
 10
6884.422017505066
 20
319.2577657896413
 30
0.0
 11
6884.422017505066
 21
331.2577657896413
 31
0.0
  0
LINE
  5
238E
330
1F
100
AcDbEntity
  8
CETRIS
100
AcDbLine
 10
7228.637344432574
 20
407.4900200743925
 30
0.0
 11
7471.284567793142
 21
407.4900200743927
 31
0.0
  0
LINE
  5
238F
330
1F
100
AcDbEntity
  8
NOSNÉ KONSTRUKCE
100
AcDbLine
 10
7223.637344432574
 20
406.4485961784182
 30
0.0
 11
7471.092758229044
 21
406.4485961784182
 31
0.0
  0
LINE
  5
2390
330
1F
100
AcDbEntity
  8
CETRIS
100
AcDbLine
 10
7228.637344432574
 20
419.4900200743918
 30
0.0
 11
7473.494729071443
 21
419.4900200743918
 31
0.0
  0
LINE
  5
2391
330
1F
100
AcDbEntity
  8
NOSNÉ KONSTRUKCE
100
AcDbLine
 10
7223.637344432574
 20
394.0618994172691
 30
0.0
 11
7468.811375100083
 21
394.0618994172691
 31
0.0
  0
LINE
  5
2392
330
1F
100
AcDbEntity
  8
NOSNÉ KONSTRUKCE
  6
DASHED
100
AcDbLine
 10
7223.637344432574
 20
386.563764399453
 30
0.0
 11
7467.430367793763
 21
386.563764399453
 31
0.0
  0
LINE
  5
2393
330
1F
100
AcDbEntity
  8
izolace
  6
IZOLACE
 48
2.2
100
AcDbLine
 10
7223.637344432574
 20
369.5150146626344
 30
0.0
 11
7464.290327251117
 21
369.5150146626344
 31
0.0
  0
LINE
  5
2394
330
1F
100
AcDbEntity
  8
NOSNÉ KONSTRUKCE
  6
DASHED
100
AcDbLine
 10
7225.506350260923
 20
352.5623441081179
 30
0.0
 11
7461.167982582503
 21
352.5623441081179
 31
0.0
  0
LINE
  5
2395
330
1F
100
AcDbEntity
  8
CETRIS
100
AcDbLine
 10
7228.637344432574
 20
331.2577657896413
 30
0.0
 11
7457.244103078335
 21
331.2577657896413
 31
0.0
  0
LINE
  5
2396
330
1F
100
AcDbEntity
  8
NOSNÉ KONSTRUKCE
100
AcDbLine
 10
7223.637344432574
 20
332.2070473149819
 30
0.0
 11
7457.418941850794
 21
332.2070473149819
 31
0.0
  0
LINE
  5
2397
330
1F
100
AcDbEntity
  8
NOSNÉ KONSTRUKCE
100
AcDbLine
 10
7223.637344432574
 20
344.3961489083483
 30
0.0
 11
7459.663931880704
 21
344.3961489083483
 31
0.0
  0
LINE
  5
2398
330
1F
100
AcDbEntity
  8
CETRIS
100
AcDbLine
 10
7228.637344432574
 20
319.2577657896413
 30
0.0
 11
7455.033941800035
 21
319.2577657896413
 31
0.0
  0
LINE
  5
2399
330
1F
100
AcDbEntity
  8
CETRIS
100
AcDbLine
 10
6884.422017505066
 20
407.4900200743918
 30
0.0
 11
6884.422017505066
 21
419.4900200743916
 31
0.0
  0
LINE
  5
239D
330
1F
100
AcDbEntity
  8
STAVBA OBRYS
100
AcDbLine
 10
6901.422017505066
 20
430.4900200743915
 30
0.0
 11
7050.918913654297
 21
430.4900200743914
 31
0.0
  0
LINE
  5
239E
102
{ACAD_REACTORS
330
5513
102
}
330
1F
100
AcDbEntity
  8
STAVBA OBRYS
100
AcDbLine
 10
6896.422017505067
 20
308.2577657896412
 30
0.0
 11
7028.406164039338
 21
308.2577657896413
 31
0.0
  0
LINE
  5
23A0
330
1F
100
AcDbEntity
  8
CETRIS
100
AcDbLine
 10
7223.637344432574
 20
419.4900200743916
 30
0.0
 11
7211.637344432574
 21
419.4900200743918
 31
0.0
  0
LINE
  5
23A1
330
1F
100
AcDbEntity
  8
CETRIS
100
AcDbLine
 10
7211.637344432574
 20
419.4900200743918
 30
0.0
 11
7211.637344432574
 21
319.2577657896413
 31
0.0
  0
LINE
  5
23A2
330
1F
100
AcDbEntity
  8
CETRIS
100
AcDbLine
 10
7223.637344432574
 20
319.2577657896413
 30
0.0
 11
7211.637344432574
 21
319.2577657896413
 31
0.0
  0
LINE
  5
23A4
330
1F
100
AcDbEntity
  8
CETRIS
100
AcDbLine
 10
7228.637344432574
 20
407.4900200743925
 30
0.0
 11
7228.637344432574
 21
419.4900200743918
 31
0.0
  0
LINE
  5
23A5
330
1F
100
AcDbEntity
  8
CETRIS
100
AcDbLine
 10
7228.637344432574
 20
331.2577657896413
 30
0.0
 11
7228.637344432574
 21
319.2577657896413
 31
0.0
  0
INSERT
  5
23A8
330
1F
100
AcDbEntity
  8
POPIS
100
AcDbBlockReference
  2
E_PUNKT
 10
7226.109015293982
 20
419.4609517435314
 30
0.0
  0
HATCH
  5
23A9
330
1F
100
AcDbEntity
  8
izolace
100
AcDbHatch
 10
0.0
 20
0.0
 30
0.0
210
0.0
220
0.0
230
1.0
  2
AR-SAND
 70
     0
 71
     0
 91
        1
 92
        7
 72
     0
 73
     1
 93
        4
 10
7228.637344432574
 20
419.4900200744046
 10
7223.637344432574
 20
419.4900200744037
 10
7223.637344432574
 20
407.4900200744046
 10
7228.637344432574
 20
407.4900200744046
 97
        0
 75
     0
 76
     1
 52
90.0
 41
0.05
 77
     0
 78
     4
 53
127.5
 43
-16731.49310141626
 44
-1069.007257183222
 45
-2.447066186646711
 46
-0.0800015647992021
 79
     6
 49
0.0
 49
-1.9304
 49
0.0
 49
-2.159
 49
0.0
 49
-2.06375
 53
97.49999999999985
 43
-16731.49310141626
 44
-1069.007257183222
 45
-3.584125502841771
 46
2.247616415690013
 79
     6
 49
0.0
 49
-1.041399999999999
 49
0.0
 49
-1.7399
 49
0.0
 49
-0.66675
 53
57.5
 43
-16731.49310141626
 44
-1070.569357183222
 45
-0.0071859233927282
 46
3.95496185120729
 79
     6
 49
0.0
 49
-0.635
 49
0.0
 49
-2.286
 49
0.0
 49
-2.9845
 53
47.5
 43
-16731.49310141626
 44
-1070.569357183222
 45
-1.11464661628608
 46
3.817782262361486
 79
     6
 49
0.0
 49
-0.3175
 49
0.0
 49
-1.498599999999999
 49
0.0
 49
-1.7145
 47
0.2359071171925059
 98
        1
 10
7225.661496529768
 20
413.32348597362
  0
LWPOLYLINE
  5
23AA
330
1F
100
AcDbEntity
  8
izolace
100
AcDbPolyline
 90
        4
 70
     1
 43
0.0
 10
7228.637344432574
 20
419.4900200744046
 10
7223.637344432574
 20
419.4900200744046
 10
7223.637344432574
 20
407.4900200744046
 10
7228.637344432574
 20
407.4900200744046
  0
LWPOLYLINE
  5
23AB
330
1F
100
AcDbEntity
  8
izolace
100
AcDbPolyline
 90
        4
 70
     1
 43
0.0
 10
7228.637344432574
 20
319.2577657896285
 10
7223.637344432574
 20
319.2577657896285
 10
7223.637344432574
 20
331.2577657896284
 10
7228.637344432574
 20
331.2577657896284
  0
HATCH
  5
23AC
330
1F
100
AcDbEntity
  8
izolace
100
AcDbHatch
 10
0.0
 20
0.0
 30
0.0
210
0.0
220
0.0
230
1.0
  2
AR-SAND
 70
     0
 71
     0
 91
        1
 92
        7
 72
     0
 73
     1
 93
        4
 10
7228.637344432574
 20
319.2577657896285
 10
7223.637344432574
 20
319.2577657896293
 10
7223.637344432574
 20
331.2577657896284
 10
7228.637344432574
 20
331.2577657896284
 97
        0
 75
     0
 76
     1
 52
90.0
 41
0.05
 77
     0
 78
     4
 53
232.5
 43
-16731.49310141626
 44
1807.755043047255
 45
-2.447066186646711
 46
0.0800015647992021
 79
     6
 49
0.0
 49
-1.9304
 49
0.0
 49
-2.159
 49
0.0
 49
-2.06375
 53
262.5000000000001
 43
-16731.49310141626
 44
1807.755043047255
 45
-3.584125502841771
 46
-2.247616415690013
 79
     6
 49
0.0
 49
-1.041399999999999
 49
0.0
 49
-1.7399
 49
0.0
 49
-0.66675
 53
302.4999999999999
 43
-16731.49310141626
 44
1809.317143047255
 45
-0.0071859233927282
 46
-3.95496185120729
 79
     6
 49
0.0
 49
-0.635
 49
0.0
 49
-2.286
 49
0.0
 49
-2.9845
 53
312.5
 43
-16731.49310141626
 44
1809.317143047255
 45
-1.11464661628608
 46
-3.817782262361486
 79
     6
 49
0.0
 49
-0.3175
 49
0.0
 49
-1.498599999999999
 49
0.0
 49
-1.7145
 47
0.2359071171925059
 98
        1
 10
7225.661496529768
 20
325.4242998904131
  0
LINE
  5
23AE
330
1F
100
AcDbEntity
  8
SPOJOVACÍ
  6
Continuous
100
AcDbLine
 10
7255.327712076267
 20
393.1325587250146
 30
0.0
 11
7251.202382423524
 21
392.15959484271
 31
0.0
  0
LINE
  5
23AF
330
1F
100
AcDbEntity
  8
SPOJOVACÍ
  6
Continuous
100
AcDbLine
 10
7254.949130527982
 20
392.913967412988
 30
0.0
 11
7251.58003379447
 21
391.7810132936035
 31
0.0
  0
LINE
  5
23B0
330
1F
100
AcDbEntity
  8
SPOJOVACÍ
  6
Continuous
100
AcDbLine
 10
7251.202382423524
 20
392.15959484271
 30
0.0
 11
7251.58003379447
 21
392.3772559787582
 31
0.0
  0
LINE
  5
23B1
330
1F
100
AcDbEntity
  8
SPOJOVACÍ
  6
Continuous
100
AcDbLine
 10
7254.3045187017
 20
392.7074683861835
 30
0.0
 11
7254.01430385218
 21
390.3857496001189
 31
0.0
  0
LINE
  5
23B2
330
1F
100
AcDbEntity
  8
SPOJOVACÍ
  6
Continuous
100
AcDbLine
 10
7254.19847865969
 20
387.1040893923971
 30
0.0
 11
7252.044191518233
 21
386.7934106766231
 31
0.0
  0
LINE
  5
23B3
330
1F
100
AcDbEntity
  8
SPOJOVACÍ
  6
Continuous
100
AcDbLine
 10
7253.820827288745
 20
387.4817407655252
 30
0.0
 11
7252.421842889178
 21
387.0110718129406
 31
0.0
  0
LINE
  5
23B4
330
1F
100
AcDbEntity
  8
SPOJOVACÍ
  6
Continuous
100
AcDbLine
 10
7253.820827288745
 20
386.8854980803778
 30
0.0
 11
7252.421842889178
 21
386.4148291277931
 31
0.0
  0
LINE
  5
23B5
330
1F
100
AcDbEntity
  8
SPOJOVACÍ
  6
Continuous
100
AcDbLine
 10
7252.044191518233
 20
386.7934106766231
 30
0.0
 11
7252.421842889178
 21
387.0110718129406
 31
0.0
  0
LINE
  5
23B6
330
1F
100
AcDbEntity
  8
SPOJOVACÍ
  6
Continuous
100
AcDbLine
 10
7252.044191518233
 20
386.7934106766231
 30
0.0
 11
7252.421842889178
 21
386.4148291277931
 31
0.0
  0
LINE
  5
23B7
330
1F
100
AcDbEntity
  8
SPOJOVACÍ
  6
Continuous
100
AcDbLine
 10
7254.19847865969
 20
387.1040893923971
 30
0.0
 11
7253.820827288745
 21
387.4817407655252
 31
0.0
  0
LINE
  5
23B8
330
1F
100
AcDbEntity
  8
SPOJOVACÍ
  6
Continuous
100
AcDbLine
 10
7254.19847865969
 20
387.1040893923971
 30
0.0
 11
7253.820827288745
 21
386.8854980803778
 31
0.0
  0
LINE
  5
23B9
330
1F
100
AcDbEntity
  8
SPOJOVACÍ
  6
Continuous
100
AcDbLine
 10
7254.763095370162
 20
390.1178589707167
 30
0.0
 11
7251.64700645373
 21
389.4844092539467
 31
0.0
  0
LINE
  5
23BA
330
1F
100
AcDbEntity
  8
SPOJOVACÍ
  6
Continuous
100
AcDbLine
 10
7254.38544399485
 20
390.4964405198231
 30
0.0
 11
7252.024657824676
 21
389.702070389995
 31
0.0
  0
LINE
  5
23BB
330
1F
100
AcDbEntity
  8
SPOJOVACÍ
  6
Continuous
100
AcDbLine
 10
7254.38544399485
 20
389.9001978346684
 30
0.0
 11
7252.024657824676
 21
389.1058277051167
 31
0.0
  0
LINE
  5
23BC
330
1F
100
AcDbEntity
  8
SPOJOVACÍ
  6
Continuous
100
AcDbLine
 10
7251.64700645373
 20
389.4844092539467
 30
0.0
 11
7252.024657824676
 21
389.702070389995
 31
0.0
  0
LINE
  5
23BD
330
1F
100
AcDbEntity
  8
SPOJOVACÍ
  6
Continuous
100
AcDbLine
 10
7251.64700645373
 20
389.4844092539467
 30
0.0
 11
7252.024657824676
 21
389.1058277051167
 31
0.0
  0
LINE
  5
23BE
330
1F
100
AcDbEntity
  8
SPOJOVACÍ
  6
Continuous
100
AcDbLine
 10
7254.763095370162
 20
390.1178589707167
 30
0.0
 11
7254.38544399485
 21
390.4964405198231
 31
0.0
  0
LINE
  5
23BF
330
1F
100
AcDbEntity
  8
SPOJOVACÍ
  6
Continuous
100
AcDbLine
 10
7254.763095370162
 20
390.1178589707167
 30
0.0
 11
7254.38544399485
 21
389.9001978346684
 31
0.0
  0
LINE
  5
23C0
330
1F
100
AcDbEntity
  8
SPOJOVACÍ
  6
Continuous
100
AcDbLine
 10
7251.202382423524
 20
392.15959484271
 30
0.0
 11
7251.58003379447
 21
391.7810132936035
 31
0.0
  0
LINE
  5
23C1
330
1F
100
AcDbEntity
  8
SPOJOVACÍ
  6
Continuous
100
AcDbLine
 10
7252.416261838241
 20
389.8471778142091
 30
0.0
 11
7252.149301382904
 21
391.9837916170624
 31
0.0
  0
LINE
  5
23C2
330
1F
100
AcDbEntity
  8
SPOJOVACÍ
  6
Continuous
100
AcDbLine
 10
7252.755775999411
 20
387.1301343147758
 30
0.0
 11
7252.4878853711
 21
389.2751196997603
 31
0.0
  0
LINE
  5
23C3
330
1F
100
AcDbEntity
  8
SPOJOVACÍ
  6
Continuous
100
AcDbLine
 10
7253.567819471662
 20
386.8138745442454
 30
0.0
 11
7253.181796517764
 21
383.7247607264405
 31
0.0
  0
LINE
  5
23C4
330
1F
100
AcDbEntity
  8
SPOJOVACÍ
  6
Continuous
100
AcDbLine
 10
7253.935238909342
 20
389.7550904104543
 30
0.0
 11
7253.645024064188
 21
387.4343018000988
 31
0.0
  0
LINE
  5
23C5
330
1F
100
AcDbEntity
  8
SPOJOVACÍ
  6
Continuous
100
AcDbLine
 10
7253.181796517764
 20
383.7247607264405
 30
0.0
 11
7252.827399536634
 21
386.560866727709
 31
0.0
  0
LINE
  5
23C6
330
1F
100
AcDbEntity
  8
SPOJOVACÍ
  6
Continuous
100
AcDbLine
 10
7255.581650070688
 20
405.569939290476
 30
0.0
 11
7255.203998695377
 21
405.9475906636041
 31
0.0
  0
LINE
  5
23C7
330
1F
100
AcDbEntity
  8
SPOJOVACÍ
  6
Continuous
100
AcDbLine
 10
7255.581650070688
 20
405.569939290476
 30
0.0
 11
7255.203998695377
 21
405.3513479784494
 31
0.0
  0
LINE
  5
23C8
330
1F
100
AcDbEntity
  8
SPOJOVACÍ
  6
Continuous
100
AcDbLine
 10
7255.203998695377
 20
409.0683304582678
 30
0.0
 11
7251.159594335785
 21
407.7084134450021
 31
0.0
  0
LINE
  5
23C9
330
1F
100
AcDbEntity
  8
SPOJOVACÍ
  6
Continuous
100
AcDbLine
 10
7255.203998695377
 20
408.4720877733896
 30
0.0
 11
7251.159594335785
 21
407.1121707598474
 31
0.0
  0
LINE
  5
23CA
330
1F
100
AcDbEntity
  8
SPOJOVACÍ
  6
Continuous
100
AcDbLine
 10
7250.781942964839
 20
407.4898221329756
 30
0.0
 11
7251.159594335785
 21
407.7084134450021
 31
0.0
  0
LINE
  5
23CB
330
1F
100
AcDbEntity
  8
SPOJOVACÍ
  6
Continuous
100
AcDbLine
 10
7250.781942964839
 20
407.4898221329756
 30
0.0
 11
7251.159594335785
 21
407.1121707598474
 31
0.0
  0
LINE
  5
23CC
330
1F
100
AcDbEntity
  8
SPOJOVACÍ
  6
Continuous
100
AcDbLine
 10
7255.581650070688
 20
408.6897489094378
 30
0.0
 11
7255.203998695377
 21
409.0683304582678
 31
0.0
  0
LINE
  5
23CD
330
1F
100
AcDbEntity
  8
SPOJOVACÍ
  6
Continuous
100
AcDbLine
 10
7255.581650070688
 20
408.6897489094378
 30
0.0
 11
7255.203998695377
 21
408.4720877733896
 31
0.0
  0
LINE
  5
23CE
330
1F
100
AcDbEntity
  8
SPOJOVACÍ
  6
Continuous
100
AcDbLine
 10
7255.581650070688
 20
408.6897489094378
 30
0.0
 11
7250.781942964839
 21
407.4898221329756
 31
0.0
  0
LINE
  5
23CF
330
1F
100
AcDbEntity
  8
SPOJOVACÍ
  6
Continuous
100
AcDbLine
 10
7254.531481596949
 20
408.2572171644467
 30
0.0
 11
7254.531481596949
 21
405.7383011094177
 31
0.0
  0
LINE
  5
23D0
330
1F
100
AcDbEntity
  8
SPOJOVACÍ
  6
Continuous
100
AcDbLine
 10
7254.531481596949
 20
412.8904228033031
 30
0.0
 11
7254.531481596949
 21
408.8525296736231
 31
0.0
  0
LINE
  5
23D1
330
1F
100
AcDbEntity
  8
SPOJOVACÍ
  6
Continuous
100
AcDbLine
 10
7251.832111434213
 20
412.8904228033031
 30
0.0
 11
7251.832111434213
 21
407.9474686243745
 31
0.0
  0
LINE
  5
23D2
330
1F
100
AcDbEntity
  8
SPOJOVACÍ
  6
Continuous
100
AcDbLine
 10
7258.281950406398
 20
418.2900932976597
 30
0.0
 11
7256.932265322847
 21
417.5459526611855
 31
0.0
  0
LINE
  5
23D3
330
1F
100
AcDbEntity
  8
SPOJOVACÍ
  6
Continuous
100
AcDbLine
 10
7256.932265322847
 20
417.5459526611855
 30
0.0
 11
7255.821635422488
 21
416.4771806717733
 31
0.0
  0
LINE
  5
23D4
330
1F
100
AcDbEntity
  8
SPOJOVACÍ
  6
Continuous
100
AcDbLine
 10
7255.821635422488
 20
416.4771806717733
 30
0.0
 11
7255.02540494317
 21
415.1581913934758
 31
0.0
  0
LINE
  5
23D5
330
1F
100
AcDbEntity
  8
SPOJOVACÍ
  6
Continuous
100
AcDbLine
 10
7255.02540494317
 20
415.1581913934758
 30
0.0
 11
7254.597524078871
 21
413.6773515264255
 31
0.0
  0
LINE
  5
23D6
330
1F
100
AcDbEntity
  8
SPOJOVACÍ
  6
Continuous
100
AcDbLine
 10
7254.597524078871
 20
413.6773515264255
 30
0.0
 11
7254.531481596949
 21
412.8904228033031
 31
0.0
  0
LINE
  5
23D7
330
1F
100
AcDbEntity
  8
SPOJOVACÍ
  6
Continuous
100
AcDbLine
 10
7250.034081624197
 20
417.0352861493345
 30
0.0
 11
7248.796947815297
 21
417.9533696597761
 31
0.0
  0
LINE
  5
23D8
330
1F
100
AcDbEntity
  8
SPOJOVACÍ
  6
Continuous
100
AcDbLine
 10
7248.796947815297
 20
417.9533696597761
 30
0.0
 11
7248.08164262913
 21
418.2900932976597
 31
0.0
  0
LINE
  5
23D9
330
1F
100
AcDbEntity
  8
SPOJOVACÍ
  6
Continuous
100
AcDbLine
 10
7258.281950406398
 20
418.2900932976597
 30
0.0
 11
7248.08164262913
 21
418.2900932976597
 31
0.0
  0
LINE
  5
23DA
330
1F
100
AcDbEntity
  8
SPOJOVACÍ
  6
Continuous
100
AcDbLine
 10
7258.281950406398
 20
419.4900200743911
 30
0.0
 11
7258.281950406398
 21
418.2900932976597
 31
0.0
  0
LINE
  5
23DB
330
1F
100
AcDbEntity
  8
SPOJOVACÍ
  6
Continuous
100
AcDbLine
 10
7258.281950406398
 20
419.4900200743911
 30
0.0
 11
7248.08164262913
 21
419.4900200743911
 31
0.0
  0
LINE
  5
23DC
330
1F
100
AcDbEntity
  8
SPOJOVACÍ
  6
Continuous
100
AcDbLine
 10
7248.08164262913
 20
419.4900200743911
 30
0.0
 11
7248.08164262913
 21
418.2900932976597
 31
0.0
  0
LINE
  5
23DD
330
1F
100
AcDbEntity
  8
SPOJOVACÍ
  6
Continuous
100
AcDbLine
 10
7251.832111434213
 20
412.8904228033031
 30
0.0
 11
7251.60514854333
 21
414.4140507567324
 31
0.0
  0
LINE
  5
23DE
330
1F
100
AcDbEntity
  8
SPOJOVACÍ
  6
Continuous
100
AcDbLine
 10
7251.60514854333
 20
414.4140507567324
 30
0.0
 11
7250.992162694181
 21
415.8279179664357
 31
0.0
  0
LINE
  5
23DF
330
1F
100
AcDbEntity
  8
SPOJOVACÍ
  6
Continuous
100
AcDbLine
 10
7250.992162694181
 20
415.8279179664357
 30
0.0
 11
7250.034081624197
 21
417.0352861493345
 31
0.0
  0
LINE
  5
23E0
330
1F
100
AcDbEntity
  8
SPOJOVACÍ
  6
Continuous
100
AcDbLine
 10
7255.203998695377
 20
396.5881618064347
 30
0.0
 11
7251.159594335785
 21
395.2282447928926
 31
0.0
  0
LINE
  5
23E1
330
1F
100
AcDbEntity
  8
SPOJOVACÍ
  6
Continuous
100
AcDbLine
 10
7255.203998695377
 20
395.99191912128
 30
0.0
 11
7251.159594335785
 21
394.6320021077379
 31
0.0
  0
LINE
  5
23E2
330
1F
100
AcDbEntity
  8
SPOJOVACÍ
  6
Continuous
100
AcDbLine
 10
7250.781942964839
 20
395.009653480866
 30
0.0
 11
7251.159594335785
 21
395.2282447928926
 31
0.0
  0
LINE
  5
23E3
330
1F
100
AcDbEntity
  8
SPOJOVACÍ
  6
Continuous
100
AcDbLine
 10
7250.781942964839
 20
395.009653480866
 30
0.0
 11
7251.159594335785
 21
394.6320021077379
 31
0.0
  0
LINE
  5
23E4
330
1F
100
AcDbEntity
  8
SPOJOVACÍ
  6
Continuous
100
AcDbLine
 10
7255.581650070688
 20
396.2095802573283
 30
0.0
 11
7255.203998695377
 21
396.5881618064347
 31
0.0
  0
LINE
  5
23E5
330
1F
100
AcDbEntity
  8
SPOJOVACÍ
  6
Continuous
100
AcDbLine
 10
7255.581650070688
 20
396.2095802573283
 30
0.0
 11
7255.203998695377
 21
395.99191912128
 31
0.0
  0
LINE
  5
23E6
330
1F
100
AcDbEntity
  8
SPOJOVACÍ
  6
Continuous
100
AcDbLine
 10
7255.581650070688
 20
396.2095802573283
 30
0.0
 11
7250.781942964839
 21
395.009653480866
 31
0.0
  0
LINE
  5
23E7
330
1F
100
AcDbEntity
  8
SPOJOVACÍ
  6
Continuous
100
AcDbLine
 10
7255.203998695377
 20
399.7079714253966
 30
0.0
 11
7251.159594335785
 21
398.3480544118545
 31
0.0
  0
LINE
  5
23E8
330
1F
100
AcDbEntity
  8
SPOJOVACÍ
  6
Continuous
100
AcDbLine
 10
7255.203998695377
 20
399.1117287402492
 30
0.0
 11
7251.159594335785
 21
397.7518117269762
 31
0.0
  0
LINE
  5
23E9
330
1F
100
AcDbEntity
  8
SPOJOVACÍ
  6
Continuous
100
AcDbLine
 10
7250.781942964839
 20
398.1303932758062
 30
0.0
 11
7251.159594335785
 21
398.3480544118545
 31
0.0
  0
LINE
  5
23EA
330
1F
100
AcDbEntity
  8
SPOJOVACÍ
  6
Continuous
100
AcDbLine
 10
7250.781942964839
 20
398.1303932758062
 30
0.0
 11
7251.159594335785
 21
397.7518117269762
 31
0.0
  0
LINE
  5
23EB
330
1F
100
AcDbEntity
  8
SPOJOVACÍ
  6
Continuous
100
AcDbLine
 10
7255.581650070688
 20
399.3303200522684
 30
0.0
 11
7255.203998695377
 21
399.7079714253966
 31
0.0
  0
LINE
  5
23EC
330
1F
100
AcDbEntity
  8
SPOJOVACÍ
  6
Continuous
100
AcDbLine
 10
7255.581650070688
 20
399.3303200522684
 30
0.0
 11
7255.203998695377
 21
399.1117287402492
 31
0.0
  0
LINE
  5
23ED
330
1F
100
AcDbEntity
  8
SPOJOVACÍ
  6
Continuous
100
AcDbLine
 10
7255.581650070688
 20
399.3303200522684
 30
0.0
 11
7250.781942964839
 21
398.1303932758062
 31
0.0
  0
LINE
  5
23EE
330
1F
100
AcDbEntity
  8
SPOJOVACÍ
  6
Continuous
100
AcDbLine
 10
7255.203998695377
 20
402.8277810443658
 30
0.0
 11
7251.159594335785
 21
401.4678640310928
 31
0.0
  0
LINE
  5
23EF
330
1F
100
AcDbEntity
  8
SPOJOVACÍ
  6
Continuous
100
AcDbLine
 10
7255.203998695377
 20
402.231538359211
 30
0.0
 11
7251.159594335785
 21
400.8716213459454
 31
0.0
  0
LINE
  5
23F0
330
1F
100
AcDbEntity
  8
SPOJOVACÍ
  6
Continuous
100
AcDbLine
 10
7250.781942964839
 20
401.2502028947753
 30
0.0
 11
7251.159594335785
 21
401.4678640310928
 31
0.0
  0
LINE
  5
23F1
330
1F
100
AcDbEntity
  8
SPOJOVACÍ
  6
Continuous
100
AcDbLine
 10
7250.781942964839
 20
401.2502028947753
 30
0.0
 11
7251.159594335785
 21
400.8716213459454
 31
0.0
  0
LINE
  5
23F2
330
1F
100
AcDbEntity
  8
SPOJOVACÍ
  6
Continuous
100
AcDbLine
 10
7255.581650070688
 20
402.4501296712376
 30
0.0
 11
7255.203998695377
 21
402.8277810443658
 31
0.0
  0
LINE
  5
23F3
330
1F
100
AcDbEntity
  8
SPOJOVACÍ
  6
Continuous
100
AcDbLine
 10
7255.581650070688
 20
402.4501296712376
 30
0.0
 11
7255.203998695377
 21
402.231538359211
 31
0.0
  0
LINE
  5
23F4
330
1F
100
AcDbEntity
  8
SPOJOVACÍ
  6
Continuous
100
AcDbLine
 10
7255.581650070688
 20
402.4501296712376
 30
0.0
 11
7250.781942964839
 21
401.2502028947753
 31
0.0
  0
LINE
  5
23F5
330
1F
100
AcDbEntity
  8
SPOJOVACÍ
  6
Continuous
100
AcDbLine
 10
7254.949130527982
 20
393.5102100981428
 30
0.0
 11
7251.58003379447
 21
392.3772559787582
 31
0.0
  0
LINE
  5
23F6
330
1F
100
AcDbEntity
  8
SPOJOVACÍ
  6
Continuous
100
AcDbLine
 10
7255.327712076267
 20
393.1325587250146
 30
0.0
 11
7254.949130527982
 21
393.5102100981428
 31
0.0
  0
LINE
  5
23F7
330
1F
100
AcDbEntity
  8
SPOJOVACÍ
  6
Continuous
100
AcDbLine
 10
7255.327712076267
 20
393.1325587250146
 30
0.0
 11
7254.949130527982
 21
392.913967412988
 31
0.0
  0
LINE
  5
23F8
330
1F
100
AcDbEntity
  8
SPOJOVACÍ
  6
Continuous
100
AcDbLine
 10
7250.781942964839
 20
404.3700125137372
 30
0.0
 11
7251.159594335785
 21
404.5886038257638
 31
0.0
  0
LINE
  5
23F9
330
1F
100
AcDbEntity
  8
SPOJOVACÍ
  6
Continuous
100
AcDbLine
 10
7250.781942964839
 20
404.3700125137372
 30
0.0
 11
7251.159594335785
 21
403.9923611408855
 31
0.0
  0
LINE
  5
23FA
330
1F
100
AcDbEntity
  8
SPOJOVACÍ
  6
Continuous
100
AcDbLine
 10
7252.07767784568
 20
392.5539893801076
 30
0.0
 11
7251.832111434213
 21
394.5250318913938
 31
0.0
  0
LINE
  5
23FB
330
1F
100
AcDbEntity
  8
SPOJOVACÍ
  6
Continuous
100
AcDbLine
 10
7254.531481596949
 20
394.5250318913938
 30
0.0
 11
7254.381723294226
 21
393.327895642037
 31
0.0
  0
LINE
  5
23FC
330
1F
100
AcDbEntity
  8
SPOJOVACÍ
  6
Continuous
100
AcDbLine
 10
7251.832111434213
 20
394.8617555292774
 30
0.0
 11
7251.832111434213
 21
394.5250318913938
 31
0.0
  0
LINE
  5
23FD
330
1F
100
AcDbEntity
  8
SPOJOVACÍ
  6
Continuous
100
AcDbLine
 10
7251.832111434213
 20
397.9843556758903
 30
0.0
 11
7251.832111434213
 21
395.4654396208614
 31
0.0
  0
LINE
  5
23FE
330
1F
100
AcDbEntity
  8
SPOJOVACÍ
  6
Continuous
100
AcDbLine
 10
7254.531481596949
 20
395.7723976332824
 30
0.0
 11
7254.531481596949
 21
394.5250318913938
 31
0.0
  0
LINE
  5
23FF
330
1F
100
AcDbEntity
  8
SPOJOVACÍ
  6
Continuous
100
AcDbLine
 10
7254.531481596949
 20
398.8866261977643
 30
0.0
 11
7254.531481596949
 21
396.3686403184372
 31
0.0
  0
LINE
  5
2400
330
1F
100
AcDbEntity
  8
SPOJOVACÍ
  6
Continuous
100
AcDbLine
 10
7251.832111434213
 20
401.1060256465323
 30
0.0
 11
7251.832111434213
 21
398.5852492398232
 31
0.0
  0
LINE
  5
2401
330
1F
100
AcDbEntity
  8
SPOJOVACÍ
  6
Continuous
100
AcDbLine
 10
7251.832111434213
 20
404.228625792876
 30
0.0
 11
7251.832111434213
 21
401.7004079800069
 31
0.0
  0
LINE
  5
2402
330
1F
100
AcDbEntity
  8
SPOJOVACÍ
  6
Continuous
100
AcDbLine
 10
7254.531481596949
 20
402.0194582779192
 30
0.0
 11
7254.531481596949
 21
399.4912404650501
 31
0.0
  0
LINE
  5
2404
330
1F
100
AcDbEntity
  8
SPOJOVACÍ
  6
Continuous
100
AcDbLine
 10
7255.203998695377
 20
405.9475906636041
 30
0.0
 11
7251.159594335785
 21
404.5886038257638
 31
0.0
  0
LINE
  5
2405
330
1F
100
AcDbEntity
  8
SPOJOVACÍ
  6
Continuous
100
AcDbLine
 10
7255.203998695377
 20
405.3513479784494
 30
0.0
 11
7251.159594335785
 21
403.9923611408855
 31
0.0
  0
LINE
  5
2406
330
1F
100
AcDbEntity
  8
SPOJOVACÍ
  6
Continuous
100
AcDbLine
 10
7255.581650070688
 20
405.569939290476
 30
0.0
 11
7250.781942964839
 21
404.3700125137372
 31
0.0
  0
LINE
  5
2407
330
1F
100
AcDbEntity
  8
SPOJOVACÍ
  6
Continuous
100
AcDbLine
 10
7251.832111434213
 20
407.3437845330597
 30
0.0
 11
7251.832111434213
 21
404.8248684780308
 31
0.0
  0
LINE
  5
2408
330
1F
100
AcDbEntity
  8
SPOJOVACÍ
  6
Continuous
100
AcDbLine
 10
7254.531481596949
 20
405.1346170181029
 30
0.0
 11
7254.531481596949
 21
402.6138406113939
 31
0.0
  0
LINE
  5
2409
330
1F
100
AcDbEntity
  8
SPOJOVACÍ
  6
Continuous
100
AcDbLine
 10
7254.3045187017
 20
346.0403174778496
 30
0.0
 11
7254.01430385218
 21
348.3620362639141
 31
0.0
  0
LINE
  5
240A
330
1F
100
AcDbEntity
  8
SPOJOVACÍ
  6
Continuous
100
AcDbLine
 10
7251.202382423524
 20
346.5881910213231
 30
0.0
 11
7251.58003379447
 21
346.3705298852748
 31
0.0
  0
LINE
  5
240B
330
1F
100
AcDbEntity
  8
SPOJOVACÍ
  6
Continuous
100
AcDbLine
 10
7254.949130527982
 20
345.833818451045
 30
0.0
 11
7251.58003379447
 21
346.9667725704296
 31
0.0
  0
LINE
  5
240C
330
1F
100
AcDbEntity
  8
SPOJOVACÍ
  6
Continuous
100
AcDbLine
 10
7255.327712076267
 20
345.6152271390185
 30
0.0
 11
7251.202382423524
 21
346.5881910213231
 31
0.0
  0
LINE
  5
240D
330
1F
100
AcDbEntity
  8
SPOJOVACÍ
  6
Continuous
100
AcDbLine
 10
7253.181796517764
 20
355.0230251375926
 30
0.0
 11
7252.827399536634
 21
352.1869191363241
 31
0.0
  0
LINE
  5
240E
330
1F
100
AcDbEntity
  8
SPOJOVACÍ
  6
Continuous
100
AcDbLine
 10
7253.935238909342
 20
348.9926954535787
 30
0.0
 11
7253.645024064188
 21
351.3134840639343
 31
0.0
  0
LINE
  5
240F
330
1F
100
AcDbEntity
  8
SPOJOVACÍ
  6
Continuous
100
AcDbLine
 10
7253.567819471662
 20
351.9339113197877
 30
0.0
 11
7253.181796517764
 21
355.0230251375926
 31
0.0
  0
LINE
  5
2410
330
1F
100
AcDbEntity
  8
SPOJOVACÍ
  6
Continuous
100
AcDbLine
 10
7252.755775999411
 20
351.6176515492572
 30
0.0
 11
7252.4878853711
 21
349.4726661642728
 31
0.0
  0
LINE
  5
2411
330
1F
100
AcDbEntity
  8
SPOJOVACÍ
  6
Continuous
100
AcDbLine
 10
7252.416261838241
 20
348.900608049824
 30
0.0
 11
7252.149301382904
 21
346.7639942469706
 31
0.0
  0
LINE
  5
2412
330
1F
100
AcDbEntity
  8
SPOJOVACÍ
  6
Continuous
100
AcDbLine
 10
7251.202382423524
 20
346.5881910213231
 30
0.0
 11
7251.58003379447
 21
346.9667725704296
 31
0.0
  0
LINE
  5
2413
330
1F
100
AcDbEntity
  8
SPOJOVACÍ
  6
Continuous
100
AcDbLine
 10
7254.763095370162
 20
348.6299268933164
 30
0.0
 11
7254.38544399485
 21
348.8475880293647
 31
0.0
  0
LINE
  5
2414
330
1F
100
AcDbEntity
  8
SPOJOVACÍ
  6
Continuous
100
AcDbLine
 10
7254.763095370162
 20
348.6299268933164
 30
0.0
 11
7254.38544399485
 21
348.2513453442099
 31
0.0
  0
LINE
  5
2415
330
1F
100
AcDbEntity
  8
SPOJOVACÍ
  6
Continuous
100
AcDbLine
 10
7251.64700645373
 20
349.2633766100864
 30
0.0
 11
7252.024657824676
 21
349.6419581589163
 31
0.0
  0
LINE
  5
2416
330
1F
100
AcDbEntity
  8
SPOJOVACÍ
  6
Continuous
100
AcDbLine
 10
7251.64700645373
 20
349.2633766100864
 30
0.0
 11
7252.024657824676
 21
349.0457154740381
 31
0.0
  0
LINE
  5
2417
330
1F
100
AcDbEntity
  8
SPOJOVACÍ
  6
Continuous
100
AcDbLine
 10
7254.38544399485
 20
348.8475880293647
 30
0.0
 11
7252.024657824676
 21
349.6419581589163
 31
0.0
  0
LINE
  5
2418
330
1F
100
AcDbEntity
  8
SPOJOVACÍ
  6
Continuous
100
AcDbLine
 10
7254.38544399485
 20
348.2513453442099
 30
0.0
 11
7252.024657824676
 21
349.0457154740381
 31
0.0
  0
LINE
  5
2419
330
1F
100
AcDbEntity
  8
SPOJOVACÍ
  6
Continuous
100
AcDbLine
 10
7254.763095370162
 20
348.6299268933164
 30
0.0
 11
7251.64700645373
 21
349.2633766100864
 31
0.0
  0
LINE
  5
241A
330
1F
100
AcDbEntity
  8
SPOJOVACÍ
  6
Continuous
100
AcDbLine
 10
7254.19847865969
 20
351.643696471636
 30
0.0
 11
7253.820827288745
 21
351.8622877836553
 31
0.0
  0
LINE
  5
241B
330
1F
100
AcDbEntity
  8
SPOJOVACÍ
  6
Continuous
100
AcDbLine
 10
7254.19847865969
 20
351.643696471636
 30
0.0
 11
7253.820827288745
 21
351.2660450985078
 31
0.0
  0
LINE
  5
241C
330
1F
100
AcDbEntity
  8
SPOJOVACÍ
  6
Continuous
100
AcDbLine
 10
7252.044191518233
 20
351.95437518741
 30
0.0
 11
7252.421842889178
 21
352.33295673624
 31
0.0
  0
LINE
  5
241D
330
1F
100
AcDbEntity
  8
SPOJOVACÍ
  6
Continuous
100
AcDbLine
 10
7252.044191518233
 20
351.95437518741
 30
0.0
 11
7252.421842889178
 21
351.7367140510925
 31
0.0
  0
LINE
  5
241E
330
1F
100
AcDbEntity
  8
SPOJOVACÍ
  6
Continuous
100
AcDbLine
 10
7253.820827288745
 20
351.8622877836553
 30
0.0
 11
7252.421842889178
 21
352.33295673624
 31
0.0
  0
LINE
  5
241F
330
1F
100
AcDbEntity
  8
SPOJOVACÍ
  6
Continuous
100
AcDbLine
 10
7253.820827288745
 20
351.2660450985078
 30
0.0
 11
7252.421842889178
 21
351.7367140510925
 31
0.0
  0
LINE
  5
2420
330
1F
100
AcDbEntity
  8
SPOJOVACÍ
  6
Continuous
100
AcDbLine
 10
7254.19847865969
 20
351.643696471636
 30
0.0
 11
7252.044191518233
 21
351.95437518741
 31
0.0
  0
LINE
  5
2421
330
1F
100
AcDbEntity
  8
SPOJOVACÍ
  6
Continuous
100
AcDbLine
 10
7254.531481596949
 20
333.6131688459301
 30
0.0
 11
7254.531481596949
 21
336.1339452526392
 31
0.0
  0
LINE
  5
2422
330
1F
100
AcDbEntity
  8
SPOJOVACÍ
  6
Continuous
100
AcDbLine
 10
7251.832111434213
 20
331.4040013309734
 30
0.0
 11
7251.832111434213
 21
333.9229173860023
 31
0.0
  0
LINE
  5
2423
330
1F
100
AcDbEntity
  8
SPOJOVACÍ
  6
Continuous
100
AcDbLine
 10
7255.581650070688
 20
333.1778465735571
 30
0.0
 11
7250.781942964839
 21
334.3777733502959
 31
0.0
  0
LINE
  5
2424
330
1F
100
AcDbEntity
  8
SPOJOVACÍ
  6
Continuous
100
AcDbLine
 10
7255.203998695377
 20
333.3964378855837
 30
0.0
 11
7251.159594335785
 21
334.7554247231475
 31
0.0
  0
LINE
  5
2425
330
1F
100
AcDbEntity
  8
SPOJOVACÍ
  6
Continuous
100
AcDbLine
 10
7255.203998695377
 20
332.800195200429
 30
0.0
 11
7251.159594335785
 21
334.1591820382693
 31
0.0
  0
LINE
  5
2426
330
1F
100
AcDbEntity
  8
NOSNÉ KONSTRUKCE
100
AcDbLine
 10
7258.055739510378
 20
337.3483271450143
 30
0.0
 11
7259.555739510378
 21
337.3483271450143
 31
0.0
  0
LINE
  5
2427
330
1F
100
AcDbEntity
  8
SPOJOVACÍ
  6
Continuous
100
AcDbLine
 10
7254.531481596949
 20
336.7283275861138
 30
0.0
 11
7254.531481596949
 21
339.256545398983
 31
0.0
  0
LINE
  5
2428
330
1F
100
AcDbEntity
  8
SPOJOVACÍ
  6
Continuous
100
AcDbLine
 10
7251.832111434213
 20
334.519160071157
 30
0.0
 11
7251.832111434213
 21
337.0473778840262
 31
0.0
  0
LINE
  5
2429
330
1F
100
AcDbEntity
  8
SPOJOVACÍ
  6
Continuous
100
AcDbLine
 10
7251.832111434213
 20
337.6417602175008
 30
0.0
 11
7251.832111434213
 21
340.1625366242098
 31
0.0
  0
LINE
  5
242A
330
1F
100
AcDbEntity
  8
SPOJOVACÍ
  6
Continuous
100
AcDbLine
 10
7254.531481596949
 20
339.8611596662687
 30
0.0
 11
7254.531481596949
 21
342.3791455455959
 31
0.0
  0
LINE
  5
242B
330
1F
100
AcDbEntity
  8
SPOJOVACÍ
  6
Continuous
100
AcDbLine
 10
7254.531481596949
 20
342.9753882307506
 30
0.0
 11
7254.531481596949
 21
344.2227539726393
 31
0.0
  0
LINE
  5
242C
330
1F
100
AcDbEntity
  8
SPOJOVACÍ
  6
Continuous
100
AcDbLine
 10
7251.832111434213
 20
340.7634301881428
 30
0.0
 11
7251.832111434213
 21
343.2823462431717
 31
0.0
  0
LINE
  5
242D
330
1F
100
AcDbEntity
  8
SPOJOVACÍ
  6
Continuous
100
AcDbLine
 10
7251.832111434213
 20
343.8860303347557
 30
0.0
 11
7251.832111434213
 21
344.2227539726393
 31
0.0
  0
LINE
  5
242E
330
1F
100
AcDbEntity
  8
SPOJOVACÍ
  6
Continuous
100
AcDbLine
 10
7254.531481596949
 20
344.2227539726393
 30
0.0
 11
7254.381723294226
 21
345.4198902219961
 31
0.0
  0
LINE
  5
242F
330
1F
100
AcDbEntity
  8
SPOJOVACÍ
  6
Continuous
100
AcDbLine
 10
7252.07767784568
 20
346.1937964839255
 30
0.0
 11
7251.832111434213
 21
344.2227539726393
 31
0.0
  0
LINE
  5
2430
330
1F
100
AcDbEntity
  8
SPOJOVACÍ
  6
Continuous
100
AcDbLine
 10
7250.781942964839
 20
334.3777733502959
 30
0.0
 11
7251.159594335785
 21
334.7554247231475
 31
0.0
  0
LINE
  5
2431
330
1F
100
AcDbEntity
  8
SPOJOVACÍ
  6
Continuous
100
AcDbLine
 10
7250.781942964839
 20
334.3777733502959
 30
0.0
 11
7251.159594335785
 21
334.1591820382693
 31
0.0
  0
LINE
  5
2432
330
1F
100
AcDbEntity
  8
SPOJOVACÍ
  6
Continuous
100
AcDbLine
 10
7255.327712076267
 20
345.6152271390185
 30
0.0
 11
7254.949130527982
 21
345.833818451045
 31
0.0
  0
LINE
  5
2433
330
1F
100
AcDbEntity
  8
SPOJOVACÍ
  6
Continuous
100
AcDbLine
 10
7255.327712076267
 20
345.6152271390185
 30
0.0
 11
7254.949130527982
 21
345.2375757658903
 31
0.0
  0
LINE
  5
2434
330
1F
100
AcDbEntity
  8
SPOJOVACÍ
  6
Continuous
100
AcDbLine
 10
7254.949130527982
 20
345.2375757658903
 30
0.0
 11
7251.58003379447
 21
346.3705298852748
 31
0.0
  0
LINE
  5
2435
330
1F
100
AcDbEntity
  8
SPOJOVACÍ
  6
Continuous
100
AcDbLine
 10
7255.581650070688
 20
336.2976561927955
 30
0.0
 11
7250.781942964839
 21
337.4975829692577
 31
0.0
  0
LINE
  5
2436
330
1F
100
AcDbEntity
  8
SPOJOVACÍ
  6
Continuous
100
AcDbLine
 10
7255.581650070688
 20
336.2976561927955
 30
0.0
 11
7255.203998695377
 21
336.516247504822
 31
0.0
  0
LINE
  5
2437
330
1F
100
AcDbEntity
  8
SPOJOVACÍ
  6
Continuous
100
AcDbLine
 10
7255.581650070688
 20
336.2976561927955
 30
0.0
 11
7255.203998695377
 21
335.9200048196673
 31
0.0
  0
LINE
  5
2438
330
1F
100
AcDbEntity
  8
SPOJOVACÍ
  6
Continuous
100
AcDbLine
 10
7250.781942964839
 20
337.4975829692577
 30
0.0
 11
7251.159594335785
 21
337.8761645180877
 31
0.0
  0
LINE
  5
2439
330
1F
100
AcDbEntity
  8
SPOJOVACÍ
  6
Continuous
100
AcDbLine
 10
7250.781942964839
 20
337.4975829692577
 30
0.0
 11
7251.159594335785
 21
337.2799218329403
 31
0.0
  0
LINE
  5
243A
330
1F
100
AcDbEntity
  8
SPOJOVACÍ
  6
Continuous
100
AcDbLine
 10
7255.203998695377
 20
336.516247504822
 30
0.0
 11
7251.159594335785
 21
337.8761645180877
 31
0.0
  0
LINE
  5
243B
330
1F
100
AcDbEntity
  8
SPOJOVACÍ
  6
Continuous
100
AcDbLine
 10
7255.203998695377
 20
335.9200048196673
 30
0.0
 11
7251.159594335785
 21
337.2799218329403
 31
0.0
  0
LINE
  5
243C
330
1F
100
AcDbEntity
  8
SPOJOVACÍ
  6
Continuous
100
AcDbLine
 10
7255.581650070688
 20
339.4174658117647
 30
0.0
 11
7250.781942964839
 21
340.6173925882269
 31
0.0
  0
LINE
  5
243D
330
1F
100
AcDbEntity
  8
SPOJOVACÍ
  6
Continuous
100
AcDbLine
 10
7255.581650070688
 20
339.4174658117647
 30
0.0
 11
7255.203998695377
 21
339.6360571237839
 31
0.0
  0
LINE
  5
243E
330
1F
100
AcDbEntity
  8
SPOJOVACÍ
  6
Continuous
100
AcDbLine
 10
7255.581650070688
 20
339.4174658117647
 30
0.0
 11
7255.203998695377
 21
339.0398144386365
 31
0.0
  0
LINE
  5
243F
330
1F
100
AcDbEntity
  8
SPOJOVACÍ
  6
Continuous
100
AcDbLine
 10
7250.781942964839
 20
340.6173925882269
 30
0.0
 11
7251.159594335785
 21
340.9959741370569
 31
0.0
  0
LINE
  5
2440
330
1F
100
AcDbEntity
  8
SPOJOVACÍ
  6
Continuous
100
AcDbLine
 10
7250.781942964839
 20
340.6173925882269
 30
0.0
 11
7251.159594335785
 21
340.3997314521786
 31
0.0
  0
LINE
  5
2441
330
1F
100
AcDbEntity
  8
SPOJOVACÍ
  6
Continuous
100
AcDbLine
 10
7255.203998695377
 20
339.6360571237839
 30
0.0
 11
7251.159594335785
 21
340.9959741370569
 31
0.0
  0
LINE
  5
2442
330
1F
100
AcDbEntity
  8
SPOJOVACÍ
  6
Continuous
100
AcDbLine
 10
7255.203998695377
 20
339.0398144386365
 30
0.0
 11
7251.159594335785
 21
340.3997314521786
 31
0.0
  0
LINE
  5
2443
330
1F
100
AcDbEntity
  8
SPOJOVACÍ
  6
Continuous
100
AcDbLine
 10
7255.581650070688
 20
342.5382056067048
 30
0.0
 11
7250.781942964839
 21
343.7381323831671
 31
0.0
  0
LINE
  5
2444
330
1F
100
AcDbEntity
  8
SPOJOVACÍ
  6
Continuous
100
AcDbLine
 10
7255.581650070688
 20
342.5382056067048
 30
0.0
 11
7255.203998695377
 21
342.7558667427531
 31
0.0
  0
LINE
  5
2445
330
1F
100
AcDbEntity
  8
SPOJOVACÍ
  6
Continuous
100
AcDbLine
 10
7255.581650070688
 20
342.5382056067048
 30
0.0
 11
7255.203998695377
 21
342.1596240575984
 31
0.0
  0
LINE
  5
2446
330
1F
100
AcDbEntity
  8
SPOJOVACÍ
  6
Continuous
100
AcDbLine
 10
7250.781942964839
 20
343.7381323831671
 30
0.0
 11
7251.159594335785
 21
344.1157837562952
 31
0.0
  0
LINE
  5
2447
330
1F
100
AcDbEntity
  8
SPOJOVACÍ
  6
Continuous
100
AcDbLine
 10
7250.781942964839
 20
343.7381323831671
 30
0.0
 11
7251.159594335785
 21
343.5195410711405
 31
0.0
  0
LINE
  5
2448
330
1F
100
AcDbEntity
  8
SPOJOVACÍ
  6
Continuous
100
AcDbLine
 10
7255.203998695377
 20
342.7558667427531
 30
0.0
 11
7251.159594335785
 21
344.1157837562952
 31
0.0
  0
LINE
  5
2449
330
1F
100
AcDbEntity
  8
SPOJOVACÍ
  6
Continuous
100
AcDbLine
 10
7255.203998695377
 20
342.1596240575984
 30
0.0
 11
7251.159594335785
 21
343.5195410711405
 31
0.0
  0
LINE
  5
244A
330
1F
100
AcDbEntity
  8
SPOJOVACÍ
  6
Continuous
100
AcDbLine
 10
7250.992162694181
 20
322.9198678975974
 30
0.0
 11
7250.034081624197
 21
321.7124997146986
 31
0.0
  0
LINE
  5
244B
330
1F
100
AcDbEntity
  8
SPOJOVACÍ
  6
Continuous
100
AcDbLine
 10
7251.60514854333
 20
324.3337351073007
 30
0.0
 11
7250.992162694181
 21
322.9198678975974
 31
0.0
  0
LINE
  5
244C
330
1F
100
AcDbEntity
  8
SPOJOVACÍ
  6
Continuous
100
AcDbLine
 10
7251.832111434213
 20
325.8573630607299
 30
0.0
 11
7251.60514854333
 21
324.3337351073007
 31
0.0
  0
LINE
  5
244D
330
1F
100
AcDbEntity
  8
SPOJOVACÍ
  6
Continuous
100
AcDbLine
 10
7248.08164262913
 20
319.257765789642
 30
0.0
 11
7248.08164262913
 21
320.4576925663734
 31
0.0
  0
LINE
  5
244E
330
1F
100
AcDbEntity
  8
SPOJOVACÍ
  6
Continuous
100
AcDbLine
 10
7258.281950406398
 20
319.257765789642
 30
0.0
 11
7248.08164262913
 21
319.257765789642
 31
0.0
  0
LINE
  5
244F
330
1F
100
AcDbEntity
  8
SPOJOVACÍ
  6
Continuous
100
AcDbLine
 10
7258.281950406398
 20
319.257765789642
 30
0.0
 11
7258.281950406398
 21
320.4576925663734
 31
0.0
  0
LINE
  5
2450
330
1F
100
AcDbEntity
  8
SPOJOVACÍ
  6
Continuous
100
AcDbLine
 10
7258.281950406398
 20
320.4576925663734
 30
0.0
 11
7248.08164262913
 21
320.4576925663734
 31
0.0
  0
LINE
  5
2451
330
1F
100
AcDbEntity
  8
SPOJOVACÍ
  6
Continuous
100
AcDbLine
 10
7248.796947815297
 20
320.7944162042569
 30
0.0
 11
7248.08164262913
 21
320.4576925663734
 31
0.0
  0
LINE
  5
2452
330
1F
100
AcDbEntity
  8
SPOJOVACÍ
  6
Continuous
100
AcDbLine
 10
7250.034081624197
 20
321.7124997146986
 30
0.0
 11
7248.796947815297
 21
320.7944162042569
 31
0.0
  0
LINE
  5
2453
330
1F
100
AcDbEntity
  8
SPOJOVACÍ
  6
Continuous
100
AcDbLine
 10
7254.597524078871
 20
325.0704343376075
 30
0.0
 11
7254.531481596949
 21
325.8573630607299
 31
0.0
  0
LINE
  5
2454
330
1F
100
AcDbEntity
  8
SPOJOVACÍ
  6
Continuous
100
AcDbLine
 10
7255.02540494317
 20
323.5895944705573
 30
0.0
 11
7254.597524078871
 21
325.0704343376075
 31
0.0
  0
LINE
  5
2455
330
1F
100
AcDbEntity
  8
SPOJOVACÍ
  6
Continuous
100
AcDbLine
 10
7255.821635422488
 20
322.2706051922598
 30
0.0
 11
7255.02540494317
 21
323.5895944705573
 31
0.0
  0
LINE
  5
2456
330
1F
100
AcDbEntity
  8
SPOJOVACÍ
  6
Continuous
100
AcDbLine
 10
7256.932265322847
 20
321.2018332028476
 30
0.0
 11
7255.821635422488
 21
322.2706051922598
 31
0.0
  0
LINE
  5
2457
330
1F
100
AcDbEntity
  8
SPOJOVACÍ
  6
Continuous
100
AcDbLine
 10
7258.281950406398
 20
320.4576925663734
 30
0.0
 11
7256.932265322847
 21
321.2018332028476
 31
0.0
  0
LINE
  5
2458
330
1F
100
AcDbEntity
  8
SPOJOVACÍ
  6
Continuous
100
AcDbLine
 10
7251.832111434213
 20
325.8573630607299
 30
0.0
 11
7251.832111434213
 21
330.8003172396586
 31
0.0
  0
LINE
  5
2459
330
1F
100
AcDbEntity
  8
SPOJOVACÍ
  6
Continuous
100
AcDbLine
 10
7254.531481596949
 20
325.8573630607299
 30
0.0
 11
7254.531481596949
 21
329.89525619041
 31
0.0
  0
LINE
  5
245A
330
1F
100
AcDbEntity
  8
SPOJOVACÍ
  6
Continuous
100
AcDbLine
 10
7254.531481596949
 20
330.4905686995864
 30
0.0
 11
7254.531481596949
 21
333.0094847546154
 31
0.0
  0
LINE
  5
245B
330
1F
100
AcDbEntity
  8
SPOJOVACÍ
  6
Continuous
100
AcDbLine
 10
7255.581650070688
 20
330.0580369545953
 30
0.0
 11
7250.781942964839
 21
331.2579637310575
 31
0.0
  0
LINE
  5
245C
330
1F
100
AcDbEntity
  8
SPOJOVACÍ
  6
Continuous
100
AcDbLine
 10
7255.581650070688
 20
330.0580369545953
 30
0.0
 11
7255.203998695377
 21
330.2756980906435
 31
0.0
  0
LINE
  5
245D
330
1F
100
AcDbEntity
  8
SPOJOVACÍ
  6
Continuous
100
AcDbLine
 10
7255.581650070688
 20
330.0580369545953
 30
0.0
 11
7255.203998695377
 21
329.6794554057653
 31
0.0
  0
LINE
  5
245E
330
1F
100
AcDbEntity
  8
SPOJOVACÍ
  6
Continuous
100
AcDbLine
 10
7250.781942964839
 20
331.2579637310575
 30
0.0
 11
7251.159594335785
 21
331.6356151041857
 31
0.0
  0
LINE
  5
245F
330
1F
100
AcDbEntity
  8
SPOJOVACÍ
  6
Continuous
100
AcDbLine
 10
7250.781942964839
 20
331.2579637310575
 30
0.0
 11
7251.159594335785
 21
331.0393724190309
 31
0.0
  0
LINE
  5
2460
330
1F
100
AcDbEntity
  8
SPOJOVACÍ
  6
Continuous
100
AcDbLine
 10
7255.203998695377
 20
330.2756980906435
 30
0.0
 11
7251.159594335785
 21
331.6356151041857
 31
0.0
  0
LINE
  5
2461
330
1F
100
AcDbEntity
  8
SPOJOVACÍ
  6
Continuous
100
AcDbLine
 10
7255.203998695377
 20
329.6794554057653
 30
0.0
 11
7251.159594335785
 21
331.0393724190309
 31
0.0
  0
LINE
  5
2462
330
1F
100
AcDbEntity
  8
SPOJOVACÍ
  6
Continuous
100
AcDbLine
 10
7255.581650070688
 20
333.1778465735571
 30
0.0
 11
7255.203998695377
 21
333.3964378855837
 31
0.0
  0
LINE
  5
2463
330
1F
100
AcDbEntity
  8
SPOJOVACÍ
  6
Continuous
100
AcDbLine
 10
7255.581650070688
 20
333.1778465735571
 30
0.0
 11
7255.203998695377
 21
332.800195200429
 31
0.0
  0
LINE
  5
2464
330
1F
100
AcDbEntity
  8
SPOJOVACÍ
  6
Continuous
100
AcDbLine
 10
7238.419896120783
 20
370.4966151159528
 30
0.0
 11
7240.741614906847
 21
370.2064002664333
 31
0.0
  0
LINE
  5
2465
330
1F
100
AcDbEntity
  8
SPOJOVACÍ
  6
Continuous
100
AcDbLine
 10
7238.967769664256
 20
367.3944788377771
 30
0.0
 11
7238.750108528208
 21
367.7721302087225
 31
0.0
  0
LINE
  5
2466
330
1F
100
AcDbEntity
  8
SPOJOVACÍ
  6
Continuous
100
AcDbLine
 10
7238.213397093978
 20
371.1412269422357
 30
0.0
 11
7239.346351213362
 21
367.7721302087225
 31
0.0
  0
LINE
  5
2467
330
1F
100
AcDbEntity
  8
SPOJOVACÍ
  6
Continuous
100
AcDbLine
 10
7237.994805781951
 20
371.51980849052
 30
0.0
 11
7238.967769664256
 21
367.3944788377771
 31
0.0
  0
LINE
  5
2468
330
1F
100
AcDbEntity
  8
SPOJOVACÍ
  6
Continuous
100
AcDbLine
 10
7247.402603780526
 20
369.3738929320165
 30
0.0
 11
7244.566497779257
 21
369.0194959508876
 31
0.0
  0
LINE
  5
2469
330
1F
100
AcDbEntity
  8
SPOJOVACÍ
  6
Continuous
100
AcDbLine
 10
7241.372274096511
 20
370.1273353235951
 30
0.0
 11
7243.693062706867
 21
369.8371204784411
 31
0.0
  0
LINE
  5
246A
330
1F
100
AcDbEntity
  8
SPOJOVACÍ
  6
Continuous
100
AcDbLine
 10
7244.313489962721
 20
369.7599158859152
 30
0.0
 11
7247.402603780526
 21
369.3738929320165
 31
0.0
  0
LINE
  5
246B
330
1F
100
AcDbEntity
  8
SPOJOVACÍ
  6
Continuous
100
AcDbLine
 10
7243.997230192189
 20
368.9478724136638
 30
0.0
 11
7241.852244807205
 21
368.6799817853529
 31
0.0
  0
LINE
  5
246C
330
1F
100
AcDbEntity
  8
SPOJOVACÍ
  6
Continuous
100
AcDbLine
 10
7241.280186692756
 20
368.6083582524947
 30
0.0
 11
7239.143572889904
 21
368.3413977971572
 31
0.0
  0
LINE
  5
246D
330
1F
100
AcDbEntity
  8
SPOJOVACÍ
  6
Continuous
100
AcDbLine
 10
7238.967769664256
 20
367.3944788377771
 30
0.0
 11
7239.346351213362
 21
367.7721302087225
 31
0.0
  0
LINE
  5
246E
330
1F
100
AcDbEntity
  8
SPOJOVACÍ
  6
Continuous
100
AcDbLine
 10
7241.009505536249
 20
370.9551917844141
 30
0.0
 11
7241.227166672297
 21
370.5775404091032
 31
0.0
  0
LINE
  5
246F
330
1F
100
AcDbEntity
  8
SPOJOVACÍ
  6
Continuous
100
AcDbLine
 10
7241.009505536249
 20
370.9551917844141
 30
0.0
 11
7240.630923987144
 21
370.5775404091032
 31
0.0
  0
LINE
  5
2470
330
1F
100
AcDbEntity
  8
SPOJOVACÍ
  6
Continuous
100
AcDbLine
 10
7241.642955253019
 20
367.839102867983
 30
0.0
 11
7242.021536801849
 21
368.2167542389283
 31
0.0
  0
LINE
  5
2471
330
1F
100
AcDbEntity
  8
SPOJOVACÍ
  6
Continuous
100
AcDbLine
 10
7241.642955253019
 20
367.839102867983
 30
0.0
 11
7241.425294116971
 21
368.2167542389283
 31
0.0
  0
LINE
  5
2472
330
1F
100
AcDbEntity
  8
SPOJOVACÍ
  6
Continuous
100
AcDbLine
 10
7241.227166672297
 20
370.5775404091032
 30
0.0
 11
7242.021536801849
 21
368.2167542389283
 31
0.0
  0
LINE
  5
2473
330
1F
100
AcDbEntity
  8
SPOJOVACÍ
  6
Continuous
100
AcDbLine
 10
7240.630923987144
 20
370.5775404091032
 30
0.0
 11
7241.425294116971
 21
368.2167542389283
 31
0.0
  0
LINE
  5
2474
330
1F
100
AcDbEntity
  8
SPOJOVACÍ
  6
Continuous
100
AcDbLine
 10
7241.009505536249
 20
370.9551917844141
 30
0.0
 11
7241.642955253019
 21
367.839102867983
 31
0.0
  0
LINE
  5
2475
330
1F
100
AcDbEntity
  8
SPOJOVACÍ
  6
Continuous
100
AcDbLine
 10
7244.023275114568
 20
370.3905750739427
 30
0.0
 11
7244.241866426588
 21
370.0129237029973
 31
0.0
  0
LINE
  5
2476
330
1F
100
AcDbEntity
  8
SPOJOVACÍ
  6
Continuous
100
AcDbLine
 10
7244.023275114568
 20
370.3905750739427
 30
0.0
 11
7243.64562374144
 21
370.0129237029973
 31
0.0
  0
LINE
  5
2477
330
1F
100
AcDbEntity
  8
SPOJOVACÍ
  6
Continuous
100
AcDbLine
 10
7244.333953830343
 20
368.2362879324859
 30
0.0
 11
7244.712535379173
 21
368.6139393034313
 31
0.0
  0
LINE
  5
2478
330
1F
100
AcDbEntity
  8
SPOJOVACÍ
  6
Continuous
100
AcDbLine
 10
7244.333953830343
 20
368.2362879324859
 30
0.0
 11
7244.116292694025
 21
368.6139393034313
 31
0.0
  0
LINE
  5
2479
330
1F
100
AcDbEntity
  8
SPOJOVACÍ
  6
Continuous
100
AcDbLine
 10
7244.241866426588
 20
370.0129237029973
 30
0.0
 11
7244.712535379173
 21
368.6139393034313
 31
0.0
  0
LINE
  5
247A
330
1F
100
AcDbEntity
  8
SPOJOVACÍ
  6
Continuous
100
AcDbLine
 10
7243.64562374144
 20
370.0129237029973
 30
0.0
 11
7244.116292694025
 21
368.6139393034313
 31
0.0
  0
LINE
  5
247B
330
1F
100
AcDbEntity
  8
SPOJOVACÍ
  6
Continuous
100
AcDbLine
 10
7244.023275114568
 20
370.3905750739427
 30
0.0
 11
7244.333953830343
 21
368.2362879324859
 31
0.0
  0
LINE
  5
247C
330
1F
100
AcDbEntity
  8
SPOJOVACÍ
  6
Continuous
100
AcDbLine
 10
7225.992747488863
 20
370.7235780112018
 30
0.0
 11
7228.513523895571
 21
370.7235780112018
 31
0.0
  0
LINE
  5
247D
330
1F
100
AcDbEntity
  8
SPOJOVACÍ
  6
Continuous
100
AcDbLine
 10
7223.783579973906
 20
368.0242078484657
 30
0.0
 11
7226.302496028935
 21
368.0242078484657
 31
0.0
  0
LINE
  5
247E
330
1F
100
AcDbEntity
  8
SPOJOVACÍ
  6
Continuous
100
AcDbLine
 10
7225.55742521649
 20
371.773746484941
 30
0.0
 11
7226.757351993228
 21
366.9740393790921
 31
0.0
  0
LINE
  5
247F
330
1F
100
AcDbEntity
  8
SPOJOVACÍ
  6
Continuous
100
AcDbLine
 10
7225.776016528516
 20
371.39609510963
 30
0.0
 11
7227.135003366081
 21
367.3516907500375
 31
0.0
  0
LINE
  5
2480
330
1F
100
AcDbEntity
  8
SPOJOVACÍ
  6
Continuous
100
AcDbLine
 10
7225.179773843362
 20
371.39609510963
 30
0.0
 11
7226.538760681203
 21
367.3516907500375
 31
0.0
  0
LINE
  5
2481
330
1F
100
AcDbEntity
  8
NOSNÉ KONSTRUKCE
100
AcDbLine
 10
7229.727905787946
 20
374.2478359246301
 30
0.0
 11
7229.727905787946
 21
375.7478359246301
 31
0.0
  0
LINE
  5
2482
330
1F
100
AcDbEntity
  8
SPOJOVACÍ
  6
Continuous
100
AcDbLine
 10
7229.107906229046
 20
370.7235780112018
 30
0.0
 11
7231.636124041916
 21
370.7235780112018
 31
0.0
  0
LINE
  5
2483
330
1F
100
AcDbEntity
  8
SPOJOVACÍ
  6
Continuous
100
AcDbLine
 10
7226.89873871409
 20
368.0242078484657
 30
0.0
 11
7229.426956526959
 21
368.0242078484657
 31
0.0
  0
LINE
  5
2484
330
1F
100
AcDbEntity
  8
SPOJOVACÍ
  6
Continuous
100
AcDbLine
 10
7230.021338860433
 20
368.0242078484657
 30
0.0
 11
7232.542115267142
 21
368.0242078484657
 31
0.0
  0
LINE
  5
2485
330
1F
100
AcDbEntity
  8
SPOJOVACÍ
  6
Continuous
100
AcDbLine
 10
7232.240738309201
 20
370.7235780112018
 30
0.0
 11
7234.758724188529
 21
370.7235780112018
 31
0.0
  0
LINE
  5
2486
330
1F
100
AcDbEntity
  8
SPOJOVACÍ
  6
Continuous
100
AcDbLine
 10
7235.354966873683
 20
370.7235780112018
 30
0.0
 11
7236.602332615572
 21
370.7235780112018
 31
0.0
  0
LINE
  5
2487
330
1F
100
AcDbEntity
  8
SPOJOVACÍ
  6
Continuous
100
AcDbLine
 10
7233.143008831075
 20
368.0242078484657
 30
0.0
 11
7235.661924886105
 21
368.0242078484657
 31
0.0
  0
LINE
  5
2488
330
1F
100
AcDbEntity
  8
SPOJOVACÍ
  6
Continuous
100
AcDbLine
 10
7236.265608977689
 20
368.0242078484657
 30
0.0
 11
7236.602332615572
 21
368.0242078484657
 31
0.0
  0
LINE
  5
2489
330
1F
100
AcDbEntity
  8
SPOJOVACÍ
  6
Continuous
100
AcDbLine
 10
7236.602332615572
 20
370.7235780112018
 30
0.0
 11
7237.799468864929
 21
370.5738197084788
 31
0.0
  0
LINE
  5
248A
330
1F
100
AcDbEntity
  8
SPOJOVACÍ
  6
Continuous
100
AcDbLine
 10
7238.573375126859
 20
368.2697742599334
 30
0.0
 11
7236.602332615572
 21
368.0242078484657
 31
0.0
  0
LINE
  5
248B
330
1F
100
AcDbEntity
  8
SPOJOVACÍ
  6
Continuous
100
AcDbLine
 10
7226.757351993228
 20
366.9740393790921
 30
0.0
 11
7227.135003366081
 21
367.3516907500375
 31
0.0
  0
LINE
  5
248C
330
1F
100
AcDbEntity
  8
SPOJOVACÍ
  6
Continuous
100
AcDbLine
 10
7226.757351993228
 20
366.9740393790921
 30
0.0
 11
7226.538760681203
 21
367.3516907500375
 31
0.0
  0
LINE
  5
248D
330
1F
100
AcDbEntity
  8
SPOJOVACÍ
  6
Continuous
100
AcDbLine
 10
7237.994805781951
 20
371.51980849052
 30
0.0
 11
7238.213397093978
 21
371.1412269422357
 31
0.0
  0
LINE
  5
248E
330
1F
100
AcDbEntity
  8
SPOJOVACÍ
  6
Continuous
100
AcDbLine
 10
7237.994805781951
 20
371.51980849052
 30
0.0
 11
7237.617154408823
 21
371.1412269422357
 31
0.0
  0
LINE
  5
248F
330
1F
100
AcDbEntity
  8
SPOJOVACÍ
  6
Continuous
100
AcDbLine
 10
7237.617154408823
 20
371.1412269422357
 30
0.0
 11
7238.750108528208
 21
367.7721302087225
 31
0.0
  0
LINE
  5
2490
330
1F
100
AcDbEntity
  8
SPOJOVACÍ
  6
Continuous
100
AcDbLine
 10
7228.677234835728
 20
371.773746484941
 30
0.0
 11
7229.877161612191
 21
366.9740393790921
 31
0.0
  0
LINE
  5
2491
330
1F
100
AcDbEntity
  8
SPOJOVACÍ
  6
Continuous
100
AcDbLine
 10
7228.677234835728
 20
371.773746484941
 30
0.0
 11
7228.895826147755
 21
371.39609510963
 31
0.0
  0
LINE
  5
2492
330
1F
100
AcDbEntity
  8
SPOJOVACÍ
  6
Continuous
100
AcDbLine
 10
7228.677234835728
 20
371.773746484941
 30
0.0
 11
7228.2995834626
 21
371.39609510963
 31
0.0
  0
LINE
  5
2493
330
1F
100
AcDbEntity
  8
SPOJOVACÍ
  6
Continuous
100
AcDbLine
 10
7229.877161612191
 20
366.9740393790921
 30
0.0
 11
7230.255743161021
 21
367.3516907500375
 31
0.0
  0
LINE
  5
2494
330
1F
100
AcDbEntity
  8
SPOJOVACÍ
  6
Continuous
100
AcDbLine
 10
7229.877161612191
 20
366.9740393790921
 30
0.0
 11
7229.659500475873
 21
367.3516907500375
 31
0.0
  0
LINE
  5
2495
330
1F
100
AcDbEntity
  8
SPOJOVACÍ
  6
Continuous
100
AcDbLine
 10
7228.895826147755
 20
371.39609510963
 30
0.0
 11
7230.255743161021
 21
367.3516907500375
 31
0.0
  0
LINE
  5
2496
330
1F
100
AcDbEntity
  8
SPOJOVACÍ
  6
Continuous
100
AcDbLine
 10
7228.2995834626
 20
371.39609510963
 30
0.0
 11
7229.659500475873
 21
367.3516907500375
 31
0.0
  0
LINE
  5
2497
330
1F
100
AcDbEntity
  8
SPOJOVACÍ
  6
Continuous
100
AcDbLine
 10
7231.797044454697
 20
371.773746484941
 30
0.0
 11
7232.996971231159
 21
366.9740393790921
 31
0.0
  0
LINE
  5
2498
330
1F
100
AcDbEntity
  8
SPOJOVACÍ
  6
Continuous
100
AcDbLine
 10
7231.797044454697
 20
371.773746484941
 30
0.0
 11
7232.015635766718
 21
371.39609510963
 31
0.0
  0
LINE
  5
2499
330
1F
100
AcDbEntity
  8
SPOJOVACÍ
  6
Continuous
100
AcDbLine
 10
7231.797044454697
 20
371.773746484941
 30
0.0
 11
7231.419393081569
 21
371.39609510963
 31
0.0
  0
LINE
  5
249A
330
1F
100
AcDbEntity
  8
SPOJOVACÍ
  6
Continuous
100
AcDbLine
 10
7232.996971231159
 20
366.9740393790921
 30
0.0
 11
7233.375552779989
 21
367.3516907500375
 31
0.0
  0
LINE
  5
249B
330
1F
100
AcDbEntity
  8
SPOJOVACÍ
  6
Continuous
100
AcDbLine
 10
7232.996971231159
 20
366.9740393790921
 30
0.0
 11
7232.779310095111
 21
367.3516907500375
 31
0.0
  0
LINE
  5
249C
330
1F
100
AcDbEntity
  8
SPOJOVACÍ
  6
Continuous
100
AcDbLine
 10
7232.015635766718
 20
371.39609510963
 30
0.0
 11
7233.375552779989
 21
367.3516907500375
 31
0.0
  0
LINE
  5
249D
330
1F
100
AcDbEntity
  8
SPOJOVACÍ
  6
Continuous
100
AcDbLine
 10
7231.419393081569
 20
371.39609510963
 30
0.0
 11
7232.779310095111
 21
367.3516907500375
 31
0.0
  0
LINE
  5
249E
330
1F
100
AcDbEntity
  8
SPOJOVACÍ
  6
Continuous
100
AcDbLine
 10
7234.917784249637
 20
371.773746484941
 30
0.0
 11
7236.1177110261
 21
366.9740393790921
 31
0.0
  0
LINE
  5
249F
330
1F
100
AcDbEntity
  8
SPOJOVACÍ
  6
Continuous
100
AcDbLine
 10
7234.917784249637
 20
371.773746484941
 30
0.0
 11
7235.135445385686
 21
371.39609510963
 31
0.0
  0
LINE
  5
24A0
330
1F
100
AcDbEntity
  8
SPOJOVACÍ
  6
Continuous
100
AcDbLine
 10
7234.917784249637
 20
371.773746484941
 30
0.0
 11
7234.539202700531
 21
371.39609510963
 31
0.0
  0
LINE
  5
24A1
330
1F
100
AcDbEntity
  8
SPOJOVACÍ
  6
Continuous
100
AcDbLine
 10
7236.1177110261
 20
366.9740393790921
 30
0.0
 11
7236.495362399228
 21
367.3516907500375
 31
0.0
  0
LINE
  5
24A2
330
1F
100
AcDbEntity
  8
SPOJOVACÍ
  6
Continuous
100
AcDbLine
 10
7236.1177110261
 20
366.9740393790921
 30
0.0
 11
7235.899119714074
 21
367.3516907500375
 31
0.0
  0
LINE
  5
24A3
330
1F
100
AcDbEntity
  8
SPOJOVACÍ
  6
Continuous
100
AcDbLine
 10
7235.135445385686
 20
371.39609510963
 30
0.0
 11
7236.495362399228
 21
367.3516907500375
 31
0.0
  0
LINE
  5
24A4
330
1F
100
AcDbEntity
  8
SPOJOVACÍ
  6
Continuous
100
AcDbLine
 10
7234.539202700531
 20
371.39609510963
 30
0.0
 11
7235.899119714074
 21
367.3516907500375
 31
0.0
  0
LINE
  5
24A5
330
1F
100
AcDbEntity
  8
SPOJOVACÍ
  6
Continuous
100
AcDbLine
 10
7215.29944654053
 20
367.1842591084346
 30
0.0
 11
7214.092078357632
 21
366.2261780384501
 31
0.0
  0
LINE
  5
24A6
330
1F
100
AcDbEntity
  8
SPOJOVACÍ
  6
Continuous
100
AcDbLine
 10
7216.713313750233
 20
367.7972449575822
 30
0.0
 11
7215.29944654053
 21
367.1842591084346
 31
0.0
  0
LINE
  5
24A7
330
1F
100
AcDbEntity
  8
SPOJOVACÍ
  6
Continuous
100
AcDbLine
 10
7218.236941703662
 20
368.0242078484657
 30
0.0
 11
7216.713313750233
 21
367.7972449575822
 31
0.0
  0
LINE
  5
24A8
330
1F
100
AcDbEntity
  8
SPOJOVACÍ
  6
Continuous
100
AcDbLine
 10
7211.637344432574
 20
364.2737390433826
 30
0.0
 11
7212.837271209306
 21
364.2737390433826
 31
0.0
  0
LINE
  5
24A9
330
1F
100
AcDbEntity
  8
SPOJOVACÍ
  6
Continuous
100
AcDbLine
 10
7211.637344432574
 20
374.4740468206505
 30
0.0
 11
7211.637344432574
 21
364.2737390433826
 31
0.0
  0
LINE
  5
24AA
330
1F
100
AcDbEntity
  8
SPOJOVACÍ
  6
Continuous
100
AcDbLine
 10
7211.637344432574
 20
374.4740468206505
 30
0.0
 11
7212.837271209306
 21
374.4740468206505
 31
0.0
  0
LINE
  5
24AB
330
1F
100
AcDbEntity
  8
SPOJOVACÍ
  6
Continuous
100
AcDbLine
 10
7212.837271209306
 20
374.4740468206505
 30
0.0
 11
7212.837271209306
 21
364.2737390433826
 31
0.0
  0
LINE
  5
24AC
330
1F
100
AcDbEntity
  8
SPOJOVACÍ
  6
Continuous
100
AcDbLine
 10
7213.17399484719
 20
364.9890442295504
 30
0.0
 11
7212.837271209306
 21
364.2737390433826
 31
0.0
  0
LINE
  5
24AD
330
1F
100
AcDbEntity
  8
SPOJOVACÍ
  6
Continuous
100
AcDbLine
 10
7214.092078357632
 20
366.2261780384501
 30
0.0
 11
7213.17399484719
 21
364.9890442295504
 31
0.0
  0
LINE
  5
24AE
330
1F
100
AcDbEntity
  8
SPOJOVACÍ
  6
Continuous
100
AcDbLine
 10
7217.450012980541
 20
370.7896204931234
 30
0.0
 11
7218.236941703662
 21
370.7235780112018
 31
0.0
  0
LINE
  5
24AF
330
1F
100
AcDbEntity
  8
SPOJOVACÍ
  6
Continuous
100
AcDbLine
 10
7215.96917311349
 20
371.2175013574228
 30
0.0
 11
7217.450012980541
 21
370.7896204931234
 31
0.0
  0
LINE
  5
24B0
330
1F
100
AcDbEntity
  8
SPOJOVACÍ
  6
Continuous
100
AcDbLine
 10
7214.650183835193
 20
372.013731836741
 30
0.0
 11
7215.96917311349
 21
371.2175013574228
 31
0.0
  0
LINE
  5
24B1
330
1F
100
AcDbEntity
  8
SPOJOVACÍ
  6
Continuous
100
AcDbLine
 10
7213.58141184578
 20
373.1243617370996
 30
0.0
 11
7214.650183835193
 21
372.013731836741
 31
0.0
  0
LINE
  5
24B2
330
1F
100
AcDbEntity
  8
SPOJOVACÍ
  6
Continuous
100
AcDbLine
 10
7212.837271209306
 20
374.4740468206505
 30
0.0
 11
7213.58141184578
 21
373.1243617370996
 31
0.0
  0
LINE
  5
24B3
330
1F
100
AcDbEntity
  8
SPOJOVACÍ
  6
Continuous
100
AcDbLine
 10
7218.236941703662
 20
368.0242078484657
 30
0.0
 11
7223.179895882592
 21
368.0242078484657
 31
0.0
  0
LINE
  5
24B4
330
1F
100
AcDbEntity
  8
SPOJOVACÍ
  6
Continuous
100
AcDbLine
 10
7218.236941703662
 20
370.7235780112018
 30
0.0
 11
7222.274834833342
 21
370.7235780112018
 31
0.0
  0
LINE
  5
24B5
330
1F
100
AcDbEntity
  8
SPOJOVACÍ
  6
Continuous
100
AcDbLine
 10
7222.870147342518
 20
370.7235780112018
 30
0.0
 11
7225.389063397549
 21
370.7235780112018
 31
0.0
  0
LINE
  5
24B6
330
1F
100
AcDbEntity
  8
SPOJOVACÍ
  6
Continuous
100
AcDbLine
 10
7222.437615597527
 20
371.773746484941
 30
0.0
 11
7223.63754237399
 21
366.9740393790921
 31
0.0
  0
LINE
  5
24B7
330
1F
100
AcDbEntity
  8
SPOJOVACÍ
  6
Continuous
100
AcDbLine
 10
7222.437615597527
 20
371.773746484941
 30
0.0
 11
7222.655276733576
 21
371.39609510963
 31
0.0
  0
LINE
  5
24B8
330
1F
100
AcDbEntity
  8
SPOJOVACÍ
  6
Continuous
100
AcDbLine
 10
7222.437615597527
 20
371.773746484941
 30
0.0
 11
7222.059034048697
 21
371.39609510963
 31
0.0
  0
LINE
  5
24B9
330
1F
100
AcDbEntity
  8
SPOJOVACÍ
  6
Continuous
100
AcDbLine
 10
7223.63754237399
 20
366.9740393790921
 30
0.0
 11
7224.015193747118
 21
367.3516907500375
 31
0.0
  0
LINE
  5
24BA
330
1F
100
AcDbEntity
  8
SPOJOVACÍ
  6
Continuous
100
AcDbLine
 10
7223.63754237399
 20
366.9740393790921
 30
0.0
 11
7223.418951061964
 21
367.3516907500375
 31
0.0
  0
LINE
  5
24BB
330
1F
100
AcDbEntity
  8
SPOJOVACÍ
  6
Continuous
100
AcDbLine
 10
7222.655276733576
 20
371.39609510963
 30
0.0
 11
7224.015193747118
 21
367.3516907500375
 31
0.0
  0
LINE
  5
24BC
330
1F
100
AcDbEntity
  8
SPOJOVACÍ
  6
Continuous
100
AcDbLine
 10
7222.059034048697
 20
371.39609510963
 30
0.0
 11
7223.418951061964
 21
367.3516907500375
 31
0.0
  0
LINE
  5
24BD
330
1F
100
AcDbEntity
  8
SPOJOVACÍ
  6
Continuous
100
AcDbLine
 10
7225.55742521649
 20
371.773746484941
 30
0.0
 11
7225.776016528516
 21
371.39609510963
 31
0.0
  0
LINE
  5
24BE
330
1F
100
AcDbEntity
  8
SPOJOVACÍ
  6
Continuous
100
AcDbLine
 10
7225.55742521649
 20
371.773746484941
 30
0.0
 11
7225.179773843362
 21
371.39609510963
 31
0.0
  0
LINE
  5
24BF
330
1F
100
AcDbEntity
  8
SPOJOVACÍ
  6
Continuous
100
AcDbLine
 10
6857.297525762219
 20
392.7074683861835
 30
0.0
 11
6857.007310912699
 21
390.3857496001189
 31
0.0
  0
LINE
  5
24C0
330
1F
100
AcDbEntity
  8
SPOJOVACÍ
  6
Continuous
100
AcDbLine
 10
6854.195389484043
 20
392.15959484271
 30
0.0
 11
6854.573040854988
 21
392.3772559787582
 31
0.0
  0
LINE
  5
24C1
330
1F
100
AcDbEntity
  8
SPOJOVACÍ
  6
Continuous
100
AcDbLine
 10
6857.942137588501
 20
392.913967412988
 30
0.0
 11
6854.573040854988
 21
391.7810132936035
 31
0.0
  0
LINE
  5
24C2
330
1F
100
AcDbEntity
  8
SPOJOVACÍ
  6
Continuous
100
AcDbLine
 10
6858.320719136786
 20
393.1325587250146
 30
0.0
 11
6854.195389484043
 21
392.15959484271
 31
0.0
  0
LINE
  5
24C3
330
1F
100
AcDbEntity
  8
SPOJOVACÍ
  6
Continuous
100
AcDbLine
 10
6856.174803578283
 20
383.7247607264405
 30
0.0
 11
6855.820406597153
 21
386.560866727709
 31
0.0
  0
LINE
  5
24C4
330
1F
100
AcDbEntity
  8
SPOJOVACÍ
  6
Continuous
100
AcDbLine
 10
6856.928245969861
 20
389.7550904104543
 30
0.0
 11
6856.638031124707
 21
387.4343018000988
 31
0.0
  0
LINE
  5
24C5
330
1F
100
AcDbEntity
  8
SPOJOVACÍ
  6
Continuous
100
AcDbLine
 10
6856.560826532181
 20
386.8138745442454
 30
0.0
 11
6856.174803578283
 21
383.7247607264405
 31
0.0
  0
LINE
  5
24C6
330
1F
100
AcDbEntity
  8
SPOJOVACÍ
  6
Continuous
100
AcDbLine
 10
6855.748783059929
 20
387.1301343147758
 30
0.0
 11
6855.480892431619
 21
389.2751196997603
 31
0.0
  0
LINE
  5
24C7
330
1F
100
AcDbEntity
  8
SPOJOVACÍ
  6
Continuous
100
AcDbLine
 10
6855.40926889876
 20
389.8471778142091
 30
0.0
 11
6855.142308443423
 21
391.9837916170624
 31
0.0
  0
LINE
  5
24C8
330
1F
100
AcDbEntity
  8
SPOJOVACÍ
  6
Continuous
100
AcDbLine
 10
6854.195389484043
 20
392.15959484271
 30
0.0
 11
6854.573040854988
 21
391.7810132936035
 31
0.0
  0
LINE
  5
24C9
330
1F
100
AcDbEntity
  8
SPOJOVACÍ
  6
Continuous
100
AcDbLine
 10
6857.756102430681
 20
390.1178589707167
 30
0.0
 11
6857.378451055369
 21
389.9001978346684
 31
0.0
  0
LINE
  5
24CA
330
1F
100
AcDbEntity
  8
SPOJOVACÍ
  6
Continuous
100
AcDbLine
 10
6857.756102430681
 20
390.1178589707167
 30
0.0
 11
6857.378451055369
 21
390.4964405198231
 31
0.0
  0
LINE
  5
24CB
330
1F
100
AcDbEntity
  8
SPOJOVACÍ
  6
Continuous
100
AcDbLine
 10
6854.640013514249
 20
389.4844092539467
 30
0.0
 11
6855.017664885195
 21
389.1058277051167
 31
0.0
  0
LINE
  5
24CC
330
1F
100
AcDbEntity
  8
SPOJOVACÍ
  6
Continuous
100
AcDbLine
 10
6854.640013514249
 20
389.4844092539467
 30
0.0
 11
6855.017664885195
 21
389.702070389995
 31
0.0
  0
LINE
  5
24CD
330
1F
100
AcDbEntity
  8
SPOJOVACÍ
  6
Continuous
100
AcDbLine
 10
6857.378451055369
 20
389.9001978346684
 30
0.0
 11
6855.017664885195
 21
389.1058277051167
 31
0.0
  0
LINE
  5
24CE
330
1F
100
AcDbEntity
  8
SPOJOVACÍ
  6
Continuous
100
AcDbLine
 10
6857.378451055369
 20
390.4964405198231
 30
0.0
 11
6855.017664885195
 21
389.702070389995
 31
0.0
  0
LINE
  5
24CF
330
1F
100
AcDbEntity
  8
SPOJOVACÍ
  6
Continuous
100
AcDbLine
 10
6857.756102430681
 20
390.1178589707167
 30
0.0
 11
6854.640013514249
 21
389.4844092539467
 31
0.0
  0
LINE
  5
24D0
330
1F
100
AcDbEntity
  8
SPOJOVACÍ
  6
Continuous
100
AcDbLine
 10
6857.191485720209
 20
387.1040893923971
 30
0.0
 11
6856.813834349264
 21
386.8854980803778
 31
0.0
  0
LINE
  5
24D1
330
1F
100
AcDbEntity
  8
SPOJOVACÍ
  6
Continuous
100
AcDbLine
 10
6857.191485720209
 20
387.1040893923971
 30
0.0
 11
6856.813834349264
 21
387.4817407655252
 31
0.0
  0
LINE
  5
24D2
330
1F
100
AcDbEntity
  8
SPOJOVACÍ
  6
Continuous
100
AcDbLine
 10
6855.037198578752
 20
386.7934106766231
 30
0.0
 11
6855.414849949697
 21
386.4148291277931
 31
0.0
  0
LINE
  5
24D3
330
1F
100
AcDbEntity
  8
SPOJOVACÍ
  6
Continuous
100
AcDbLine
 10
6855.037198578752
 20
386.7934106766231
 30
0.0
 11
6855.414849949697
 21
387.0110718129406
 31
0.0
  0
LINE
  5
24D4
330
1F
100
AcDbEntity
  8
SPOJOVACÍ
  6
Continuous
100
AcDbLine
 10
6856.813834349264
 20
386.8854980803778
 30
0.0
 11
6855.414849949697
 21
386.4148291277931
 31
0.0
  0
LINE
  5
24D5
330
1F
100
AcDbEntity
  8
SPOJOVACÍ
  6
Continuous
100
AcDbLine
 10
6856.813834349264
 20
387.4817407655252
 30
0.0
 11
6855.414849949697
 21
387.0110718129406
 31
0.0
  0
LINE
  5
24D6
330
1F
100
AcDbEntity
  8
SPOJOVACÍ
  6
Continuous
100
AcDbLine
 10
6857.191485720209
 20
387.1040893923971
 30
0.0
 11
6855.037198578752
 21
386.7934106766231
 31
0.0
  0
LINE
  5
24D7
330
1F
100
AcDbEntity
  8
SPOJOVACÍ
  6
Continuous
100
AcDbLine
 10
6857.524488657467
 20
405.1346170181029
 30
0.0
 11
6857.524488657467
 21
402.6138406113939
 31
0.0
  0
LINE
  5
24D8
330
1F
100
AcDbEntity
  8
SPOJOVACÍ
  6
Continuous
100
AcDbLine
 10
6854.825118494732
 20
407.3437845330597
 30
0.0
 11
6854.825118494732
 21
404.8248684780308
 31
0.0
  0
LINE
  5
24D9
330
1F
100
AcDbEntity
  8
SPOJOVACÍ
  6
Continuous
100
AcDbLine
 10
6858.574657131207
 20
405.569939290476
 30
0.0
 11
6853.774950025358
 21
404.3700125137372
 31
0.0
  0
LINE
  5
24DA
330
1F
100
AcDbEntity
  8
SPOJOVACÍ
  6
Continuous
100
AcDbLine
 10
6858.197005755896
 20
405.3513479784494
 30
0.0
 11
6854.152601396304
 21
403.9923611408855
 31
0.0
  0
LINE
  5
24DB
330
1F
100
AcDbEntity
  8
SPOJOVACÍ
  6
Continuous
100
AcDbLine
 10
6858.197005755896
 20
405.9475906636041
 30
0.0
 11
6854.152601396304
 21
404.5886038257638
 31
0.0
  0
LINE
  5
24DC
330
1F
100
AcDbEntity
  8
NOSNÉ KONSTRUKCE
100
AcDbLine
 10
6861.048746570897
 20
401.3994587190188
 30
0.0
 11
6862.548746570897
 21
401.3994587190188
 31
0.0
  0
LINE
  5
24DD
330
1F
100
AcDbEntity
  8
SPOJOVACÍ
  6
Continuous
100
AcDbLine
 10
6857.524488657467
 20
402.0194582779192
 30
0.0
 11
6857.524488657467
 21
399.4912404650501
 31
0.0
  0
LINE
  5
24DE
330
1F
100
AcDbEntity
  8
SPOJOVACÍ
  6
Continuous
100
AcDbLine
 10
6854.825118494732
 20
404.228625792876
 30
0.0
 11
6854.825118494732
 21
401.7004079800069
 31
0.0
  0
LINE
  5
24DF
330
1F
100
AcDbEntity
  8
SPOJOVACÍ
  6
Continuous
100
AcDbLine
 10
6854.825118494732
 20
401.1060256465323
 30
0.0
 11
6854.825118494732
 21
398.5852492398232
 31
0.0
  0
LINE
  5
24E0
330
1F
100
AcDbEntity
  8
SPOJOVACÍ
  6
Continuous
100
AcDbLine
 10
6857.524488657467
 20
398.8866261977643
 30
0.0
 11
6857.524488657467
 21
396.3686403184372
 31
0.0
  0
LINE
  5
24E1
330
1F
100
AcDbEntity
  8
SPOJOVACÍ
  6
Continuous
100
AcDbLine
 10
6857.524488657467
 20
395.7723976332824
 30
0.0
 11
6857.524488657467
 21
394.5250318913938
 31
0.0
  0
LINE
  5
24E2
330
1F
100
AcDbEntity
  8
SPOJOVACÍ
  6
Continuous
100
AcDbLine
 10
6854.825118494732
 20
397.9843556758903
 30
0.0
 11
6854.825118494732
 21
395.4654396208614
 31
0.0
  0
LINE
  5
24E3
330
1F
100
AcDbEntity
  8
SPOJOVACÍ
  6
Continuous
100
AcDbLine
 10
6854.825118494732
 20
394.8617555292774
 30
0.0
 11
6854.825118494732
 21
394.5250318913938
 31
0.0
  0
LINE
  5
24E4
330
1F
100
AcDbEntity
  8
SPOJOVACÍ
  6
Continuous
100
AcDbLine
 10
6857.524488657467
 20
394.5250318913938
 30
0.0
 11
6857.374730354745
 21
393.327895642037
 31
0.0
  0
LINE
  5
24E5
330
1F
100
AcDbEntity
  8
SPOJOVACÍ
  6
Continuous
100
AcDbLine
 10
6855.070684906199
 20
392.5539893801076
 30
0.0
 11
6854.825118494732
 21
394.5250318913938
 31
0.0
  0
LINE
  5
24E6
330
1F
100
AcDbEntity
  8
SPOJOVACÍ
  6
Continuous
100
AcDbLine
 10
6853.774950025358
 20
404.3700125137372
 30
0.0
 11
6854.152601396304
 21
403.9923611408855
 31
0.0
  0
LINE
  5
24E7
330
1F
100
AcDbEntity
  8
SPOJOVACÍ
  6
Continuous
100
AcDbLine
 10
6853.774950025358
 20
404.3700125137372
 30
0.0
 11
6854.152601396304
 21
404.5886038257638
 31
0.0
  0
LINE
  5
24E8
330
1F
100
AcDbEntity
  8
SPOJOVACÍ
  6
Continuous
100
AcDbLine
 10
6858.320719136786
 20
393.1325587250146
 30
0.0
 11
6857.942137588501
 21
392.913967412988
 31
0.0
  0
LINE
  5
24E9
330
1F
100
AcDbEntity
  8
SPOJOVACÍ
  6
Continuous
100
AcDbLine
 10
6858.320719136786
 20
393.1325587250146
 30
0.0
 11
6857.942137588501
 21
393.5102100981428
 31
0.0
  0
LINE
  5
24EA
330
1F
100
AcDbEntity
  8
SPOJOVACÍ
  6
Continuous
100
AcDbLine
 10
6857.942137588501
 20
393.5102100981428
 30
0.0
 11
6854.573040854988
 21
392.3772559787582
 31
0.0
  0
LINE
  5
24EB
330
1F
100
AcDbEntity
  8
SPOJOVACÍ
  6
Continuous
100
AcDbLine
 10
6858.574657131207
 20
402.4501296712376
 30
0.0
 11
6853.774950025358
 21
401.2502028947753
 31
0.0
  0
LINE
  5
24EC
330
1F
100
AcDbEntity
  8
SPOJOVACÍ
  6
Continuous
100
AcDbLine
 10
6858.574657131207
 20
402.4501296712376
 30
0.0
 11
6858.197005755896
 21
402.231538359211
 31
0.0
  0
LINE
  5
24ED
330
1F
100
AcDbEntity
  8
SPOJOVACÍ
  6
Continuous
100
AcDbLine
 10
6858.574657131207
 20
402.4501296712376
 30
0.0
 11
6858.197005755896
 21
402.8277810443658
 31
0.0
  0
LINE
  5
24EE
330
1F
100
AcDbEntity
  8
SPOJOVACÍ
  6
Continuous
100
AcDbLine
 10
6853.774950025358
 20
401.2502028947753
 30
0.0
 11
6854.152601396304
 21
400.8716213459454
 31
0.0
  0
LINE
  5
24EF
330
1F
100
AcDbEntity
  8
SPOJOVACÍ
  6
Continuous
100
AcDbLine
 10
6853.774950025358
 20
401.2502028947753
 30
0.0
 11
6854.152601396304
 21
401.4678640310928
 31
0.0
  0
LINE
  5
24F0
330
1F
100
AcDbEntity
  8
SPOJOVACÍ
  6
Continuous
100
AcDbLine
 10
6858.197005755896
 20
402.231538359211
 30
0.0
 11
6854.152601396304
 21
400.8716213459454
 31
0.0
  0
LINE
  5
24F1
330
1F
100
AcDbEntity
  8
SPOJOVACÍ
  6
Continuous
100
AcDbLine
 10
6858.197005755896
 20
402.8277810443658
 30
0.0
 11
6854.152601396304
 21
401.4678640310928
 31
0.0
  0
LINE
  5
24F2
330
1F
100
AcDbEntity
  8
SPOJOVACÍ
  6
Continuous
100
AcDbLine
 10
6858.574657131207
 20
399.3303200522684
 30
0.0
 11
6853.774950025358
 21
398.1303932758062
 31
0.0
  0
LINE
  5
24F3
330
1F
100
AcDbEntity
  8
SPOJOVACÍ
  6
Continuous
100
AcDbLine
 10
6858.574657131207
 20
399.3303200522684
 30
0.0
 11
6858.197005755896
 21
399.1117287402492
 31
0.0
  0
LINE
  5
24F4
330
1F
100
AcDbEntity
  8
SPOJOVACÍ
  6
Continuous
100
AcDbLine
 10
6858.574657131207
 20
399.3303200522684
 30
0.0
 11
6858.197005755896
 21
399.7079714253966
 31
0.0
  0
LINE
  5
24F5
330
1F
100
AcDbEntity
  8
SPOJOVACÍ
  6
Continuous
100
AcDbLine
 10
6853.774950025358
 20
398.1303932758062
 30
0.0
 11
6854.152601396304
 21
397.7518117269762
 31
0.0
  0
LINE
  5
24F6
330
1F
100
AcDbEntity
  8
SPOJOVACÍ
  6
Continuous
100
AcDbLine
 10
6853.774950025358
 20
398.1303932758062
 30
0.0
 11
6854.152601396304
 21
398.3480544118545
 31
0.0
  0
LINE
  5
24F7
330
1F
100
AcDbEntity
  8
SPOJOVACÍ
  6
Continuous
100
AcDbLine
 10
6858.197005755896
 20
399.1117287402492
 30
0.0
 11
6854.152601396304
 21
397.7518117269762
 31
0.0
  0
LINE
  5
24F8
330
1F
100
AcDbEntity
  8
SPOJOVACÍ
  6
Continuous
100
AcDbLine
 10
6858.197005755896
 20
399.7079714253966
 30
0.0
 11
6854.152601396304
 21
398.3480544118545
 31
0.0
  0
LINE
  5
24F9
330
1F
100
AcDbEntity
  8
SPOJOVACÍ
  6
Continuous
100
AcDbLine
 10
6858.574657131207
 20
396.2095802573283
 30
0.0
 11
6853.774950025358
 21
395.009653480866
 31
0.0
  0
LINE
  5
24FA
330
1F
100
AcDbEntity
  8
SPOJOVACÍ
  6
Continuous
100
AcDbLine
 10
6858.574657131207
 20
396.2095802573283
 30
0.0
 11
6858.197005755896
 21
395.99191912128
 31
0.0
  0
LINE
  5
24FB
330
1F
100
AcDbEntity
  8
SPOJOVACÍ
  6
Continuous
100
AcDbLine
 10
6858.574657131207
 20
396.2095802573283
 30
0.0
 11
6858.197005755896
 21
396.5881618064347
 31
0.0
  0
LINE
  5
24FC
330
1F
100
AcDbEntity
  8
SPOJOVACÍ
  6
Continuous
100
AcDbLine
 10
6853.774950025358
 20
395.009653480866
 30
0.0
 11
6854.152601396304
 21
394.6320021077379
 31
0.0
  0
LINE
  5
24FD
330
1F
100
AcDbEntity
  8
SPOJOVACÍ
  6
Continuous
100
AcDbLine
 10
6853.774950025358
 20
395.009653480866
 30
0.0
 11
6854.152601396304
 21
395.2282447928926
 31
0.0
  0
LINE
  5
24FE
330
1F
100
AcDbEntity
  8
SPOJOVACÍ
  6
Continuous
100
AcDbLine
 10
6858.197005755896
 20
395.99191912128
 30
0.0
 11
6854.152601396304
 21
394.6320021077379
 31
0.0
  0
LINE
  5
24FF
330
1F
100
AcDbEntity
  8
SPOJOVACÍ
  6
Continuous
100
AcDbLine
 10
6858.197005755896
 20
396.5881618064347
 30
0.0
 11
6854.152601396304
 21
395.2282447928926
 31
0.0
  0
LINE
  5
2500
330
1F
100
AcDbEntity
  8
SPOJOVACÍ
  6
Continuous
100
AcDbLine
 10
6853.9851697547
 20
415.8279179664357
 30
0.0
 11
6853.027088684716
 21
417.0352861493345
 31
0.0
  0
LINE
  5
2501
330
1F
100
AcDbEntity
  8
SPOJOVACÍ
  6
Continuous
100
AcDbLine
 10
6854.598155603849
 20
414.4140507567324
 30
0.0
 11
6853.9851697547
 21
415.8279179664357
 31
0.0
  0
LINE
  5
2502
330
1F
100
AcDbEntity
  8
SPOJOVACÍ
  6
Continuous
100
AcDbLine
 10
6854.825118494732
 20
412.8904228033031
 30
0.0
 11
6854.598155603849
 21
414.4140507567324
 31
0.0
  0
LINE
  5
2503
330
1F
100
AcDbEntity
  8
SPOJOVACÍ
  6
Continuous
100
AcDbLine
 10
6851.074649689649
 20
419.4900200743911
 30
0.0
 11
6851.074649689649
 21
418.2900932976597
 31
0.0
  0
LINE
  5
2504
330
1F
100
AcDbEntity
  8
SPOJOVACÍ
  6
Continuous
100
AcDbLine
 10
6861.274957466917
 20
419.4900200743911
 30
0.0
 11
6851.074649689649
 21
419.4900200743911
 31
0.0
  0
LINE
  5
2505
330
1F
100
AcDbEntity
  8
SPOJOVACÍ
  6
Continuous
100
AcDbLine
 10
6861.274957466917
 20
419.4900200743911
 30
0.0
 11
6861.274957466917
 21
418.2900932976597
 31
0.0
  0
LINE
  5
2506
330
1F
100
AcDbEntity
  8
SPOJOVACÍ
  6
Continuous
100
AcDbLine
 10
6861.274957466917
 20
418.2900932976597
 30
0.0
 11
6851.074649689649
 21
418.2900932976597
 31
0.0
  0
LINE
  5
2507
330
1F
100
AcDbEntity
  8
SPOJOVACÍ
  6
Continuous
100
AcDbLine
 10
6851.789954875816
 20
417.9533696597761
 30
0.0
 11
6851.074649689649
 21
418.2900932976597
 31
0.0
  0
LINE
  5
2508
330
1F
100
AcDbEntity
  8
SPOJOVACÍ
  6
Continuous
100
AcDbLine
 10
6853.027088684716
 20
417.0352861493345
 30
0.0
 11
6851.789954875816
 21
417.9533696597761
 31
0.0
  0
LINE
  5
2509
330
1F
100
AcDbEntity
  8
SPOJOVACÍ
  6
Continuous
100
AcDbLine
 10
6857.59053113939
 20
413.6773515264255
 30
0.0
 11
6857.524488657467
 21
412.8904228033031
 31
0.0
  0
LINE
  5
250A
330
1F
100
AcDbEntity
  8
SPOJOVACÍ
  6
Continuous
100
AcDbLine
 10
6858.018412003689
 20
415.1581913934758
 30
0.0
 11
6857.59053113939
 21
413.6773515264255
 31
0.0
  0
LINE
  5
250B
330
1F
100
AcDbEntity
  8
SPOJOVACÍ
  6
Continuous
100
AcDbLine
 10
6858.814642483007
 20
416.4771806717733
 30
0.0
 11
6858.018412003689
 21
415.1581913934758
 31
0.0
  0
LINE
  5
250C
330
1F
100
AcDbEntity
  8
SPOJOVACÍ
  6
Continuous
100
AcDbLine
 10
6859.925272383366
 20
417.5459526611855
 30
0.0
 11
6858.814642483007
 21
416.4771806717733
 31
0.0
  0
LINE
  5
250D
330
1F
100
AcDbEntity
  8
SPOJOVACÍ
  6
Continuous
100
AcDbLine
 10
6861.274957466917
 20
418.2900932976597
 30
0.0
 11
6859.925272383366
 21
417.5459526611855
 31
0.0
  0
LINE
  5
250E
330
1F
100
AcDbEntity
  8
SPOJOVACÍ
  6
Continuous
100
AcDbLine
 10
6854.825118494732
 20
412.8904228033031
 30
0.0
 11
6854.825118494732
 21
407.9474686243745
 31
0.0
  0
LINE
  5
250F
330
1F
100
AcDbEntity
  8
SPOJOVACÍ
  6
Continuous
100
AcDbLine
 10
6857.524488657467
 20
412.8904228033031
 30
0.0
 11
6857.524488657467
 21
408.8525296736231
 31
0.0
  0
LINE
  5
2510
330
1F
100
AcDbEntity
  8
SPOJOVACÍ
  6
Continuous
100
AcDbLine
 10
6857.524488657467
 20
408.2572171644467
 30
0.0
 11
6857.524488657467
 21
405.7383011094177
 31
0.0
  0
LINE
  5
2511
330
1F
100
AcDbEntity
  8
SPOJOVACÍ
  6
Continuous
100
AcDbLine
 10
6858.574657131207
 20
408.6897489094378
 30
0.0
 11
6853.774950025358
 21
407.4898221329756
 31
0.0
  0
LINE
  5
2512
330
1F
100
AcDbEntity
  8
SPOJOVACÍ
  6
Continuous
100
AcDbLine
 10
6858.574657131207
 20
408.6897489094378
 30
0.0
 11
6858.197005755896
 21
408.4720877733896
 31
0.0
  0
LINE
  5
2513
330
1F
100
AcDbEntity
  8
SPOJOVACÍ
  6
Continuous
100
AcDbLine
 10
6858.574657131207
 20
408.6897489094378
 30
0.0
 11
6858.197005755896
 21
409.0683304582678
 31
0.0
  0
LINE
  5
2514
330
1F
100
AcDbEntity
  8
SPOJOVACÍ
  6
Continuous
100
AcDbLine
 10
6853.774950025358
 20
407.4898221329756
 30
0.0
 11
6854.152601396304
 21
407.1121707598474
 31
0.0
  0
LINE
  5
2515
330
1F
100
AcDbEntity
  8
SPOJOVACÍ
  6
Continuous
100
AcDbLine
 10
6853.774950025358
 20
407.4898221329756
 30
0.0
 11
6854.152601396304
 21
407.7084134450021
 31
0.0
  0
LINE
  5
2516
330
1F
100
AcDbEntity
  8
SPOJOVACÍ
  6
Continuous
100
AcDbLine
 10
6858.197005755896
 20
408.4720877733896
 30
0.0
 11
6854.152601396304
 21
407.1121707598474
 31
0.0
  0
LINE
  5
2517
330
1F
100
AcDbEntity
  8
SPOJOVACÍ
  6
Continuous
100
AcDbLine
 10
6858.197005755896
 20
409.0683304582678
 30
0.0
 11
6854.152601396304
 21
407.7084134450021
 31
0.0
  0
LINE
  5
2518
330
1F
100
AcDbEntity
  8
SPOJOVACÍ
  6
Continuous
100
AcDbLine
 10
6858.574657131207
 20
405.569939290476
 30
0.0
 11
6858.197005755896
 21
405.3513479784494
 31
0.0
  0
LINE
  5
2519
330
1F
100
AcDbEntity
  8
SPOJOVACÍ
  6
Continuous
100
AcDbLine
 10
6858.574657131207
 20
405.569939290476
 30
0.0
 11
6858.197005755896
 21
405.9475906636041
 31
0.0
  0
LINE
  5
251A
330
1F
100
AcDbEntity
  8
SPOJOVACÍ
  6
Continuous
100
AcDbLine
 10
6855.40926889876
 20
348.900608049824
 30
0.0
 11
6855.142308443423
 21
346.7639942469706
 31
0.0
  0
LINE
  5
251B
330
1F
100
AcDbEntity
  8
SPOJOVACÍ
  6
Continuous
100
AcDbLine
 10
6857.297525762219
 20
346.0403174778496
 30
0.0
 11
6857.007310912699
 21
348.3620362639141
 31
0.0
  0
LINE
  5
251C
330
1F
100
AcDbEntity
  8
SPOJOVACÍ
  6
Continuous
100
AcDbLine
 10
6858.574657131207
 20
333.1778465735571
 30
0.0
 11
6858.197005755896
 21
332.800195200429
 31
0.0
  0
LINE
  5
251D
330
1F
100
AcDbEntity
  8
SPOJOVACÍ
  6
Continuous
100
AcDbLine
 10
6858.574657131207
 20
333.1778465735571
 30
0.0
 11
6858.197005755896
 21
333.3964378855837
 31
0.0
  0
LINE
  5
251E
330
1F
100
AcDbEntity
  8
SPOJOVACÍ
  6
Continuous
100
AcDbLine
 10
6858.197005755896
 20
329.6794554057653
 30
0.0
 11
6854.152601396304
 21
331.0393724190309
 31
0.0
  0
LINE
  5
251F
330
1F
100
AcDbEntity
  8
SPOJOVACÍ
  6
Continuous
100
AcDbLine
 10
6858.197005755896
 20
330.2756980906435
 30
0.0
 11
6854.152601396304
 21
331.6356151041857
 31
0.0
  0
LINE
  5
2520
330
1F
100
AcDbEntity
  8
SPOJOVACÍ
  6
Continuous
100
AcDbLine
 10
6853.774950025358
 20
331.2579637310575
 30
0.0
 11
6854.152601396304
 21
331.0393724190309
 31
0.0
  0
LINE
  5
2521
330
1F
100
AcDbEntity
  8
SPOJOVACÍ
  6
Continuous
100
AcDbLine
 10
6853.774950025358
 20
331.2579637310575
 30
0.0
 11
6854.152601396304
 21
331.6356151041857
 31
0.0
  0
LINE
  5
2522
330
1F
100
AcDbEntity
  8
SPOJOVACÍ
  6
Continuous
100
AcDbLine
 10
6858.574657131207
 20
330.0580369545953
 30
0.0
 11
6858.197005755896
 21
329.6794554057653
 31
0.0
  0
LINE
  5
2523
330
1F
100
AcDbEntity
  8
SPOJOVACÍ
  6
Continuous
100
AcDbLine
 10
6858.574657131207
 20
330.0580369545953
 30
0.0
 11
6858.197005755896
 21
330.2756980906435
 31
0.0
  0
LINE
  5
2524
330
1F
100
AcDbEntity
  8
SPOJOVACÍ
  6
Continuous
100
AcDbLine
 10
6858.574657131207
 20
330.0580369545953
 30
0.0
 11
6853.774950025358
 21
331.2579637310575
 31
0.0
  0
LINE
  5
2525
330
1F
100
AcDbEntity
  8
SPOJOVACÍ
  6
Continuous
100
AcDbLine
 10
6857.524488657467
 20
330.4905686995864
 30
0.0
 11
6857.524488657467
 21
333.0094847546154
 31
0.0
  0
LINE
  5
2526
330
1F
100
AcDbEntity
  8
SPOJOVACÍ
  6
Continuous
100
AcDbLine
 10
6857.524488657467
 20
325.8573630607299
 30
0.0
 11
6857.524488657467
 21
329.89525619041
 31
0.0
  0
LINE
  5
2527
330
1F
100
AcDbEntity
  8
SPOJOVACÍ
  6
Continuous
100
AcDbLine
 10
6854.825118494732
 20
325.8573630607299
 30
0.0
 11
6854.825118494732
 21
330.8003172396586
 31
0.0
  0
LINE
  5
2528
330
1F
100
AcDbEntity
  8
SPOJOVACÍ
  6
Continuous
100
AcDbLine
 10
6858.814642483007
 20
322.2706051922598
 30
0.0
 11
6858.018412003689
 21
323.5895944705573
 31
0.0
  0
LINE
  5
2529
330
1F
100
AcDbEntity
  8
SPOJOVACÍ
  6
Continuous
100
AcDbLine
 10
6858.018412003689
 20
323.5895944705573
 30
0.0
 11
6857.59053113939
 21
325.0704343376075
 31
0.0
  0
LINE
  5
252A
330
1F
100
AcDbEntity
  8
SPOJOVACÍ
  6
Continuous
100
AcDbLine
 10
6857.59053113939
 20
325.0704343376075
 30
0.0
 11
6857.524488657467
 21
325.8573630607299
 31
0.0
  0
LINE
  5
252B
330
1F
100
AcDbEntity
  8
SPOJOVACÍ
  6
Continuous
100
AcDbLine
 10
6853.027088684716
 20
321.7124997146986
 30
0.0
 11
6851.789954875816
 21
320.7944162042569
 31
0.0
  0
LINE
  5
252C
330
1F
100
AcDbEntity
  8
SPOJOVACÍ
  6
Continuous
100
AcDbLine
 10
6851.789954875816
 20
320.7944162042569
 30
0.0
 11
6851.074649689649
 21
320.4576925663734
 31
0.0
  0
LINE
  5
252D
330
1F
100
AcDbEntity
  8
SPOJOVACÍ
  6
Continuous
100
AcDbLine
 10
6851.074649689649
 20
319.257765789642
 30
0.0
 11
6851.074649689649
 21
320.4576925663734
 31
0.0
  0
LINE
  5
252E
330
1F
100
AcDbEntity
  8
SPOJOVACÍ
  6
Continuous
100
AcDbLine
 10
6854.825118494732
 20
325.8573630607299
 30
0.0
 11
6854.598155603849
 21
324.3337351073007
 31
0.0
  0
LINE
  5
252F
330
1F
100
AcDbEntity
  8
SPOJOVACÍ
  6
Continuous
100
AcDbLine
 10
6854.598155603849
 20
324.3337351073007
 30
0.0
 11
6853.9851697547
 21
322.9198678975974
 31
0.0
  0
LINE
  5
2530
330
1F
100
AcDbEntity
  8
SPOJOVACÍ
  6
Continuous
100
AcDbLine
 10
6853.9851697547
 20
322.9198678975974
 30
0.0
 11
6853.027088684716
 21
321.7124997146986
 31
0.0
  0
LINE
  5
2531
330
1F
100
AcDbEntity
  8
SPOJOVACÍ
  6
Continuous
100
AcDbLine
 10
6858.197005755896
 20
342.1596240575984
 30
0.0
 11
6854.152601396304
 21
343.5195410711405
 31
0.0
  0
LINE
  5
2532
330
1F
100
AcDbEntity
  8
SPOJOVACÍ
  6
Continuous
100
AcDbLine
 10
6858.197005755896
 20
342.7558667427531
 30
0.0
 11
6854.152601396304
 21
344.1157837562952
 31
0.0
  0
LINE
  5
2533
330
1F
100
AcDbEntity
  8
SPOJOVACÍ
  6
Continuous
100
AcDbLine
 10
6853.774950025358
 20
343.7381323831671
 30
0.0
 11
6854.152601396304
 21
343.5195410711405
 31
0.0
  0
LINE
  5
2534
330
1F
100
AcDbEntity
  8
SPOJOVACÍ
  6
Continuous
100
AcDbLine
 10
6853.774950025358
 20
343.7381323831671
 30
0.0
 11
6854.152601396304
 21
344.1157837562952
 31
0.0
  0
LINE
  5
2535
330
1F
100
AcDbEntity
  8
SPOJOVACÍ
  6
Continuous
100
AcDbLine
 10
6858.574657131207
 20
342.5382056067048
 30
0.0
 11
6858.197005755896
 21
342.1596240575984
 31
0.0
  0
LINE
  5
2536
330
1F
100
AcDbEntity
  8
SPOJOVACÍ
  6
Continuous
100
AcDbLine
 10
6858.574657131207
 20
342.5382056067048
 30
0.0
 11
6858.197005755896
 21
342.7558667427531
 31
0.0
  0
LINE
  5
2537
330
1F
100
AcDbEntity
  8
SPOJOVACÍ
  6
Continuous
100
AcDbLine
 10
6858.574657131207
 20
342.5382056067048
 30
0.0
 11
6853.774950025358
 21
343.7381323831671
 31
0.0
  0
LINE
  5
2538
330
1F
100
AcDbEntity
  8
SPOJOVACÍ
  6
Continuous
100
AcDbLine
 10
6858.197005755896
 20
339.0398144386365
 30
0.0
 11
6854.152601396304
 21
340.3997314521786
 31
0.0
  0
LINE
  5
2539
330
1F
100
AcDbEntity
  8
SPOJOVACÍ
  6
Continuous
100
AcDbLine
 10
6858.197005755896
 20
339.6360571237839
 30
0.0
 11
6854.152601396304
 21
340.9959741370569
 31
0.0
  0
LINE
  5
253A
330
1F
100
AcDbEntity
  8
SPOJOVACÍ
  6
Continuous
100
AcDbLine
 10
6853.774950025358
 20
340.6173925882269
 30
0.0
 11
6854.152601396304
 21
340.3997314521786
 31
0.0
  0
LINE
  5
253B
330
1F
100
AcDbEntity
  8
SPOJOVACÍ
  6
Continuous
100
AcDbLine
 10
6853.774950025358
 20
340.6173925882269
 30
0.0
 11
6854.152601396304
 21
340.9959741370569
 31
0.0
  0
LINE
  5
253C
330
1F
100
AcDbEntity
  8
SPOJOVACÍ
  6
Continuous
100
AcDbLine
 10
6858.574657131207
 20
339.4174658117647
 30
0.0
 11
6858.197005755896
 21
339.0398144386365
 31
0.0
  0
LINE
  5
253D
330
1F
100
AcDbEntity
  8
SPOJOVACÍ
  6
Continuous
100
AcDbLine
 10
6858.574657131207
 20
339.4174658117647
 30
0.0
 11
6858.197005755896
 21
339.6360571237839
 31
0.0
  0
LINE
  5
253E
330
1F
100
AcDbEntity
  8
SPOJOVACÍ
  6
Continuous
100
AcDbLine
 10
6858.574657131207
 20
339.4174658117647
 30
0.0
 11
6853.774950025358
 21
340.6173925882269
 31
0.0
  0
LINE
  5
253F
330
1F
100
AcDbEntity
  8
SPOJOVACÍ
  6
Continuous
100
AcDbLine
 10
6858.197005755896
 20
335.9200048196673
 30
0.0
 11
6854.152601396304
 21
337.2799218329403
 31
0.0
  0
LINE
  5
2540
330
1F
100
AcDbEntity
  8
SPOJOVACÍ
  6
Continuous
100
AcDbLine
 10
6858.197005755896
 20
336.516247504822
 30
0.0
 11
6854.152601396304
 21
337.8761645180877
 31
0.0
  0
LINE
  5
2541
330
1F
100
AcDbEntity
  8
SPOJOVACÍ
  6
Continuous
100
AcDbLine
 10
6853.774950025358
 20
337.4975829692577
 30
0.0
 11
6854.152601396304
 21
337.2799218329403
 31
0.0
  0
LINE
  5
2542
330
1F
100
AcDbEntity
  8
SPOJOVACÍ
  6
Continuous
100
AcDbLine
 10
6853.774950025358
 20
337.4975829692577
 30
0.0
 11
6854.152601396304
 21
337.8761645180877
 31
0.0
  0
LINE
  5
2543
330
1F
100
AcDbEntity
  8
SPOJOVACÍ
  6
Continuous
100
AcDbLine
 10
6858.574657131207
 20
336.2976561927955
 30
0.0
 11
6858.197005755896
 21
335.9200048196673
 31
0.0
  0
LINE
  5
2544
330
1F
100
AcDbEntity
  8
SPOJOVACÍ
  6
Continuous
100
AcDbLine
 10
6858.574657131207
 20
336.2976561927955
 30
0.0
 11
6858.197005755896
 21
336.516247504822
 31
0.0
  0
LINE
  5
2545
330
1F
100
AcDbEntity
  8
SPOJOVACÍ
  6
Continuous
100
AcDbLine
 10
6858.574657131207
 20
336.2976561927955
 30
0.0
 11
6853.774950025358
 21
337.4975829692577
 31
0.0
  0
LINE
  5
2546
330
1F
100
AcDbEntity
  8
SPOJOVACÍ
  6
Continuous
100
AcDbLine
 10
6857.942137588501
 20
345.2375757658903
 30
0.0
 11
6854.573040854988
 21
346.3705298852748
 31
0.0
  0
LINE
  5
2547
330
1F
100
AcDbEntity
  8
SPOJOVACÍ
  6
Continuous
100
AcDbLine
 10
6858.320719136786
 20
345.6152271390185
 30
0.0
 11
6857.942137588501
 21
345.2375757658903
 31
0.0
  0
LINE
  5
2548
330
1F
100
AcDbEntity
  8
SPOJOVACÍ
  6
Continuous
100
AcDbLine
 10
6858.320719136786
 20
345.6152271390185
 30
0.0
 11
6857.942137588501
 21
345.833818451045
 31
0.0
  0
LINE
  5
2549
330
1F
100
AcDbEntity
  8
SPOJOVACÍ
  6
Continuous
100
AcDbLine
 10
6853.774950025358
 20
334.3777733502959
 30
0.0
 11
6854.152601396304
 21
334.1591820382693
 31
0.0
  0
LINE
  5
254A
330
1F
100
AcDbEntity
  8
SPOJOVACÍ
  6
Continuous
100
AcDbLine
 10
6853.774950025358
 20
334.3777733502959
 30
0.0
 11
6854.152601396304
 21
334.7554247231475
 31
0.0
  0
LINE
  5
254B
330
1F
100
AcDbEntity
  8
SPOJOVACÍ
  6
Continuous
100
AcDbLine
 10
6855.070684906199
 20
346.1937964839255
 30
0.0
 11
6854.825118494732
 21
344.2227539726393
 31
0.0
  0
LINE
  5
254C
330
1F
100
AcDbEntity
  8
SPOJOVACÍ
  6
Continuous
100
AcDbLine
 10
6857.524488657467
 20
344.2227539726393
 30
0.0
 11
6857.374730354745
 21
345.4198902219961
 31
0.0
  0
LINE
  5
254D
330
1F
100
AcDbEntity
  8
SPOJOVACÍ
  6
Continuous
100
AcDbLine
 10
6854.825118494732
 20
343.8860303347557
 30
0.0
 11
6854.825118494732
 21
344.2227539726393
 31
0.0
  0
LINE
  5
254E
330
1F
100
AcDbEntity
  8
SPOJOVACÍ
  6
Continuous
100
AcDbLine
 10
6854.825118494732
 20
340.7634301881428
 30
0.0
 11
6854.825118494732
 21
343.2823462431717
 31
0.0
  0
LINE
  5
254F
330
1F
100
AcDbEntity
  8
SPOJOVACÍ
  6
Continuous
100
AcDbLine
 10
6857.524488657467
 20
342.9753882307506
 30
0.0
 11
6857.524488657467
 21
344.2227539726393
 31
0.0
  0
LINE
  5
2550
330
1F
100
AcDbEntity
  8
SPOJOVACÍ
  6
Continuous
100
AcDbLine
 10
6857.524488657467
 20
339.8611596662687
 30
0.0
 11
6857.524488657467
 21
342.3791455455959
 31
0.0
  0
LINE
  5
2551
330
1F
100
AcDbEntity
  8
SPOJOVACÍ
  6
Continuous
100
AcDbLine
 10
6854.825118494732
 20
337.6417602175008
 30
0.0
 11
6854.825118494732
 21
340.1625366242098
 31
0.0
  0
LINE
  5
2552
330
1F
100
AcDbEntity
  8
SPOJOVACÍ
  6
Continuous
100
AcDbLine
 10
6854.825118494732
 20
334.519160071157
 30
0.0
 11
6854.825118494732
 21
337.0473778840262
 31
0.0
  0
LINE
  5
2553
330
1F
100
AcDbEntity
  8
SPOJOVACÍ
  6
Continuous
100
AcDbLine
 10
6857.524488657467
 20
336.7283275861138
 30
0.0
 11
6857.524488657467
 21
339.256545398983
 31
0.0
  0
LINE
  5
2554
330
1F
100
AcDbEntity
  8
SPOJOVACÍ
  6
Continuous
100
AcDbLine
 10
6858.197005755896
 20
332.800195200429
 30
0.0
 11
6854.152601396304
 21
334.1591820382693
 31
0.0
  0
LINE
  5
2555
330
1F
100
AcDbEntity
  8
SPOJOVACÍ
  6
Continuous
100
AcDbLine
 10
6858.197005755896
 20
333.3964378855837
 30
0.0
 11
6854.152601396304
 21
334.7554247231475
 31
0.0
  0
LINE
  5
2556
330
1F
100
AcDbEntity
  8
SPOJOVACÍ
  6
Continuous
100
AcDbLine
 10
6858.574657131207
 20
333.1778465735571
 30
0.0
 11
6853.774950025358
 21
334.3777733502959
 31
0.0
  0
LINE
  5
2557
330
1F
100
AcDbEntity
  8
SPOJOVACÍ
  6
Continuous
100
AcDbLine
 10
6854.825118494732
 20
331.4040013309734
 30
0.0
 11
6854.825118494732
 21
333.9229173860023
 31
0.0
  0
LINE
  5
2558
330
1F
100
AcDbEntity
  8
SPOJOVACÍ
  6
Continuous
100
AcDbLine
 10
6857.524488657467
 20
333.6131688459301
 30
0.0
 11
6857.524488657467
 21
336.1339452526392
 31
0.0
  0
LINE
  5
2559
330
1F
100
AcDbEntity
  8
SPOJOVACÍ
  6
Continuous
100
AcDbLine
 10
6854.195389484043
 20
346.5881910213231
 30
0.0
 11
6854.573040854988
 21
346.9667725704296
 31
0.0
  0
LINE
  5
255A
330
1F
100
AcDbEntity
  8
SPOJOVACÍ
  6
Continuous
100
AcDbLine
 10
6858.320719136786
 20
345.6152271390185
 30
0.0
 11
6854.195389484043
 21
346.5881910213231
 31
0.0
  0
LINE
  5
255B
330
1F
100
AcDbEntity
  8
SPOJOVACÍ
  6
Continuous
100
AcDbLine
 10
6857.942137588501
 20
345.833818451045
 30
0.0
 11
6854.573040854988
 21
346.9667725704296
 31
0.0
  0
LINE
  5
255C
330
1F
100
AcDbEntity
  8
SPOJOVACÍ
  6
Continuous
100
AcDbLine
 10
6854.195389484043
 20
346.5881910213231
 30
0.0
 11
6854.573040854988
 21
346.3705298852748
 31
0.0
  0
LINE
  5
255D
330
1F
100
AcDbEntity
  8
SPOJOVACÍ
  6
Continuous
100
AcDbLine
 10
6857.191485720209
 20
351.643696471636
 30
0.0
 11
6855.037198578752
 21
351.95437518741
 31
0.0
  0
LINE
  5
255E
330
1F
100
AcDbEntity
  8
SPOJOVACÍ
  6
Continuous
100
AcDbLine
 10
6856.813834349264
 20
351.2660450985078
 30
0.0
 11
6855.414849949697
 21
351.7367140510925
 31
0.0
  0
LINE
  5
255F
330
1F
100
AcDbEntity
  8
SPOJOVACÍ
  6
Continuous
100
AcDbLine
 10
6856.813834349264
 20
351.8622877836553
 30
0.0
 11
6855.414849949697
 21
352.33295673624
 31
0.0
  0
LINE
  5
2560
330
1F
100
AcDbEntity
  8
SPOJOVACÍ
  6
Continuous
100
AcDbLine
 10
6855.037198578752
 20
351.95437518741
 30
0.0
 11
6855.414849949697
 21
351.7367140510925
 31
0.0
  0
LINE
  5
2561
330
1F
100
AcDbEntity
  8
SPOJOVACÍ
  6
Continuous
100
AcDbLine
 10
6855.037198578752
 20
351.95437518741
 30
0.0
 11
6855.414849949697
 21
352.33295673624
 31
0.0
  0
LINE
  5
2562
330
1F
100
AcDbEntity
  8
SPOJOVACÍ
  6
Continuous
100
AcDbLine
 10
6857.191485720209
 20
351.643696471636
 30
0.0
 11
6856.813834349264
 21
351.2660450985078
 31
0.0
  0
LINE
  5
2563
330
1F
100
AcDbEntity
  8
SPOJOVACÍ
  6
Continuous
100
AcDbLine
 10
6857.191485720209
 20
351.643696471636
 30
0.0
 11
6856.813834349264
 21
351.8622877836553
 31
0.0
  0
LINE
  5
2564
330
1F
100
AcDbEntity
  8
SPOJOVACÍ
  6
Continuous
100
AcDbLine
 10
6857.756102430681
 20
348.6299268933164
 30
0.0
 11
6854.640013514249
 21
349.2633766100864
 31
0.0
  0
LINE
  5
2565
330
1F
100
AcDbEntity
  8
SPOJOVACÍ
  6
Continuous
100
AcDbLine
 10
6857.378451055369
 20
348.2513453442099
 30
0.0
 11
6855.017664885195
 21
349.0457154740381
 31
0.0
  0
LINE
  5
2566
330
1F
100
AcDbEntity
  8
SPOJOVACÍ
  6
Continuous
100
AcDbLine
 10
6857.378451055369
 20
348.8475880293647
 30
0.0
 11
6855.017664885195
 21
349.6419581589163
 31
0.0
  0
LINE
  5
2567
330
1F
100
AcDbEntity
  8
SPOJOVACÍ
  6
Continuous
100
AcDbLine
 10
6854.640013514249
 20
349.2633766100864
 30
0.0
 11
6855.017664885195
 21
349.0457154740381
 31
0.0
  0
LINE
  5
2568
330
1F
100
AcDbEntity
  8
SPOJOVACÍ
  6
Continuous
100
AcDbLine
 10
6854.640013514249
 20
349.2633766100864
 30
0.0
 11
6855.017664885195
 21
349.6419581589163
 31
0.0
  0
LINE
  5
2569
330
1F
100
AcDbEntity
  8
SPOJOVACÍ
  6
Continuous
100
AcDbLine
 10
6857.756102430681
 20
348.6299268933164
 30
0.0
 11
6857.378451055369
 21
348.2513453442099
 31
0.0
  0
LINE
  5
256A
330
1F
100
AcDbEntity
  8
SPOJOVACÍ
  6
Continuous
100
AcDbLine
 10
6857.756102430681
 20
348.6299268933164
 30
0.0
 11
6857.378451055369
 21
348.8475880293647
 31
0.0
  0
LINE
  5
256B
330
1F
100
AcDbEntity
  8
SPOJOVACÍ
  6
Continuous
100
AcDbLine
 10
6855.748783059929
 20
351.6176515492572
 30
0.0
 11
6855.480892431619
 21
349.4726661642728
 31
0.0
  0
LINE
  5
256C
330
1F
100
AcDbEntity
  8
SPOJOVACÍ
  6
Continuous
100
AcDbLine
 10
6856.560826532181
 20
351.9339113197877
 30
0.0
 11
6856.174803578283
 21
355.0230251375926
 31
0.0
  0
LINE
  5
256D
330
1F
100
AcDbEntity
  8
SPOJOVACÍ
  6
Continuous
100
AcDbLine
 10
6856.928245969861
 20
348.9926954535787
 30
0.0
 11
6856.638031124707
 21
351.3134840639343
 31
0.0
  0
LINE
  5
256E
330
1F
100
AcDbEntity
  8
SPOJOVACÍ
  6
Continuous
100
AcDbLine
 10
6856.174803578283
 20
355.0230251375926
 30
0.0
 11
6855.820406597153
 21
352.1869191363241
 31
0.0
  0
LINE
  5
256F
330
1F
100
AcDbEntity
  8
SPOJOVACÍ
  6
Continuous
100
AcDbLine
 10
6861.274957466917
 20
320.4576925663734
 30
0.0
 11
6859.925272383366
 21
321.2018332028476
 31
0.0
  0
LINE
  5
2570
330
1F
100
AcDbEntity
  8
SPOJOVACÍ
  6
Continuous
100
AcDbLine
 10
6859.925272383366
 20
321.2018332028476
 30
0.0
 11
6858.814642483007
 21
322.2706051922598
 31
0.0
  0
LINE
  5
2571
330
1F
100
AcDbEntity
  8
SPOJOVACÍ
  6
Continuous
100
AcDbLine
 10
6861.274957466917
 20
320.4576925663734
 30
0.0
 11
6851.074649689649
 21
320.4576925663734
 31
0.0
  0
LINE
  5
2572
330
1F
100
AcDbEntity
  8
SPOJOVACÍ
  6
Continuous
100
AcDbLine
 10
6861.274957466917
 20
319.257765789642
 30
0.0
 11
6861.274957466917
 21
320.4576925663734
 31
0.0
  0
LINE
  5
2573
330
1F
100
AcDbEntity
  8
SPOJOVACÍ
  6
Continuous
100
AcDbLine
 10
6861.274957466917
 20
319.257765789642
 30
0.0
 11
6851.074649689649
 21
319.257765789642
 31
0.0
  0
LINE
  5
2574
330
1F
100
AcDbEntity
  8
NOSNÉ KONSTRUKCE
100
AcDbLine
 10
6861.048746570897
 20
337.3483271450143
 30
0.0
 11
6862.548746570897
 21
337.3483271450143
 31
0.0
  0
LINE
  5
2575
102
{ACAD_REACTORS
330
5513
102
}
330
1F
100
AcDbEntity
  8
POPIS
100
AcDbLine
 10
7024.857773156506
 20
288.9918909360403
 30
0.0
 11
7053.45493728844
 21
444.2592793173662
 31
0.0
  0
LINE
  5
2576
330
1F
100
AcDbEntity
  8
POPIS
100
AcDbLine
 10
7029.941871679447
 20
288.9918909360403
 30
0.0
 11
7058.539035811382
 21
444.2592793173662
 31
0.0
  0
LINE
  5
2577
330
1F
100
AcDbEntity
  8
STAVBA OBRYS
100
AcDbLine
 10
7053.977031005465
 20
419.4900200743914
 30
0.0
 11
7211.637344432574
 21
419.4900200743914
 31
0.0
  0
LINE
  5
2578
330
1F
100
AcDbEntity
  8
STAVBA OBRYS
100
AcDbLine
 10
7035.516243734057
 20
319.2577657896413
 30
0.0
 11
7211.637344432574
 21
319.2577657896413
 31
0.0
  0
LINE
  5
257A
330
1F
100
AcDbEntity
  8
POPIS
100
AcDbLine
 10
7449.459569745426
 20
288.9918909360403
 30
0.0
 11
7478.056733877359
 21
444.2592793173662
 31
0.0
  0
LINE
  5
4CE3
330
1F
100
AcDbEntity
  8
POPIS
100
AcDbLine
 10
6842.134821062252
 20
406.4485961784182
 30
0.0
 11
6842.134821062252
 21
479.1506834081262
 31
0.0
  0
TEXT
  5
4CE4
330
1F
100
AcDbEntity
  8
POPIS
100
AcDbText
 10
6824.478373573803
 20
483.85174654465
 30
0.0
 40
25.0
  1
09
 41
0.85
  7
SIMPLEX7
100
AcDbText
  0
INSERT
  5
4CE5
330
1F
100
AcDbEntity
  8
POPIS
100
AcDbBlockReference
  2
E_PUNKT
 10
6842.176493713282
 20
406.4497238095225
 30
0.0
  0
TEXT
  5
4FE0
330
1F
100
AcDbEntity
  8
POPIS
100
AcDbText
 10
7587.818349257206
 20
281.316014325707
 30
0.0
 40
25.0
  1
UW profil (ocelový nosník I, U)
 41
0.7
  7
SIMPLEX7
100
AcDbText
  0
TEXT
  5
4FE1
330
1F
100
AcDbEntity
  8
POPIS
100
AcDbText
 10
7587.818349257206
 20
457.9377483948417
 30
0.0
 40
25.0
  1
Deska CETRIS   
 41
0.7
  7
SIMPLEX7
100
AcDbText
  0
TEXT
  5
4FE2
330
1F
100
AcDbEntity
  8
POPIS
100
AcDbText
 10
7587.818349257206
 20
421.3427367792144
 30
0.0
 40
25.0
  1
Vrut Cetris-Hobau 4,2x35 (45,55) mm
 41
0.7
  7
SIMPLEX7
100
AcDbText
  0
TEXT
  5
4FE3
330
1F
100
AcDbEntity
  8
POPIS
100
AcDbText
 10
7587.818349257206
 20
350.6054470831557
 30
0.0
 40
25.0
  1
Minerální plsť (vzduchová mezera)
 41
0.7
  7
SIMPLEX7
100
AcDbText
  0
TEXT
  5
4FE4
330
1F
100
AcDbEntity
  8
POPIS
100
AcDbText
 10
7587.818349257206
 20
315.2012858649929
 30
0.0
 40
25.0
  1
CW profil (ocelový nosník I, U) - stojina
 41
0.7
  7
SIMPLEX7
100
AcDbText
  0
TEXT
  5
4FE5
330
1F
100
AcDbEntity
  8
POPIS
100
AcDbText
 10
7587.818349257206
 20
244.4804743228148
 30
0.0
 40
25.0
  1
Tmel DEXAFLAMM - R
 41
0.7
  7
SIMPLEX7
100
AcDbText
  0
TEXT
  5
4FE6
330
1F
100
AcDbEntity
  8
POPIS
100
AcDbText
 10
7587.818349257206
 20
210.2270817836167
 30
0.0
 40
25.0
  1
UA profil (ostění otvoru)
 41
0.7
  7
SIMPLEX7
100
AcDbText
  0
TEXT
  5
4FE7
330
1F
100
AcDbEntity
  8
POPIS
100
AcDbText
 10
7533.474646097464
 20
244.4804743228148
 30
0.0
 40
25.0
  1
06
 41
0.85
  7
SIMPLEX7
100
AcDbText
  0
TEXT
  5
4FEB
330
1F
100
AcDbEntity
  8
POPIS
100
AcDbText
 10
7533.474646097464
 20
210.2270817836167
 30
0.0
 40
25.0
  1
09
 41
0.85
  7
SIMPLEX7
100
AcDbText
  0
TEXT
  5
4FEC
330
1F
100
AcDbEntity
  8
POPIS
100
AcDbText
 10
7533.474646097464
 20
421.3427367792144
 30
0.0
 40
25.0
  1
02
 41
0.85
  7
SIMPLEX7
100
AcDbText
  0
TEXT
  5
4FED
330
1F
100
AcDbEntity
  8
POPIS
100
AcDbText
 10
7533.474646097464
 20
315.2012858649929
 30
0.0
 40
25.0
  1
04
 41
0.85
  7
SIMPLEX7
100
AcDbText
  0
TEXT
  5
4FEE
330
1F
100
AcDbEntity
  8
POPIS
100
AcDbText
 10
7533.474646097464
 20
281.316014325707
 30
0.0
 40
25.0
  1
05
 41
0.85
  7
SIMPLEX7
100
AcDbText
  0
TEXT
  5
4FEF
330
1F
100
AcDbEntity
  8
POPIS
100
AcDbText
 10
7533.474646097464
 20
350.6054470831557
 30
0.0
 40
25.0
  1
03
 41
0.85
  7
SIMPLEX7
100
AcDbText
  0
TEXT
  5
4FF0
330
1F
100
AcDbEntity
  8
POPIS
100
AcDbText
 10
7533.474646097464
 20
457.9377483948417
 30
0.0
 40
25.0
  1
01
 41
0.85
  7
SIMPLEX7
100
AcDbText
  0
CIRCLE
  5
4FF1
330
1F
100
AcDbEntity
  8
POPIS
100
AcDbCircle
 10
7760.203563551432
 20
488.4584042481098
 30
0.0
 40
11.13656048292026
  0
TEXT
  5
4FF2
330
1F
100
AcDbEntity
  8
POPIS
100
AcDbText
 10
7755.444534496252
 20
482.9130585031223
 30
0.0
 40
12.0
  1
R
 41
0.85
  7
SIMPLEX7
100
AcDbText
  0
LINE
  5
540B
330
1F
100
AcDbEntity
  8
POPIS
100
AcDbLine
 10
7173.513766805484
 20
479.1506834081397
 30
0.0
 11
7224.678170640131
 21
401.0658533105761
 31
0.0
  0
TEXT
  5
540C
330
1F
100
AcDbEntity
  8
POPIS
100
AcDbText
 10
7157.05264811714
 20
483.8517465446635
 30
0.0
 40
25.0
  1
04
 41
0.85
  7
SIMPLEX7
100
AcDbText
  0
LINE
  5
540D
330
1F
100
AcDbEntity
  8
POPIS
100
AcDbLine
 10
7226.517777986012
 20
419.4900200744046
 30
0.0
 11
7226.517777986012
 21
479.1506834081397
 31
0.0
  0
LINE
  5
540E
330
1F
100
AcDbEntity
  8
POPIS
100
AcDbLine
 10
7293.243412958777
 20
479.1506834081397
 30
0.0
 11
7253.593607945643
 21
449.3203517412736
 31
0.0
  0
LINE
  5
540F
330
1F
100
AcDbEntity
  8
POPIS
100
AcDbLine
 10
7253.593607945648
 20
419.4900200744046
 30
0.0
 11
7253.593607945643
 21
449.3203517412736
 31
0.0
  0
TEXT
  5
5411
330
1F
100
AcDbEntity
  8
POPIS
100
AcDbText
 10
7208.861330497562
 20
483.8517465446635
 30
0.0
 40
25.0
  1
06
 41
0.85
  7
SIMPLEX7
100
AcDbText
  0
INSERT
  5
5412
330
1F
100
AcDbEntity
  8
POPIS
100
AcDbBlockReference
  2
E_PUNKT
 10
7226.490167610386
 20
419.4609517435315
 30
0.0
  0
INSERT
  5
5413
330
1F
100
AcDbEntity
  8
POPIS
100
AcDbBlockReference
  2
E_PUNKT
 10
7253.565997570021
 20
419.4609517435315
 30
0.0
  0
INSERT
  5
5414
330
1F
100
AcDbEntity
  8
POPIS
100
AcDbBlockReference
  2
E_PUNKT
 10
7224.746700747807
 20
400.6250387127135
 30
0.0
  0
TEXT
  5
5415
330
1F
100
AcDbEntity
  8
POPIS
100
AcDbText
 10
7275.738079422229
 20
483.8517465446635
 30
0.0
 40
25.0
  1
02
 41
0.85
  7
SIMPLEX7
100
AcDbText
  0
LINE
  5
5416
330
1F
100
AcDbEntity
  8
POPIS
100
AcDbLine
 10
6707.976971089694
 20
419.4900200743939
 30
0.0
 11
6707.976971089694
 21
479.1506834081299
 31
0.0
  0
INSERT
  5
5417
330
1F
100
AcDbEntity
  8
POPIS
100
AcDbBlockReference
  2
E_PUNKT
 10
6707.854238590953
 20
419.460951743518
 30
0.0
  0
TEXT
  5
5418
330
1F
100
AcDbEntity
  8
POPIS
100
AcDbText
 10
6690.320523601243
 20
483.8517465446536
 30
0.0
 40
25.0
  1
01
 41
0.85
  7
SIMPLEX7
100
AcDbText
  0
LINE
  5
5419
330
1F
100
AcDbEntity
  8
POPIS
100
AcDbLine
 10
6749.226749073052
 20
382.0150146626344
 30
0.0
 11
6749.226749073052
 21
479.1506834081262
 31
0.0
  0
INSERT
  5
541A
330
1F
100
AcDbEntity
  8
POPIS
100
AcDbBlockReference
  2
E_PUNKT
 10
6749.199138697426
 20
381.9859463317614
 30
0.0
  0
TEXT
  5
541B
330
1F
100
AcDbEntity
  8
POPIS
100
AcDbText
 10
6731.570301584601
 20
483.85174654465
 30
0.0
 40
25.0
  1
03
 41
0.85
  7
SIMPLEX7
100
AcDbText
  0
LINE
  5
541C
330
1F
100
AcDbEntity
  8
POPIS
100
AcDbLine
 10
6793.496142165586
 20
394.0618994172689
 30
0.0
 11
6793.496142165586
 21
479.1506834081262
 31
0.0
  0
INSERT
  5
541D
330
1F
100
AcDbEntity
  8
POPIS
100
AcDbBlockReference
  2
E_PUNKT
 10
6793.468531789961
 20
394.5511594096103
 30
0.0
  0
TEXT
  5
541E
330
1F
100
AcDbEntity
  8
POPIS
100
AcDbText
 10
6777.066162712474
 20
483.85174654465
 30
0.0
 40
25.0
  1
05
 41
0.85
  7
SIMPLEX7
100
AcDbText
  0
HATCH
  5
545C
330
1F
100
AcDbEntity
  8
CETRIS
100
AcDbHatch
 10
0.0
 20
0.0
 30
0.0
210
0.0
220
0.0
230
1.0
  2
ANSI31
 70
     0
 71
     0
 91
        4
 92
        7
 72
     0
 73
     1
 93
       14
 10
7473.494729071443
 20
419.4900200743918
 10
7258.281950406398
 20
419.4900200743917
 10
7258.281950406398
 20
418.2900932976594
 10
7256.932265322848
 20
417.5459526611857
 10
7255.821635422487
 20
416.4771806717717
 10
7255.025404943168
 20
415.158191393476
 10
7254.597524078872
 20
413.6773515264287
 10
7254.531481596949
 20
412.890422803303
 10
7254.53148159695
 20
408.8421989040145
 10
7255.203998695377
 20
409.0683304582676
 10
7255.649384823643
 20
408.6218473225271
 10
7254.531481596949
 20
408.24595621909
 10
7254.531481596949
 20
407.4900200743925
 10
7471.284567793142
 20
407.4900200743927
 97
        0
 92
        7
 72
     0
 73
     1
 93
       12
 10
7251.60514854333
 20
414.4140507567318
 10
7250.992162694183
 20
415.8279179664358
 10
7250.034081624197
 20
417.0352861493356
 10
7248.796947815296
 20
417.9533696597766
 10
7248.08164262913
 20
418.29009329766
 10
7248.08164262913
 20
419.4900200743918
 10
7228.637344432574
 20
419.4900200743918
 10
7228.637344432574
 20
407.4900200743925
 10
7250.782284940223
 20
407.4900200743925
 10
7251.159594335785
 20
407.7084134450019
 10
7251.832111434213
 20
407.9345449992556
 10
7251.832111434213
 20
412.8904228033043
 97
        0
 92
        7
 72
     0
 73
     1
 93
       12
 10
7251.832111434213
 20
330.8132408647773
 10
7250.713387247344
 20
331.1894080131656
 10
7250.781745023425
 20
331.2577657896413
 10
7228.637344432574
 20
331.2577657896413
 10
7228.637344432574
 20
319.2577657896413
 10
7248.081642629131
 20
319.2577657896413
 10
7248.08164262913
 20
320.4576925663729
 10
7248.7969478153
 20
320.7944162042585
 10
7250.034081624199
 20
321.7124997146991
 10
7250.992162694181
 20
322.9198678975971
 10
7251.60514854333
 20
324.3337351072998
 10
7251.832111434213
 20
325.8573630607261
 97
        0
 92
        7
 72
     0
 73
     1
 93
       14
 10
7457.244103078335
 20
331.2577657896413
 10
7254.531481596949
 20
331.2577657896413
 10
7254.53148159695
 20
330.501829644943
 10
7255.649384823643
 20
330.125938541506
 10
7255.203998695377
 20
329.6794554057655
 10
7254.531481596949
 20
329.9055869600188
 10
7254.53148159695
 20
325.8573630607202
 10
7254.597524078871
 20
325.070434337607
 10
7255.02540494317
 20
323.5895944705577
 10
7255.821635422489
 20
322.2706051922583
 10
7256.932265322849
 20
321.2018332028467
 10
7258.281950406398
 20
320.4576925663736
 10
7258.281950406398
 20
319.2577657896413
 10
7455.033941800035
 20
319.2577657896413
 97
        0
 75
     0
 76
     1
 52
0.0
 41
2.5
 77
     0
 78
     1
 53
45.0
 43
2236.047385582154
 44
4.946143396813567
 45
-5.61266007566822
 46
5.612660075668221
 79
     0
 47
1.273270922837659
 98
        4
 10
7345.151089237333
 20
411.8871722283129
 10
7241.939681533695
 20
413.1604375444131
 10
7240.665464976598
 20
327.8512874258213
 10
7290.359851405061
 20
326.5780221097211
  0
HATCH
  5
54A1
330
1F
100
AcDbEntity
  8
CETRIS
100
AcDbHatch
 10
0.0
 20
0.0
 30
0.0
210
0.0
220
0.0
230
1.0
  2
ANSI31
 70
     0
 71
     0
 91
        5
 92
       23
 72
     0
 73
     1
 93
        3
 10
7223.637344432574
 20
419.4900200743917
 10
7212.605896071011
 20
419.4900200743918
 10
7223.637344432574
 20
402.6543158252722
 97
        0
 92
        7
 72
     1
 73
     1
 93
       17
 10
7223.637344432574
 20
400.1346777953967
 42
-0.2176105976588488
 10
7223.637344432574
 20
401.1735362917763
 42
0.0
 10
7223.637344432574
 20
402.654315825271
 42
0.0
 10
7212.605896071011
 20
419.4900200743918
 42
0.0
 10
7211.637344432574
 20
419.4900200743918
 42
0.0
 10
7211.637344432574
 20
374.4740468206505
 42
0.0
 10
7212.837271209306
 20
374.4740468206505
 42
0.0
 10
7213.581411845779
 20
373.1243617371007
 42
0.0
 10
7214.650183835191
 20
372.0137318367422
 42
0.0
 10
7215.969173113489
 20
371.2175013574225
 42
0.0
 10
7217.450012980541
 20
370.7896204931234
 42
0.0
 10
7218.236941703664
 20
370.7235780112018
 42
0.0
 10
7222.285165602952
 20
370.7235780112019
 42
0.0
 10
7222.059034048696
 20
371.39609510963
 42
0.0
 10
7222.505517184441
 20
371.8414812378942
 42
0.0
 10
7222.881408287877
 20
370.7235780112019
 42
0.0
 10
7223.637344432574
 20
370.7235780112018
 42
0.0
 97
        0
 92
        7
 72
     0
 73
     1
 93
       13
 10
7223.637344432574
 20
366.9743813544719
 10
7223.418951061965
 20
367.3516907500367
 10
7223.19281950771
 20
368.0242078484656
 10
7218.236941703664
 20
368.0242078484656
 10
7216.713313750233
 20
367.7972449575822
 10
7215.299446540528
 20
367.1842591084344
 10
7214.092078357629
 20
366.2261780384495
 10
7213.17399484719
 20
364.9890442295506
 10
7212.837271209306
 20
364.2737390433826
 10
7211.637344432574
 20
364.2737390433826
 10
7211.637344432574
 20
319.2577657896413
 10
7223.637344432574
 20
319.2577657896413
 10
7223.637344432574
 20
331.2577657896284
 97
        0
 92
        7
 72
     0
 73
     1
 93
       12
 10
6853.9851697547
 20
322.9198678975963
 10
6854.598155603849
 20
324.3337351073009
 10
6854.825118494732
 20
325.8573630607326
 10
6854.825118494732
 20
330.8132408647775
 10
6853.706394307862
 20
331.1894080131652
 10
6853.774752083943
 20
331.2577657896413
 10
6670.773721371919
 20
331.2577657896413
 10
6668.563560093618
 20
319.2577657896412
 10
6851.074649689649
 20
319.2577657896413
 10
6851.074649689649
 20
320.4576925663735
 10
6851.789954875816
 20
320.7944162042555
 10
6853.027088684716
 20
321.7124997147004
 97
        0
 92
        7
 72
     0
 73
     1
 93
       14
 10
6884.422017505066
 20
331.2577657896413
 10
6857.524488657467
 20
331.2577657896413
 10
6857.524488657467
 20
330.5018296449429
 10
6858.64239188416
 20
330.1259385415062
 10
6858.197005755896
 20
329.6794554057652
 10
6857.524488657467
 20
329.9055869600188
 10
6857.524488657467
 20
325.8573630607246
 10
6857.590531139391
 20
325.0704343376082
 10
6858.018412003689
 20
323.5895944705587
 10
6858.81464248301
 20
322.2706051922594
 10
6859.925272383366
 20
321.2018332028467
 10
6861.274957466917
 20
320.4576925663735
 10
6861.274957466917
 20
319.2577657896412
 10
6884.422017505066
 20
319.2577657896413
 97
        0
 75
     0
 76
     1
 52
90.0
 41
2.5
 77
     0
 78
     1
 53
135.0
 43
2236.047385582154
 44
4.946143396813567
 45
-5.612660075668221
 46
-5.61266007566822
 79
     0
 47
1.273270922837659
 98
        5
 10
7220.278029712209
 20
414.4337113591482
 10
7215.181163483824
 20
394.0613813152085
 10
7219.003813155111
 20
345.6770783389256
 10
6798.51288299798
 20
322.7582091641524
 10
6866.046271576644
 20
327.8512874258213
  0
HATCH
  5
54D5
330
1F
100
AcDbEntity
  8
CETRIS
100
AcDbHatch
 10
0.0
 20
0.0
 30
0.0
210
0.0
220
0.0
230
1.0
  2
ANSI31
 70
     0
 71
     0
 91
        5
 92
        7
 72
     1
 73
     1
 93
        6
 10
6749.226749073052
 20
419.4900200743914
 42
0.0
 10
6709.131848966579
 20
419.4900200743914
 42
-1.0
 10
6706.63184896658
 20
419.4900200743914
 42
0.0
 10
6687.024347365026
 20
419.4900200743914
 42
0.0
 10
6684.814186086725
 20
407.4900200743917
 42
0.0
 10
6749.226749073052
 20
407.4900200743918
 42
0.0
 97
        0
 92
        7
 72
     0
 73
     1
 93
        4
 10
6793.496142165586
 20
419.4900200743914
 10
6749.226749073052
 20
419.4900200743914
 10
6749.226749073052
 20
407.4900200743918
 10
6793.496142165586
 20
407.4900200743918
 97
        0
 92
        7
 72
     0
 73
     1
 93
       12
 10
6853.775292000739
 20
407.4900200743919
 10
6854.152601396304
 20
407.7084134450018
 10
6854.825118494732
 20
407.9345449992556
 10
6854.825118494732
 20
412.8904228032959
 10
6854.598155603849
 20
414.4140507567313
 10
6853.985169754704
 20
415.8279179664347
 10
6853.027088684719
 20
417.0352861493326
 10
6851.789954875816
 20
417.9533696597772
 10
6851.074649689649
 20
418.2900932976596
 10
6851.074649689649
 20
419.4900200743914
 10
6793.496142165586
 20
419.4900200743914
 10
6793.496142165586
 20
407.490020074392
 97
        0
 92
        7
 72
     1
 73
     1
 93
       15
 10
6861.274957466917
 20
419.4900200743914
 42
0.0
 10
6861.274957466918
 20
418.2900932976596
 42
0.0
 10
6859.925272383368
 20
417.545952661187
 42
0.0
 10
6858.814642483008
 20
416.4771806717756
 42
0.0
 10
6858.018412003691
 20
415.1581913934768
 42
0.0
 10
6857.590531139391
 20
413.6773515264263
 42
0.0
 10
6857.524488657467
 20
412.8904228033098
 42
0.0
 10
6857.524488657467
 20
408.842198904014
 42
0.0
 10
6858.197005755897
 20
409.0683304582679
 42
0.0
 10
6858.64239188416
 20
408.621847322527
 42
0.0
 10
6857.524488657467
 20
408.2459562190901
 42
0.0
 10
6857.524488657467
 20
407.4900200743921
 42
0.0
 10
6874.393178323318
 20
407.490020074392
 42
-0.1442182232347004
 10
6875.058686468019
 20
407.7268706083676
 42
0.0
 10
6875.058686468019
 20
419.4900200743914
 42
0.0
 97
        0
 92
        7
 72
     1
 73
     1
 93
        5
 10
6884.422017505066
 20
419.4900200743913
 42
0.0
 10
6875.058686468019
 20
419.4900200743912
 42
0.0
 10
6875.058686468019
 20
407.7268706083678
 42
-0.1726432938556556
 10
6875.862760666032
 20
407.490020074392
 42
0.0
 10
6884.422017505066
 20
407.490020074392
 42
0.0
 97
        0
 75
     0
 76
     1
 52
0.0
 41
2.5
 77
     0
 78
     1
 53
45.0
 43
2236.047385582154
 44
4.946143396813567
 45
-5.61266007566822
 46
5.612660075668221
 79
     0
 47
1.273270922837659
 98
        5
 10
6743.721645165708
 20
413.1604375444131
 10
6788.319165365784
 20
413.1604375444131
 10
6841.836186640961
 20
411.8871722283129
 10
6866.046271576644
 20
414.4337113591482
 10
6880.062638880129
 20
413.1604375444131
  0
LINE
  5
54E0
330
1F
100
AcDbEntity
  8
STAVBA OBRYS
100
AcDbLine
 10
6845.510205139381
 20
420.4900200743914
 30
0.0
 11
6885.422017505067
 21
420.4900200743914
 31
0.0
  0
LINE
  5
54E1
330
1F
100
AcDbEntity
  8
STAVBA OBRYS
100
AcDbLine
 10
6885.422017505068
 20
318.2577657896413
 30
0.0
 11
6885.422017505067
 21
420.4900200743914
 31
0.0
  0
LINE
  5
54E2
330
1F
100
AcDbEntity
  8
STAVBA OBRYS
100
AcDbLine
 10
6845.510205139381
 20
318.2577657896413
 30
0.0
 11
6885.422017505068
 21
318.2577657896413
 31
0.0
  0
LINE
  5
54E3
330
1F
100
AcDbEntity
  8
STAVBA OBRYS
100
AcDbLine
 10
6849.51020513938
 20
430.4900200743912
 30
0.0
 11
6901.422017505066
 21
430.4900200743915
 31
0.0
  0
LINE
  5
54E4
330
1F
100
AcDbEntity
  8
STAVBA OBRYS
100
AcDbLine
 10
6895.422017505066
 20
308.2577657896413
 30
0.0
 11
6895.422017505066
 21
319.2577657896413
 31
0.0
  0
LINE
  5
54E5
330
1F
100
AcDbEntity
  8
STAVBA OBRYS
100
AcDbLine
 10
6849.51020513938
 20
308.2577657896411
 30
0.0
 11
6895.422017505066
 21
308.2577657896413
 31
0.0
  0
LINE
  5
54E6
330
1F
100
AcDbEntity
  8
STAVBA OBRYS
100
AcDbLine
 10
6845.510205139381
 20
426.4900200743912
 30
0.0
 11
6845.510205139381
 21
420.4900200743914
 31
0.0
  0
LINE
  5
54E8
330
1F
100
AcDbEntity
  8
STAVBA OBRYS
100
AcDbLine
 10
6845.510205139381
 20
318.2577657896413
 30
0.0
 11
6845.510205139381
 21
312.2577657896411
 31
0.0
  0
ARC
  5
54EB
330
1F
100
AcDbEntity
  8
STAVBA OBRYS
100
AcDbCircle
 10
6849.51020513938
 20
426.4900200743912
 30
0.0
 40
4.0
100
AcDbArc
 50
90.00000000000019
 51
180.0
  0
ARC
  5
54EC
330
1F
100
AcDbEntity
  8
STAVBA OBRYS
100
AcDbCircle
 10
6901.422017505066
 20
426.4900200743915
 30
0.0
 40
4.0
100
AcDbArc
 50
359.9999999999996
 51
90.0
  0
ARC
  5
54EE
330
1F
100
AcDbEntity
  8
STAVBA OBRYS
100
AcDbCircle
 10
6849.51020513938
 20
312.2577657896411
 30
0.0
 40
4.0
100
AcDbArc
 50
180.0
 51
270.0000000000001
  0
LINE
  5
54F0
330
1F
100
AcDbEntity
  8
STAVBA OBRYS
100
AcDbLine
 10
6905.422017505066
 20
319.2577657896413
 30
0.0
 11
6905.422017505067
 21
426.4900200743914
 31
0.0
  0
LINE
  5
54F1
330
1F
100
AcDbEntity
  8
STAVBA OBRYS
100
AcDbLine
 10
6895.422017505066
 20
319.2577657896413
 30
0.0
 11
6905.422017505066
 21
319.2577657896413
 31
0.0
  0
LINE
  5
54F3
102
{ACAD_REACTORS
330
5513
102
}
330
1F
100
AcDbEntity
  8
STAVBA OBRYS
100
AcDbLine
 10
6896.422017505067
 20
308.2577657896412
 30
0.0
 11
6896.422017505066
 21
318.2577657896414
 31
0.0
  0
LINE
  5
54F4
102
{ACAD_REACTORS
330
5513
102
}
330
1F
100
AcDbEntity
  8
STAVBA OBRYS
100
AcDbLine
 10
6896.422017505066
 20
318.2577657896414
 30
0.0
 11
6906.422017505066
 21
318.2577657896414
 31
0.0
  0
LINE
  5
54F5
102
{ACAD_REACTORS
330
5513
102
}
330
1F
100
AcDbEntity
  8
STAVBA OBRYS
100
AcDbLine
 10
6906.422017505066
 20
318.2577657896414
 30
0.0
 11
6906.422017505066
 21
328.2577657896413
 31
0.0
  0
LINE
  5
54F6
102
{ACAD_REACTORS
330
5513
102
}
330
1F
100
AcDbEntity
  8
STAVBA OBRYS
100
AcDbLine
 10
6906.422017505066
 20
328.2577657896413
 30
0.0
 11
7032.089766169839
 21
328.2577657896413
 31
0.0
  0
CIRCLE
  5
54FA
330
1F
100
AcDbEntity
  8
STAVBA OBRYS
100
AcDbCircle
 10
6895.735993225793
 20
301.894216157545
 30
0.0
 40
5.114196154685487
  0
HATCH
  5
550B
330
1F
100
AcDbEntity
  8
STAVBA OBRYS
100
AcDbHatch
 10
0.0
 20
0.0
 30
0.0
210
0.0
220
0.0
230
1.0
  2
ANSI31
 70
     0
 71
     0
 91
        1
 92
        7
 72
     1
 73
     1
 93
       13
 10
6905.422017505067
 20
426.4900200743914
 42
0.4142135623731012
 10
6901.422017505066
 20
430.4900200743915
 42
0.0
 10
6849.51020513938
 20
430.4900200743912
 42
0.414213562373094
 10
6845.510205139381
 20
426.4900200743912
 42
0.0
 10
6845.510205139381
 20
420.4900200743914
 42
0.0
 10
6885.422017505067
 20
420.4900200743914
 42
0.0
 10
6885.422017505068
 20
318.2577657896414
 42
0.0
 10
6845.510205139381
 20
318.2577657896414
 42
0.0
 10
6845.510205139381
 20
312.2577657896411
 42
0.4142135623730958
 10
6849.51020513938
 20
308.2577657896411
 42
0.0
 10
6895.422017505068
 20
308.2577657896413
 42
0.0
 10
6895.422017505066
 20
319.2577657896413
 42
0.0
 10
6905.422017505067
 20
319.2577657896414
 42
0.0
 97
        0
 75
     0
 76
     1
 52
0.0
 41
1.0
 77
     0
 78
     1
 53
45.0
 43
2236.047385582154
 44
4.946143396813567
 45
-2.245064030267287
 46
2.245064030267288
 79
     0
 47
0.3193999786075399
 98
        1
 10
6897.014553382894
 20
369.6070214783976
  0
HATCH
  5
5513
330
1F
100
AcDbEntity
  8
STAVBA OBRYS
100
AcDbHatch
 10
0.0
 20
0.0
 30
0.0
210
0.0
220
0.0
230
1.0
  2
ANSI31
 70
     0
 71
     1
 91
        1
 92
        7
 72
     0
 73
     1
 93
        6
 10
6906.422017505066
 20
328.2577657896412
 10
6906.422017505066
 20
318.2577657896414
 10
6896.422017505066
 20
318.2577657896414
 10
6896.422017505067
 20
308.2577657896412
 10
7028.40616403934
 20
308.2577657896413
 10
7032.089766169839
 20
328.2577657896413
 97
        6
330
54F6
330
54F5
330
54F4
330
54F3
330
239E
330
2575
 75
     0
 76
     1
 52
90.0
 41
1.0
 77
     0
 78
     1
 53
135.0
 43
2236.047385582154
 44
4.946143396813567
 45
-2.245064030267288
 46
-2.245064030267287
 79
     0
 47
0.3193999786075399
 98
        1
 10
6978.841573261266
 20
322.3358185655979
  0
LWPOLYLINE
  5
5515
102
{ACAD_REACTORS
330
5546
102
}
330
1F
100
AcDbEntity
  8
STAVBA OBRYS
100
AcDbPolyline
 90
        6
 70
     1
 43
0.0
 10
7210.637344432574
 20
339.7873407271877
 10
7181.896641412073
 20
339.7873407271877
 42
-0.4142135623730898
 10
7177.896641412073
 20
343.7873407271876
 10
7177.896641412073
 20
391.1925919673212
 42
-0.4142135623730951
 10
7181.896641412072
 20
395.1925919673212
 10
7210.637344432574
 20
395.1925919673212
  0
LINE
  5
5517
330
1F
100
AcDbEntity
  8
STAVBA OBRYS
100
AcDbLine
 10
7046.805154576491
 20
378.19376465828
 30
0.0
 11
7177.896641412073
 21
378.19376465828
 31
0.0
  0
LINE
  5
5518
330
1F
100
AcDbEntity
  8
STAVBA OBRYS
100
AcDbLine
 10
7046.068434150391
 20
374.19376465828
 30
0.0
 11
7177.896641412073
 21
374.1937646582801
 31
0.0
  0
LINE
  5
5519
330
1F
100
AcDbEntity
  8
STAVBA OBRYS
100
AcDbLine
 10
7044.191772014922
 20
364.0044875920623
 30
0.0
 11
7177.896641412073
 21
364.0044875920623
 31
0.0
  0
LINE
  5
551A
330
1F
100
AcDbEntity
  8
STAVBA OBRYS
100
AcDbLine
 10
7043.455051588821
 20
360.0044875920623
 30
0.0
 11
7177.896641412073
 21
360.0044875920623
 31
0.0
  0
LWPOLYLINE
  5
551C
330
1F
100
AcDbEntity
  8
STAVBA OBRYS
100
AcDbPolyline
 90
        4
 70
     1
 43
0.0
 10
7177.673650179051
 20
364.3008859445155
 10
7171.598978315628
 20
364.3008859445155
 10
7171.598978315628
 20
373.859091936365
 10
7177.673650179051
 20
373.859091936365
  0
LINE
  5
551F
330
1F
100
AcDbEntity
  8
STAVBA OBRYS
100
AcDbLine
 10
7164.908095090412
 20
359.8044875920623
 30
0.0
 11
7177.696641412072
 21
359.8044875920623
 31
0.0
  0
ARC
  5
5522
330
1F
100
AcDbEntity
  8
STAVBA OBRYS
100
AcDbCircle
 10
7177.696641412072
 20
359.8044875920623
 30
0.0
 40
12.78854632189904
100
AcDbArc
 50
266.9627172457054
 51
270.0
  0
ARC
  5
5523
330
1F
100
AcDbEntity
  8
STAVBA OBRYS
100
AcDbCircle
 10
7164.908095090173
 20
347.0159412701633
 30
0.0
 40
7.805464033546741
100
AcDbArc
 50
25.80446598772436
 51
64.19553401227227
  0
ARC
  5
5524
330
1F
100
AcDbEntity
  8
STAVBA OBRYS
100
AcDbCircle
 10
7177.696641412072
 20
359.8044875920623
 30
0.0
 40
12.78854632189904
100
AcDbArc
 50
180.0
 51
183.037282754292
  0
LINE
  5
5527
330
1F
100
AcDbEntity
  8
STAVBA OBRYS
100
AcDbLine
 10
7177.696641412072
 20
347.0159412701633
 30
0.0
 11
7177.696641412072
 21
359.8044875920623
 31
0.0
  0
ARC
  5
552B
330
1F
100
AcDbEntity
  8
STAVBA OBRYS
100
AcDbCircle
 10
7170.917631178601
 20
359.4447913047975
 30
0.0
 40
6.0
100
AcDbArc
 50
183.0372827542921
 51
244.1955340122855
  0
ARC
  5
552C
330
1F
100
AcDbEntity
  8
STAVBA OBRYS
100
AcDbCircle
 10
7177.336945124807
 20
353.0254773585919
 30
0.0
 40
6.0
100
AcDbArc
 50
205.8044659877265
 51
266.9627172457071
  0
LINE
  5
552D
330
1F
100
AcDbEntity
  8
STAVBA OBRYS
100
AcDbLine
 10
7210.637344432574
 20
377.3390400596226
 30
0.0
 11
7211.637344432574
 21
377.3390400596226
 31
0.0
  0
LINE
  5
552E
330
1F
100
AcDbEntity
  8
STAVBA OBRYS
100
AcDbLine
 10
7210.637344432574
 20
373.3390400596226
 30
0.0
 11
7211.637344432574
 21
373.3390400596226
 31
0.0
  0
LINE
  5
552F
330
1F
100
AcDbEntity
  8
STAVBA OBRYS
100
AcDbLine
 10
7210.637344432574
 20
359.1497629934049
 30
0.0
 11
7211.637344432574
 21
359.1497629934049
 31
0.0
  0
LINE
  5
5530
330
1F
100
AcDbEntity
  8
STAVBA OBRYS
100
AcDbLine
 10
7210.637344432574
 20
363.1497629934049
 30
0.0
 11
7211.637344432574
 21
363.1497629934049
 31
0.0
  0
LINE
  5
5531
330
1F
100
AcDbEntity
  8
STAVBA OBRYS
100
AcDbLine
 10
7171.598978315628
 20
373.859091936365
 30
0.0
 11
7177.673650179051
 21
364.3008859445155
 31
0.0
  0
LINE
  5
5532
330
1F
100
AcDbEntity
  8
STAVBA OBRYS
100
AcDbLine
 10
7171.598978315628
 20
364.3008859445155
 30
0.0
 11
7177.673650179051
 21
373.859091936365
 31
0.0
  0
LINE
  5
5533
330
1F
100
AcDbEntity
  8
STAVBA OBRYS
100
AcDbLine
 10
7164.908095090412
 20
378.3554902888183
 30
0.0
 11
7177.696641412072
 21
378.3554902888183
 31
0.0
  0
ARC
  5
5534
330
1F
100
AcDbEntity
  8
STAVBA OBRYS
100
AcDbCircle
 10
7177.336945124807
 20
385.1345005222887
 30
0.0
 40
6.0
100
AcDbArc
 50
93.03728275429289
 51
154.1955340122734
  0
ARC
  5
5535
330
1F
100
AcDbEntity
  8
STAVBA OBRYS
100
AcDbCircle
 10
7170.917631178601
 20
378.7151865760831
 30
0.0
 40
6.0
100
AcDbArc
 50
115.8044659877144
 51
176.9627172457078
  0
ARC
  5
5536
330
1F
100
AcDbEntity
  8
STAVBA OBRYS
100
AcDbCircle
 10
7177.696641412072
 20
378.3554902888183
 30
0.0
 40
12.78854632189904
100
AcDbArc
 50
176.9627172457079
 51
180.0
  0
ARC
  5
5537
330
1F
100
AcDbEntity
  8
STAVBA OBRYS
100
AcDbCircle
 10
7164.908095090173
 20
391.1440366107173
 30
0.0
 40
7.805464033546741
100
AcDbArc
 50
295.8044659877277
 51
334.1955340122756
  0
LINE
  5
5538
330
1F
100
AcDbEntity
  8
STAVBA OBRYS
100
AcDbLine
 10
7177.696641412072
 20
391.1440366107173
 30
0.0
 11
7177.696641412072
 21
378.3554902888183
 31
0.0
  0
ARC
  5
5539
102
{ACAD_REACTORS
330
5546
102
}
330
1F
100
AcDbEntity
  8
STAVBA OBRYS
100
AcDbCircle
 10
7177.696641412072
 20
378.3554902888183
 30
0.0
 40
12.78854632189904
100
AcDbArc
 50
90.00000000000003
 51
93.03728275429461
  0
HATCH
  5
5546
330
1F
100
AcDbEntity
  8
STAVBA OBRYS
100
AcDbHatch
 10
0.0
 20
0.0
 30
0.0
210
0.0
220
0.0
230
1.0
  2
ANSI31
 70
     0
 71
     1
 91
        1
 92
        7
 72
     1
 73
     1
 93
        7
 10
7210.637344432574
 20
395.1925919673212
 42
0.0
 10
7181.896641412072
 20
395.1925919673212
 42
0.4178887041088859
 10
7177.89695547968
 20
391.1424676995153
 42
0.0000061403789499
 10
7177.896641412073
 20
391.1424726156754
 42
0.0
 10
7177.896641412073
 20
343.7873407271876
 42
0.4142135623730898
 10
7181.896641412073
 20
339.7873407271877
 42
0.0
 10
7210.637344432574
 20
339.7873407271877
 42
0.0
 97
        2
330
5515
330
5539
 75
     0
 76
     1
 52
90.0
 41
1.0
 77
     0
 78
     1
 53
135.0
 43
2236.047385582154
 44
4.946143396813567
 45
-2.245064030267288
 46
-2.245064030267287
 79
     0
 47
0.4273633616578126
 98
        1
 10
7200.017329725776
 20
367.014547231869
  0
HATCH
  5
5552
330
1F
100
AcDbEntity
  8
STAVBA OBRYS
100
AcDbHatch
 10
0.0
 20
0.0
 30
0.0
210
0.0
220
0.0
230
1.0
  2
ANSI31
 70
     0
 71
     0
 91
        1
 92
        7
 72
     1
 73
     1
 93
        7
 10
7177.696641412072
 20
391.1440366107173
 42
0.0132534220143564
 10
7177.01903056383
 20
391.1260721301323
 42
0.2733732564835249
 10
7171.93523606044
 20
387.7463081690982
 42
-0.1690972520006714
 10
7168.305823531793
 20
384.11689564045
 42
0.2733730431582531
 10
7164.926059823172
 20
379.0331058941631
 42
0.0132535151568979
 10
7164.908095090173
 20
378.3554902888183
 42
0.0
 10
7177.696641412073
 20
378.3554902888183
 42
0.0
 97
        0
 75
     0
 76
     1
 52
0.0
 41
1.0
 77
     0
 78
     1
 53
45.0
 43
2236.047385582154
 44
4.946143396813567
 45
-2.245064030267287
 46
2.245064030267288
 79
     0
 47
0.4273633616578126
 98
        1
 10
7173.073474859307
 20
382.8269948001943
  0
HATCH
  5
555B
330
1F
100
AcDbEntity
  8
STAVBA OBRYS
100
AcDbHatch
 10
0.0
 20
0.0
 30
0.0
210
0.0
220
0.0
230
1.0
  2
ANSI31
 70
     0
 71
     0
 91
        1
 92
        7
 72
     1
 73
     1
 93
        8
 10
7177.696641412072
 20
347.0159412701633
 42
-0.0132534220143565
 10
7177.01903056383
 20
347.0339057507482
 42
-0.2733732564835251
 10
7171.93523606044
 20
350.4136697117824
 42
0.1690972520006713
 10
7168.305823531793
 20
354.0430822404306
 42
-0.2733734698090497
 10
7164.926059318347
 20
359.1268815009283
 42
-5995780.404399007
 10
7164.926059770404
 20
359.1268729812155
 42
0.0
 10
7164.890105013149
 20
359.8044875920623
 42
0.0
 10
7177.696641412073
 20
359.8044875920624
 42
0.0
 97
        0
 75
     0
 76
     1
 52
0.0
 41
1.0
 77
     0
 78
     1
 53
45.0
 43
2236.047385582154
 44
4.946143396813567
 45
-2.245064030267287
 46
2.245064030267288
 79
     0
 47
0.1157442511596116
 98
        1
 10
7173.077922231321
 20
355.4979890773866
  0
TEXT
  5
79A5
330
1F
100
AcDbEntity
  8
POPIS
100
AcDbText
 10
6675.716094073887
 20
532.4964371356709
 30
0.0
 40
25.0
  1
Vodorovný řez
 41
0.7
  7
SIMPLEX7
100
AcDbText
  0
TEXT
  5
79A6
330
1F
100
AcDbEntity
  8
POPIS
100
AcDbText
 10
6675.716094073887
 20
571.9113251365597
 30
0.0
 40
35.0
  1
Otvor ve stěně
 41
0.85
  7
SIMPLEX7
100
AcDbText
  0
TEXT
  5
9F98
330
1F
100
AcDbEntity
  8
POPIS
100
AcDbText
 10
7529.478382818435
 20
386.6682982785235
 30
0.0
 40
25.0
  1
(v exteriéru vrut s viditelnou hlavou a těsnící podložkou)
 41
0.6
 51
10.0
  7
SIMPLEX7
100
AcDbText
  0
ENDSEC
  0
SECTION
  2
OBJECTS
  0
DICTIONARY
  5
C
330
0
100
AcDbDictionary
281
     1
  3
ACAD_GROUP
350
D
  3
ACAD_LAYOUT
350
1A
  3
ACAD_MLINESTYLE
350
17
  3
ACAD_PLOTSETTINGS
350
19
  3
ACAD_PLOTSTYLENAME
350
E
  3
AcDbVariableDictionary
350
17BD
  0
DICTIONARY
  5
D
102
{ACAD_REACTORS
330
C
102
}
330
C
100
AcDbDictionary
281
     1
  0
DICTIONARY
  5
1A
102
{ACAD_REACTORS
330
C
102
}
330
C
100
AcDbDictionary
281
     1
  3
Model
350
22
  3
Rozvržení1
350
1E
  3
Rozvržení2
350
26
  0
DICTIONARY
  5
17
102
{ACAD_REACTORS
330
C
102
}
330
C
100
AcDbDictionary
281
     1
  3
Standard
350
18
  0
DICTIONARY
  5
19
102
{ACAD_REACTORS
330
C
102
}
330
C
100
AcDbDictionary
281
     1
  0
ACDBDICTIONARYWDFLT
  5
E
102
{ACAD_REACTORS
330
C
102
}
330
C
100
AcDbDictionary
281
     1
  3
Normal
350
F
100
AcDbDictionaryWithDefault
340
F
  0
DICTIONARY
  5
17BD
102
{ACAD_REACTORS
330
C
102
}
330
C
100
AcDbDictionary
281
     1
  3
DIMASSOC
350
9F87
  3
SORTENTS
350
17BE
  0
LAYOUT
  5
22
102
{ACAD_REACTORS
330
1A
102
}
330
1A
100
AcDbPlotSettings
  1

  2
HP DeskJet 690C
  4

  6

 40
0.0
 41
0.0
 42
0.0
 43
0.0
 44
0.0
 45
0.0
 46
0.0
 47
0.0
 48
0.0
 49
0.0
140
0.0
141
0.0
142
1.0
143
1.0
 70
  1712
 72
     0
 73
     0
 74
     0
  7
monochrome.ctb
 75
     0
147
1.0
148
0.0
149
0.0
100
AcDbLayout
  1
Model
 70
     1
 71
     0
 10
0.0
 20
0.0
 11
12.0
 21
9.0
 12
0.0
 22
0.0
 32
0.0
 14
0.0
 24
0.0
 34
0.0
 15
0.0
 25
0.0
 35
0.0
146
0.0
 13
0.0
 23
0.0
 33
0.0
 16
1.0
 26
0.0
 36
0.0
 17
0.0
 27
1.0
 37
0.0
 76
     0
330
1F
  0
LAYOUT
  5
1E
102
{ACAD_REACTORS
330
1A
102
}
330
1A
100
AcDbPlotSettings
  1

  2
HP DeskJet 690C
  4

  6

 40
0.0
 41
0.0
 42
0.0
 43
0.0
 44
0.0
 45
0.0
 46
0.0
 47
0.0
 48
0.0
 49
0.0
140
0.0
141
0.0
142
1.0
143
1.0
 70
   688
 72
     0
 73
     0
 74
     5
  7
monochrome.ctb
 75
    16
147
1.0
148
0.0
149
0.0
100
AcDbLayout
  1
Rozvržení1
 70
     1
 71
     1
 10
0.0
 20
0.0
 11
420.0
 21
297.0
 12
0.0
 22
0.0
 32
0.0
 14
1.000000000000000E+20
 24
1.000000000000000E+20
 34
1.000000000000000E+20
 15
-1.000000000000000E+20
 25
-1.000000000000000E+20
 35
-1.000000000000000E+20
146
0.0
 13
0.0
 23
0.0
 33
0.0
 16
1.0
 26
0.0
 36
0.0
 17
0.0
 27
1.0
 37
0.0
 76
     0
330
1B
  0
LAYOUT
  5
26
102
{ACAD_REACTORS
330
1A
102
}
330
1A
100
AcDbPlotSettings
  1

  2
HP DeskJet 690C
  4

  6

 40
0.0
 41
0.0
 42
0.0
 43
0.0
 44
0.0
 45
0.0
 46
0.0
 47
0.0
 48
0.0
 49
0.0
140
0.0
141
0.0
142
1.0
143
1.0
 70
   688
 72
     0
 73
     0
 74
     5
  7
monochrome.ctb
 75
    16
147
1.0
148
0.0
149
0.0
100
AcDbLayout
  1
Rozvržení2
 70
     1
 71
     2
 10
0.0
 20
0.0
 11
12.0
 21
9.0
 12
0.0
 22
0.0
 32
0.0
 14
0.0
 24
0.0
 34
0.0
 15
0.0
 25
0.0
 35
0.0
146
0.0
 13
0.0
 23
0.0
 33
0.0
 16
1.0
 26
0.0
 36
0.0
 17
0.0
 27
1.0
 37
0.0
 76
     0
330
23
  0
MLINESTYLE
  5
18
102
{ACAD_REACTORS
330
17
102
}
330
17
100
AcDbMlineStyle
  2
STANDARD
 70
     0
  3

 62
   256
 51
90.0
 52
90.0
 71
     2
 49
0.5
 62
   256
  6
BYLAYER
 49
-0.5
 62
   256
  6
BYLAYER
  0
ACDBPLACEHOLDER
  5
F
102
{ACAD_REACTORS
330
E
102
}
330
E
  0
DICTIONARYVAR
  5
9F87
102
{ACAD_REACTORS
330
17BD
102
}
330
17BD
100
DictionaryVariables
280
     0
  1
1
  0
DICTIONARYVAR
  5
17BE
102
{ACAD_REACTORS
330
17BD
102
}
330
17BD
100
DictionaryVariables
280
     0
  1
96
  0
ENDSEC
  0
EOF
