  0
SECTION
  2
HEADER
  9
$ACADVER
  1
AC1015
  9
$ACADMAINTVER
 70
    14
  9
$DWGCODEPAGE
  3
ANSI_1250
  9
$INSBASE
 10
0.0
 20
0.0
 30
0.0
  9
$EXTMIN
 10
4154.930346192414
 20
192.5962115142283
 30
-0.0015258207003583
  9
$EXTMAX
 10
5434.608426893039
 20
745.1613464947841
 30
0.0000000349246037
  9
$LIMMIN
 10
0.0
 20
0.0
  9
$LIMMAX
 10
420.0
 20
297.0
  9
$ORTHOMODE
 70
     1
  9
$REGENMODE
 70
     1
  9
$FILLMODE
 70
     1
  9
$QTEXTMODE
 70
     0
  9
$MIRRTEXT
 70
     1
  9
$LTSCALE
 40
1.0
  9
$ATTMODE
 70
     1
  9
$TEXTSIZE
 40
2.5
  9
$TRACEWID
 40
1.0
  9
$TEXTSTYLE
  7
Standard
  9
$CLAYER
  8
CETRIS
  9
$CELTYPE
  6
ByLayer
  9
$CECOLOR
 62
   256
  9
$CELTSCALE
 40
1.0
  9
$DISPSILH
 70
     0
  9
$DIMSCALE
 40
1.0
  9
$DIMASZ
 40
2.5
  9
$DIMEXO
 40
0.625
  9
$DIMDLI
 40
3.75
  9
$DIMRND
 40
0.0
  9
$DIMDLE
 40
0.0
  9
$DIMEXE
 40
1.25
  9
$DIMTP
 40
0.0
  9
$DIMTM
 40
0.0
  9
$DIMTXT
 40
2.5
  9
$DIMCEN
 40
2.5
  9
$DIMTSZ
 40
0.0
  9
$DIMTOL
 70
     0
  9
$DIMLIM
 70
     0
  9
$DIMTIH
 70
     0
  9
$DIMTOH
 70
     0
  9
$DIMSE1
 70
     0
  9
$DIMSE2
 70
     0
  9
$DIMTAD
 70
     1
  9
$DIMZIN
 70
     8
  9
$DIMBLK
  1

  9
$DIMASO
 70
     1
  9
$DIMSHO
 70
     1
  9
$DIMPOST
  1

  9
$DIMAPOST
  1

  9
$DIMALT
 70
     0
  9
$DIMALTD
 70
     3
  9
$DIMALTF
 40
0.03937007874016
  9
$DIMLFAC
 40
1.0
  9
$DIMTOFL
 70
     1
  9
$DIMTVP
 40
0.0
  9
$DIMTIX
 70
     0
  9
$DIMSOXD
 70
     0
  9
$DIMSAH
 70
     0
  9
$DIMBLK1
  1

  9
$DIMBLK2
  1

  9
$DIMSTYLE
  2
ISO-25
  9
$DIMCLRD
 70
     0
  9
$DIMCLRE
 70
     0
  9
$DIMCLRT
 70
     0
  9
$DIMTFAC
 40
1.0
  9
$DIMGAP
 40
0.625
  9
$DIMJUST
 70
     0
  9
$DIMSD1
 70
     0
  9
$DIMSD2
 70
     0
  9
$DIMTOLJ
 70
     0
  9
$DIMTZIN
 70
     8
  9
$DIMALTZ
 70
     0
  9
$DIMALTTZ
 70
     0
  9
$DIMUPT
 70
     0
  9
$DIMDEC
 70
     2
  9
$DIMTDEC
 70
     2
  9
$DIMALTU
 70
     2
  9
$DIMALTTD
 70
     3
  9
$DIMTXSTY
  7
Standard
  9
$DIMAUNIT
 70
     0
  9
$DIMADEC
 70
     0
  9
$DIMALTRND
 40
0.0
  9
$DIMAZIN
 70
     0
  9
$DIMDSEP
 70
    44
  9
$DIMATFIT
 70
     3
  9
$DIMFRAC
 70
     0
  9
$DIMLDRBLK
  1

  9
$DIMLUNIT
 70
     2
  9
$DIMLWD
 70
    -2
  9
$DIMLWE
 70
    -2
  9
$DIMTMOVE
 70
     0
  9
$LUNITS
 70
     2
  9
$LUPREC
 70
     4
  9
$SKETCHINC
 40
1.0
  9
$FILLETRAD
 40
0.0
  9
$AUNITS
 70
     0
  9
$AUPREC
 70
     0
  9
$MENU
  1
.
  9
$ELEVATION
 40
0.0
  9
$PELEVATION
 40
0.0
  9
$THICKNESS
 40
0.0
  9
$LIMCHECK
 70
     0
  9
$CHAMFERA
 40
10.0
  9
$CHAMFERB
 40
10.0
  9
$CHAMFERC
 40
20.0
  9
$CHAMFERD
 40
0.0
  9
$SKPOLY
 70
     0
  9
$TDCREATE
 40
2452332.512107639
  9
$TDUCREATE
 40
2452332.470440972
  9
$TDUPDATE
 40
2455601.284504618
  9
$TDUUPDATE
 40
2455601.242837951
  9
$TDINDWG
 40
1.0581432060
  9
$TDUSRTIMER
 40
1.0581293171
  9
$USRTIMER
 70
     1
  9
$ANGBASE
 50
0.0
  9
$ANGDIR
 70
     0
  9
$PDMODE
 70
     0
  9
$PDSIZE
 40
0.0
  9
$PLINEWID
 40
0.0
  9
$SPLFRAME
 70
     0
  9
$SPLINETYPE
 70
     6
  9
$SPLINESEGS
 70
     8
  9
$HANDSEED
  5
9FAE
  9
$SURFTAB1
 70
     6
  9
$SURFTAB2
 70
     6
  9
$SURFTYPE
 70
     6
  9
$SURFU
 70
     6
  9
$SURFV
 70
     6
  9
$UCSBASE
  2

  9
$UCSNAME
  2

  9
$UCSORG
 10
0.0
 20
0.0
 30
0.0
  9
$UCSXDIR
 10
1.0
 20
0.0
 30
0.0
  9
$UCSYDIR
 10
0.0
 20
1.0
 30
0.0
  9
$UCSORTHOREF
  2

  9
$UCSORTHOVIEW
 70
     0
  9
$UCSORGTOP
 10
0.0
 20
0.0
 30
0.0
  9
$UCSORGBOTTOM
 10
0.0
 20
0.0
 30
0.0
  9
$UCSORGLEFT
 10
0.0
 20
0.0
 30
0.0
  9
$UCSORGRIGHT
 10
0.0
 20
0.0
 30
0.0
  9
$UCSORGFRONT
 10
0.0
 20
0.0
 30
0.0
  9
$UCSORGBACK
 10
0.0
 20
0.0
 30
0.0
  9
$PUCSBASE
  2

  9
$PUCSNAME
  2

  9
$PUCSORG
 10
0.0
 20
0.0
 30
0.0
  9
$PUCSXDIR
 10
1.0
 20
0.0
 30
0.0
  9
$PUCSYDIR
 10
0.0
 20
1.0
 30
0.0
  9
$PUCSORTHOREF
  2

  9
$PUCSORTHOVIEW
 70
     0
  9
$PUCSORGTOP
 10
0.0
 20
0.0
 30
0.0
  9
$PUCSORGBOTTOM
 10
0.0
 20
0.0
 30
0.0
  9
$PUCSORGLEFT
 10
0.0
 20
0.0
 30
0.0
  9
$PUCSORGRIGHT
 10
0.0
 20
0.0
 30
0.0
  9
$PUCSORGFRONT
 10
0.0
 20
0.0
 30
0.0
  9
$PUCSORGBACK
 10
0.0
 20
0.0
 30
0.0
  9
$USERI1
 70
     0
  9
$USERI2
 70
     0
  9
$USERI3
 70
     0
  9
$USERI4
 70
     0
  9
$USERI5
 70
     0
  9
$USERR1
 40
0.0
  9
$USERR2
 40
0.0
  9
$USERR3
 40
0.0
  9
$USERR4
 40
0.0
  9
$USERR5
 40
0.0
  9
$WORLDVIEW
 70
     1
  9
$SHADEDGE
 70
     3
  9
$SHADEDIF
 70
    70
  9
$TILEMODE
 70
     1
  9
$MAXACTVP
 70
    64
  9
$PINSBASE
 10
0.0
 20
0.0
 30
0.0
  9
$PLIMCHECK
 70
     0
  9
$PEXTMIN
 10
1.000000000000000E+20
 20
1.000000000000000E+20
 30
1.000000000000000E+20
  9
$PEXTMAX
 10
-1.000000000000000E+20
 20
-1.000000000000000E+20
 30
-1.000000000000000E+20
  9
$PLIMMIN
 10
0.0
 20
0.0
  9
$PLIMMAX
 10
420.0
 20
297.0
  9
$UNITMODE
 70
     0
  9
$VISRETAIN
 70
     1
  9
$PLINEGEN
 70
     0
  9
$PSLTSCALE
 70
     1
  9
$TREEDEPTH
 70
  3020
  9
$CMLSTYLE
  2
Standard
  9
$CMLJUST
 70
     0
  9
$CMLSCALE
 40
20.0
  9
$PROXYGRAPHICS
 70
     1
  9
$MEASUREMENT
 70
     1
  9
$CELWEIGHT
370
    -1
  9
$ENDCAPS
280
     0
  9
$JOINSTYLE
280
     0
  9
$LWDISPLAY
290
     0
  9
$INSUNITS
 70
     4
  9
$HYPERLINKBASE
  1

  9
$STYLESHEET
  1

  9
$XEDIT
290
     1
  9
$CEPSNTYPE
380
     0
  9
$PSTYLEMODE
290
     1
  9
$FINGERPRINTGUID
  2
{D99C744E-04C5-44F1-9703-862C59725F9B}
  9
$VERSIONGUID
  2
{EC9544DC-D520-4513-AEFD-C74363C41225}
  9
$EXTNAMES
290
     1
  9
$PSVPSCALE
 40
0.0
  9
$OLESTARTUP
290
     0
  0
ENDSEC
  0
SECTION
  2
CLASSES
  0
CLASS
  1
ACDBDICTIONARYWDFLT
  2
AcDbDictionaryWithDefault
  3
AutoCAD 2000
 90
        0
280
     0
281
     0
  0
CLASS
  1
ACDBPLACEHOLDER
  2
AcDbPlaceHolder
  3
AutoCAD 2000
 90
        0
280
     0
281
     0
  0
CLASS
  1
LAYOUT
  2
AcDbLayout
  3
AutoCAD 2000
 90
        0
280
     0
281
     0
  0
CLASS
  1
DICTIONARYVAR
  2
AcDbDictionaryVar
  3
AutoCAD 2000
 90
        0
280
     0
281
     0
  0
ENDSEC
  0
SECTION
  2
TABLES
  0
TABLE
  2
VPORT
  5
8
330
0
100
AcDbSymbolTable
 70
     2
  0
VPORT
  5
9FAD
330
8
100
AcDbSymbolTableRecord
100
AcDbViewportTableRecord
  2
*Active
 70
     0
 10
0.0
 20
0.0
 11
1.0
 21
1.0
 12
4731.431728607897
 22
416.0856871031247
 13
0.0
 23
0.0
 14
10.0
 24
10.0
 15
10.0
 25
10.0
 16
0.0
 26
0.0
 36
1.0
 17
0.0
 27
0.0
 37
0.0
 40
884.6045481419496
 41
2.031862745098039
 42
50.0
 43
0.0
 44
0.0
 50
0.0
 51
0.0
 71
     0
 72
   100
 73
     1
 74
     3
 75
     0
 76
     1
 77
     0
 78
     0
281
     0
 65
     1
110
0.0
120
0.0
130
0.0
111
1.0
121
0.0
131
0.0
112
0.0
122
1.0
132
0.0
 79
     0
146
0.0
  0
ENDTAB
  0
TABLE
  2
LTYPE
  5
5
330
0
100
AcDbSymbolTable
 70
     5
  0
LTYPE
  5
14
330
5
100
AcDbSymbolTableRecord
100
AcDbLinetypeTableRecord
  2
ByBlock
 70
     0
  3

 72
    65
 73
     0
 40
0.0
  0
LTYPE
  5
15
330
5
100
AcDbSymbolTableRecord
100
AcDbLinetypeTableRecord
  2
ByLayer
 70
     0
  3

 72
    65
 73
     0
 40
0.0
  0
LTYPE
  5
16
330
5
100
AcDbSymbolTableRecord
100
AcDbLinetypeTableRecord
  2
Continuous
 70
     0
  3
Solid line
 72
    65
 73
     0
 40
0.0
  0
LTYPE
  5
33
330
5
100
AcDbSymbolTableRecord
100
AcDbLinetypeTableRecord
  2
DASHED
 70
     0
  3
Dashed __ __ __ __ __ __ __ __ __ __ __ __ __ _
 72
    65
 73
     2
 40
19.04999999999999
 49
12.7
 74
     0
 49
-6.349999999999999
 74
     0
  0
LTYPE
  5
34
330
5
100
AcDbSymbolTableRecord
100
AcDbLinetypeTableRecord
  2
DASHDOT2
 70
     0
  3
Dash dot (.5x) _._._._._._._._._._._._._._._.
 72
    65
 73
     4
 40
12.7
 49
6.349999999999999
 74
     0
 49
-3.174999999999999
 74
     0
 49
0.0
 74
     0
 49
-3.174999999999999
 74
     0
  0
LTYPE
  5
35
330
5
100
AcDbSymbolTableRecord
100
AcDbLinetypeTableRecord
  2
CIKCAK
 70
     0
  3
Cik-cak /\/\/\/\/\/\/\/\/\/\/\/\/\/\/\/\/\/\/\/
 72
    65
 73
     4
 40
20.32254
 49
0.00254
 74
     0
 49
-5.08
 74
     4
 75
   131
340
3E
 46
5.08
 50
0.0
 44
-5.08
 45
0.0
 49
-10.16
 74
     4
 75
   131
340
3E
 46
5.08
 50
180.0
 44
5.08
 45
0.0
 49
-5.08
 74
     0
  0
LTYPE
  5
36
330
5
100
AcDbSymbolTableRecord
100
AcDbLinetypeTableRecord
  2
IZOLACE
 70
     0
  3
Izolace SSSSSSSSSSSSSSSSSSSSSSSSSSSSSSSSSSSSSSS
 72
    65
 73
     4
 40
10.16253999999999
 49
0.00254
 74
     0
 49
-2.54
 74
     4
 75
   134
340
3E
 46
2.54
 50
0.0
 44
-2.54
 45
0.0
 49
-5.08
 74
     4
 75
   134
340
3E
 46
2.54
 50
180.0
 44
2.54
 45
0.0
 49
-2.54
 74
     0
  0
ENDTAB
  0
TABLE
  2
LAYER
  5
2
330
0
100
AcDbSymbolTable
 70
     8
  0
LAYER
  5
10
330
2
100
AcDbSymbolTableRecord
100
AcDbLayerTableRecord
  2
0
 70
     0
 62
     7
  6
Continuous
370
    -3
390
F
  0
LAYER
  5
37
330
2
100
AcDbSymbolTableRecord
100
AcDbLayerTableRecord
  2
POPIS
 70
     0
 62
    30
  6
Continuous
370
    -3
390
F
  0
LAYER
  5
38
330
2
100
AcDbSymbolTableRecord
100
AcDbLayerTableRecord
  2
SPOJOVACÍ
 70
     0
 62
   180
  6
Continuous
370
    -3
390
F
  0
LAYER
  5
39
330
2
100
AcDbSymbolTableRecord
100
AcDbLayerTableRecord
  2
CETRIS
 70
     0
 62
     1
  6
Continuous
370
    -3
390
F
  0
LAYER
  5
3A
330
2
100
AcDbSymbolTableRecord
100
AcDbLayerTableRecord
  2
NOSNÉ KONSTRUKCE
 70
     0
 62
    33
  6
Continuous
370
    -3
390
F
  0
LAYER
  5
3B
330
2
100
AcDbSymbolTableRecord
100
AcDbLayerTableRecord
  2
izolace
 70
     0
 62
    73
  6
Continuous
370
    -3
390
F
  0
LAYER
  5
3C
330
2
100
AcDbSymbolTableRecord
100
AcDbLayerTableRecord
  2
STAVBA OBRYS
 70
     0
 62
     6
  6
Continuous
370
    -3
390
F
  0
LAYER
  5
1B41
330
2
100
AcDbSymbolTableRecord
100
AcDbLayerTableRecord
  2
Defpoints
 70
     0
 62
     7
  6
Continuous
290
     0
370
    -3
390
F
  0
ENDTAB
  0
TABLE
  2
STYLE
  5
3
330
0
100
AcDbSymbolTable
 70
     3
  0
STYLE
  5
11
330
3
100
AcDbSymbolTableRecord
100
AcDbTextStyleTableRecord
  2
Standard
 70
     0
 40
0.0
 41
1.0
 50
0.0
 71
     0
 42
2.5
  3
txt
  4

  0
STYLE
  5
3D
330
3
100
AcDbSymbolTableRecord
100
AcDbTextStyleTableRecord
  2
SIMPLEX7
 70
     0
 40
0.0
 41
0.85
 50
0.0
 71
     0
 42
102.0
  3
ARIAL.TTF
  4

1001
ACAD
1000
Arial CE
1071
    60962
  0
STYLE
  5
3E
330
3
100
AcDbSymbolTableRecord
100
AcDbTextStyleTableRecord
  2

 70
     1
 40
0.0
 41
1.0
 50
0.0
 71
     0
 42
2.5
  3
ltypeshp.shx
  4

  0
ENDTAB
  0
TABLE
  2
VIEW
  5
6
330
0
100
AcDbSymbolTable
 70
     0
  0
ENDTAB
  0
TABLE
  2
UCS
  5
7
330
0
100
AcDbSymbolTable
 70
     0
  0
ENDTAB
  0
TABLE
  2
APPID
  5
9
330
0
100
AcDbSymbolTable
 70
     1
  0
APPID
  5
12
330
9
100
AcDbSymbolTableRecord
100
AcDbRegAppTableRecord
  2
ACAD
 70
     0
  0
ENDTAB
  0
TABLE
  2
DIMSTYLE
  5
A
330
0
100
AcDbSymbolTable
 70
     1
100
AcDbDimStyleTable
 71
     1
340
27
  0
DIMSTYLE
105
27
330
A
100
AcDbSymbolTableRecord
100
AcDbDimStyleTableRecord
  2
ISO-25
 70
     0
 41
2.5
 42
0.625
 43
3.75
 44
1.25
 73
     0
 74
     0
 77
     1
 78
     8
140
2.5
141
2.5
143
0.03937007874016
147
0.625
171
     3
172
     1
271
     2
272
     2
274
     3
278
    44
283
     0
284
     8
340
11
  0
ENDTAB
  0
TABLE
  2
BLOCK_RECORD
  5
1
330
0
100
AcDbSymbolTable
 70
     3
  0
BLOCK_RECORD
  5
1F
330
1
100
AcDbSymbolTableRecord
100
AcDbBlockTableRecord
  2
*Model_Space
340
22
  0
BLOCK_RECORD
  5
1B
330
1
100
AcDbSymbolTableRecord
100
AcDbBlockTableRecord
  2
*Paper_Space
340
1E
  0
BLOCK_RECORD
  5
23
330
1
100
AcDbSymbolTableRecord
100
AcDbBlockTableRecord
  2
*Paper_Space0
340
26
  0
BLOCK_RECORD
  5
2B
330
1
100
AcDbSymbolTableRecord
100
AcDbBlockTableRecord
  2
E_PUNKT
340
0
102
{BLKREFS
331
D05
331
D1A
331
D1D
331
1138
331
1350
331
1351
331
1352
331
1353
331
1414
331
1415
331
1416
331
EAD
331
EB1
331
EB4
331
EB9
331
EBF
331
EC1
331
15BB
331
15BC
331
15C2
331
15C3
331
15CA
331
1D1A
331
1FE7
331
2073
331
2074
331
208A
331
208C
331
2113
331
23A8
331
2669
331
25ED
331
2AB6
331
2B8E
331
2BEE
331
2F0B
331
2E50
331
2E2C
331
2DB0
331
2F0A
331
3527
331
365E
331
371B
331
3C9E
331
3C9F
331
3CA8
331
3CAB
331
3CAC
331
3CAE
331
449A
331
4533
331
45E9
331
45B0
331
4420
331
4498
331
4379
331
45F5
331
47D7
331
4CE5
331
4CE8
331
4CEB
331
5176
331
519A
331
5197
331
5199
331
5198
331
519B
331
519D
331
51A1
331
524F
331
5251
331
5413
331
5412
331
5414
331
5417
331
541A
331
541D
331
567D
331
5667
331
56B3
331
56D8
331
56DC
331
56D9
331
5D48
331
5D4C
331
5F2A
331
5F30
331
5F31
331
5F39
331
5F3B
331
60B5
331
60B6
331
611F
331
6123
331
6126
331
6131
331
612F
331
6130
331
6148
331
6C59
331
6C5A
331
6AD5
331
7412
331
6C86
331
74A2
331
6C7B
331
745F
331
6A75
331
74D0
331
7592
331
74DB
331
74DA
331
75EE
331
75F4
331
75F7
331
75FB
331
75FC
331
7601
331
79D9
331
79DA
331
79DC
331
8178
331
8177
331
8179
331
817D
331
8180
331
8182
331
8186
331
8189
331
818C
331
8B1A
331
8B1F
331
8B21
331
8A05
331
8B1D
331
88E8
331
8CB1
331
8CB9
102
}
  0
BLOCK_RECORD
  5
2F
330
1
100
AcDbSymbolTableRecord
100
AcDbBlockTableRecord
  2
_ArchTick
340
0
102
{BLKREFS
331
B3F
331
B47
331
B48
331
205C
331
205D
102
}
  0
ENDTAB
  0
ENDSEC
  0
SECTION
  2
BLOCKS
  0
BLOCK
  5
20
330
1F
100
AcDbEntity
  8
0
100
AcDbBlockBegin
  2
*Model_Space
 70
     0
 10
0.0
 20
0.0
 30
0.0
  3
*Model_Space
  1

  0
ENDBLK
  5
21
330
1F
100
AcDbEntity
  8
0
100
AcDbBlockEnd
  0
BLOCK
  5
1C
330
1B
100
AcDbEntity
 67
     1
  8
0
100
AcDbBlockBegin
  2
*Paper_Space
 70
     0
 10
0.0
 20
0.0
 30
0.0
  3
*Paper_Space
  1

  0
ENDBLK
  5
1D
330
1B
100
AcDbEntity
 67
     1
  8
0
100
AcDbBlockEnd
  0
BLOCK
  5
24
330
23
100
AcDbEntity
  8
0
100
AcDbBlockBegin
  2
*Paper_Space0
 70
     0
 10
0.0
 20
0.0
 30
0.0
  3
*Paper_Space0
  1

  0
ENDBLK
  5
25
330
23
100
AcDbEntity
  8
0
100
AcDbBlockEnd
  0
BLOCK
  5
2D
330
2B
100
AcDbEntity
  8
0
100
AcDbBlockBegin
  2
E_PUNKT
 70
     0
 10
0.0
 20
0.0
 30
0.0
  3
E_PUNKT
  1

  0
LWPOLYLINE
  5
2C
330
2B
100
AcDbEntity
  8
POPIS
100
AcDbPolyline
 90
        2
 70
     1
 43
2.5
 10
1.27761037562675
 20
0.0290683308725193
 42
-1.0
 10
-1.222389624373249
 20
0.0290683308725193
 42
-1.0
  0
ENDBLK
  5
2E
330
2B
100
AcDbEntity
  8
0
100
AcDbBlockEnd
  0
BLOCK
  5
31
330
2F
100
AcDbEntity
  8
0
100
AcDbBlockBegin
  2
_ArchTick
 70
     0
 10
0.0
 20
0.0
 30
0.0
  3
_ArchTick
  1

  0
LWPOLYLINE
  5
30
330
2F
100
AcDbEntity
  8
0
  6
ByBlock
 62
     0
100
AcDbPolyline
 90
        2
 70
     0
 43
0.15
 10
-0.5
 20
-0.5
 10
0.5
 20
0.5
  0
ENDBLK
  5
32
330
2F
100
AcDbEntity
  8
0
100
AcDbBlockEnd
  0
ENDSEC
  0
SECTION
  2
ENTITIES
  0
TEXT
  5
EAB
330
1F
100
AcDbEntity
  8
POPIS
100
AcDbText
 10
4187.14577861967
 20
598.1670412282528
 30
0.0
 40
25.0
  1
Vodorovný řez
 41
0.7
  7
SIMPLEX7
100
AcDbText
  0
LINE
  5
EAC
330
1F
100
AcDbEntity
  8
POPIS
100
AcDbLine
 10
4713.32013500445
 20
474.2045400113126
 30
0.0
 11
4752.969940017584
 21
444.3742083444464
 31
0.0
  0
INSERT
  5
EAD
330
1F
100
AcDbEntity
  8
POPIS
100
AcDbBlockReference
  2
E_PUNKT
 10
4770.552329866124
 20
414.5148083467045
 30
0.0
  0
TEXT
  5
EAE
330
1F
100
AcDbEntity
  8
POPIS
100
AcDbText
 10
4752.923492753299
 20
478.9056031478365
 30
0.0
 40
25.0
  1
06
 41
0.85
  7
SIMPLEX7
100
AcDbText
  0
LINE
  5
EAF
330
1F
100
AcDbEntity
  8
POPIS
100
AcDbLine
 10
4770.57994024175
 20
414.5438766775775
 30
0.0
 11
4770.57994024175
 21
474.2045400113126
 31
0.0
  0
TEXT
  5
EB0
330
1F
100
AcDbEntity
  8
POPIS
100
AcDbText
 10
4233.862243577326
 20
322.3182486145621
 30
0.0
 40
25.0
  1
08
 41
0.85
  7
SIMPLEX7
100
AcDbText
  0
INSERT
  5
EB1
330
1F
100
AcDbEntity
  8
POPIS
100
AcDbBlockReference
  2
E_PUNKT
 10
4323.145633634202
 20
364.754860569147
 30
0.0
  0
LINE
  5
EB2
330
1F
100
AcDbEntity
  8
POPIS
100
AcDbLine
 10
4271.426645381994
 20
336.7690570331792
 30
0.0
 11
4323.173244009828
 21
364.7839289000206
 31
0.0
  0
INSERT
  5
EB4
330
1F
100
AcDbEntity
  8
POPIS
100
AcDbBlockReference
  2
E_PUNKT
 10
4357.312499300799
 20
410.6882851274792
 30
0.0
  0
TEXT
  5
EB5
330
1F
100
AcDbEntity
  8
POPIS
100
AcDbText
 10
4440.494001581719
 20
478.9056031478365
 30
0.0
 40
25.0
  1
05
 41
0.85
  7
SIMPLEX7
100
AcDbText
  0
LINE
  5
EB7
330
1F
100
AcDbEntity
  8
POPIS
100
AcDbLine
 10
4357.340109676425
 20
410.7173534583523
 30
0.0
 11
4403.758918231739
 21
474.2045400113126
 31
0.0
  0
TEXT
  5
EB8
330
1F
100
AcDbEntity
  8
POPIS
100
AcDbText
 10
4386.102470743288
 20
478.9056031478365
 30
0.0
 40
25.0
  1
06
 41
0.85
  7
SIMPLEX7
100
AcDbText
  0
INSERT
  5
EB9
330
1F
100
AcDbEntity
  8
POPIS
100
AcDbBlockReference
  2
E_PUNKT
 10
4618.014459592556
 20
377.0398029349478
 30
0.0
  0
TEXT
  5
EBA
330
1F
100
AcDbEntity
  8
POPIS
100
AcDbText
 10
4600.385622479731
 20
478.9056031478365
 30
0.0
 40
25.0
  1
03
 41
0.85
  7
SIMPLEX7
100
AcDbText
  0
LINE
  5
EBB
330
1F
100
AcDbEntity
  8
POPIS
100
AcDbLine
 10
4618.042069968182
 20
377.0688712658209
 30
0.0
 11
4618.042069968182
 21
474.2045400113126
 31
0.0
  0
TEXT
  5
EBC
330
1F
100
AcDbEntity
  8
POPIS
100
AcDbText
 10
4522.183623638873
 20
478.9056031478401
 30
0.0
 40
25.0
  1
01
 41
0.85
  7
SIMPLEX7
100
AcDbText
  0
LINE
  5
EBD
330
1F
100
AcDbEntity
  8
POPIS
100
AcDbLine
 10
4539.840071127325
 20
414.5438766775803
 30
0.0
 11
4539.840071127325
 21
474.2045400113163
 31
0.0
  0
LINE
  5
EBE
330
1F
100
AcDbEntity
  8
POPIS
100
AcDbLine
 10
4752.969940017588
 20
414.5438766775775
 30
0.0
 11
4752.969940017584
 21
444.3742083444464
 31
0.0
  0
INSERT
  5
EBF
330
1F
100
AcDbEntity
  8
POPIS
100
AcDbBlockReference
  2
E_PUNKT
 10
4752.942329641963
 20
414.5148083467045
 30
0.0
  0
TEXT
  5
EC0
330
1F
100
AcDbEntity
  8
POPIS
100
AcDbText
 10
4696.859016316106
 20
478.9056031478365
 30
0.0
 40
25.0
  1
02
 41
0.85
  7
SIMPLEX7
100
AcDbText
  0
INSERT
  5
EC1
330
1F
100
AcDbEntity
  8
POPIS
100
AcDbBlockReference
  2
E_PUNKT
 10
4539.717338628583
 20
414.5148083467045
 30
0.0
  0
HATCH
  5
EC2
330
1F
100
AcDbEntity
  8
izolace
100
AcDbHatch
 10
0.0
 20
0.0
 30
0.0
210
0.0
220
0.0
230
1.0
  2
AR-SAND
 70
     0
 71
     0
 91
        1
 92
        7
 72
     0
 73
     1
 93
        4
 10
4773.080659004718
 20
414.5438766775775
 10
4768.080659004717
 20
414.5438766775766
 10
4768.080659004717
 20
402.5438766775776
 10
4773.080659004718
 20
402.5438766775776
 97
        0
 75
     0
 76
     1
 52
90.0
 41
0.05
 77
     0
 78
     4
 53
127.5
 43
-19187.04978684412
 44
-1073.953400580049
 45
-2.447066186646711
 46
-0.0800015647992021
 79
     6
 49
0.0
 49
-1.9304
 49
0.0
 49
-2.159
 49
0.0
 49
-2.06375
 53
97.49999999999985
 43
-19187.04978684412
 44
-1073.953400580049
 45
-3.584125502841771
 46
2.247616415690013
 79
     6
 49
0.0
 49
-1.041399999999999
 49
0.0
 49
-1.7399
 49
0.0
 49
-0.66675
 53
57.5
 43
-19187.04978684412
 44
-1075.515500580049
 45
-0.0071859233927282
 46
3.95496185120729
 79
     6
 49
0.0
 49
-0.635
 49
0.0
 49
-2.286
 49
0.0
 49
-2.9845
 53
47.5
 43
-19187.04978684412
 44
-1075.515500580049
 45
-1.11464661628608
 46
3.817782262361486
 79
     6
 49
0.0
 49
-0.3175
 49
0.0
 49
-1.498599999999999
 49
0.0
 49
-1.7145
 47
0.2359071171925059
 98
        1
 10
4770.104811101911
 20
408.3773425767929
  0
LINE
  5
EC3
330
1F
100
AcDbEntity
  8
SPOJOVACÍ
  6
Continuous
100
AcDbLine
 10
4790.308702292572
 20
391.6420184096212
 30
0.0
 11
4786.264297932979
 21
390.282101396079
 31
0.0
  0
LINE
  5
EC4
330
1F
100
AcDbEntity
  8
SPOJOVACÍ
  6
Continuous
100
AcDbLine
 10
4790.308702292572
 20
391.0457757244664
 30
0.0
 11
4786.264297932979
 21
389.6858587109243
 31
0.0
  0
LINE
  5
EC5
330
1F
100
AcDbEntity
  8
SPOJOVACÍ
  6
Continuous
100
AcDbLine
 10
4785.886646562033
 20
390.0635100840525
 30
0.0
 11
4786.264297932979
 21
390.282101396079
 31
0.0
  0
LINE
  5
EC6
330
1F
100
AcDbEntity
  8
SPOJOVACÍ
  6
Continuous
100
AcDbLine
 10
4785.886646562033
 20
390.0635100840525
 30
0.0
 11
4786.264297932979
 21
389.6858587109243
 31
0.0
  0
LINE
  5
EC7
330
1F
100
AcDbEntity
  8
SPOJOVACÍ
  6
Continuous
100
AcDbLine
 10
4790.686353667882
 20
391.2634368605147
 30
0.0
 11
4790.308702292572
 21
391.6420184096212
 31
0.0
  0
LINE
  5
EC8
330
1F
100
AcDbEntity
  8
SPOJOVACÍ
  6
Continuous
100
AcDbLine
 10
4790.686353667882
 20
391.2634368605147
 30
0.0
 11
4790.308702292572
 21
391.0457757244664
 31
0.0
  0
LINE
  5
EC9
330
1F
100
AcDbEntity
  8
SPOJOVACÍ
  6
Continuous
100
AcDbLine
 10
4790.686353667882
 20
391.2634368605147
 30
0.0
 11
4785.886646562033
 21
390.0635100840525
 31
0.0
  0
LINE
  5
ECA
330
1F
100
AcDbEntity
  8
SPOJOVACÍ
  6
Continuous
100
AcDbLine
 10
4790.308702292572
 20
394.761828028583
 30
0.0
 11
4786.264297932979
 21
393.4019110150409
 31
0.0
  0
LINE
  5
ECB
330
1F
100
AcDbEntity
  8
SPOJOVACÍ
  6
Continuous
100
AcDbLine
 10
4790.308702292572
 20
394.1655853434356
 30
0.0
 11
4786.264297932979
 21
392.8056683301626
 31
0.0
  0
LINE
  5
ECC
330
1F
100
AcDbEntity
  8
SPOJOVACÍ
  6
Continuous
100
AcDbLine
 10
4785.886646562033
 20
393.1842498789926
 30
0.0
 11
4786.264297932979
 21
393.4019110150409
 31
0.0
  0
LINE
  5
ECD
330
1F
100
AcDbEntity
  8
SPOJOVACÍ
  6
Continuous
100
AcDbLine
 10
4785.886646562033
 20
393.1842498789926
 30
0.0
 11
4786.264297932979
 21
392.8056683301626
 31
0.0
  0
LINE
  5
ECE
330
1F
100
AcDbEntity
  8
SPOJOVACÍ
  6
Continuous
100
AcDbLine
 10
4790.686353667882
 20
394.3841766554549
 30
0.0
 11
4790.308702292572
 21
394.761828028583
 31
0.0
  0
LINE
  5
ECF
330
1F
100
AcDbEntity
  8
SPOJOVACÍ
  6
Continuous
100
AcDbLine
 10
4790.686353667882
 20
394.3841766554549
 30
0.0
 11
4790.308702292572
 21
394.1655853434356
 31
0.0
  0
LINE
  5
ED0
330
1F
100
AcDbEntity
  8
SPOJOVACÍ
  6
Continuous
100
AcDbLine
 10
4790.686353667882
 20
394.3841766554549
 30
0.0
 11
4785.886646562033
 21
393.1842498789926
 31
0.0
  0
LINE
  5
ED1
330
1F
100
AcDbEntity
  8
SPOJOVACÍ
  6
Continuous
100
AcDbLine
 10
4790.308702292572
 20
397.8816376475522
 30
0.0
 11
4786.264297932979
 21
396.5217206342792
 31
0.0
  0
LINE
  5
ED2
330
1F
100
AcDbEntity
  8
SPOJOVACÍ
  6
Continuous
100
AcDbLine
 10
4790.308702292572
 20
397.2853949623975
 30
0.0
 11
4786.264297932979
 21
395.9254779491318
 31
0.0
  0
LINE
  5
ED3
330
1F
100
AcDbEntity
  8
SPOJOVACÍ
  6
Continuous
100
AcDbLine
 10
4785.886646562033
 20
396.3040594979618
 30
0.0
 11
4786.264297932979
 21
396.5217206342792
 31
0.0
  0
LINE
  5
ED4
330
1F
100
AcDbEntity
  8
SPOJOVACÍ
  6
Continuous
100
AcDbLine
 10
4785.886646562033
 20
396.3040594979618
 30
0.0
 11
4786.264297932979
 21
395.9254779491318
 31
0.0
  0
LINE
  5
ED5
330
1F
100
AcDbEntity
  8
SPOJOVACÍ
  6
Continuous
100
AcDbLine
 10
4790.686353667882
 20
397.503986274424
 30
0.0
 11
4790.308702292572
 21
397.8816376475522
 31
0.0
  0
LINE
  5
ED6
330
1F
100
AcDbEntity
  8
SPOJOVACÍ
  6
Continuous
100
AcDbLine
 10
4790.686353667882
 20
397.503986274424
 30
0.0
 11
4790.308702292572
 21
397.2853949623975
 31
0.0
  0
LINE
  5
ED7
330
1F
100
AcDbEntity
  8
SPOJOVACÍ
  6
Continuous
100
AcDbLine
 10
4790.686353667882
 20
397.503986274424
 30
0.0
 11
4785.886646562033
 21
396.3040594979618
 31
0.0
  0
LINE
  5
ED8
330
1F
100
AcDbEntity
  8
SPOJOVACÍ
  6
Continuous
100
AcDbLine
 10
4789.303182256884
 20
382.1579459955835
 30
0.0
 11
4787.148895115428
 21
381.8472672798095
 31
0.0
  0
LINE
  5
ED9
330
1F
100
AcDbEntity
  8
SPOJOVACÍ
  6
Continuous
100
AcDbLine
 10
4788.925530885939
 20
382.5355973687117
 30
0.0
 11
4787.526546486373
 21
382.064928416127
 31
0.0
  0
LINE
  5
EDA
330
1F
100
AcDbEntity
  8
SPOJOVACÍ
  6
Continuous
100
AcDbLine
 10
4788.925530885939
 20
381.9393546835642
 30
0.0
 11
4787.526546486373
 21
381.4686857309796
 31
0.0
  0
LINE
  5
EDB
330
1F
100
AcDbEntity
  8
SPOJOVACÍ
  6
Continuous
100
AcDbLine
 10
4787.148895115428
 20
381.8472672798095
 30
0.0
 11
4787.526546486373
 21
382.064928416127
 31
0.0
  0
LINE
  5
EDC
330
1F
100
AcDbEntity
  8
SPOJOVACÍ
  6
Continuous
100
AcDbLine
 10
4787.148895115428
 20
381.8472672798095
 30
0.0
 11
4787.526546486373
 21
381.4686857309796
 31
0.0
  0
LINE
  5
EDD
330
1F
100
AcDbEntity
  8
SPOJOVACÍ
  6
Continuous
100
AcDbLine
 10
4789.303182256884
 20
382.1579459955835
 30
0.0
 11
4788.925530885939
 21
382.5355973687117
 31
0.0
  0
LINE
  5
EDE
330
1F
100
AcDbEntity
  8
SPOJOVACÍ
  6
Continuous
100
AcDbLine
 10
4789.303182256884
 20
382.1579459955835
 30
0.0
 11
4788.925530885939
 21
381.9393546835642
 31
0.0
  0
LINE
  5
EDF
330
1F
100
AcDbEntity
  8
SPOJOVACÍ
  6
Continuous
100
AcDbLine
 10
4789.867798967356
 20
385.1717155739031
 30
0.0
 11
4786.751710050924
 21
384.5382658571331
 31
0.0
  0
LINE
  5
EE0
330
1F
100
AcDbEntity
  8
SPOJOVACÍ
  6
Continuous
100
AcDbLine
 10
4789.490147592045
 20
385.5502971230096
 30
0.0
 11
4787.12936142187
 21
384.7559269931814
 31
0.0
  0
LINE
  5
EE1
330
1F
100
AcDbEntity
  8
SPOJOVACÍ
  6
Continuous
100
AcDbLine
 10
4789.490147592045
 20
384.9540544378549
 30
0.0
 11
4787.12936142187
 21
384.1596843083032
 31
0.0
  0
LINE
  5
EE2
330
1F
100
AcDbEntity
  8
SPOJOVACÍ
  6
Continuous
100
AcDbLine
 10
4786.751710050924
 20
384.5382658571331
 30
0.0
 11
4787.12936142187
 21
384.7559269931814
 31
0.0
  0
LINE
  5
EE3
330
1F
100
AcDbEntity
  8
SPOJOVACÍ
  6
Continuous
100
AcDbLine
 10
4786.751710050924
 20
384.5382658571331
 30
0.0
 11
4787.12936142187
 21
384.1596843083032
 31
0.0
  0
LINE
  5
EE4
330
1F
100
AcDbEntity
  8
SPOJOVACÍ
  6
Continuous
100
AcDbLine
 10
4789.867798967356
 20
385.1717155739031
 30
0.0
 11
4789.490147592045
 21
385.5502971230096
 31
0.0
  0
LINE
  5
EE5
330
1F
100
AcDbEntity
  8
SPOJOVACÍ
  6
Continuous
100
AcDbLine
 10
4789.867798967356
 20
385.1717155739031
 30
0.0
 11
4789.490147592045
 21
384.9540544378549
 31
0.0
  0
LINE
  5
EE6
330
1F
100
AcDbEntity
  8
SPOJOVACÍ
  6
Continuous
100
AcDbLine
 10
4790.432415673461
 20
388.186415328201
 30
0.0
 11
4786.307086020719
 21
387.2134514458964
 31
0.0
  0
LINE
  5
EE7
330
1F
100
AcDbEntity
  8
SPOJOVACÍ
  6
Continuous
100
AcDbLine
 10
4790.053834125177
 20
388.5640667013292
 30
0.0
 11
4786.684737391664
 21
387.4311125819447
 31
0.0
  0
LINE
  5
EE8
330
1F
100
AcDbEntity
  8
SPOJOVACÍ
  6
Continuous
100
AcDbLine
 10
4790.053834125177
 20
387.9678240161745
 30
0.0
 11
4786.684737391664
 21
386.83486989679
 31
0.0
  0
LINE
  5
EE9
330
1F
100
AcDbEntity
  8
SPOJOVACÍ
  6
Continuous
100
AcDbLine
 10
4786.307086020719
 20
387.2134514458964
 30
0.0
 11
4786.684737391664
 21
387.4311125819447
 31
0.0
  0
LINE
  5
EEA
330
1F
100
AcDbEntity
  8
SPOJOVACÍ
  6
Continuous
100
AcDbLine
 10
4786.307086020719
 20
387.2134514458964
 30
0.0
 11
4786.684737391664
 21
386.83486989679
 31
0.0
  0
LINE
  5
EEB
330
1F
100
AcDbEntity
  8
SPOJOVACÍ
  6
Continuous
100
AcDbLine
 10
4790.432415673461
 20
388.186415328201
 30
0.0
 11
4790.053834125177
 21
388.5640667013292
 31
0.0
  0
LINE
  5
EEC
330
1F
100
AcDbEntity
  8
SPOJOVACÍ
  6
Continuous
100
AcDbLine
 10
4790.432415673461
 20
388.186415328201
 30
0.0
 11
4790.053834125177
 21
387.9678240161745
 31
0.0
  0
LINE
  5
EED
330
1F
100
AcDbEntity
  8
SPOJOVACÍ
  6
Continuous
100
AcDbLine
 10
4790.308702292572
 20
401.0014472667905
 30
0.0
 11
4786.264297932979
 21
399.6424604289502
 31
0.0
  0
LINE
  5
EEE
330
1F
100
AcDbEntity
  8
SPOJOVACÍ
  6
Continuous
100
AcDbLine
 10
4790.308702292572
 20
400.4052045816358
 30
0.0
 11
4786.264297932979
 21
399.046217744072
 31
0.0
  0
LINE
  5
EEF
330
1F
100
AcDbEntity
  8
SPOJOVACÍ
  6
Continuous
100
AcDbLine
 10
4785.886646562033
 20
399.4238691169237
 30
0.0
 11
4786.264297932979
 21
399.6424604289502
 31
0.0
  0
LINE
  5
EF0
330
1F
100
AcDbEntity
  8
SPOJOVACÍ
  6
Continuous
100
AcDbLine
 10
4785.886646562033
 20
399.4238691169237
 30
0.0
 11
4786.264297932979
 21
399.046217744072
 31
0.0
  0
LINE
  5
EF1
330
1F
100
AcDbEntity
  8
SPOJOVACÍ
  6
Continuous
100
AcDbLine
 10
4790.686353667882
 20
400.6237958936623
 30
0.0
 11
4790.308702292572
 21
401.0014472667905
 31
0.0
  0
LINE
  5
EF2
330
1F
100
AcDbEntity
  8
SPOJOVACÍ
  6
Continuous
100
AcDbLine
 10
4790.686353667882
 20
400.6237958936623
 30
0.0
 11
4790.308702292572
 21
400.4052045816358
 31
0.0
  0
LINE
  5
EF3
330
1F
100
AcDbEntity
  8
SPOJOVACÍ
  6
Continuous
100
AcDbLine
 10
4790.686353667882
 20
400.6237958936623
 30
0.0
 11
4785.886646562033
 21
399.4238691169237
 31
0.0
  0
LINE
  5
EF4
330
1F
100
AcDbEntity
  8
SPOJOVACÍ
  6
Continuous
100
AcDbLine
 10
4790.308702292572
 20
404.1221870614542
 30
0.0
 11
4786.264297932979
 21
402.7622700481885
 31
0.0
  0
LINE
  5
EF5
330
1F
100
AcDbEntity
  8
SPOJOVACÍ
  6
Continuous
100
AcDbLine
 10
4790.308702292572
 20
403.525944376576
 30
0.0
 11
4786.264297932979
 21
402.1660273630338
 31
0.0
  0
LINE
  5
EF6
330
1F
100
AcDbEntity
  8
SPOJOVACÍ
  6
Continuous
100
AcDbLine
 10
4785.886646562033
 20
402.543678736162
 30
0.0
 11
4786.264297932979
 21
402.7622700481885
 31
0.0
  0
LINE
  5
EF7
330
1F
100
AcDbEntity
  8
SPOJOVACÍ
  6
Continuous
100
AcDbLine
 10
4785.886646562033
 20
402.543678736162
 30
0.0
 11
4786.264297932979
 21
402.1660273630338
 31
0.0
  0
LINE
  5
EF8
330
1F
100
AcDbEntity
  8
SPOJOVACÍ
  6
Continuous
100
AcDbLine
 10
4790.686353667882
 20
403.7436055126242
 30
0.0
 11
4790.308702292572
 21
404.1221870614542
 31
0.0
  0
LINE
  5
EF9
330
1F
100
AcDbEntity
  8
SPOJOVACÍ
  6
Continuous
100
AcDbLine
 10
4790.686353667882
 20
403.7436055126242
 30
0.0
 11
4790.308702292572
 21
403.525944376576
 31
0.0
  0
LINE
  5
EFA
330
1F
100
AcDbEntity
  8
SPOJOVACÍ
  6
Continuous
100
AcDbLine
 10
4790.686353667882
 20
403.7436055126242
 30
0.0
 11
4785.886646562033
 21
402.543678736162
 31
0.0
  0
LINE
  5
EFB
330
1F
100
AcDbEntity
  8
SPOJOVACÍ
  6
Continuous
100
AcDbLine
 10
4787.182381442875
 20
387.607845983294
 30
0.0
 11
4786.936815031407
 21
389.5788884945802
 31
0.0
  0
LINE
  5
EFC
330
1F
100
AcDbEntity
  8
SPOJOVACÍ
  6
Continuous
100
AcDbLine
 10
4787.520965435436
 20
384.9010344173955
 30
0.0
 11
4787.254004980098
 21
387.0376482202489
 31
0.0
  0
LINE
  5
EFD
330
1F
100
AcDbEntity
  8
SPOJOVACÍ
  6
Continuous
100
AcDbLine
 10
4787.860479596605
 20
382.1839909179623
 30
0.0
 11
4787.592588968294
 21
384.3289763029467
 31
0.0
  0
LINE
  5
EFE
330
1F
100
AcDbEntity
  8
SPOJOVACÍ
  6
Continuous
100
AcDbLine
 10
4788.672523068856
 20
381.8677311474318
 30
0.0
 11
4788.286500114958
 21
378.7786173296269
 31
0.0
  0
LINE
  5
EFF
330
1F
100
AcDbEntity
  8
SPOJOVACÍ
  6
Continuous
100
AcDbLine
 10
4789.039942506536
 20
384.8089470136408
 30
0.0
 11
4788.749727661382
 21
382.4881584032853
 31
0.0
  0
LINE
  5
F00
330
1F
100
AcDbEntity
  8
SPOJOVACÍ
  6
Continuous
100
AcDbLine
 10
4789.409222298894
 20
387.76132498937
 30
0.0
 11
4789.119007449374
 21
385.4396062033054
 31
0.0
  0
LINE
  5
F01
330
1F
100
AcDbEntity
  8
SPOJOVACÍ
  6
Continuous
100
AcDbLine
 10
4788.286500114958
 20
378.7786173296269
 30
0.0
 11
4787.932103133829
 21
381.6147233308954
 31
0.0
  0
LINE
  5
F02
330
1F
100
AcDbEntity
  8
SPOJOVACÍ
  6
Continuous
100
AcDbLine
 10
4789.636185194143
 20
389.5788884945802
 30
0.0
 11
4789.486426891421
 21
388.3817522452234
 31
0.0
  0
LINE
  5
F03
330
1F
100
AcDbEntity
  8
SPOJOVACÍ
  6
Continuous
100
AcDbLine
 10
4786.936815031407
 20
389.9156121324638
 30
0.0
 11
4786.936815031407
 21
389.5788884945802
 31
0.0
  0
LINE
  5
F04
330
1F
100
AcDbEntity
  8
SPOJOVACÍ
  6
Continuous
100
AcDbLine
 10
4786.936815031407
 20
393.0382122790767
 30
0.0
 11
4786.936815031407
 21
390.5192962240478
 31
0.0
  0
LINE
  5
F05
330
1F
100
AcDbEntity
  8
SPOJOVACÍ
  6
Continuous
100
AcDbLine
 10
4789.636185194143
 20
390.8262542364689
 30
0.0
 11
4789.636185194143
 21
389.5788884945802
 31
0.0
  0
LINE
  5
F06
330
1F
100
AcDbEntity
  8
SPOJOVACÍ
  6
Continuous
100
AcDbLine
 10
4789.636185194143
 20
393.9404828009508
 30
0.0
 11
4789.636185194143
 21
391.4224969216236
 31
0.0
  0
LINE
  5
F07
330
1F
100
AcDbEntity
  8
SPOJOVACÍ
  6
Continuous
100
AcDbLine
 10
4786.936815031407
 20
396.1598822497187
 30
0.0
 11
4786.936815031407
 21
393.6391058430097
 31
0.0
  0
LINE
  5
F08
330
1F
100
AcDbEntity
  8
SPOJOVACÍ
  6
Continuous
100
AcDbLine
 10
4786.936815031407
 20
399.2824823960625
 30
0.0
 11
4786.936815031407
 21
396.7542645831933
 31
0.0
  0
LINE
  5
F09
330
1F
100
AcDbEntity
  8
SPOJOVACÍ
  6
Continuous
100
AcDbLine
 10
4786.936815031407
 20
402.3976411362461
 30
0.0
 11
4786.936815031407
 21
399.8787250812172
 31
0.0
  0
LINE
  5
F0A
330
1F
100
AcDbEntity
  8
SPOJOVACÍ
  6
Continuous
100
AcDbLine
 10
4789.636185194143
 20
397.0733148811057
 30
0.0
 11
4789.636185194143
 21
394.5450970682366
 31
0.0
  0
LINE
  5
F0B
330
1F
100
AcDbEntity
  8
SPOJOVACÍ
  6
Continuous
100
AcDbLine
 10
4789.636185194143
 20
400.1884736212893
 30
0.0
 11
4789.636185194143
 21
397.6676972145803
 31
0.0
  0
LINE
  5
F0C
330
1F
100
AcDbEntity
  8
SPOJOVACÍ
  6
Continuous
100
AcDbLine
 10
4789.636185194143
 20
403.3110737676331
 30
0.0
 11
4789.636185194143
 21
400.7921577126041
 31
0.0
  0
LINE
  5
F0D
330
1F
100
AcDbEntity
  8
SPOJOVACÍ
  6
Continuous
100
AcDbLine
 10
4789.636185194143
 20
407.9442794064895
 30
0.0
 11
4789.636185194143
 21
403.9063862768095
 31
0.0
  0
LINE
  5
F0E
330
1F
100
AcDbEntity
  8
SPOJOVACÍ
  6
Continuous
100
AcDbLine
 10
4786.936815031407
 20
407.9442794064895
 30
0.0
 11
4786.936815031407
 21
403.0013252275609
 31
0.0
  0
LINE
  5
F0F
330
1F
100
AcDbEntity
  8
SPOJOVACÍ
  6
Continuous
100
AcDbLine
 10
4793.386654003592
 20
413.3439499008461
 30
0.0
 11
4792.036968920041
 21
412.5998092643719
 31
0.0
  0
LINE
  5
F10
330
1F
100
AcDbEntity
  8
SPOJOVACÍ
  6
Continuous
100
AcDbLine
 10
4792.036968920041
 20
412.5998092643719
 30
0.0
 11
4790.926339019683
 21
411.5310372749597
 31
0.0
  0
LINE
  5
F11
330
1F
100
AcDbEntity
  8
SPOJOVACÍ
  6
Continuous
100
AcDbLine
 10
4790.926339019683
 20
411.5310372749597
 30
0.0
 11
4790.130108540364
 21
410.2120479966622
 31
0.0
  0
LINE
  5
F12
330
1F
100
AcDbEntity
  8
SPOJOVACÍ
  6
Continuous
100
AcDbLine
 10
4790.130108540364
 20
410.2120479966622
 30
0.0
 11
4789.702227676065
 21
408.7312081296119
 31
0.0
  0
LINE
  5
F13
330
1F
100
AcDbEntity
  8
SPOJOVACÍ
  6
Continuous
100
AcDbLine
 10
4789.702227676065
 20
408.7312081296119
 30
0.0
 11
4789.636185194143
 21
407.9442794064895
 31
0.0
  0
LINE
  5
F14
330
1F
100
AcDbEntity
  8
SPOJOVACÍ
  6
Continuous
100
AcDbLine
 10
4785.138785221391
 20
412.0891427525209
 30
0.0
 11
4783.901651412492
 21
413.0072262629625
 31
0.0
  0
LINE
  5
F15
330
1F
100
AcDbEntity
  8
SPOJOVACÍ
  6
Continuous
100
AcDbLine
 10
4783.901651412492
 20
413.0072262629625
 30
0.0
 11
4783.186346226324
 21
413.3439499008461
 31
0.0
  0
LINE
  5
F16
330
1F
100
AcDbEntity
  8
SPOJOVACÍ
  6
Continuous
100
AcDbLine
 10
4793.386654003592
 20
413.3439499008461
 30
0.0
 11
4783.186346226324
 21
413.3439499008461
 31
0.0
  0
LINE
  5
F17
330
1F
100
AcDbEntity
  8
SPOJOVACÍ
  6
Continuous
100
AcDbLine
 10
4793.386654003592
 20
414.5438766775775
 30
0.0
 11
4793.386654003592
 21
413.3439499008461
 31
0.0
  0
LINE
  5
F18
330
1F
100
AcDbEntity
  8
SPOJOVACÍ
  6
Continuous
100
AcDbLine
 10
4793.386654003592
 20
414.5438766775775
 30
0.0
 11
4783.186346226324
 21
414.5438766775775
 31
0.0
  0
LINE
  5
F19
330
1F
100
AcDbEntity
  8
SPOJOVACÍ
  6
Continuous
100
AcDbLine
 10
4783.186346226324
 20
414.5438766775775
 30
0.0
 11
4783.186346226324
 21
413.3439499008461
 31
0.0
  0
LINE
  5
F1A
330
1F
100
AcDbEntity
  8
SPOJOVACÍ
  6
Continuous
100
AcDbLine
 10
4786.936815031407
 20
407.9442794064895
 30
0.0
 11
4786.709852140524
 21
409.4679073599188
 31
0.0
  0
LINE
  5
F1B
330
1F
100
AcDbEntity
  8
SPOJOVACÍ
  6
Continuous
100
AcDbLine
 10
4786.709852140524
 20
409.4679073599188
 30
0.0
 11
4786.096866291376
 21
410.8817745696221
 31
0.0
  0
LINE
  5
F1C
330
1F
100
AcDbEntity
  8
SPOJOVACÍ
  6
Continuous
100
AcDbLine
 10
4786.096866291376
 20
410.8817745696221
 30
0.0
 11
4785.138785221391
 21
412.0891427525209
 31
0.0
  0
LWPOLYLINE
  5
F1D
330
1F
100
AcDbEntity
  8
izolace
100
AcDbPolyline
 90
        4
 70
     1
 43
0.0
 10
4773.080659004718
 20
414.5438766775775
 10
4768.080659004717
 20
414.5438766775775
 10
4768.080659004717
 20
402.5438766775776
 10
4773.080659004718
 20
402.5438766775776
  0
LINE
  5
F1E
330
1F
100
AcDbEntity
  8
CETRIS
100
AcDbLine
 10
4773.080659004718
 20
414.5438766775775
 30
0.0
 11
4873.072800053171
 21
414.5438766775775
 31
0.0
  0
LINE
  5
F1F
330
1F
100
AcDbEntity
  8
CETRIS
100
AcDbLine
 10
4773.080659004718
 20
402.5438766775776
 30
0.0
 11
4870.86263877487
 21
402.5438766775778
 31
0.0
  0
LINE
  5
F20
330
1F
100
AcDbEntity
  8
CETRIS
100
AcDbLine
 10
4773.080659004718
 20
402.5438766775776
 30
0.0
 11
4773.080659004718
 21
414.5438766775775
 31
0.0
  0
LINE
  5
F21
330
1F
100
AcDbEntity
  8
CETRIS
100
AcDbLine
 10
4768.080659004717
 20
402.5438766775776
 30
0.0
 11
4768.080659004717
 21
414.5438766775775
 31
0.0
  0
LWPOLYLINE
  5
F23
330
1F
100
AcDbEntity
  8
izolace
100
AcDbPolyline
 90
        4
 70
     1
 43
0.0
 10
4359.671656072954
 20
414.5438766775775
 10
4354.453611091765
 20
414.5438766775775
 10
4354.453611091765
 20
402.5438766775776
 10
4359.671656072954
 20
402.5438766775776
  0
LWPOLYLINE
  5
F24
330
1F
100
AcDbEntity
  8
izolace
100
AcDbPolyline
 90
        4
 70
     1
 43
0.0
 10
4359.671656072954
 20
314.3116223928279
 10
4354.453611091765
 20
314.3116223928279
 10
4354.453611091765
 20
326.311622392828
 10
4359.671656072954
 20
326.311622392828
  0
LINE
  5
F25
330
1F
100
AcDbEntity
  8
izolace
  6
IZOLACE
 48
2.2
100
AcDbLine
 10
4361.436579884113
 20
364.5688712658209
 30
0.0
 11
4863.868398232845
 21
364.5688712658209
 31
0.0
  0
LINE
  5
F26
330
1F
100
AcDbEntity
  8
SPOJOVACÍ
  6
Continuous
100
AcDbLine
 10
4762.969705436645
 20
337.2134806607844
 30
0.0
 11
4767.014109796237
 21
338.5733976743265
 31
0.0
  0
LINE
  5
F27
330
1F
100
AcDbEntity
  8
SPOJOVACÍ
  6
Continuous
100
AcDbLine
 10
4762.969705436645
 20
337.8097233459391
 30
0.0
 11
4767.014109796237
 21
339.1696403594812
 31
0.0
  0
LINE
  5
F28
330
1F
100
AcDbEntity
  8
SPOJOVACÍ
  6
Continuous
100
AcDbLine
 10
4767.391761167182
 20
338.791988986353
 30
0.0
 11
4767.014109796237
 21
338.5733976743265
 31
0.0
  0
LINE
  5
F29
330
1F
100
AcDbEntity
  8
SPOJOVACÍ
  6
Continuous
100
AcDbLine
 10
4767.391761167182
 20
338.791988986353
 30
0.0
 11
4767.014109796237
 21
339.1696403594812
 31
0.0
  0
LINE
  5
F2A
330
1F
100
AcDbEntity
  8
SPOJOVACÍ
  6
Continuous
100
AcDbLine
 10
4762.592054061333
 20
337.5920622098908
 30
0.0
 11
4762.969705436645
 21
337.2134806607844
 31
0.0
  0
LINE
  5
F2B
330
1F
100
AcDbEntity
  8
SPOJOVACÍ
  6
Continuous
100
AcDbLine
 10
4762.592054061333
 20
337.5920622098908
 30
0.0
 11
4762.969705436645
 21
337.8097233459391
 31
0.0
  0
LINE
  5
F2C
330
1F
100
AcDbEntity
  8
SPOJOVACÍ
  6
Continuous
100
AcDbLine
 10
4762.592054061333
 20
337.5920622098908
 30
0.0
 11
4767.391761167182
 21
338.791988986353
 31
0.0
  0
LINE
  5
F2D
330
1F
100
AcDbEntity
  8
SPOJOVACÍ
  6
Continuous
100
AcDbLine
 10
4762.969705436645
 20
334.0936710418225
 30
0.0
 11
4767.014109796237
 21
335.4535880553646
 31
0.0
  0
LINE
  5
F2E
330
1F
100
AcDbEntity
  8
SPOJOVACÍ
  6
Continuous
100
AcDbLine
 10
4762.969705436645
 20
334.6899137269699
 30
0.0
 11
4767.014109796237
 21
336.0498307402429
 31
0.0
  0
LINE
  5
F2F
330
1F
100
AcDbEntity
  8
SPOJOVACÍ
  6
Continuous
100
AcDbLine
 10
4767.391761167182
 20
335.6712491914129
 30
0.0
 11
4767.014109796237
 21
335.4535880553646
 31
0.0
  0
LINE
  5
F30
330
1F
100
AcDbEntity
  8
SPOJOVACÍ
  6
Continuous
100
AcDbLine
 10
4767.391761167182
 20
335.6712491914129
 30
0.0
 11
4767.014109796237
 21
336.0498307402429
 31
0.0
  0
LINE
  5
F31
330
1F
100
AcDbEntity
  8
SPOJOVACÍ
  6
Continuous
100
AcDbLine
 10
4762.592054061333
 20
334.4713224149507
 30
0.0
 11
4762.969705436645
 21
334.0936710418225
 31
0.0
  0
LINE
  5
F32
330
1F
100
AcDbEntity
  8
SPOJOVACÍ
  6
Continuous
100
AcDbLine
 10
4762.592054061333
 20
334.4713224149507
 30
0.0
 11
4762.969705436645
 21
334.6899137269699
 31
0.0
  0
LINE
  5
F33
330
1F
100
AcDbEntity
  8
SPOJOVACÍ
  6
Continuous
100
AcDbLine
 10
4762.592054061333
 20
334.4713224149507
 30
0.0
 11
4767.391761167182
 21
335.6712491914129
 31
0.0
  0
LINE
  5
F34
330
1F
100
AcDbEntity
  8
SPOJOVACÍ
  6
Continuous
100
AcDbLine
 10
4762.969705436645
 20
330.9738614228533
 30
0.0
 11
4767.014109796237
 21
332.3337784361263
 31
0.0
  0
LINE
  5
F35
330
1F
100
AcDbEntity
  8
SPOJOVACÍ
  6
Continuous
100
AcDbLine
 10
4762.969705436645
 20
331.570104108008
 30
0.0
 11
4767.014109796237
 21
332.9300211212737
 31
0.0
  0
LINE
  5
F36
330
1F
100
AcDbEntity
  8
SPOJOVACÍ
  6
Continuous
100
AcDbLine
 10
4767.391761167182
 20
332.5514395724437
 30
0.0
 11
4767.014109796237
 21
332.3337784361263
 31
0.0
  0
LINE
  5
F37
330
1F
100
AcDbEntity
  8
SPOJOVACÍ
  6
Continuous
100
AcDbLine
 10
4767.391761167182
 20
332.5514395724437
 30
0.0
 11
4767.014109796237
 21
332.9300211212737
 31
0.0
  0
LINE
  5
F38
330
1F
100
AcDbEntity
  8
SPOJOVACÍ
  6
Continuous
100
AcDbLine
 10
4762.592054061333
 20
331.3515127959815
 30
0.0
 11
4762.969705436645
 21
330.9738614228533
 31
0.0
  0
LINE
  5
F39
330
1F
100
AcDbEntity
  8
SPOJOVACÍ
  6
Continuous
100
AcDbLine
 10
4762.592054061333
 20
331.3515127959815
 30
0.0
 11
4762.969705436645
 21
331.570104108008
 31
0.0
  0
LINE
  5
F3A
330
1F
100
AcDbEntity
  8
SPOJOVACÍ
  6
Continuous
100
AcDbLine
 10
4762.592054061333
 20
331.3515127959815
 30
0.0
 11
4767.391761167182
 21
332.5514395724437
 31
0.0
  0
LINE
  5
F3B
330
1F
100
AcDbEntity
  8
SPOJOVACÍ
  6
Continuous
100
AcDbLine
 10
4763.975225472331
 20
346.697553074822
 30
0.0
 11
4766.129512613789
 21
347.008231790596
 31
0.0
  0
LINE
  5
F3C
330
1F
100
AcDbEntity
  8
SPOJOVACÍ
  6
Continuous
100
AcDbLine
 10
4764.352876843277
 20
346.3199017016938
 30
0.0
 11
4765.751861242843
 21
346.7905706542785
 31
0.0
  0
LINE
  5
F3D
330
1F
100
AcDbEntity
  8
SPOJOVACÍ
  6
Continuous
100
AcDbLine
 10
4764.352876843277
 20
346.9161443868413
 30
0.0
 11
4765.751861242843
 21
347.386813339426
 31
0.0
  0
LINE
  5
F3E
330
1F
100
AcDbEntity
  8
SPOJOVACÍ
  6
Continuous
100
AcDbLine
 10
4766.129512613789
 20
347.008231790596
 30
0.0
 11
4765.751861242843
 21
346.7905706542785
 31
0.0
  0
LINE
  5
F3F
330
1F
100
AcDbEntity
  8
SPOJOVACÍ
  6
Continuous
100
AcDbLine
 10
4766.129512613789
 20
347.008231790596
 30
0.0
 11
4765.751861242843
 21
347.386813339426
 31
0.0
  0
LINE
  5
F40
330
1F
100
AcDbEntity
  8
SPOJOVACÍ
  6
Continuous
100
AcDbLine
 10
4763.975225472331
 20
346.697553074822
 30
0.0
 11
4764.352876843277
 21
346.3199017016938
 31
0.0
  0
LINE
  5
F41
330
1F
100
AcDbEntity
  8
SPOJOVACÍ
  6
Continuous
100
AcDbLine
 10
4763.975225472331
 20
346.697553074822
 30
0.0
 11
4764.352876843277
 21
346.9161443868413
 31
0.0
  0
LINE
  5
F42
330
1F
100
AcDbEntity
  8
SPOJOVACÍ
  6
Continuous
100
AcDbLine
 10
4763.41060876186
 20
343.6837834965024
 30
0.0
 11
4766.526697678291
 21
344.3172332132724
 31
0.0
  0
LINE
  5
F43
330
1F
100
AcDbEntity
  8
SPOJOVACÍ
  6
Continuous
100
AcDbLine
 10
4763.788260137171
 20
343.3052019473959
 30
0.0
 11
4766.149046307346
 21
344.0995720772241
 31
0.0
  0
LINE
  5
F44
330
1F
100
AcDbEntity
  8
SPOJOVACÍ
  6
Continuous
100
AcDbLine
 10
4763.788260137171
 20
343.9014446325507
 30
0.0
 11
4766.149046307346
 21
344.6958147621023
 31
0.0
  0
LINE
  5
F45
330
1F
100
AcDbEntity
  8
SPOJOVACÍ
  6
Continuous
100
AcDbLine
 10
4766.526697678291
 20
344.3172332132724
 30
0.0
 11
4766.149046307346
 21
344.0995720772241
 31
0.0
  0
LINE
  5
F46
330
1F
100
AcDbEntity
  8
SPOJOVACÍ
  6
Continuous
100
AcDbLine
 10
4766.526697678291
 20
344.3172332132724
 30
0.0
 11
4766.149046307346
 21
344.6958147621023
 31
0.0
  0
LINE
  5
F47
330
1F
100
AcDbEntity
  8
SPOJOVACÍ
  6
Continuous
100
AcDbLine
 10
4763.41060876186
 20
343.6837834965024
 30
0.0
 11
4763.788260137171
 21
343.3052019473959
 31
0.0
  0
LINE
  5
F48
330
1F
100
AcDbEntity
  8
SPOJOVACÍ
  6
Continuous
100
AcDbLine
 10
4763.41060876186
 20
343.6837834965024
 30
0.0
 11
4763.788260137171
 21
343.9014446325507
 31
0.0
  0
LINE
  5
F49
330
1F
100
AcDbEntity
  8
SPOJOVACÍ
  6
Continuous
100
AcDbLine
 10
4762.845992055754
 20
340.6690837422045
 30
0.0
 11
4766.971321708497
 21
341.6420476245091
 31
0.0
  0
LINE
  5
F4A
330
1F
100
AcDbEntity
  8
SPOJOVACÍ
  6
Continuous
100
AcDbLine
 10
4763.224573604039
 20
340.2914323690763
 30
0.0
 11
4766.593670337551
 21
341.4243864884608
 31
0.0
  0
LINE
  5
F4B
330
1F
100
AcDbEntity
  8
SPOJOVACÍ
  6
Continuous
100
AcDbLine
 10
4763.224573604039
 20
340.887675054231
 30
0.0
 11
4766.593670337551
 21
342.0206291736155
 31
0.0
  0
LINE
  5
F4C
330
1F
100
AcDbEntity
  8
SPOJOVACÍ
  6
Continuous
100
AcDbLine
 10
4766.971321708497
 20
341.6420476245091
 30
0.0
 11
4766.593670337551
 21
341.4243864884608
 31
0.0
  0
LINE
  5
F4D
330
1F
100
AcDbEntity
  8
SPOJOVACÍ
  6
Continuous
100
AcDbLine
 10
4766.971321708497
 20
341.6420476245091
 30
0.0
 11
4766.593670337551
 21
342.0206291736155
 31
0.0
  0
LINE
  5
F4E
330
1F
100
AcDbEntity
  8
SPOJOVACÍ
  6
Continuous
100
AcDbLine
 10
4762.845992055754
 20
340.6690837422045
 30
0.0
 11
4763.224573604039
 21
340.2914323690763
 31
0.0
  0
LINE
  5
F4F
330
1F
100
AcDbEntity
  8
SPOJOVACÍ
  6
Continuous
100
AcDbLine
 10
4762.845992055754
 20
340.6690837422045
 30
0.0
 11
4763.224573604039
 21
340.887675054231
 31
0.0
  0
LINE
  5
F50
330
1F
100
AcDbEntity
  8
SPOJOVACÍ
  6
Continuous
100
AcDbLine
 10
4762.969705436645
 20
327.8540518036149
 30
0.0
 11
4767.014109796237
 21
329.2130386414553
 31
0.0
  0
LINE
  5
F51
330
1F
100
AcDbEntity
  8
SPOJOVACÍ
  6
Continuous
100
AcDbLine
 10
4762.969705436645
 20
328.4502944887697
 30
0.0
 11
4767.014109796237
 21
329.8092813263335
 31
0.0
  0
LINE
  5
F52
330
1F
100
AcDbEntity
  8
SPOJOVACÍ
  6
Continuous
100
AcDbLine
 10
4767.391761167182
 20
329.4316299534818
 30
0.0
 11
4767.014109796237
 21
329.2130386414553
 31
0.0
  0
LINE
  5
F53
330
1F
100
AcDbEntity
  8
SPOJOVACÍ
  6
Continuous
100
AcDbLine
 10
4767.391761167182
 20
329.4316299534818
 30
0.0
 11
4767.014109796237
 21
329.8092813263335
 31
0.0
  0
LINE
  5
F54
330
1F
100
AcDbEntity
  8
SPOJOVACÍ
  6
Continuous
100
AcDbLine
 10
4762.592054061333
 20
328.2317031767431
 30
0.0
 11
4762.969705436645
 21
327.8540518036149
 31
0.0
  0
LINE
  5
F55
330
1F
100
AcDbEntity
  8
SPOJOVACÍ
  6
Continuous
100
AcDbLine
 10
4762.592054061333
 20
328.2317031767431
 30
0.0
 11
4762.969705436645
 21
328.4502944887697
 31
0.0
  0
LINE
  5
F56
330
1F
100
AcDbEntity
  8
SPOJOVACÍ
  6
Continuous
100
AcDbLine
 10
4762.592054061333
 20
328.2317031767431
 30
0.0
 11
4767.391761167182
 21
329.4316299534818
 31
0.0
  0
LINE
  5
F57
330
1F
100
AcDbEntity
  8
SPOJOVACÍ
  6
Continuous
100
AcDbLine
 10
4762.969705436645
 20
324.7333120089513
 30
0.0
 11
4767.014109796237
 21
326.0932290222169
 31
0.0
  0
LINE
  5
F58
330
1F
100
AcDbEntity
  8
SPOJOVACÍ
  6
Continuous
100
AcDbLine
 10
4762.969705436645
 20
325.3295546938295
 30
0.0
 11
4767.014109796237
 21
326.6894717073717
 31
0.0
  0
LINE
  5
F59
330
1F
100
AcDbEntity
  8
SPOJOVACÍ
  6
Continuous
100
AcDbLine
 10
4767.391761167182
 20
326.3118203342435
 30
0.0
 11
4767.014109796237
 21
326.0932290222169
 31
0.0
  0
LINE
  5
F5A
330
1F
100
AcDbEntity
  8
SPOJOVACÍ
  6
Continuous
100
AcDbLine
 10
4767.391761167182
 20
326.3118203342435
 30
0.0
 11
4767.014109796237
 21
326.6894717073717
 31
0.0
  0
LINE
  5
F5B
330
1F
100
AcDbEntity
  8
SPOJOVACÍ
  6
Continuous
100
AcDbLine
 10
4762.592054061333
 20
325.1118935577812
 30
0.0
 11
4762.969705436645
 21
324.7333120089513
 31
0.0
  0
LINE
  5
F5C
330
1F
100
AcDbEntity
  8
SPOJOVACÍ
  6
Continuous
100
AcDbLine
 10
4762.592054061333
 20
325.1118935577812
 30
0.0
 11
4762.969705436645
 21
325.3295546938295
 31
0.0
  0
LINE
  5
F5D
330
1F
100
AcDbEntity
  8
SPOJOVACÍ
  6
Continuous
100
AcDbLine
 10
4762.592054061333
 20
325.1118935577812
 30
0.0
 11
4767.391761167182
 21
326.3118203342435
 31
0.0
  0
LINE
  5
F5E
330
1F
100
AcDbEntity
  8
SPOJOVACÍ
  6
Continuous
100
AcDbLine
 10
4766.096026286341
 20
341.2476530871115
 30
0.0
 11
4766.341592697808
 21
339.2766105758253
 31
0.0
  0
LINE
  5
F5F
330
1F
100
AcDbEntity
  8
SPOJOVACÍ
  6
Continuous
100
AcDbLine
 10
4765.75744229378
 20
343.95446465301
 30
0.0
 11
4766.024402749117
 21
341.8178508501566
 31
0.0
  0
LINE
  5
F60
330
1F
100
AcDbEntity
  8
SPOJOVACÍ
  6
Continuous
100
AcDbLine
 10
4765.417928132611
 20
346.6715081524432
 30
0.0
 11
4765.685818760921
 21
344.5265227674588
 31
0.0
  0
LINE
  5
F61
330
1F
100
AcDbEntity
  8
SPOJOVACÍ
  6
Continuous
100
AcDbLine
 10
4764.605884660359
 20
346.9877679229737
 30
0.0
 11
4764.991907614258
 21
350.0768817407786
 31
0.0
  0
LINE
  5
F62
330
1F
100
AcDbEntity
  8
SPOJOVACÍ
  6
Continuous
100
AcDbLine
 10
4764.238465222679
 20
344.0465520567647
 30
0.0
 11
4764.528680067833
 21
346.3673406671202
 31
0.0
  0
LINE
  5
F63
330
1F
100
AcDbEntity
  8
SPOJOVACÍ
  6
Continuous
100
AcDbLine
 10
4763.869185430322
 20
341.0941740810355
 30
0.0
 11
4764.159400279841
 21
343.4158928671001
 31
0.0
  0
LINE
  5
F64
330
1F
100
AcDbEntity
  8
SPOJOVACÍ
  6
Continuous
100
AcDbLine
 10
4764.991907614258
 20
350.0768817407786
 30
0.0
 11
4765.346304595387
 21
347.2407757395101
 31
0.0
  0
LINE
  5
F65
330
1F
100
AcDbEntity
  8
SPOJOVACÍ
  6
Continuous
100
AcDbLine
 10
4763.642222535072
 20
339.2766105758253
 30
0.0
 11
4763.791980837796
 21
340.4737468251821
 31
0.0
  0
LINE
  5
F66
330
1F
100
AcDbEntity
  8
SPOJOVACÍ
  6
Continuous
100
AcDbLine
 10
4766.341592697808
 20
338.9398869379417
 30
0.0
 11
4766.341592697808
 21
339.2766105758253
 31
0.0
  0
LINE
  5
F67
330
1F
100
AcDbEntity
  8
SPOJOVACÍ
  6
Continuous
100
AcDbLine
 10
4766.341592697808
 20
335.8172867913288
 30
0.0
 11
4766.341592697808
 21
338.3362028463577
 31
0.0
  0
LINE
  5
F68
330
1F
100
AcDbEntity
  8
SPOJOVACÍ
  6
Continuous
100
AcDbLine
 10
4763.642222535072
 20
338.0292448339366
 30
0.0
 11
4763.642222535072
 21
339.2766105758253
 31
0.0
  0
LINE
  5
F69
330
1F
100
AcDbEntity
  8
SPOJOVACÍ
  6
Continuous
100
AcDbLine
 10
4763.642222535072
 20
334.9150162694547
 30
0.0
 11
4763.642222535072
 21
337.4330021487819
 31
0.0
  0
LINE
  5
F6A
330
1F
100
AcDbEntity
  8
SPOJOVACÍ
  6
Continuous
100
AcDbLine
 10
4766.341592697808
 20
332.6956168206868
 30
0.0
 11
4766.341592697808
 21
335.2163932273958
 31
0.0
  0
LINE
  5
F6B
330
1F
100
AcDbEntity
  8
SPOJOVACÍ
  6
Continuous
100
AcDbLine
 10
4766.341592697808
 20
329.573016674343
 30
0.0
 11
4766.341592697808
 21
332.1012344872122
 31
0.0
  0
LINE
  5
F6C
330
1F
100
AcDbEntity
  8
SPOJOVACÍ
  6
Continuous
100
AcDbLine
 10
4766.341592697808
 20
326.4578579341594
 30
0.0
 11
4766.341592697808
 21
328.9767739891883
 31
0.0
  0
LINE
  5
F6D
330
1F
100
AcDbEntity
  8
SPOJOVACÍ
  6
Continuous
100
AcDbLine
 10
4763.642222535072
 20
331.7821841892998
 30
0.0
 11
4763.642222535072
 21
334.3104020021689
 31
0.0
  0
LINE
  5
F6E
330
1F
100
AcDbEntity
  8
SPOJOVACÍ
  6
Continuous
100
AcDbLine
 10
4763.642222535072
 20
328.6670254491161
 30
0.0
 11
4763.642222535072
 21
331.1878018558252
 31
0.0
  0
LINE
  5
F6F
330
1F
100
AcDbEntity
  8
SPOJOVACÍ
  6
Continuous
100
AcDbLine
 10
4763.642222535072
 20
325.5444253027724
 30
0.0
 11
4763.642222535072
 21
328.0633413578013
 31
0.0
  0
LINE
  5
F70
330
1F
100
AcDbEntity
  8
SPOJOVACÍ
  6
Continuous
100
AcDbLine
 10
4763.642222535072
 20
320.9112196639159
 30
0.0
 11
4763.642222535072
 21
324.9491127935959
 31
0.0
  0
LINE
  5
F71
330
1F
100
AcDbEntity
  8
SPOJOVACÍ
  6
Continuous
100
AcDbLine
 10
4766.341592697808
 20
320.9112196639159
 30
0.0
 11
4766.341592697808
 21
325.8541738428446
 31
0.0
  0
LINE
  5
F72
330
1F
100
AcDbEntity
  8
SPOJOVACÍ
  6
Continuous
100
AcDbLine
 10
4759.891753725624
 20
315.5115491695594
 30
0.0
 11
4761.241438809174
 21
316.2556898060336
 31
0.0
  0
LINE
  5
F73
330
1F
100
AcDbEntity
  8
SPOJOVACÍ
  6
Continuous
100
AcDbLine
 10
4761.241438809174
 20
316.2556898060336
 30
0.0
 11
4762.352068709533
 21
317.3244617954458
 31
0.0
  0
LINE
  5
F74
330
1F
100
AcDbEntity
  8
SPOJOVACÍ
  6
Continuous
100
AcDbLine
 10
4762.352068709533
 20
317.3244617954458
 30
0.0
 11
4763.148299188851
 21
318.6434510737433
 31
0.0
  0
LINE
  5
F75
330
1F
100
AcDbEntity
  8
SPOJOVACÍ
  6
Continuous
100
AcDbLine
 10
4763.148299188851
 20
318.6434510737433
 30
0.0
 11
4763.576180053151
 21
320.1242909407935
 31
0.0
  0
LINE
  5
F76
330
1F
100
AcDbEntity
  8
SPOJOVACÍ
  6
Continuous
100
AcDbLine
 10
4763.576180053151
 20
320.1242909407935
 30
0.0
 11
4763.642222535072
 21
320.9112196639159
 31
0.0
  0
LINE
  5
F77
330
1F
100
AcDbEntity
  8
SPOJOVACÍ
  6
Continuous
100
AcDbLine
 10
4768.139622507824
 20
316.7663563178846
 30
0.0
 11
4769.376756316724
 21
315.8482728074429
 31
0.0
  0
LINE
  5
F78
330
1F
100
AcDbEntity
  8
SPOJOVACÍ
  6
Continuous
100
AcDbLine
 10
4769.376756316724
 20
315.8482728074429
 30
0.0
 11
4770.092061502892
 21
315.5115491695594
 31
0.0
  0
LINE
  5
F79
330
1F
100
AcDbEntity
  8
SPOJOVACÍ
  6
Continuous
100
AcDbLine
 10
4759.891753725624
 20
315.5115491695594
 30
0.0
 11
4770.092061502892
 21
315.5115491695594
 31
0.0
  0
LINE
  5
F7A
330
1F
100
AcDbEntity
  8
SPOJOVACÍ
  6
Continuous
100
AcDbLine
 10
4759.891753725624
 20
314.3116223928279
 30
0.0
 11
4759.891753725624
 21
315.5115491695594
 31
0.0
  0
LINE
  5
F7B
330
1F
100
AcDbEntity
  8
SPOJOVACÍ
  6
Continuous
100
AcDbLine
 10
4759.891753725624
 20
314.3116223928279
 30
0.0
 11
4770.092061502892
 21
314.3116223928279
 31
0.0
  0
LINE
  5
F7C
330
1F
100
AcDbEntity
  8
SPOJOVACÍ
  6
Continuous
100
AcDbLine
 10
4770.092061502892
 20
314.3116223928279
 30
0.0
 11
4770.092061502892
 21
315.5115491695594
 31
0.0
  0
LINE
  5
F7D
330
1F
100
AcDbEntity
  8
SPOJOVACÍ
  6
Continuous
100
AcDbLine
 10
4766.341592697808
 20
320.9112196639159
 30
0.0
 11
4766.568555588692
 21
319.3875917104867
 31
0.0
  0
LINE
  5
F7E
330
1F
100
AcDbEntity
  8
SPOJOVACÍ
  6
Continuous
100
AcDbLine
 10
4766.568555588692
 20
319.3875917104867
 30
0.0
 11
4767.18154143784
 21
317.9737245007834
 31
0.0
  0
LINE
  5
F7F
330
1F
100
AcDbEntity
  8
SPOJOVACÍ
  6
Continuous
100
AcDbLine
 10
4767.18154143784
 20
317.9737245007834
 30
0.0
 11
4768.139622507824
 21
316.7663563178846
 31
0.0
  0
LINE
  5
F80
330
1F
100
AcDbEntity
  8
SPOJOVACÍ
  6
Continuous
100
AcDbLine
 10
4755.064451718059
 20
410.8817745696221
 30
0.0
 11
4756.022532788043
 21
412.0891427525209
 31
0.0
  0
LINE
  5
F81
330
1F
100
AcDbEntity
  8
SPOJOVACÍ
  6
Continuous
100
AcDbLine
 10
4754.451465868911
 20
409.4679073599188
 30
0.0
 11
4755.064451718059
 21
410.8817745696221
 31
0.0
  0
LINE
  5
F82
330
1F
100
AcDbEntity
  8
SPOJOVACÍ
  6
Continuous
100
AcDbLine
 10
4754.224502978028
 20
407.9442794064895
 30
0.0
 11
4754.451465868911
 21
409.4679073599188
 31
0.0
  0
LINE
  5
F83
330
1F
100
AcDbEntity
  8
SPOJOVACÍ
  6
Continuous
100
AcDbLine
 10
4757.974971783111
 20
414.5438766775775
 30
0.0
 11
4757.974971783111
 21
413.3439499008461
 31
0.0
  0
LINE
  5
F84
330
1F
100
AcDbEntity
  8
SPOJOVACÍ
  6
Continuous
100
AcDbLine
 10
4747.774664005843
 20
414.5438766775775
 30
0.0
 11
4757.974971783111
 21
414.5438766775775
 31
0.0
  0
LINE
  5
F85
330
1F
100
AcDbEntity
  8
SPOJOVACÍ
  6
Continuous
100
AcDbLine
 10
4747.774664005843
 20
414.5438766775775
 30
0.0
 11
4747.774664005843
 21
413.3439499008461
 31
0.0
  0
LINE
  5
F86
330
1F
100
AcDbEntity
  8
SPOJOVACÍ
  6
Continuous
100
AcDbLine
 10
4747.774664005843
 20
413.3439499008461
 30
0.0
 11
4757.974971783111
 21
413.3439499008461
 31
0.0
  0
LINE
  5
F87
330
1F
100
AcDbEntity
  8
SPOJOVACÍ
  6
Continuous
100
AcDbLine
 10
4757.259666596943
 20
413.0072262629625
 30
0.0
 11
4757.974971783111
 21
413.3439499008461
 31
0.0
  0
LINE
  5
F88
330
1F
100
AcDbEntity
  8
SPOJOVACÍ
  6
Continuous
100
AcDbLine
 10
4756.022532788043
 20
412.0891427525209
 30
0.0
 11
4757.259666596943
 21
413.0072262629625
 31
0.0
  0
LINE
  5
F89
330
1F
100
AcDbEntity
  8
SPOJOVACÍ
  6
Continuous
100
AcDbLine
 10
4751.45909033337
 20
408.7312081296119
 30
0.0
 11
4751.525132815292
 21
407.9442794064895
 31
0.0
  0
LINE
  5
F8A
330
1F
100
AcDbEntity
  8
SPOJOVACÍ
  6
Continuous
100
AcDbLine
 10
4751.031209469071
 20
410.2120479966622
 30
0.0
 11
4751.45909033337
 21
408.7312081296119
 31
0.0
  0
LINE
  5
F8B
330
1F
100
AcDbEntity
  8
SPOJOVACÍ
  6
Continuous
100
AcDbLine
 10
4750.234978989753
 20
411.5310372749597
 30
0.0
 11
4751.031209469071
 21
410.2120479966622
 31
0.0
  0
LINE
  5
F8C
330
1F
100
AcDbEntity
  8
SPOJOVACÍ
  6
Continuous
100
AcDbLine
 10
4749.124349089394
 20
412.5998092643719
 30
0.0
 11
4750.234978989753
 21
411.5310372749597
 31
0.0
  0
LINE
  5
F8D
330
1F
100
AcDbEntity
  8
SPOJOVACÍ
  6
Continuous
100
AcDbLine
 10
4747.774664005843
 20
413.3439499008461
 30
0.0
 11
4749.124349089394
 21
412.5998092643719
 31
0.0
  0
LINE
  5
F8E
330
1F
100
AcDbEntity
  8
SPOJOVACÍ
  6
Continuous
100
AcDbLine
 10
4754.224502978028
 20
407.9442794064895
 30
0.0
 11
4754.224502978028
 21
403.0013252275609
 31
0.0
  0
LINE
  5
F8F
330
1F
100
AcDbEntity
  8
SPOJOVACÍ
  6
Continuous
100
AcDbLine
 10
4751.525132815292
 20
407.9442794064895
 30
0.0
 11
4751.525132815292
 21
403.9063862768095
 31
0.0
  0
LINE
  5
F90
330
1F
100
AcDbEntity
  8
SPOJOVACÍ
  6
Continuous
100
AcDbLine
 10
4751.525132815292
 20
403.3110737676331
 30
0.0
 11
4751.525132815292
 21
400.7921577126041
 31
0.0
  0
LINE
  5
F91
330
1F
100
AcDbEntity
  8
SPOJOVACÍ
  6
Continuous
100
AcDbLine
 10
4751.525132815292
 20
400.1884736212893
 30
0.0
 11
4751.525132815292
 21
397.6676972145803
 31
0.0
  0
LINE
  5
F92
330
1F
100
AcDbEntity
  8
SPOJOVACÍ
  6
Continuous
100
AcDbLine
 10
4751.525132815292
 20
397.0733148811057
 30
0.0
 11
4751.525132815292
 21
394.5450970682366
 31
0.0
  0
LINE
  5
F93
330
1F
100
AcDbEntity
  8
SPOJOVACÍ
  6
Continuous
100
AcDbLine
 10
4754.224502978028
 20
402.3976411362461
 30
0.0
 11
4754.224502978028
 21
399.8787250812172
 31
0.0
  0
LINE
  5
F94
330
1F
100
AcDbEntity
  8
SPOJOVACÍ
  6
Continuous
100
AcDbLine
 10
4754.224502978028
 20
399.2824823960625
 30
0.0
 11
4754.224502978028
 21
396.7542645831933
 31
0.0
  0
LINE
  5
F95
330
1F
100
AcDbEntity
  8
SPOJOVACÍ
  6
Continuous
100
AcDbLine
 10
4754.224502978028
 20
396.1598822497187
 30
0.0
 11
4754.224502978028
 21
393.6391058430097
 31
0.0
  0
LINE
  5
F96
330
1F
100
AcDbEntity
  8
SPOJOVACÍ
  6
Continuous
100
AcDbLine
 10
4751.525132815292
 20
393.9404828009508
 30
0.0
 11
4751.525132815292
 21
391.4224969216236
 31
0.0
  0
LINE
  5
F97
330
1F
100
AcDbEntity
  8
SPOJOVACÍ
  6
Continuous
100
AcDbLine
 10
4751.525132815292
 20
390.8262542364689
 30
0.0
 11
4751.525132815292
 21
389.5788884945802
 31
0.0
  0
LINE
  5
F98
330
1F
100
AcDbEntity
  8
SPOJOVACÍ
  6
Continuous
100
AcDbLine
 10
4754.224502978028
 20
393.0382122790767
 30
0.0
 11
4754.224502978028
 21
390.5192962240478
 31
0.0
  0
LINE
  5
F99
330
1F
100
AcDbEntity
  8
SPOJOVACÍ
  6
Continuous
100
AcDbLine
 10
4754.224502978028
 20
389.9156121324638
 30
0.0
 11
4754.224502978028
 21
389.5788884945802
 31
0.0
  0
LINE
  5
F9A
330
1F
100
AcDbEntity
  8
SPOJOVACÍ
  6
Continuous
100
AcDbLine
 10
4751.525132815292
 20
389.5788884945802
 30
0.0
 11
4751.674891118015
 21
388.3817522452234
 31
0.0
  0
LINE
  5
F9B
330
1F
100
AcDbEntity
  8
SPOJOVACÍ
  6
Continuous
100
AcDbLine
 10
4752.874817894477
 20
378.7786173296269
 30
0.0
 11
4753.229214875606
 21
381.6147233308954
 31
0.0
  0
LINE
  5
F9C
330
1F
100
AcDbEntity
  8
SPOJOVACÍ
  6
Continuous
100
AcDbLine
 10
4751.752095710541
 20
387.76132498937
 30
0.0
 11
4752.04231056006
 21
385.4396062033054
 31
0.0
  0
LINE
  5
F9D
330
1F
100
AcDbEntity
  8
SPOJOVACÍ
  6
Continuous
100
AcDbLine
 10
4752.121375502898
 20
384.8089470136408
 30
0.0
 11
4752.411590348052
 21
382.4881584032853
 31
0.0
  0
LINE
  5
F9E
330
1F
100
AcDbEntity
  8
SPOJOVACÍ
  6
Continuous
100
AcDbLine
 10
4752.488794940578
 20
381.8677311474318
 30
0.0
 11
4752.874817894477
 21
378.7786173296269
 31
0.0
  0
LINE
  5
F9F
330
1F
100
AcDbEntity
  8
SPOJOVACÍ
  6
Continuous
100
AcDbLine
 10
4753.30083841283
 20
382.1839909179623
 30
0.0
 11
4753.56872904114
 21
384.3289763029467
 31
0.0
  0
LINE
  5
FA0
330
1F
100
AcDbEntity
  8
SPOJOVACÍ
  6
Continuous
100
AcDbLine
 10
4753.640352573999
 20
384.9010344173955
 30
0.0
 11
4753.907313029336
 21
387.0376482202489
 31
0.0
  0
LINE
  5
FA1
330
1F
100
AcDbEntity
  8
SPOJOVACÍ
  6
Continuous
100
AcDbLine
 10
4753.97893656656
 20
387.607845983294
 30
0.0
 11
4754.224502978028
 21
389.5788884945802
 31
0.0
  0
LINE
  5
FA2
330
1F
100
AcDbEntity
  8
SPOJOVACÍ
  6
Continuous
100
AcDbLine
 10
4750.474964341552
 20
403.7436055126242
 30
0.0
 11
4755.274671447401
 21
402.543678736162
 31
0.0
  0
LINE
  5
FA3
330
1F
100
AcDbEntity
  8
SPOJOVACÍ
  6
Continuous
100
AcDbLine
 10
4750.474964341552
 20
403.7436055126242
 30
0.0
 11
4750.852615716864
 21
403.525944376576
 31
0.0
  0
LINE
  5
FA4
330
1F
100
AcDbEntity
  8
SPOJOVACÍ
  6
Continuous
100
AcDbLine
 10
4750.474964341552
 20
403.7436055126242
 30
0.0
 11
4750.852615716864
 21
404.1221870614542
 31
0.0
  0
LINE
  5
FA5
330
1F
100
AcDbEntity
  8
SPOJOVACÍ
  6
Continuous
100
AcDbLine
 10
4755.274671447401
 20
402.543678736162
 30
0.0
 11
4754.897020076456
 21
402.1660273630338
 31
0.0
  0
LINE
  5
FA6
330
1F
100
AcDbEntity
  8
SPOJOVACÍ
  6
Continuous
100
AcDbLine
 10
4755.274671447401
 20
402.543678736162
 30
0.0
 11
4754.897020076456
 21
402.7622700481885
 31
0.0
  0
LINE
  5
FA7
330
1F
100
AcDbEntity
  8
SPOJOVACÍ
  6
Continuous
100
AcDbLine
 10
4750.852615716864
 20
403.525944376576
 30
0.0
 11
4754.897020076456
 21
402.1660273630338
 31
0.0
  0
LINE
  5
FA8
330
1F
100
AcDbEntity
  8
SPOJOVACÍ
  6
Continuous
100
AcDbLine
 10
4750.852615716864
 20
404.1221870614542
 30
0.0
 11
4754.897020076456
 21
402.7622700481885
 31
0.0
  0
LINE
  5
FA9
330
1F
100
AcDbEntity
  8
SPOJOVACÍ
  6
Continuous
100
AcDbLine
 10
4750.474964341552
 20
400.6237958936623
 30
0.0
 11
4755.274671447401
 21
399.4238691169237
 31
0.0
  0
LINE
  5
FAA
330
1F
100
AcDbEntity
  8
SPOJOVACÍ
  6
Continuous
100
AcDbLine
 10
4750.474964341552
 20
400.6237958936623
 30
0.0
 11
4750.852615716864
 21
400.4052045816358
 31
0.0
  0
LINE
  5
FAB
330
1F
100
AcDbEntity
  8
SPOJOVACÍ
  6
Continuous
100
AcDbLine
 10
4750.474964341552
 20
400.6237958936623
 30
0.0
 11
4750.852615716864
 21
401.0014472667905
 31
0.0
  0
LINE
  5
FAC
330
1F
100
AcDbEntity
  8
SPOJOVACÍ
  6
Continuous
100
AcDbLine
 10
4755.274671447401
 20
399.4238691169237
 30
0.0
 11
4754.897020076456
 21
399.046217744072
 31
0.0
  0
LINE
  5
FAD
330
1F
100
AcDbEntity
  8
SPOJOVACÍ
  6
Continuous
100
AcDbLine
 10
4755.274671447401
 20
399.4238691169237
 30
0.0
 11
4754.897020076456
 21
399.6424604289502
 31
0.0
  0
LINE
  5
FAE
330
1F
100
AcDbEntity
  8
SPOJOVACÍ
  6
Continuous
100
AcDbLine
 10
4750.852615716864
 20
400.4052045816358
 30
0.0
 11
4754.897020076456
 21
399.046217744072
 31
0.0
  0
LINE
  5
FAF
330
1F
100
AcDbEntity
  8
SPOJOVACÍ
  6
Continuous
100
AcDbLine
 10
4750.852615716864
 20
401.0014472667905
 30
0.0
 11
4754.897020076456
 21
399.6424604289502
 31
0.0
  0
LINE
  5
FB0
330
1F
100
AcDbEntity
  8
SPOJOVACÍ
  6
Continuous
100
AcDbLine
 10
4750.728902335974
 20
388.186415328201
 30
0.0
 11
4751.107483884258
 21
387.9678240161745
 31
0.0
  0
LINE
  5
FB1
330
1F
100
AcDbEntity
  8
SPOJOVACÍ
  6
Continuous
100
AcDbLine
 10
4750.728902335974
 20
388.186415328201
 30
0.0
 11
4751.107483884258
 21
388.5640667013292
 31
0.0
  0
LINE
  5
FB2
330
1F
100
AcDbEntity
  8
SPOJOVACÍ
  6
Continuous
100
AcDbLine
 10
4754.854231988717
 20
387.2134514458964
 30
0.0
 11
4754.476580617772
 21
386.83486989679
 31
0.0
  0
LINE
  5
FB3
330
1F
100
AcDbEntity
  8
SPOJOVACÍ
  6
Continuous
100
AcDbLine
 10
4754.854231988717
 20
387.2134514458964
 30
0.0
 11
4754.476580617772
 21
387.4311125819447
 31
0.0
  0
LINE
  5
FB4
330
1F
100
AcDbEntity
  8
SPOJOVACÍ
  6
Continuous
100
AcDbLine
 10
4751.107483884258
 20
387.9678240161745
 30
0.0
 11
4754.476580617772
 21
386.83486989679
 31
0.0
  0
LINE
  5
FB5
330
1F
100
AcDbEntity
  8
SPOJOVACÍ
  6
Continuous
100
AcDbLine
 10
4751.107483884258
 20
388.5640667013292
 30
0.0
 11
4754.476580617772
 21
387.4311125819447
 31
0.0
  0
LINE
  5
FB6
330
1F
100
AcDbEntity
  8
SPOJOVACÍ
  6
Continuous
100
AcDbLine
 10
4750.728902335974
 20
388.186415328201
 30
0.0
 11
4754.854231988717
 21
387.2134514458964
 31
0.0
  0
LINE
  5
FB7
330
1F
100
AcDbEntity
  8
SPOJOVACÍ
  6
Continuous
100
AcDbLine
 10
4751.293519042079
 20
385.1717155739031
 30
0.0
 11
4751.671170417391
 21
384.9540544378549
 31
0.0
  0
LINE
  5
FB8
330
1F
100
AcDbEntity
  8
SPOJOVACÍ
  6
Continuous
100
AcDbLine
 10
4751.293519042079
 20
385.1717155739031
 30
0.0
 11
4751.671170417391
 21
385.5502971230096
 31
0.0
  0
LINE
  5
FB9
330
1F
100
AcDbEntity
  8
SPOJOVACÍ
  6
Continuous
100
AcDbLine
 10
4754.40960795851
 20
384.5382658571331
 30
0.0
 11
4754.031956587565
 21
384.1596843083032
 31
0.0
  0
LINE
  5
FBA
330
1F
100
AcDbEntity
  8
SPOJOVACÍ
  6
Continuous
100
AcDbLine
 10
4754.40960795851
 20
384.5382658571331
 30
0.0
 11
4754.031956587565
 21
384.7559269931814
 31
0.0
  0
LINE
  5
FBB
330
1F
100
AcDbEntity
  8
SPOJOVACÍ
  6
Continuous
100
AcDbLine
 10
4751.671170417391
 20
384.9540544378549
 30
0.0
 11
4754.031956587565
 21
384.1596843083032
 31
0.0
  0
LINE
  5
FBC
330
1F
100
AcDbEntity
  8
SPOJOVACÍ
  6
Continuous
100
AcDbLine
 10
4751.671170417391
 20
385.5502971230096
 30
0.0
 11
4754.031956587565
 21
384.7559269931814
 31
0.0
  0
LINE
  5
FBD
330
1F
100
AcDbEntity
  8
SPOJOVACÍ
  6
Continuous
100
AcDbLine
 10
4751.293519042079
 20
385.1717155739031
 30
0.0
 11
4754.40960795851
 21
384.5382658571331
 31
0.0
  0
LINE
  5
FBE
330
1F
100
AcDbEntity
  8
SPOJOVACÍ
  6
Continuous
100
AcDbLine
 10
4751.858135752551
 20
382.1579459955835
 30
0.0
 11
4752.235787123496
 21
381.9393546835642
 31
0.0
  0
LINE
  5
FBF
330
1F
100
AcDbEntity
  8
SPOJOVACÍ
  6
Continuous
100
AcDbLine
 10
4751.858135752551
 20
382.1579459955835
 30
0.0
 11
4752.235787123496
 21
382.5355973687117
 31
0.0
  0
LINE
  5
FC0
330
1F
100
AcDbEntity
  8
SPOJOVACÍ
  6
Continuous
100
AcDbLine
 10
4754.012422894008
 20
381.8472672798095
 30
0.0
 11
4753.634771523063
 21
381.4686857309796
 31
0.0
  0
LINE
  5
FC1
330
1F
100
AcDbEntity
  8
SPOJOVACÍ
  6
Continuous
100
AcDbLine
 10
4754.012422894008
 20
381.8472672798095
 30
0.0
 11
4753.634771523063
 21
382.064928416127
 31
0.0
  0
LINE
  5
FC2
330
1F
100
AcDbEntity
  8
SPOJOVACÍ
  6
Continuous
100
AcDbLine
 10
4752.235787123496
 20
381.9393546835642
 30
0.0
 11
4753.634771523063
 21
381.4686857309796
 31
0.0
  0
LINE
  5
FC3
330
1F
100
AcDbEntity
  8
SPOJOVACÍ
  6
Continuous
100
AcDbLine
 10
4752.235787123496
 20
382.5355973687117
 30
0.0
 11
4753.634771523063
 21
382.064928416127
 31
0.0
  0
LINE
  5
FC4
330
1F
100
AcDbEntity
  8
SPOJOVACÍ
  6
Continuous
100
AcDbLine
 10
4751.858135752551
 20
382.1579459955835
 30
0.0
 11
4754.012422894008
 21
381.8472672798095
 31
0.0
  0
LINE
  5
FC5
330
1F
100
AcDbEntity
  8
SPOJOVACÍ
  6
Continuous
100
AcDbLine
 10
4750.474964341552
 20
397.503986274424
 30
0.0
 11
4755.274671447401
 21
396.3040594979618
 31
0.0
  0
LINE
  5
FC6
330
1F
100
AcDbEntity
  8
SPOJOVACÍ
  6
Continuous
100
AcDbLine
 10
4750.474964341552
 20
397.503986274424
 30
0.0
 11
4750.852615716864
 21
397.2853949623975
 31
0.0
  0
LINE
  5
FC7
330
1F
100
AcDbEntity
  8
SPOJOVACÍ
  6
Continuous
100
AcDbLine
 10
4750.474964341552
 20
397.503986274424
 30
0.0
 11
4750.852615716864
 21
397.8816376475522
 31
0.0
  0
LINE
  5
FC8
330
1F
100
AcDbEntity
  8
SPOJOVACÍ
  6
Continuous
100
AcDbLine
 10
4755.274671447401
 20
396.3040594979618
 30
0.0
 11
4754.897020076456
 21
395.9254779491318
 31
0.0
  0
LINE
  5
FC9
330
1F
100
AcDbEntity
  8
SPOJOVACÍ
  6
Continuous
100
AcDbLine
 10
4755.274671447401
 20
396.3040594979618
 30
0.0
 11
4754.897020076456
 21
396.5217206342792
 31
0.0
  0
LINE
  5
FCA
330
1F
100
AcDbEntity
  8
SPOJOVACÍ
  6
Continuous
100
AcDbLine
 10
4750.852615716864
 20
397.2853949623975
 30
0.0
 11
4754.897020076456
 21
395.9254779491318
 31
0.0
  0
LINE
  5
FCB
330
1F
100
AcDbEntity
  8
SPOJOVACÍ
  6
Continuous
100
AcDbLine
 10
4750.852615716864
 20
397.8816376475522
 30
0.0
 11
4754.897020076456
 21
396.5217206342792
 31
0.0
  0
LINE
  5
FCC
330
1F
100
AcDbEntity
  8
SPOJOVACÍ
  6
Continuous
100
AcDbLine
 10
4750.474964341552
 20
394.3841766554549
 30
0.0
 11
4755.274671447401
 21
393.1842498789926
 31
0.0
  0
LINE
  5
FCD
330
1F
100
AcDbEntity
  8
SPOJOVACÍ
  6
Continuous
100
AcDbLine
 10
4750.474964341552
 20
394.3841766554549
 30
0.0
 11
4750.852615716864
 21
394.1655853434356
 31
0.0
  0
LINE
  5
FCE
330
1F
100
AcDbEntity
  8
SPOJOVACÍ
  6
Continuous
100
AcDbLine
 10
4750.474964341552
 20
394.3841766554549
 30
0.0
 11
4750.852615716864
 21
394.761828028583
 31
0.0
  0
LINE
  5
FCF
330
1F
100
AcDbEntity
  8
SPOJOVACÍ
  6
Continuous
100
AcDbLine
 10
4755.274671447401
 20
393.1842498789926
 30
0.0
 11
4754.897020076456
 21
392.8056683301626
 31
0.0
  0
LINE
  5
FD0
330
1F
100
AcDbEntity
  8
SPOJOVACÍ
  6
Continuous
100
AcDbLine
 10
4755.274671447401
 20
393.1842498789926
 30
0.0
 11
4754.897020076456
 21
393.4019110150409
 31
0.0
  0
LINE
  5
FD1
330
1F
100
AcDbEntity
  8
SPOJOVACÍ
  6
Continuous
100
AcDbLine
 10
4750.852615716864
 20
394.1655853434356
 30
0.0
 11
4754.897020076456
 21
392.8056683301626
 31
0.0
  0
LINE
  5
FD2
330
1F
100
AcDbEntity
  8
SPOJOVACÍ
  6
Continuous
100
AcDbLine
 10
4750.852615716864
 20
394.761828028583
 30
0.0
 11
4754.897020076456
 21
393.4019110150409
 31
0.0
  0
LINE
  5
FD3
330
1F
100
AcDbEntity
  8
SPOJOVACÍ
  6
Continuous
100
AcDbLine
 10
4750.474964341552
 20
391.2634368605147
 30
0.0
 11
4755.274671447401
 21
390.0635100840525
 31
0.0
  0
LINE
  5
FD4
330
1F
100
AcDbEntity
  8
SPOJOVACÍ
  6
Continuous
100
AcDbLine
 10
4750.474964341552
 20
391.2634368605147
 30
0.0
 11
4750.852615716864
 21
391.0457757244664
 31
0.0
  0
LINE
  5
FD5
330
1F
100
AcDbEntity
  8
SPOJOVACÍ
  6
Continuous
100
AcDbLine
 10
4750.474964341552
 20
391.2634368605147
 30
0.0
 11
4750.852615716864
 21
391.6420184096212
 31
0.0
  0
LINE
  5
FD6
330
1F
100
AcDbEntity
  8
SPOJOVACÍ
  6
Continuous
100
AcDbLine
 10
4755.274671447401
 20
390.0635100840525
 30
0.0
 11
4754.897020076456
 21
389.6858587109243
 31
0.0
  0
LINE
  5
FD7
330
1F
100
AcDbEntity
  8
SPOJOVACÍ
  6
Continuous
100
AcDbLine
 10
4755.274671447401
 20
390.0635100840525
 30
0.0
 11
4754.897020076456
 21
390.282101396079
 31
0.0
  0
LINE
  5
FD8
330
1F
100
AcDbEntity
  8
SPOJOVACÍ
  6
Continuous
100
AcDbLine
 10
4750.852615716864
 20
391.0457757244664
 30
0.0
 11
4754.897020076456
 21
389.6858587109243
 31
0.0
  0
LINE
  5
FD9
330
1F
100
AcDbEntity
  8
SPOJOVACÍ
  6
Continuous
100
AcDbLine
 10
4750.852615716864
 20
391.6420184096212
 30
0.0
 11
4754.897020076456
 21
390.282101396079
 31
0.0
  0
LINE
  5
FDA
330
1F
100
AcDbEntity
  8
NOSNÉ KONSTRUKCE
100
AcDbLine
 10
4359.74740078155
 20
327.2609039181686
 30
0.0
 11
4856.997012832522
 21
327.2609039181686
 31
0.0
  0
LINE
  5
FDB
330
1F
100
AcDbEntity
  8
NOSNÉ KONSTRUKCE
100
AcDbLine
 10
4359.74740078155
 20
401.5024527816047
 30
0.0
 11
4870.670829210773
 21
401.5024527816047
 31
0.0
  0
LINE
  5
FDC
330
1F
100
AcDbEntity
  8
SPOJOVACÍ
  6
Continuous
100
AcDbLine
 10
4375.602885741336
 20
391.6420184096212
 30
0.0
 11
4379.647290100929
 21
390.282101396079
 31
0.0
  0
LINE
  5
FDD
330
1F
100
AcDbEntity
  8
SPOJOVACÍ
  6
Continuous
100
AcDbLine
 10
4375.602885741336
 20
391.0457757244664
 30
0.0
 11
4379.647290100929
 21
389.6858587109243
 31
0.0
  0
LINE
  5
FDE
330
1F
100
AcDbEntity
  8
SPOJOVACÍ
  6
Continuous
100
AcDbLine
 10
4380.024941471875
 20
390.0635100840525
 30
0.0
 11
4379.647290100929
 21
390.282101396079
 31
0.0
  0
LINE
  5
FDF
330
1F
100
AcDbEntity
  8
SPOJOVACÍ
  6
Continuous
100
AcDbLine
 10
4380.024941471875
 20
390.0635100840525
 30
0.0
 11
4379.647290100929
 21
389.6858587109243
 31
0.0
  0
LINE
  5
FE0
330
1F
100
AcDbEntity
  8
SPOJOVACÍ
  6
Continuous
100
AcDbLine
 10
4375.225234366026
 20
391.2634368605147
 30
0.0
 11
4375.602885741336
 21
391.6420184096212
 31
0.0
  0
LINE
  5
FE1
330
1F
100
AcDbEntity
  8
SPOJOVACÍ
  6
Continuous
100
AcDbLine
 10
4375.225234366026
 20
391.2634368605147
 30
0.0
 11
4375.602885741336
 21
391.0457757244664
 31
0.0
  0
LINE
  5
FE2
330
1F
100
AcDbEntity
  8
SPOJOVACÍ
  6
Continuous
100
AcDbLine
 10
4375.225234366026
 20
391.2634368605147
 30
0.0
 11
4380.024941471875
 21
390.0635100840525
 31
0.0
  0
LINE
  5
FE3
330
1F
100
AcDbEntity
  8
SPOJOVACÍ
  6
Continuous
100
AcDbLine
 10
4375.602885741336
 20
394.761828028583
 30
0.0
 11
4379.647290100929
 21
393.4019110150409
 31
0.0
  0
LINE
  5
FE4
330
1F
100
AcDbEntity
  8
SPOJOVACÍ
  6
Continuous
100
AcDbLine
 10
4375.602885741336
 20
394.1655853434356
 30
0.0
 11
4379.647290100929
 21
392.8056683301626
 31
0.0
  0
LINE
  5
FE5
330
1F
100
AcDbEntity
  8
SPOJOVACÍ
  6
Continuous
100
AcDbLine
 10
4380.024941471875
 20
393.1842498789926
 30
0.0
 11
4379.647290100929
 21
393.4019110150409
 31
0.0
  0
LINE
  5
FE6
330
1F
100
AcDbEntity
  8
SPOJOVACÍ
  6
Continuous
100
AcDbLine
 10
4380.024941471875
 20
393.1842498789926
 30
0.0
 11
4379.647290100929
 21
392.8056683301626
 31
0.0
  0
LINE
  5
FE7
330
1F
100
AcDbEntity
  8
SPOJOVACÍ
  6
Continuous
100
AcDbLine
 10
4375.225234366026
 20
394.3841766554549
 30
0.0
 11
4375.602885741336
 21
394.761828028583
 31
0.0
  0
LINE
  5
FE8
330
1F
100
AcDbEntity
  8
SPOJOVACÍ
  6
Continuous
100
AcDbLine
 10
4375.225234366026
 20
394.3841766554549
 30
0.0
 11
4375.602885741336
 21
394.1655853434356
 31
0.0
  0
LINE
  5
FE9
330
1F
100
AcDbEntity
  8
SPOJOVACÍ
  6
Continuous
100
AcDbLine
 10
4375.225234366026
 20
394.3841766554549
 30
0.0
 11
4380.024941471875
 21
393.1842498789926
 31
0.0
  0
LINE
  5
FEA
330
1F
100
AcDbEntity
  8
SPOJOVACÍ
  6
Continuous
100
AcDbLine
 10
4375.602885741336
 20
397.8816376475522
 30
0.0
 11
4379.647290100929
 21
396.5217206342792
 31
0.0
  0
LINE
  5
FEB
330
1F
100
AcDbEntity
  8
SPOJOVACÍ
  6
Continuous
100
AcDbLine
 10
4375.602885741336
 20
397.2853949623975
 30
0.0
 11
4379.647290100929
 21
395.9254779491318
 31
0.0
  0
LINE
  5
FEC
330
1F
100
AcDbEntity
  8
SPOJOVACÍ
  6
Continuous
100
AcDbLine
 10
4380.024941471875
 20
396.3040594979618
 30
0.0
 11
4379.647290100929
 21
396.5217206342792
 31
0.0
  0
LINE
  5
FED
330
1F
100
AcDbEntity
  8
SPOJOVACÍ
  6
Continuous
100
AcDbLine
 10
4380.024941471875
 20
396.3040594979618
 30
0.0
 11
4379.647290100929
 21
395.9254779491318
 31
0.0
  0
LINE
  5
FEE
330
1F
100
AcDbEntity
  8
SPOJOVACÍ
  6
Continuous
100
AcDbLine
 10
4375.225234366026
 20
397.503986274424
 30
0.0
 11
4375.602885741336
 21
397.8816376475522
 31
0.0
  0
LINE
  5
FEF
330
1F
100
AcDbEntity
  8
SPOJOVACÍ
  6
Continuous
100
AcDbLine
 10
4375.225234366026
 20
397.503986274424
 30
0.0
 11
4375.602885741336
 21
397.2853949623975
 31
0.0
  0
LINE
  5
FF0
330
1F
100
AcDbEntity
  8
SPOJOVACÍ
  6
Continuous
100
AcDbLine
 10
4375.225234366026
 20
397.503986274424
 30
0.0
 11
4380.024941471875
 21
396.3040594979618
 31
0.0
  0
LINE
  5
FF1
330
1F
100
AcDbEntity
  8
SPOJOVACÍ
  6
Continuous
100
AcDbLine
 10
4376.608405777024
 20
382.1579459955835
 30
0.0
 11
4378.76269291848
 21
381.8472672798095
 31
0.0
  0
LINE
  5
FF2
330
1F
100
AcDbEntity
  8
SPOJOVACÍ
  6
Continuous
100
AcDbLine
 10
4376.986057147969
 20
382.5355973687117
 30
0.0
 11
4378.385041547535
 21
382.064928416127
 31
0.0
  0
LINE
  5
FF3
330
1F
100
AcDbEntity
  8
SPOJOVACÍ
  6
Continuous
100
AcDbLine
 10
4376.986057147969
 20
381.9393546835642
 30
0.0
 11
4378.385041547535
 21
381.4686857309796
 31
0.0
  0
LINE
  5
FF4
330
1F
100
AcDbEntity
  8
SPOJOVACÍ
  6
Continuous
100
AcDbLine
 10
4378.76269291848
 20
381.8472672798095
 30
0.0
 11
4378.385041547535
 21
382.064928416127
 31
0.0
  0
LINE
  5
FF5
330
1F
100
AcDbEntity
  8
SPOJOVACÍ
  6
Continuous
100
AcDbLine
 10
4378.76269291848
 20
381.8472672798095
 30
0.0
 11
4378.385041547535
 21
381.4686857309796
 31
0.0
  0
LINE
  5
FF6
330
1F
100
AcDbEntity
  8
SPOJOVACÍ
  6
Continuous
100
AcDbLine
 10
4376.608405777024
 20
382.1579459955835
 30
0.0
 11
4376.986057147969
 21
382.5355973687117
 31
0.0
  0
LINE
  5
FF7
330
1F
100
AcDbEntity
  8
SPOJOVACÍ
  6
Continuous
100
AcDbLine
 10
4376.608405777024
 20
382.1579459955835
 30
0.0
 11
4376.986057147969
 21
381.9393546835642
 31
0.0
  0
LINE
  5
FF8
330
1F
100
AcDbEntity
  8
SPOJOVACÍ
  6
Continuous
100
AcDbLine
 10
4376.043789066552
 20
385.1717155739031
 30
0.0
 11
4379.159877982984
 21
384.5382658571331
 31
0.0
  0
LINE
  5
FF9
330
1F
100
AcDbEntity
  8
SPOJOVACÍ
  6
Continuous
100
AcDbLine
 10
4376.421440441863
 20
385.5502971230096
 30
0.0
 11
4378.782226612038
 21
384.7559269931814
 31
0.0
  0
LINE
  5
FFA
330
1F
100
AcDbEntity
  8
SPOJOVACÍ
  6
Continuous
100
AcDbLine
 10
4376.421440441863
 20
384.9540544378549
 30
0.0
 11
4378.782226612038
 21
384.1596843083032
 31
0.0
  0
LINE
  5
FFB
330
1F
100
AcDbEntity
  8
SPOJOVACÍ
  6
Continuous
100
AcDbLine
 10
4379.159877982984
 20
384.5382658571331
 30
0.0
 11
4378.782226612038
 21
384.7559269931814
 31
0.0
  0
LINE
  5
FFC
330
1F
100
AcDbEntity
  8
SPOJOVACÍ
  6
Continuous
100
AcDbLine
 10
4379.159877982984
 20
384.5382658571331
 30
0.0
 11
4378.782226612038
 21
384.1596843083032
 31
0.0
  0
LINE
  5
FFD
330
1F
100
AcDbEntity
  8
SPOJOVACÍ
  6
Continuous
100
AcDbLine
 10
4376.043789066552
 20
385.1717155739031
 30
0.0
 11
4376.421440441863
 21
385.5502971230096
 31
0.0
  0
LINE
  5
FFE
330
1F
100
AcDbEntity
  8
SPOJOVACÍ
  6
Continuous
100
AcDbLine
 10
4376.043789066552
 20
385.1717155739031
 30
0.0
 11
4376.421440441863
 21
384.9540544378549
 31
0.0
  0
LINE
  5
FFF
330
1F
100
AcDbEntity
  8
SPOJOVACÍ
  6
Continuous
100
AcDbLine
 10
4375.479172360447
 20
388.186415328201
 30
0.0
 11
4379.604502013189
 21
387.2134514458964
 31
0.0
  0
LINE
  5
1000
330
1F
100
AcDbEntity
  8
SPOJOVACÍ
  6
Continuous
100
AcDbLine
 10
4375.857753908731
 20
388.5640667013292
 30
0.0
 11
4379.226850642244
 21
387.4311125819447
 31
0.0
  0
LINE
  5
1001
330
1F
100
AcDbEntity
  8
SPOJOVACÍ
  6
Continuous
100
AcDbLine
 10
4375.857753908731
 20
387.9678240161745
 30
0.0
 11
4379.226850642244
 21
386.83486989679
 31
0.0
  0
LINE
  5
1002
330
1F
100
AcDbEntity
  8
SPOJOVACÍ
  6
Continuous
100
AcDbLine
 10
4379.604502013189
 20
387.2134514458964
 30
0.0
 11
4379.226850642244
 21
387.4311125819447
 31
0.0
  0
LINE
  5
1003
330
1F
100
AcDbEntity
  8
SPOJOVACÍ
  6
Continuous
100
AcDbLine
 10
4379.604502013189
 20
387.2134514458964
 30
0.0
 11
4379.226850642244
 21
386.83486989679
 31
0.0
  0
LINE
  5
1004
330
1F
100
AcDbEntity
  8
SPOJOVACÍ
  6
Continuous
100
AcDbLine
 10
4375.479172360447
 20
388.186415328201
 30
0.0
 11
4375.857753908731
 21
388.5640667013292
 31
0.0
  0
LINE
  5
1005
330
1F
100
AcDbEntity
  8
SPOJOVACÍ
  6
Continuous
100
AcDbLine
 10
4375.479172360447
 20
388.186415328201
 30
0.0
 11
4375.857753908731
 21
387.9678240161745
 31
0.0
  0
LINE
  5
1006
330
1F
100
AcDbEntity
  8
SPOJOVACÍ
  6
Continuous
100
AcDbLine
 10
4375.602885741336
 20
401.0014472667905
 30
0.0
 11
4379.647290100929
 21
399.6424604289502
 31
0.0
  0
LINE
  5
1007
330
1F
100
AcDbEntity
  8
SPOJOVACÍ
  6
Continuous
100
AcDbLine
 10
4375.602885741336
 20
400.4052045816358
 30
0.0
 11
4379.647290100929
 21
399.046217744072
 31
0.0
  0
LINE
  5
1008
330
1F
100
AcDbEntity
  8
SPOJOVACÍ
  6
Continuous
100
AcDbLine
 10
4380.024941471875
 20
399.4238691169237
 30
0.0
 11
4379.647290100929
 21
399.6424604289502
 31
0.0
  0
LINE
  5
1009
330
1F
100
AcDbEntity
  8
SPOJOVACÍ
  6
Continuous
100
AcDbLine
 10
4380.024941471875
 20
399.4238691169237
 30
0.0
 11
4379.647290100929
 21
399.046217744072
 31
0.0
  0
LINE
  5
100A
330
1F
100
AcDbEntity
  8
SPOJOVACÍ
  6
Continuous
100
AcDbLine
 10
4375.225234366026
 20
400.6237958936623
 30
0.0
 11
4375.602885741336
 21
401.0014472667905
 31
0.0
  0
LINE
  5
100B
330
1F
100
AcDbEntity
  8
SPOJOVACÍ
  6
Continuous
100
AcDbLine
 10
4375.225234366026
 20
400.6237958936623
 30
0.0
 11
4375.602885741336
 21
400.4052045816358
 31
0.0
  0
LINE
  5
100C
330
1F
100
AcDbEntity
  8
SPOJOVACÍ
  6
Continuous
100
AcDbLine
 10
4375.225234366026
 20
400.6237958936623
 30
0.0
 11
4380.024941471875
 21
399.4238691169237
 31
0.0
  0
LINE
  5
100D
330
1F
100
AcDbEntity
  8
SPOJOVACÍ
  6
Continuous
100
AcDbLine
 10
4375.602885741336
 20
404.1221870614542
 30
0.0
 11
4379.647290100929
 21
402.7622700481885
 31
0.0
  0
LINE
  5
100E
330
1F
100
AcDbEntity
  8
SPOJOVACÍ
  6
Continuous
100
AcDbLine
 10
4375.602885741336
 20
403.525944376576
 30
0.0
 11
4379.647290100929
 21
402.1660273630338
 31
0.0
  0
LINE
  5
100F
330
1F
100
AcDbEntity
  8
SPOJOVACÍ
  6
Continuous
100
AcDbLine
 10
4380.024941471875
 20
402.543678736162
 30
0.0
 11
4379.647290100929
 21
402.7622700481885
 31
0.0
  0
LINE
  5
1010
330
1F
100
AcDbEntity
  8
SPOJOVACÍ
  6
Continuous
100
AcDbLine
 10
4380.024941471875
 20
402.543678736162
 30
0.0
 11
4379.647290100929
 21
402.1660273630338
 31
0.0
  0
LINE
  5
1011
330
1F
100
AcDbEntity
  8
SPOJOVACÍ
  6
Continuous
100
AcDbLine
 10
4375.225234366026
 20
403.7436055126242
 30
0.0
 11
4375.602885741336
 21
404.1221870614542
 31
0.0
  0
LINE
  5
1012
330
1F
100
AcDbEntity
  8
SPOJOVACÍ
  6
Continuous
100
AcDbLine
 10
4375.225234366026
 20
403.7436055126242
 30
0.0
 11
4375.602885741336
 21
403.525944376576
 31
0.0
  0
LINE
  5
1013
330
1F
100
AcDbEntity
  8
SPOJOVACÍ
  6
Continuous
100
AcDbLine
 10
4375.225234366026
 20
403.7436055126242
 30
0.0
 11
4380.024941471875
 21
402.543678736162
 31
0.0
  0
LINE
  5
1014
330
1F
100
AcDbEntity
  8
SPOJOVACÍ
  6
Continuous
100
AcDbLine
 10
4378.729206591033
 20
387.607845983294
 30
0.0
 11
4378.974773002501
 21
389.5788884945802
 31
0.0
  0
LINE
  5
1015
330
1F
100
AcDbEntity
  8
SPOJOVACÍ
  6
Continuous
100
AcDbLine
 10
4378.390622598472
 20
384.9010344173955
 30
0.0
 11
4378.65758305381
 21
387.0376482202489
 31
0.0
  0
LINE
  5
1016
330
1F
100
AcDbEntity
  8
SPOJOVACÍ
  6
Continuous
100
AcDbLine
 10
4378.051108437303
 20
382.1839909179623
 30
0.0
 11
4378.318999065614
 21
384.3289763029467
 31
0.0
  0
LINE
  5
1017
330
1F
100
AcDbEntity
  8
SPOJOVACÍ
  6
Continuous
100
AcDbLine
 10
4377.239064965052
 20
381.8677311474318
 30
0.0
 11
4377.62508791895
 21
378.7786173296269
 31
0.0
  0
LINE
  5
1018
330
1F
100
AcDbEntity
  8
SPOJOVACÍ
  6
Continuous
100
AcDbLine
 10
4376.871645527372
 20
384.8089470136408
 30
0.0
 11
4377.161860372526
 21
382.4881584032853
 31
0.0
  0
LINE
  5
1019
330
1F
100
AcDbEntity
  8
SPOJOVACÍ
  6
Continuous
100
AcDbLine
 10
4376.502365735014
 20
387.76132498937
 30
0.0
 11
4376.792580584534
 21
385.4396062033054
 31
0.0
  0
LINE
  5
101A
330
1F
100
AcDbEntity
  8
SPOJOVACÍ
  6
Continuous
100
AcDbLine
 10
4377.62508791895
 20
378.7786173296269
 30
0.0
 11
4377.979484900079
 21
381.6147233308954
 31
0.0
  0
LINE
  5
101B
330
1F
100
AcDbEntity
  8
SPOJOVACÍ
  6
Continuous
100
AcDbLine
 10
4376.275402839765
 20
389.5788884945802
 30
0.0
 11
4376.425161142488
 21
388.3817522452234
 31
0.0
  0
LINE
  5
101C
330
1F
100
AcDbEntity
  8
SPOJOVACÍ
  6
Continuous
100
AcDbLine
 10
4378.974773002501
 20
389.9156121324638
 30
0.0
 11
4378.974773002501
 21
389.5788884945802
 31
0.0
  0
LINE
  5
101D
330
1F
100
AcDbEntity
  8
SPOJOVACÍ
  6
Continuous
100
AcDbLine
 10
4378.974773002501
 20
393.0382122790767
 30
0.0
 11
4378.974773002501
 21
390.5192962240478
 31
0.0
  0
LINE
  5
101E
330
1F
100
AcDbEntity
  8
SPOJOVACÍ
  6
Continuous
100
AcDbLine
 10
4376.275402839765
 20
390.8262542364689
 30
0.0
 11
4376.275402839765
 21
389.5788884945802
 31
0.0
  0
LINE
  5
101F
330
1F
100
AcDbEntity
  8
SPOJOVACÍ
  6
Continuous
100
AcDbLine
 10
4376.275402839765
 20
393.9404828009508
 30
0.0
 11
4376.275402839765
 21
391.4224969216236
 31
0.0
  0
LINE
  5
1020
330
1F
100
AcDbEntity
  8
SPOJOVACÍ
  6
Continuous
100
AcDbLine
 10
4378.974773002501
 20
396.1598822497187
 30
0.0
 11
4378.974773002501
 21
393.6391058430097
 31
0.0
  0
LINE
  5
1021
330
1F
100
AcDbEntity
  8
SPOJOVACÍ
  6
Continuous
100
AcDbLine
 10
4378.974773002501
 20
399.2824823960625
 30
0.0
 11
4378.974773002501
 21
396.7542645831933
 31
0.0
  0
LINE
  5
1022
330
1F
100
AcDbEntity
  8
SPOJOVACÍ
  6
Continuous
100
AcDbLine
 10
4378.974773002501
 20
402.3976411362461
 30
0.0
 11
4378.974773002501
 21
399.8787250812172
 31
0.0
  0
LINE
  5
1023
330
1F
100
AcDbEntity
  8
SPOJOVACÍ
  6
Continuous
100
AcDbLine
 10
4376.275402839765
 20
397.0733148811057
 30
0.0
 11
4376.275402839765
 21
394.5450970682366
 31
0.0
  0
LINE
  5
1024
330
1F
100
AcDbEntity
  8
SPOJOVACÍ
  6
Continuous
100
AcDbLine
 10
4376.275402839765
 20
400.1884736212893
 30
0.0
 11
4376.275402839765
 21
397.6676972145803
 31
0.0
  0
LINE
  5
1025
330
1F
100
AcDbEntity
  8
SPOJOVACÍ
  6
Continuous
100
AcDbLine
 10
4376.275402839765
 20
403.3110737676331
 30
0.0
 11
4376.275402839765
 21
400.7921577126041
 31
0.0
  0
LINE
  5
1026
330
1F
100
AcDbEntity
  8
SPOJOVACÍ
  6
Continuous
100
AcDbLine
 10
4376.275402839765
 20
407.9442794064895
 30
0.0
 11
4376.275402839765
 21
403.9063862768095
 31
0.0
  0
LINE
  5
1027
330
1F
100
AcDbEntity
  8
SPOJOVACÍ
  6
Continuous
100
AcDbLine
 10
4378.974773002501
 20
407.9442794064895
 30
0.0
 11
4378.974773002501
 21
403.0013252275609
 31
0.0
  0
LINE
  5
1028
330
1F
100
AcDbEntity
  8
SPOJOVACÍ
  6
Continuous
100
AcDbLine
 10
4372.524934030316
 20
413.3439499008461
 30
0.0
 11
4373.874619113867
 21
412.5998092643719
 31
0.0
  0
LINE
  5
1029
330
1F
100
AcDbEntity
  8
SPOJOVACÍ
  6
Continuous
100
AcDbLine
 10
4373.874619113867
 20
412.5998092643719
 30
0.0
 11
4374.985249014225
 21
411.5310372749597
 31
0.0
  0
LINE
  5
102A
330
1F
100
AcDbEntity
  8
SPOJOVACÍ
  6
Continuous
100
AcDbLine
 10
4374.985249014225
 20
411.5310372749597
 30
0.0
 11
4375.781479493544
 21
410.2120479966622
 31
0.0
  0
LINE
  5
102B
330
1F
100
AcDbEntity
  8
SPOJOVACÍ
  6
Continuous
100
AcDbLine
 10
4375.781479493544
 20
410.2120479966622
 30
0.0
 11
4376.209360357843
 21
408.7312081296119
 31
0.0
  0
LINE
  5
102C
330
1F
100
AcDbEntity
  8
SPOJOVACÍ
  6
Continuous
100
AcDbLine
 10
4376.209360357843
 20
408.7312081296119
 30
0.0
 11
4376.275402839765
 21
407.9442794064895
 31
0.0
  0
LINE
  5
102D
330
1F
100
AcDbEntity
  8
SPOJOVACÍ
  6
Continuous
100
AcDbLine
 10
4380.772802812517
 20
412.0891427525209
 30
0.0
 11
4382.009936621416
 21
413.0072262629625
 31
0.0
  0
LINE
  5
102E
330
1F
100
AcDbEntity
  8
SPOJOVACÍ
  6
Continuous
100
AcDbLine
 10
4382.009936621416
 20
413.0072262629625
 30
0.0
 11
4382.725241807584
 21
413.3439499008461
 31
0.0
  0
LINE
  5
102F
330
1F
100
AcDbEntity
  8
SPOJOVACÍ
  6
Continuous
100
AcDbLine
 10
4372.524934030316
 20
413.3439499008461
 30
0.0
 11
4382.725241807584
 21
413.3439499008461
 31
0.0
  0
LINE
  5
1030
330
1F
100
AcDbEntity
  8
SPOJOVACÍ
  6
Continuous
100
AcDbLine
 10
4372.524934030316
 20
414.5438766775775
 30
0.0
 11
4372.524934030316
 21
413.3439499008461
 31
0.0
  0
LINE
  5
1031
330
1F
100
AcDbEntity
  8
SPOJOVACÍ
  6
Continuous
100
AcDbLine
 10
4372.524934030316
 20
414.5438766775775
 30
0.0
 11
4382.725241807584
 21
414.5438766775775
 31
0.0
  0
LINE
  5
1032
330
1F
100
AcDbEntity
  8
SPOJOVACÍ
  6
Continuous
100
AcDbLine
 10
4382.725241807584
 20
414.5438766775775
 30
0.0
 11
4382.725241807584
 21
413.3439499008461
 31
0.0
  0
LINE
  5
1033
330
1F
100
AcDbEntity
  8
SPOJOVACÍ
  6
Continuous
100
AcDbLine
 10
4378.974773002501
 20
407.9442794064895
 30
0.0
 11
4379.201735893384
 21
409.4679073599188
 31
0.0
  0
LINE
  5
1034
330
1F
100
AcDbEntity
  8
SPOJOVACÍ
  6
Continuous
100
AcDbLine
 10
4379.201735893384
 20
409.4679073599188
 30
0.0
 11
4379.814721742532
 21
410.8817745696221
 31
0.0
  0
LINE
  5
1035
330
1F
100
AcDbEntity
  8
SPOJOVACÍ
  6
Continuous
100
AcDbLine
 10
4379.814721742532
 20
410.8817745696221
 30
0.0
 11
4380.772802812517
 21
412.0891427525209
 31
0.0
  0
LINE
  5
1036
330
1F
100
AcDbEntity
  8
SPOJOVACÍ
  6
Continuous
100
AcDbLine
 10
4379.814721742532
 20
317.9737245007834
 30
0.0
 11
4380.772802812517
 21
316.7663563178846
 31
0.0
  0
LINE
  5
1037
330
1F
100
AcDbEntity
  8
SPOJOVACÍ
  6
Continuous
100
AcDbLine
 10
4379.201735893384
 20
319.3875917104867
 30
0.0
 11
4379.814721742532
 21
317.9737245007834
 31
0.0
  0
LINE
  5
1038
330
1F
100
AcDbEntity
  8
SPOJOVACÍ
  6
Continuous
100
AcDbLine
 10
4378.974773002501
 20
320.9112196639159
 30
0.0
 11
4379.201735893384
 21
319.3875917104867
 31
0.0
  0
LINE
  5
1039
330
1F
100
AcDbEntity
  8
SPOJOVACÍ
  6
Continuous
100
AcDbLine
 10
4382.725241807584
 20
314.3116223928279
 30
0.0
 11
4382.725241807584
 21
315.5115491695594
 31
0.0
  0
LINE
  5
103A
330
1F
100
AcDbEntity
  8
SPOJOVACÍ
  6
Continuous
100
AcDbLine
 10
4372.524934030316
 20
314.3116223928279
 30
0.0
 11
4382.725241807584
 21
314.3116223928279
 31
0.0
  0
LINE
  5
103B
330
1F
100
AcDbEntity
  8
SPOJOVACÍ
  6
Continuous
100
AcDbLine
 10
4372.524934030316
 20
314.3116223928279
 30
0.0
 11
4372.524934030316
 21
315.5115491695594
 31
0.0
  0
LINE
  5
103C
330
1F
100
AcDbEntity
  8
SPOJOVACÍ
  6
Continuous
100
AcDbLine
 10
4372.524934030316
 20
315.5115491695594
 30
0.0
 11
4382.725241807584
 21
315.5115491695594
 31
0.0
  0
LINE
  5
103D
330
1F
100
AcDbEntity
  8
SPOJOVACÍ
  6
Continuous
100
AcDbLine
 10
4382.009936621416
 20
315.8482728074429
 30
0.0
 11
4382.725241807584
 21
315.5115491695594
 31
0.0
  0
LINE
  5
103E
330
1F
100
AcDbEntity
  8
SPOJOVACÍ
  6
Continuous
100
AcDbLine
 10
4380.772802812517
 20
316.7663563178846
 30
0.0
 11
4382.009936621416
 21
315.8482728074429
 31
0.0
  0
LINE
  5
103F
330
1F
100
AcDbEntity
  8
SPOJOVACÍ
  6
Continuous
100
AcDbLine
 10
4376.209360357843
 20
320.1242909407935
 30
0.0
 11
4376.275402839765
 21
320.9112196639159
 31
0.0
  0
LINE
  5
1040
330
1F
100
AcDbEntity
  8
SPOJOVACÍ
  6
Continuous
100
AcDbLine
 10
4375.781479493544
 20
318.6434510737433
 30
0.0
 11
4376.209360357843
 21
320.1242909407935
 31
0.0
  0
LINE
  5
1041
330
1F
100
AcDbEntity
  8
SPOJOVACÍ
  6
Continuous
100
AcDbLine
 10
4374.985249014225
 20
317.3244617954458
 30
0.0
 11
4375.781479493544
 21
318.6434510737433
 31
0.0
  0
LINE
  5
1042
330
1F
100
AcDbEntity
  8
SPOJOVACÍ
  6
Continuous
100
AcDbLine
 10
4373.874619113867
 20
316.2556898060336
 30
0.0
 11
4374.985249014225
 21
317.3244617954458
 31
0.0
  0
LINE
  5
1043
330
1F
100
AcDbEntity
  8
SPOJOVACÍ
  6
Continuous
100
AcDbLine
 10
4372.524934030316
 20
315.5115491695594
 30
0.0
 11
4373.874619113867
 21
316.2556898060336
 31
0.0
  0
LINE
  5
1044
330
1F
100
AcDbEntity
  8
SPOJOVACÍ
  6
Continuous
100
AcDbLine
 10
4378.974773002501
 20
320.9112196639159
 30
0.0
 11
4378.974773002501
 21
325.8541738428446
 31
0.0
  0
LINE
  5
1045
330
1F
100
AcDbEntity
  8
SPOJOVACÍ
  6
Continuous
100
AcDbLine
 10
4376.275402839765
 20
320.9112196639159
 30
0.0
 11
4376.275402839765
 21
324.9491127935959
 31
0.0
  0
LINE
  5
1046
330
1F
100
AcDbEntity
  8
SPOJOVACÍ
  6
Continuous
100
AcDbLine
 10
4376.275402839765
 20
325.5444253027724
 30
0.0
 11
4376.275402839765
 21
328.0633413578013
 31
0.0
  0
LINE
  5
1047
330
1F
100
AcDbEntity
  8
SPOJOVACÍ
  6
Continuous
100
AcDbLine
 10
4376.275402839765
 20
328.6670254491161
 30
0.0
 11
4376.275402839765
 21
331.1878018558252
 31
0.0
  0
LINE
  5
1048
330
1F
100
AcDbEntity
  8
SPOJOVACÍ
  6
Continuous
100
AcDbLine
 10
4376.275402839765
 20
331.7821841892998
 30
0.0
 11
4376.275402839765
 21
334.3104020021689
 31
0.0
  0
LINE
  5
1049
330
1F
100
AcDbEntity
  8
SPOJOVACÍ
  6
Continuous
100
AcDbLine
 10
4378.974773002501
 20
326.4578579341594
 30
0.0
 11
4378.974773002501
 21
328.9767739891883
 31
0.0
  0
LINE
  5
104A
330
1F
100
AcDbEntity
  8
SPOJOVACÍ
  6
Continuous
100
AcDbLine
 10
4378.974773002501
 20
329.573016674343
 30
0.0
 11
4378.974773002501
 21
332.1012344872122
 31
0.0
  0
LINE
  5
104B
330
1F
100
AcDbEntity
  8
SPOJOVACÍ
  6
Continuous
100
AcDbLine
 10
4378.974773002501
 20
332.6956168206868
 30
0.0
 11
4378.974773002501
 21
335.2163932273958
 31
0.0
  0
LINE
  5
104C
330
1F
100
AcDbEntity
  8
SPOJOVACÍ
  6
Continuous
100
AcDbLine
 10
4376.275402839765
 20
334.9150162694547
 30
0.0
 11
4376.275402839765
 21
337.4330021487819
 31
0.0
  0
LINE
  5
104D
330
1F
100
AcDbEntity
  8
SPOJOVACÍ
  6
Continuous
100
AcDbLine
 10
4376.275402839765
 20
338.0292448339366
 30
0.0
 11
4376.275402839765
 21
339.2766105758253
 31
0.0
  0
LINE
  5
104E
330
1F
100
AcDbEntity
  8
SPOJOVACÍ
  6
Continuous
100
AcDbLine
 10
4378.974773002501
 20
335.8172867913288
 30
0.0
 11
4378.974773002501
 21
338.3362028463577
 31
0.0
  0
LINE
  5
104F
330
1F
100
AcDbEntity
  8
SPOJOVACÍ
  6
Continuous
100
AcDbLine
 10
4378.974773002501
 20
338.9398869379417
 30
0.0
 11
4378.974773002501
 21
339.2766105758253
 31
0.0
  0
LINE
  5
1050
330
1F
100
AcDbEntity
  8
SPOJOVACÍ
  6
Continuous
100
AcDbLine
 10
4376.275402839765
 20
339.2766105758253
 30
0.0
 11
4376.425161142488
 21
340.4737468251821
 31
0.0
  0
LINE
  5
1051
330
1F
100
AcDbEntity
  8
SPOJOVACÍ
  6
Continuous
100
AcDbLine
 10
4377.62508791895
 20
350.0768817407786
 30
0.0
 11
4377.979484900079
 21
347.2407757395101
 31
0.0
  0
LINE
  5
1052
330
1F
100
AcDbEntity
  8
SPOJOVACÍ
  6
Continuous
100
AcDbLine
 10
4376.502365735014
 20
341.0941740810355
 30
0.0
 11
4376.792580584534
 21
343.4158928671001
 31
0.0
  0
LINE
  5
1053
330
1F
100
AcDbEntity
  8
SPOJOVACÍ
  6
Continuous
100
AcDbLine
 10
4376.871645527372
 20
344.0465520567647
 30
0.0
 11
4377.161860372526
 21
346.3673406671202
 31
0.0
  0
LINE
  5
1054
330
1F
100
AcDbEntity
  8
SPOJOVACÍ
  6
Continuous
100
AcDbLine
 10
4377.239064965052
 20
346.9877679229737
 30
0.0
 11
4377.62508791895
 21
350.0768817407786
 31
0.0
  0
LINE
  5
1055
330
1F
100
AcDbEntity
  8
SPOJOVACÍ
  6
Continuous
100
AcDbLine
 10
4378.051108437303
 20
346.6715081524432
 30
0.0
 11
4378.318999065614
 21
344.5265227674588
 31
0.0
  0
LINE
  5
1056
330
1F
100
AcDbEntity
  8
SPOJOVACÍ
  6
Continuous
100
AcDbLine
 10
4378.390622598472
 20
343.95446465301
 30
0.0
 11
4378.65758305381
 21
341.8178508501566
 31
0.0
  0
LINE
  5
1057
330
1F
100
AcDbEntity
  8
SPOJOVACÍ
  6
Continuous
100
AcDbLine
 10
4378.729206591033
 20
341.2476530871115
 30
0.0
 11
4378.974773002501
 21
339.2766105758253
 31
0.0
  0
LINE
  5
1058
330
1F
100
AcDbEntity
  8
SPOJOVACÍ
  6
Continuous
100
AcDbLine
 10
4375.225234366026
 20
325.1118935577812
 30
0.0
 11
4380.024941471875
 21
326.3118203342435
 31
0.0
  0
LINE
  5
1059
330
1F
100
AcDbEntity
  8
SPOJOVACÍ
  6
Continuous
100
AcDbLine
 10
4375.225234366026
 20
325.1118935577812
 30
0.0
 11
4375.602885741336
 21
325.3295546938295
 31
0.0
  0
LINE
  5
105A
330
1F
100
AcDbEntity
  8
SPOJOVACÍ
  6
Continuous
100
AcDbLine
 10
4375.225234366026
 20
325.1118935577812
 30
0.0
 11
4375.602885741336
 21
324.7333120089513
 31
0.0
  0
LINE
  5
105B
330
1F
100
AcDbEntity
  8
SPOJOVACÍ
  6
Continuous
100
AcDbLine
 10
4380.024941471875
 20
326.3118203342435
 30
0.0
 11
4379.647290100929
 21
326.6894717073717
 31
0.0
  0
LINE
  5
105C
330
1F
100
AcDbEntity
  8
SPOJOVACÍ
  6
Continuous
100
AcDbLine
 10
4380.024941471875
 20
326.3118203342435
 30
0.0
 11
4379.647290100929
 21
326.0932290222169
 31
0.0
  0
LINE
  5
105D
330
1F
100
AcDbEntity
  8
SPOJOVACÍ
  6
Continuous
100
AcDbLine
 10
4375.602885741336
 20
325.3295546938295
 30
0.0
 11
4379.647290100929
 21
326.6894717073717
 31
0.0
  0
LINE
  5
105E
330
1F
100
AcDbEntity
  8
SPOJOVACÍ
  6
Continuous
100
AcDbLine
 10
4375.602885741336
 20
324.7333120089513
 30
0.0
 11
4379.647290100929
 21
326.0932290222169
 31
0.0
  0
LINE
  5
105F
330
1F
100
AcDbEntity
  8
SPOJOVACÍ
  6
Continuous
100
AcDbLine
 10
4375.225234366026
 20
328.2317031767431
 30
0.0
 11
4380.024941471875
 21
329.4316299534818
 31
0.0
  0
LINE
  5
1060
330
1F
100
AcDbEntity
  8
SPOJOVACÍ
  6
Continuous
100
AcDbLine
 10
4375.225234366026
 20
328.2317031767431
 30
0.0
 11
4375.602885741336
 21
328.4502944887697
 31
0.0
  0
LINE
  5
1061
330
1F
100
AcDbEntity
  8
SPOJOVACÍ
  6
Continuous
100
AcDbLine
 10
4375.225234366026
 20
328.2317031767431
 30
0.0
 11
4375.602885741336
 21
327.8540518036149
 31
0.0
  0
LINE
  5
1062
330
1F
100
AcDbEntity
  8
SPOJOVACÍ
  6
Continuous
100
AcDbLine
 10
4380.024941471875
 20
329.4316299534818
 30
0.0
 11
4379.647290100929
 21
329.8092813263335
 31
0.0
  0
LINE
  5
1063
330
1F
100
AcDbEntity
  8
SPOJOVACÍ
  6
Continuous
100
AcDbLine
 10
4380.024941471875
 20
329.4316299534818
 30
0.0
 11
4379.647290100929
 21
329.2130386414553
 31
0.0
  0
LINE
  5
1064
330
1F
100
AcDbEntity
  8
SPOJOVACÍ
  6
Continuous
100
AcDbLine
 10
4375.602885741336
 20
328.4502944887697
 30
0.0
 11
4379.647290100929
 21
329.8092813263335
 31
0.0
  0
LINE
  5
1065
330
1F
100
AcDbEntity
  8
SPOJOVACÍ
  6
Continuous
100
AcDbLine
 10
4375.602885741336
 20
327.8540518036149
 30
0.0
 11
4379.647290100929
 21
329.2130386414553
 31
0.0
  0
LINE
  5
1066
330
1F
100
AcDbEntity
  8
SPOJOVACÍ
  6
Continuous
100
AcDbLine
 10
4375.479172360447
 20
340.6690837422045
 30
0.0
 11
4375.857753908731
 21
340.887675054231
 31
0.0
  0
LINE
  5
1067
330
1F
100
AcDbEntity
  8
SPOJOVACÍ
  6
Continuous
100
AcDbLine
 10
4375.479172360447
 20
340.6690837422045
 30
0.0
 11
4375.857753908731
 21
340.2914323690763
 31
0.0
  0
LINE
  5
1068
330
1F
100
AcDbEntity
  8
SPOJOVACÍ
  6
Continuous
100
AcDbLine
 10
4379.604502013189
 20
341.6420476245091
 30
0.0
 11
4379.226850642244
 21
342.0206291736155
 31
0.0
  0
LINE
  5
1069
330
1F
100
AcDbEntity
  8
SPOJOVACÍ
  6
Continuous
100
AcDbLine
 10
4379.604502013189
 20
341.6420476245091
 30
0.0
 11
4379.226850642244
 21
341.4243864884608
 31
0.0
  0
LINE
  5
106A
330
1F
100
AcDbEntity
  8
SPOJOVACÍ
  6
Continuous
100
AcDbLine
 10
4375.857753908731
 20
340.887675054231
 30
0.0
 11
4379.226850642244
 21
342.0206291736155
 31
0.0
  0
LINE
  5
106B
330
1F
100
AcDbEntity
  8
SPOJOVACÍ
  6
Continuous
100
AcDbLine
 10
4375.857753908731
 20
340.2914323690763
 30
0.0
 11
4379.226850642244
 21
341.4243864884608
 31
0.0
  0
LINE
  5
106C
330
1F
100
AcDbEntity
  8
SPOJOVACÍ
  6
Continuous
100
AcDbLine
 10
4375.479172360447
 20
340.6690837422045
 30
0.0
 11
4379.604502013189
 21
341.6420476245091
 31
0.0
  0
LINE
  5
106D
330
1F
100
AcDbEntity
  8
SPOJOVACÍ
  6
Continuous
100
AcDbLine
 10
4376.043789066552
 20
343.6837834965024
 30
0.0
 11
4376.421440441863
 21
343.9014446325507
 31
0.0
  0
LINE
  5
106E
330
1F
100
AcDbEntity
  8
SPOJOVACÍ
  6
Continuous
100
AcDbLine
 10
4376.043789066552
 20
343.6837834965024
 30
0.0
 11
4376.421440441863
 21
343.3052019473959
 31
0.0
  0
LINE
  5
106F
330
1F
100
AcDbEntity
  8
SPOJOVACÍ
  6
Continuous
100
AcDbLine
 10
4379.159877982984
 20
344.3172332132724
 30
0.0
 11
4378.782226612038
 21
344.6958147621023
 31
0.0
  0
LINE
  5
1070
330
1F
100
AcDbEntity
  8
SPOJOVACÍ
  6
Continuous
100
AcDbLine
 10
4379.159877982984
 20
344.3172332132724
 30
0.0
 11
4378.782226612038
 21
344.0995720772241
 31
0.0
  0
LINE
  5
1071
330
1F
100
AcDbEntity
  8
SPOJOVACÍ
  6
Continuous
100
AcDbLine
 10
4376.421440441863
 20
343.9014446325507
 30
0.0
 11
4378.782226612038
 21
344.6958147621023
 31
0.0
  0
LINE
  5
1072
330
1F
100
AcDbEntity
  8
SPOJOVACÍ
  6
Continuous
100
AcDbLine
 10
4376.421440441863
 20
343.3052019473959
 30
0.0
 11
4378.782226612038
 21
344.0995720772241
 31
0.0
  0
LINE
  5
1073
330
1F
100
AcDbEntity
  8
SPOJOVACÍ
  6
Continuous
100
AcDbLine
 10
4376.043789066552
 20
343.6837834965024
 30
0.0
 11
4379.159877982984
 21
344.3172332132724
 31
0.0
  0
LINE
  5
1074
330
1F
100
AcDbEntity
  8
SPOJOVACÍ
  6
Continuous
100
AcDbLine
 10
4376.608405777024
 20
346.697553074822
 30
0.0
 11
4376.986057147969
 21
346.9161443868413
 31
0.0
  0
LINE
  5
1075
330
1F
100
AcDbEntity
  8
SPOJOVACÍ
  6
Continuous
100
AcDbLine
 10
4376.608405777024
 20
346.697553074822
 30
0.0
 11
4376.986057147969
 21
346.3199017016938
 31
0.0
  0
LINE
  5
1076
330
1F
100
AcDbEntity
  8
SPOJOVACÍ
  6
Continuous
100
AcDbLine
 10
4378.76269291848
 20
347.008231790596
 30
0.0
 11
4378.385041547535
 21
347.386813339426
 31
0.0
  0
LINE
  5
1077
330
1F
100
AcDbEntity
  8
SPOJOVACÍ
  6
Continuous
100
AcDbLine
 10
4378.76269291848
 20
347.008231790596
 30
0.0
 11
4378.385041547535
 21
346.7905706542785
 31
0.0
  0
LINE
  5
1078
330
1F
100
AcDbEntity
  8
SPOJOVACÍ
  6
Continuous
100
AcDbLine
 10
4376.986057147969
 20
346.9161443868413
 30
0.0
 11
4378.385041547535
 21
347.386813339426
 31
0.0
  0
LINE
  5
1079
330
1F
100
AcDbEntity
  8
SPOJOVACÍ
  6
Continuous
100
AcDbLine
 10
4376.986057147969
 20
346.3199017016938
 30
0.0
 11
4378.385041547535
 21
346.7905706542785
 31
0.0
  0
LINE
  5
107A
330
1F
100
AcDbEntity
  8
SPOJOVACÍ
  6
Continuous
100
AcDbLine
 10
4376.608405777024
 20
346.697553074822
 30
0.0
 11
4378.76269291848
 21
347.008231790596
 31
0.0
  0
LINE
  5
107B
330
1F
100
AcDbEntity
  8
SPOJOVACÍ
  6
Continuous
100
AcDbLine
 10
4375.225234366026
 20
331.3515127959815
 30
0.0
 11
4380.024941471875
 21
332.5514395724437
 31
0.0
  0
LINE
  5
107C
330
1F
100
AcDbEntity
  8
SPOJOVACÍ
  6
Continuous
100
AcDbLine
 10
4375.225234366026
 20
331.3515127959815
 30
0.0
 11
4375.602885741336
 21
331.570104108008
 31
0.0
  0
LINE
  5
107D
330
1F
100
AcDbEntity
  8
SPOJOVACÍ
  6
Continuous
100
AcDbLine
 10
4375.225234366026
 20
331.3515127959815
 30
0.0
 11
4375.602885741336
 21
330.9738614228533
 31
0.0
  0
LINE
  5
107E
330
1F
100
AcDbEntity
  8
SPOJOVACÍ
  6
Continuous
100
AcDbLine
 10
4380.024941471875
 20
332.5514395724437
 30
0.0
 11
4379.647290100929
 21
332.9300211212737
 31
0.0
  0
LINE
  5
107F
330
1F
100
AcDbEntity
  8
SPOJOVACÍ
  6
Continuous
100
AcDbLine
 10
4380.024941471875
 20
332.5514395724437
 30
0.0
 11
4379.647290100929
 21
332.3337784361263
 31
0.0
  0
LINE
  5
1080
330
1F
100
AcDbEntity
  8
SPOJOVACÍ
  6
Continuous
100
AcDbLine
 10
4375.602885741336
 20
331.570104108008
 30
0.0
 11
4379.647290100929
 21
332.9300211212737
 31
0.0
  0
LINE
  5
1081
330
1F
100
AcDbEntity
  8
SPOJOVACÍ
  6
Continuous
100
AcDbLine
 10
4375.602885741336
 20
330.9738614228533
 30
0.0
 11
4379.647290100929
 21
332.3337784361263
 31
0.0
  0
LINE
  5
1082
330
1F
100
AcDbEntity
  8
SPOJOVACÍ
  6
Continuous
100
AcDbLine
 10
4375.225234366026
 20
334.4713224149507
 30
0.0
 11
4380.024941471875
 21
335.6712491914129
 31
0.0
  0
LINE
  5
1083
330
1F
100
AcDbEntity
  8
SPOJOVACÍ
  6
Continuous
100
AcDbLine
 10
4375.225234366026
 20
334.4713224149507
 30
0.0
 11
4375.602885741336
 21
334.6899137269699
 31
0.0
  0
LINE
  5
1084
330
1F
100
AcDbEntity
  8
SPOJOVACÍ
  6
Continuous
100
AcDbLine
 10
4375.225234366026
 20
334.4713224149507
 30
0.0
 11
4375.602885741336
 21
334.0936710418225
 31
0.0
  0
LINE
  5
1085
330
1F
100
AcDbEntity
  8
SPOJOVACÍ
  6
Continuous
100
AcDbLine
 10
4380.024941471875
 20
335.6712491914129
 30
0.0
 11
4379.647290100929
 21
336.0498307402429
 31
0.0
  0
LINE
  5
1086
330
1F
100
AcDbEntity
  8
SPOJOVACÍ
  6
Continuous
100
AcDbLine
 10
4380.024941471875
 20
335.6712491914129
 30
0.0
 11
4379.647290100929
 21
335.4535880553646
 31
0.0
  0
LINE
  5
1087
330
1F
100
AcDbEntity
  8
SPOJOVACÍ
  6
Continuous
100
AcDbLine
 10
4375.602885741336
 20
334.6899137269699
 30
0.0
 11
4379.647290100929
 21
336.0498307402429
 31
0.0
  0
LINE
  5
1088
330
1F
100
AcDbEntity
  8
SPOJOVACÍ
  6
Continuous
100
AcDbLine
 10
4375.602885741336
 20
334.0936710418225
 30
0.0
 11
4379.647290100929
 21
335.4535880553646
 31
0.0
  0
LINE
  5
1089
330
1F
100
AcDbEntity
  8
SPOJOVACÍ
  6
Continuous
100
AcDbLine
 10
4375.225234366026
 20
337.5920622098908
 30
0.0
 11
4380.024941471875
 21
338.791988986353
 31
0.0
  0
LINE
  5
108A
330
1F
100
AcDbEntity
  8
SPOJOVACÍ
  6
Continuous
100
AcDbLine
 10
4375.225234366026
 20
337.5920622098908
 30
0.0
 11
4375.602885741336
 21
337.8097233459391
 31
0.0
  0
LINE
  5
108B
330
1F
100
AcDbEntity
  8
SPOJOVACÍ
  6
Continuous
100
AcDbLine
 10
4375.225234366026
 20
337.5920622098908
 30
0.0
 11
4375.602885741336
 21
337.2134806607844
 31
0.0
  0
LINE
  5
108C
330
1F
100
AcDbEntity
  8
SPOJOVACÍ
  6
Continuous
100
AcDbLine
 10
4380.024941471875
 20
338.791988986353
 30
0.0
 11
4379.647290100929
 21
339.1696403594812
 31
0.0
  0
LINE
  5
108D
330
1F
100
AcDbEntity
  8
SPOJOVACÍ
  6
Continuous
100
AcDbLine
 10
4380.024941471875
 20
338.791988986353
 30
0.0
 11
4379.647290100929
 21
338.5733976743265
 31
0.0
  0
LINE
  5
108E
330
1F
100
AcDbEntity
  8
SPOJOVACÍ
  6
Continuous
100
AcDbLine
 10
4375.602885741336
 20
337.8097233459391
 30
0.0
 11
4379.647290100929
 21
339.1696403594812
 31
0.0
  0
LINE
  5
108F
330
1F
100
AcDbEntity
  8
SPOJOVACÍ
  6
Continuous
100
AcDbLine
 10
4375.602885741336
 20
337.2134806607844
 30
0.0
 11
4379.647290100929
 21
338.5733976743265
 31
0.0
  0
LINE
  5
1092
330
1F
100
AcDbEntity
  8
STAVBA OBRYS
100
AcDbLine
 10
4354.453611091765
 20
345.3116223928279
 30
0.0
 11
4354.453611091765
 21
228.1002874072471
 31
0.0
  0
LINE
  5
1093
330
1F
100
AcDbEntity
  8
STAVBA OBRYS
100
AcDbLine
 10
4341.953611091765
 20
579.0189033354363
 30
0.0
 11
4341.953611091765
 21
228.1002874072471
 31
0.0
  0
LINE
  5
1094
330
1F
100
AcDbEntity
  8
SPOJOVACÍ
  6
CIKCAK
 48
0.25
100
AcDbLine
 10
4355.624486239973
 20
361.2584624765456
 30
0.0
 11
4308.16010042464
 21
361.2584624765447
 31
0.0
  0
LINE
  5
1095
330
1F
100
AcDbEntity
  8
SPOJOVACÍ
 48
0.25
100
AcDbLine
 10
4308.16010042464
 20
361.2584624765447
 30
0.0
 11
4302.51066008392
 21
364.78392890002
 31
0.0
  0
LINE
  5
1096
330
1F
100
AcDbEntity
  8
SPOJOVACÍ
 48
0.25
100
AcDbLine
 10
4308.160100424636
 20
368.3093953234945
 30
0.0
 11
4302.51066008392
 21
364.78392890002
 31
0.0
  0
LINE
  5
1097
330
1F
100
AcDbEntity
  8
SPOJOVACÍ
  6
CIKCAK
 48
0.25
100
AcDbLine
 10
4355.624486239973
 20
368.3093953234945
 30
0.0
 11
4308.160100424636
 21
368.3093953234945
 31
0.0
  0
LINE
  5
1098
330
1F
100
AcDbEntity
  8
SPOJOVACÍ
100
AcDbLine
 10
4359.994991517644
 20
371.5339289000201
 30
0.0
 11
4359.994991517644
 21
358.0339289000201
 31
0.0
  0
LINE
  5
1099
330
1F
100
AcDbEntity
  8
SPOJOVACÍ
  6
Continuous
100
AcDbLine
 10
4341.824119090252
 20
367.6300052229405
 30
0.0
 11
4340.401080928794
 21
361.9378525770978
 31
0.0
  0
LINE
  5
109A
330
1F
100
AcDbEntity
  8
SPOJOVACÍ
  6
Continuous
100
AcDbLine
 10
4341.824119090252
 20
367.6300052229405
 30
0.0
 11
4341.565986586716
 21
367.1821342950331
 31
0.0
  0
LINE
  5
109B
330
1F
100
AcDbEntity
  8
SPOJOVACÍ
  6
Continuous
100
AcDbLine
 10
4341.824119090252
 20
367.6300052229405
 30
0.0
 11
4342.273093146141
 21
367.1821342950331
 31
0.0
  0
LINE
  5
109C
330
1F
100
AcDbEntity
  8
SPOJOVACÍ
  6
Continuous
100
AcDbLine
 10
4340.401080928794
 20
361.9378525770978
 30
0.0
 11
4339.953210003474
 21
362.3857234998283
 31
0.0
  0
LINE
  5
109D
330
1F
100
AcDbEntity
  8
SPOJOVACÍ
  6
Continuous
100
AcDbLine
 10
4340.401080928794
 20
361.9378525770978
 30
0.0
 11
4340.660316562895
 21
362.3857234998283
 31
0.0
  0
LINE
  5
109E
330
1F
100
AcDbEntity
  8
SPOJOVACÍ
  6
Continuous
100
AcDbLine
 10
4341.565986586716
 20
367.1821342950331
 30
0.0
 11
4339.953210003474
 21
362.3857234998283
 31
0.0
  0
LINE
  5
109F
330
1F
100
AcDbEntity
  8
SPOJOVACÍ
  6
Continuous
100
AcDbLine
 10
4342.273093146141
 20
367.1821342950331
 30
0.0
 11
4340.660316562895
 21
362.3857234998283
 31
0.0
  0
LINE
  5
10A0
330
1F
100
AcDbEntity
  8
SPOJOVACÍ
  6
Continuous
100
AcDbLine
 10
4345.220109004502
 20
367.6300052229405
 30
0.0
 11
4343.797070843044
 21
361.9378525770978
 31
0.0
  0
LINE
  5
10A1
330
1F
100
AcDbEntity
  8
SPOJOVACÍ
  6
Continuous
100
AcDbLine
 10
4345.220109004502
 20
367.6300052229405
 30
0.0
 11
4344.961976500966
 21
367.1821342950331
 31
0.0
  0
LINE
  5
10A2
330
1F
100
AcDbEntity
  8
SPOJOVACÍ
  6
Continuous
100
AcDbLine
 10
4345.220109004502
 20
367.6300052229405
 30
0.0
 11
4345.669083060391
 21
367.1821342950331
 31
0.0
  0
LINE
  5
10A3
330
1F
100
AcDbEntity
  8
SPOJOVACÍ
  6
Continuous
100
AcDbLine
 10
4343.797070843044
 20
361.9378525770978
 30
0.0
 11
4343.349199917724
 21
362.3857234998283
 31
0.0
  0
LINE
  5
10A4
330
1F
100
AcDbEntity
  8
SPOJOVACÍ
  6
Continuous
100
AcDbLine
 10
4343.797070843044
 20
361.9378525770978
 30
0.0
 11
4344.056306477145
 21
362.3857234998283
 31
0.0
  0
LINE
  5
10A5
330
1F
100
AcDbEntity
  8
SPOJOVACÍ
  6
Continuous
100
AcDbLine
 10
4344.961976500966
 20
367.1821342950331
 30
0.0
 11
4343.349199917724
 21
362.3857234998283
 31
0.0
  0
LINE
  5
10A6
330
1F
100
AcDbEntity
  8
SPOJOVACÍ
  6
Continuous
100
AcDbLine
 10
4345.669083060391
 20
367.1821342950331
 30
0.0
 11
4344.056306477145
 21
362.3857234998283
 31
0.0
  0
LINE
  5
10A7
330
1F
100
AcDbEntity
  8
SPOJOVACÍ
  6
Continuous
100
AcDbLine
 10
4338.87710323189
 20
367.1821342950331
 30
0.0
 11
4337.264326648645
 21
362.3857234998283
 31
0.0
  0
LINE
  5
10A8
330
1F
100
AcDbEntity
  8
SPOJOVACÍ
  6
Continuous
100
AcDbLine
 10
4338.169996672466
 20
367.1821342950331
 30
0.0
 11
4336.557220089224
 21
362.3857234998283
 31
0.0
  0
LINE
  5
10A9
330
1F
100
AcDbEntity
  8
SPOJOVACÍ
  6
Continuous
100
AcDbLine
 10
4337.005091014543
 20
361.9378525770978
 30
0.0
 11
4337.264326648645
 21
362.3857234998283
 31
0.0
  0
LINE
  5
10AA
330
1F
100
AcDbEntity
  8
SPOJOVACÍ
  6
Continuous
100
AcDbLine
 10
4337.005091014543
 20
361.9378525770978
 30
0.0
 11
4336.557220089224
 21
362.3857234998283
 31
0.0
  0
LINE
  5
10AB
330
1F
100
AcDbEntity
  8
SPOJOVACÍ
  6
Continuous
100
AcDbLine
 10
4338.428129176001
 20
367.6300052229405
 30
0.0
 11
4338.87710323189
 21
367.1821342950331
 31
0.0
  0
LINE
  5
10AC
330
1F
100
AcDbEntity
  8
SPOJOVACÍ
  6
Continuous
100
AcDbLine
 10
4338.428129176001
 20
367.6300052229405
 30
0.0
 11
4338.169996672466
 21
367.1821342950331
 31
0.0
  0
LINE
  5
10AD
330
1F
100
AcDbEntity
  8
SPOJOVACÍ
  6
Continuous
100
AcDbLine
 10
4338.428129176001
 20
367.6300052229405
 30
0.0
 11
4337.005091014543
 21
361.9378525770978
 31
0.0
  0
LINE
  5
10AE
330
1F
100
AcDbEntity
  8
SPOJOVACÍ
  6
Continuous
100
AcDbLine
 10
4335.481113317641
 20
367.1821342950331
 30
0.0
 11
4333.868336734394
 21
362.3857234998283
 31
0.0
  0
LINE
  5
10AF
330
1F
100
AcDbEntity
  8
SPOJOVACÍ
  6
Continuous
100
AcDbLine
 10
4334.774006758216
 20
367.1821342950331
 30
0.0
 11
4333.161230174973
 21
362.3857234998283
 31
0.0
  0
LINE
  5
10B0
330
1F
100
AcDbEntity
  8
SPOJOVACÍ
  6
Continuous
100
AcDbLine
 10
4333.609101100293
 20
361.9378525770978
 30
0.0
 11
4333.868336734394
 21
362.3857234998283
 31
0.0
  0
LINE
  5
10B1
330
1F
100
AcDbEntity
  8
SPOJOVACÍ
  6
Continuous
100
AcDbLine
 10
4333.609101100293
 20
361.9378525770978
 30
0.0
 11
4333.161230174973
 21
362.3857234998283
 31
0.0
  0
LINE
  5
10B2
330
1F
100
AcDbEntity
  8
SPOJOVACÍ
  6
Continuous
100
AcDbLine
 10
4335.032139261751
 20
367.6300052229405
 30
0.0
 11
4335.481113317641
 21
367.1821342950331
 31
0.0
  0
LINE
  5
10B3
330
1F
100
AcDbEntity
  8
SPOJOVACÍ
  6
Continuous
100
AcDbLine
 10
4335.032139261751
 20
367.6300052229405
 30
0.0
 11
4334.774006758216
 21
367.1821342950331
 31
0.0
  0
LINE
  5
10B4
330
1F
100
AcDbEntity
  8
SPOJOVACÍ
  6
Continuous
100
AcDbLine
 10
4335.032139261751
 20
367.6300052229405
 30
0.0
 11
4333.609101100293
 21
361.9378525770978
 31
0.0
  0
LINE
  5
10B5
330
1F
100
AcDbEntity
  8
SPOJOVACÍ
  6
Continuous
100
AcDbLine
 10
4332.08512340339
 20
367.1821342950331
 30
0.0
 11
4330.472346820144
 21
362.3857234998283
 31
0.0
  0
LINE
  5
10B6
330
1F
100
AcDbEntity
  8
SPOJOVACÍ
  6
Continuous
100
AcDbLine
 10
4331.378016843966
 20
367.1821342950331
 30
0.0
 11
4329.765240260723
 21
362.3857234998283
 31
0.0
  0
LINE
  5
10B7
330
1F
100
AcDbEntity
  8
SPOJOVACÍ
  6
Continuous
100
AcDbLine
 10
4330.213111186043
 20
361.9378525770978
 30
0.0
 11
4330.472346820144
 21
362.3857234998283
 31
0.0
  0
LINE
  5
10B8
330
1F
100
AcDbEntity
  8
SPOJOVACÍ
  6
Continuous
100
AcDbLine
 10
4330.213111186043
 20
361.9378525770978
 30
0.0
 11
4329.765240260723
 21
362.3857234998283
 31
0.0
  0
LINE
  5
10B9
330
1F
100
AcDbEntity
  8
SPOJOVACÍ
  6
Continuous
100
AcDbLine
 10
4331.636149347501
 20
367.6300052229405
 30
0.0
 11
4332.08512340339
 21
367.1821342950331
 31
0.0
  0
LINE
  5
10BA
330
1F
100
AcDbEntity
  8
SPOJOVACÍ
  6
Continuous
100
AcDbLine
 10
4331.636149347501
 20
367.6300052229405
 30
0.0
 11
4331.378016843966
 21
367.1821342950331
 31
0.0
  0
LINE
  5
10BB
330
1F
100
AcDbEntity
  8
SPOJOVACÍ
  6
Continuous
100
AcDbLine
 10
4331.636149347501
 20
367.6300052229405
 30
0.0
 11
4330.213111186043
 21
361.9378525770978
 31
0.0
  0
LINE
  5
10BC
330
1F
100
AcDbEntity
  8
SPOJOVACÍ
  6
Continuous
100
AcDbLine
 10
4328.689133489141
 20
367.1821342950331
 30
0.0
 11
4327.076356905894
 21
362.3857234998283
 31
0.0
  0
LINE
  5
10BD
330
1F
100
AcDbEntity
  8
SPOJOVACÍ
  6
Continuous
100
AcDbLine
 10
4327.982026929716
 20
367.1821342950331
 30
0.0
 11
4326.369250346473
 21
362.3857234998283
 31
0.0
  0
LINE
  5
10BE
330
1F
100
AcDbEntity
  8
SPOJOVACÍ
  6
Continuous
100
AcDbLine
 10
4326.817121271793
 20
361.9378525770978
 30
0.0
 11
4327.076356905894
 21
362.3857234998283
 31
0.0
  0
LINE
  5
10BF
330
1F
100
AcDbEntity
  8
SPOJOVACÍ
  6
Continuous
100
AcDbLine
 10
4326.817121271793
 20
361.9378525770978
 30
0.0
 11
4326.369250346473
 21
362.3857234998283
 31
0.0
  0
LINE
  5
10C0
330
1F
100
AcDbEntity
  8
SPOJOVACÍ
  6
Continuous
100
AcDbLine
 10
4328.240159433251
 20
367.6300052229405
 30
0.0
 11
4328.689133489141
 21
367.1821342950331
 31
0.0
  0
LINE
  5
10C1
330
1F
100
AcDbEntity
  8
SPOJOVACÍ
  6
Continuous
100
AcDbLine
 10
4328.240159433251
 20
367.6300052229405
 30
0.0
 11
4327.982026929716
 21
367.1821342950331
 31
0.0
  0
LINE
  5
10C2
330
1F
100
AcDbEntity
  8
SPOJOVACÍ
  6
Continuous
100
AcDbLine
 10
4328.240159433251
 20
367.6300052229405
 30
0.0
 11
4326.817121271793
 21
361.9378525770978
 31
0.0
  0
LINE
  5
10C3
330
1F
100
AcDbEntity
  8
SPOJOVACÍ
  6
Continuous
100
AcDbLine
 10
4325.29314357489
 20
367.1821342950331
 30
0.0
 11
4323.680366991644
 21
362.3857234998283
 31
0.0
  0
LINE
  5
10C4
330
1F
100
AcDbEntity
  8
SPOJOVACÍ
  6
Continuous
100
AcDbLine
 10
4324.586037015466
 20
367.1821342950331
 30
0.0
 11
4322.973260432223
 21
362.3857234998283
 31
0.0
  0
LINE
  5
10C5
330
1F
100
AcDbEntity
  8
SPOJOVACÍ
  6
Continuous
100
AcDbLine
 10
4323.421131357544
 20
361.9378525770978
 30
0.0
 11
4323.680366991644
 21
362.3857234998283
 31
0.0
  0
LINE
  5
10C6
330
1F
100
AcDbEntity
  8
SPOJOVACÍ
  6
Continuous
100
AcDbLine
 10
4323.421131357544
 20
361.9378525770978
 30
0.0
 11
4322.973260432223
 21
362.3857234998283
 31
0.0
  0
LINE
  5
10C7
330
1F
100
AcDbEntity
  8
SPOJOVACÍ
  6
Continuous
100
AcDbLine
 10
4324.844169519002
 20
367.6300052229405
 30
0.0
 11
4325.29314357489
 21
367.1821342950331
 31
0.0
  0
LINE
  5
10C8
330
1F
100
AcDbEntity
  8
SPOJOVACÍ
  6
Continuous
100
AcDbLine
 10
4324.844169519002
 20
367.6300052229405
 30
0.0
 11
4324.586037015466
 21
367.1821342950331
 31
0.0
  0
LINE
  5
10C9
330
1F
100
AcDbEntity
  8
SPOJOVACÍ
  6
Continuous
100
AcDbLine
 10
4324.844169519002
 20
367.6300052229405
 30
0.0
 11
4323.421131357544
 21
361.9378525770978
 31
0.0
  0
LINE
  5
10CA
330
1F
100
AcDbEntity
  8
SPOJOVACÍ
  6
Continuous
100
AcDbLine
 10
4321.89715366064
 20
367.1821342950331
 30
0.0
 11
4320.284377077395
 21
362.3857234998283
 31
0.0
  0
LINE
  5
10CB
330
1F
100
AcDbEntity
  8
SPOJOVACÍ
  6
Continuous
100
AcDbLine
 10
4321.190047101215
 20
367.1821342950331
 30
0.0
 11
4319.577270517974
 21
362.3857234998283
 31
0.0
  0
LINE
  5
10CC
330
1F
100
AcDbEntity
  8
SPOJOVACÍ
  6
Continuous
100
AcDbLine
 10
4320.025141443293
 20
361.9378525770978
 30
0.0
 11
4320.284377077395
 21
362.3857234998283
 31
0.0
  0
LINE
  5
10CD
330
1F
100
AcDbEntity
  8
SPOJOVACÍ
  6
Continuous
100
AcDbLine
 10
4320.025141443293
 20
361.9378525770978
 30
0.0
 11
4319.577270517974
 21
362.3857234998283
 31
0.0
  0
LINE
  5
10CE
330
1F
100
AcDbEntity
  8
SPOJOVACÍ
  6
Continuous
100
AcDbLine
 10
4321.448179604751
 20
367.6300052229405
 30
0.0
 11
4321.89715366064
 21
367.1821342950331
 31
0.0
  0
LINE
  5
10CF
330
1F
100
AcDbEntity
  8
SPOJOVACÍ
  6
Continuous
100
AcDbLine
 10
4321.448179604751
 20
367.6300052229405
 30
0.0
 11
4321.190047101215
 21
367.1821342950331
 31
0.0
  0
LINE
  5
10D0
330
1F
100
AcDbEntity
  8
SPOJOVACÍ
  6
Continuous
100
AcDbLine
 10
4321.448179604751
 20
367.6300052229405
 30
0.0
 11
4320.025141443293
 21
361.9378525770978
 31
0.0
  0
LINE
  5
10D1
330
1F
100
AcDbEntity
  8
SPOJOVACÍ
  6
Continuous
100
AcDbLine
 10
4318.052189690501
 20
367.6300052229405
 30
0.0
 11
4316.629151529043
 21
361.9378525770978
 31
0.0
  0
LINE
  5
10D2
330
1F
100
AcDbEntity
  8
SPOJOVACÍ
  6
Continuous
100
AcDbLine
 10
4318.052189690501
 20
367.6300052229405
 30
0.0
 11
4317.794057186966
 21
367.1821342950331
 31
0.0
  0
LINE
  5
10D3
330
1F
100
AcDbEntity
  8
SPOJOVACÍ
  6
Continuous
100
AcDbLine
 10
4318.052189690501
 20
367.6300052229405
 30
0.0
 11
4318.50116374639
 21
367.1821342950331
 31
0.0
  0
LINE
  5
10D4
330
1F
100
AcDbEntity
  8
SPOJOVACÍ
  6
Continuous
100
AcDbLine
 10
4316.629151529043
 20
361.9378525770978
 30
0.0
 11
4316.181280603723
 21
362.3857234998283
 31
0.0
  0
LINE
  5
10D5
330
1F
100
AcDbEntity
  8
SPOJOVACÍ
  6
Continuous
100
AcDbLine
 10
4316.629151529043
 20
361.9378525770978
 30
0.0
 11
4316.888387163144
 21
362.3857234998283
 31
0.0
  0
LINE
  5
10D6
330
1F
100
AcDbEntity
  8
SPOJOVACÍ
  6
Continuous
100
AcDbLine
 10
4317.794057186966
 20
367.1821342950331
 30
0.0
 11
4316.181280603723
 21
362.3857234998283
 31
0.0
  0
LINE
  5
10D7
330
1F
100
AcDbEntity
  8
SPOJOVACÍ
  6
Continuous
100
AcDbLine
 10
4318.50116374639
 20
367.1821342950331
 30
0.0
 11
4316.888387163144
 21
362.3857234998283
 31
0.0
  0
LINE
  5
10D8
330
1F
100
AcDbEntity
  8
SPOJOVACÍ
  6
DASHED
100
AcDbLine
 10
4304.166986648531
 20
364.78392890002
 30
0.0
 11
4316.872246772224
 21
363.0729914000192
 31
0.0
  0
LINE
  5
10D9
330
1F
100
AcDbEntity
  8
SPOJOVACÍ
  6
DASHED
100
AcDbLine
 10
4304.166986648531
 20
364.7839289000192
 30
0.0
 11
4316.872246772224
 21
366.4948664000192
 31
0.0
  0
LINE
  5
10DA
330
1F
100
AcDbEntity
  8
SPOJOVACÍ
  6
DASHED
100
AcDbLine
 10
4316.024171842829
 20
363.0729914000192
 30
0.0
 11
4356.812357215065
 21
363.0729914000192
 31
0.0
  0
LINE
  5
10DB
330
1F
100
AcDbEntity
  8
SPOJOVACÍ
  6
DASHED
100
AcDbLine
 10
4316.024171842829
 20
366.4948664000192
 30
0.0
 11
4356.812357215068
 21
366.4948664000192
 31
0.0
  0
LINE
  5
10DC
330
1F
100
AcDbEntity
  8
SPOJOVACÍ
  6
Continuous
100
AcDbLine
 10
4315.10517383214
 20
367.1821342950331
 30
0.0
 11
4313.492397248894
 21
362.3857234998283
 31
0.0
  0
LINE
  5
10DD
330
1F
100
AcDbEntity
  8
SPOJOVACÍ
  6
Continuous
100
AcDbLine
 10
4314.398067272716
 20
367.1821342950331
 30
0.0
 11
4312.785290689473
 21
362.3857234998283
 31
0.0
  0
LINE
  5
10DE
330
1F
100
AcDbEntity
  8
SPOJOVACÍ
  6
Continuous
100
AcDbLine
 10
4313.233161614792
 20
361.9378525770978
 30
0.0
 11
4313.492397248894
 21
362.3857234998283
 31
0.0
  0
LINE
  5
10DF
330
1F
100
AcDbEntity
  8
SPOJOVACÍ
  6
Continuous
100
AcDbLine
 10
4313.233161614792
 20
361.9378525770978
 30
0.0
 11
4312.785290689473
 21
362.3857234998283
 31
0.0
  0
LINE
  5
10E0
330
1F
100
AcDbEntity
  8
SPOJOVACÍ
  6
Continuous
100
AcDbLine
 10
4314.65619977625
 20
367.6300052229405
 30
0.0
 11
4315.10517383214
 21
367.1821342950331
 31
0.0
  0
LINE
  5
10E1
330
1F
100
AcDbEntity
  8
SPOJOVACÍ
  6
Continuous
100
AcDbLine
 10
4314.65619977625
 20
367.6300052229405
 30
0.0
 11
4314.398067272716
 21
367.1821342950331
 31
0.0
  0
LINE
  5
10E2
330
1F
100
AcDbEntity
  8
SPOJOVACÍ
  6
Continuous
100
AcDbLine
 10
4314.65619977625
 20
367.6300052229405
 30
0.0
 11
4313.233161614792
 21
361.9378525770978
 31
0.0
  0
LINE
  5
10E3
330
1F
100
AcDbEntity
  8
SPOJOVACÍ
  6
Continuous
100
AcDbLine
 10
4305.173355485174
 20
365.8323823588805
 30
0.0
 11
4304.852968059531
 21
363.6107737442532
 31
0.0
  0
LINE
  5
10E4
330
1F
100
AcDbEntity
  8
SPOJOVACÍ
  6
Continuous
100
AcDbLine
 10
4305.56280846371
 20
365.4429293825931
 30
0.0
 11
4305.077431106361
 21
364.0002267205407
 31
0.0
  0
LINE
  5
10E5
330
1F
100
AcDbEntity
  8
SPOJOVACÍ
  6
Continuous
100
AcDbLine
 10
4304.947933194653
 20
365.4429293825931
 30
0.0
 11
4304.462555837297
 21
364.0002267205407
 31
0.0
  0
LINE
  5
10E6
330
1F
100
AcDbEntity
  8
SPOJOVACÍ
  6
Continuous
100
AcDbLine
 10
4304.852968059531
 20
363.6107737442532
 30
0.0
 11
4305.077431106361
 21
364.0002267205407
 31
0.0
  0
LINE
  5
10E7
330
1F
100
AcDbEntity
  8
SPOJOVACÍ
  6
Continuous
100
AcDbLine
 10
4304.852968059531
 20
363.6107737442532
 30
0.0
 11
4304.462555837297
 21
364.0002267205407
 31
0.0
  0
LINE
  5
10E8
330
1F
100
AcDbEntity
  8
SPOJOVACÍ
  6
Continuous
100
AcDbLine
 10
4305.173355485174
 20
365.8323823588805
 30
0.0
 11
4305.56280846371
 21
365.4429293825931
 31
0.0
  0
LINE
  5
10E9
330
1F
100
AcDbEntity
  8
SPOJOVACÍ
  6
Continuous
100
AcDbLine
 10
4305.173355485174
 20
365.8323823588805
 30
0.0
 11
4304.947933194653
 21
365.4429293825931
 31
0.0
  0
LINE
  5
10EA
330
1F
100
AcDbEntity
  8
SPOJOVACÍ
  6
Continuous
100
AcDbLine
 10
4308.281305362816
 20
366.4146433415542
 30
0.0
 11
4307.628060342397
 21
363.2011766464845
 31
0.0
  0
LINE
  5
10EB
330
1F
100
AcDbEntity
  8
SPOJOVACÍ
  6
Continuous
100
AcDbLine
 10
4308.67171758533
 20
366.0251903607647
 30
0.0
 11
4307.852523388945
 21
363.5906296227719
 31
0.0
  0
LINE
  5
10EC
330
1F
100
AcDbEntity
  8
SPOJOVACÍ
  6
Continuous
100
AcDbLine
 10
4308.056842316266
 20
366.0251903607647
 30
0.0
 11
4307.237648120167
 21
363.5906296227719
 31
0.0
  0
LINE
  5
10ED
330
1F
100
AcDbEntity
  8
SPOJOVACÍ
  6
Continuous
100
AcDbLine
 10
4307.628060342397
 20
363.2011766464845
 30
0.0
 11
4307.852523388945
 21
363.5906296227719
 31
0.0
  0
LINE
  5
10EE
330
1F
100
AcDbEntity
  8
SPOJOVACÍ
  6
Continuous
100
AcDbLine
 10
4307.628060342397
 20
363.2011766464845
 30
0.0
 11
4307.237648120167
 21
363.5906296227719
 31
0.0
  0
LINE
  5
10EF
330
1F
100
AcDbEntity
  8
SPOJOVACÍ
  6
Continuous
100
AcDbLine
 10
4308.281305362816
 20
366.4146433415542
 30
0.0
 11
4308.67171758533
 21
366.0251903607647
 31
0.0
  0
LINE
  5
10F0
330
1F
100
AcDbEntity
  8
SPOJOVACÍ
  6
Continuous
100
AcDbLine
 10
4308.281305362816
 20
366.4146433415542
 30
0.0
 11
4308.056842316266
 21
366.0251903607647
 31
0.0
  0
LINE
  5
10F1
330
1F
100
AcDbEntity
  8
SPOJOVACÍ
  6
Continuous
100
AcDbLine
 10
4311.390214484435
 20
366.9969043197259
 30
0.0
 11
4310.386845480807
 21
362.7426581153347
 31
0.0
  0
LINE
  5
10F2
330
1F
100
AcDbEntity
  8
SPOJOVACÍ
  6
Continuous
100
AcDbLine
 10
4311.779667462975
 20
366.6064920980577
 30
0.0
 11
4310.611308527358
 21
363.1321110916221
 31
0.0
  0
LINE
  5
10F3
330
1F
100
AcDbEntity
  8
SPOJOVACÍ
  6
Continuous
100
AcDbLine
 10
4311.164792193907
 20
366.6064920980577
 30
0.0
 11
4309.996433258294
 21
363.1321110916221
 31
0.0
  0
LINE
  5
10F4
330
1F
100
AcDbEntity
  8
SPOJOVACÍ
  6
Continuous
100
AcDbLine
 10
4310.386845480807
 20
362.7426581153347
 30
0.0
 11
4310.611308527358
 21
363.1321110916221
 31
0.0
  0
LINE
  5
10F5
330
1F
100
AcDbEntity
  8
SPOJOVACÍ
  6
Continuous
100
AcDbLine
 10
4310.386845480807
 20
362.7426581153347
 30
0.0
 11
4309.996433258294
 21
363.1321110916221
 31
0.0
  0
LINE
  5
10F6
330
1F
100
AcDbEntity
  8
SPOJOVACÍ
  6
Continuous
100
AcDbLine
 10
4311.390214484435
 20
366.9969043197259
 30
0.0
 11
4311.779667462975
 21
366.6064920980577
 31
0.0
  0
LINE
  5
10F7
330
1F
100
AcDbEntity
  8
SPOJOVACÍ
  6
Continuous
100
AcDbLine
 10
4311.390214484435
 20
366.9969043197259
 30
0.0
 11
4311.164792193907
 21
366.6064920980577
 31
0.0
  0
LINE
  5
10F8
330
1F
100
AcDbEntity
  8
SPOJOVACÍ
  6
DASHDOT2
100
AcDbLine
 10
4371.333454884381
 20
364.78392890002
 30
0.0
 11
4302.927699675413
 21
364.7839289000192
 31
0.0
  0
LINE
  5
10F9
330
1F
100
AcDbEntity
  8
SPOJOVACÍ
100
AcDbLine
 10
4361.436579884113
 20
371.5339289000201
 30
0.0
 11
4361.436579884113
 21
358.0339289000201
 31
0.0
  0
LINE
  5
10FA
330
1F
100
AcDbEntity
  8
SPOJOVACÍ
100
AcDbLine
 10
4361.436579884113
 20
358.0339289000201
 30
0.0
 11
4359.994991517644
 21
358.0339289000201
 31
0.0
  0
LINE
  5
10FB
330
1F
100
AcDbEntity
  8
SPOJOVACÍ
100
AcDbLine
 10
4361.436579884113
 20
371.5339289000201
 30
0.0
 11
4359.994991517644
 21
371.5339289000201
 31
0.0
  0
LINE
  5
10FC
330
1F
100
AcDbEntity
  8
SPOJOVACÍ
100
AcDbLine
 10
4359.994991517644
 20
358.0339289000201
 30
0.0
 11
4360.871902139777
 21
358.0339289000201
 31
0.0
  0
LINE
  5
10FD
330
1F
100
AcDbEntity
  8
SPOJOVACÍ
100
AcDbLine
 10
4359.994991517644
 20
358.0339289000201
 30
0.0
 11
4356.812357215065
 21
363.0729914000192
 31
0.0
  0
LINE
  5
10FE
330
1F
100
AcDbEntity
  8
SPOJOVACÍ
  6
DASHED
100
AcDbLine
 10
4359.994991517644
 20
371.5339289000201
 30
0.0
 11
4356.812357215068
 21
366.4948664000192
 31
0.0
  0
LINE
  5
10FF
330
1F
100
AcDbEntity
  8
SPOJOVACÍ
100
AcDbLine
 10
4359.994991517644
 20
371.5339289000201
 30
0.0
 11
4360.871902139777
 21
371.5339289000201
 31
0.0
  0
LINE
  5
1100
330
1F
100
AcDbEntity
  8
SPOJOVACÍ
100
AcDbLine
 10
4360.871902139777
 20
371.5339289000201
 30
0.0
 11
4359.994991517644
 21
371.5339289000201
 31
0.0
  0
LINE
  5
1101
330
1F
100
AcDbEntity
  8
CETRIS
100
AcDbLine
 10
4359.671656072951
 20
402.5438766775776
 30
0.0
 11
4359.671656072954
 21
414.5438766775775
 31
0.0
  0
LINE
  5
1108
330
1F
100
AcDbEntity
  8
CETRIS
100
AcDbLine
 10
4359.671656072954
 20
402.5438766775776
 30
0.0
 11
4768.080659004717
 21
402.5438766775776
 31
0.0
  0
LINE
  5
1109
330
1F
100
AcDbEntity
  8
CETRIS
100
AcDbLine
 10
4359.671656072954
 20
414.5438766775775
 30
0.0
 11
4768.080659004717
 21
414.5438766775775
 31
0.0
  0
LINE
  5
110A
330
1F
100
AcDbEntity
  8
CETRIS
100
AcDbLine
 10
4359.671656072951
 20
314.3116223928279
 30
0.0
 11
4854.612012781763
 21
314.3116223928277
 31
0.0
  0
LINE
  5
110B
330
1F
100
AcDbEntity
  8
CETRIS
100
AcDbLine
 10
4359.671656072951
 20
326.311622392828
 30
0.0
 11
4856.822174060063
 21
326.311622392828
 31
0.0
  0
LINE
  5
110C
330
1F
100
AcDbEntity
  8
NOSNÉ KONSTRUKCE
100
AcDbLine
 10
4793.160443107572
 20
396.4533153222053
 30
0.0
 11
4794.660443107572
 21
396.4533153222053
 31
0.0
  0
LINE
  5
1112
330
1F
100
AcDbEntity
  8
STAVBA OBRYS
100
AcDbLine
 10
4354.453611091765
 20
345.3116223928279
 30
0.0
 11
4354.453611091765
 21
579.0074332248568
 31
0.0
  0
HATCH
  5
1113
330
1F
100
AcDbEntity
  8
STAVBA OBRYS
100
AcDbHatch
 10
0.0
 20
0.0
 30
0.0
210
0.0
220
0.0
230
1.0
  2
AR-CONC
 70
     0
 71
     0
 91
        3
 92
        7
 72
     0
 73
     1
 93
        4
 10
4354.453611091765
 20
579.0074332248566
 10
4341.953611091762
 20
579.0081361880964
 10
4341.953611091762
 20
403.5663996842974
 10
4354.453611091765
 20
408.826120138812
 97
        0
 92
        7
 72
     0
 73
     1
 93
        4
 10
4354.453611091765
 20
345.311622392827
 10
4341.953611091765
 20
350.5713428473443
 10
4341.953611091765
 20
334.5016481353193
 10
4354.453611091762
 20
317.4053491002776
 97
        0
 92
        7
 72
     0
 73
     1
 93
        4
 10
4354.453611091762
 20
317.4053491002794
 10
4341.953611091765
 20
334.5016481353147
 10
4341.953611091765
 20
228.100287407248
 10
4354.453611091762
 20
228.1002874072471
 97
        0
 75
     0
 76
     1
 52
90.0
 41
0.1
 77
     0
 78
    13
 53
140.0
 43
-17490.43604986776
 44
-1485.157730168219
 45
1.593908553890309
 46
18.2184668996004
 79
     2
 49
1.905
 49
-20.955
 53
85.00000000000001
 43
-17490.43604986776
 44
-1485.157730168219
 45
-19.10566428821799
 46
-3.524282597566697
 79
     2
 49
1.524
 49
-16.764
 53
190.4509999999999
 43
-17490.30322486776
 44
-1483.639530168219
 45
-17.51166878202918
 46
14.69425016659592
 79
     2
 49
1.619
 49
-17.809
 53
136.1841999999999
 43
-17495.51604986776
 44
-1485.157730168219
 45
4.204232793272717
 46
27.10790408921299
 79
     2
 49
2.857499999999999
 49
-31.4325
 53
186.6355999999999
 43
-17495.16569986776
 44
-1482.898740168219
 45
-24.74255558900492
 46
23.74042344662371
 79
     2
 49
2.4285
 49
-26.7135
 53
81.18400000000004
 43
-17495.51604986776
 44
-1485.157730168219
 45
-24.74251178605976
 46
23.74046058139339
 79
     2
 49
2.286
 49
-25.146
 53
111.0
 43
-17494.24604986775
 44
-1482.617730168219
 45
10.22655185167625
 46
15.16148798353833
 79
     2
 49
1.905
 49
-20.955
 53
56.00000000000004
 43
-17494.24604986775
 44
-1482.617730168219
 45
-18.41879661223192
 46
6.180202834764708
 79
     2
 49
1.524
 49
-16.764
 53
161.4514
 43
-17493.39383986776
 44
-1481.354280168219
 45
-8.192285771605742
 46
21.34164907701245
 79
     2
 49
1.618999999999997
 49
-17.80899999999995
 53
127.5
 43
-17490.43604986776
 44
-1485.157730168219
 45
-8.455503887315311
 46
0.3088603250591822
 79
     6
 49
0.0
 49
-16.5608
 49
0.0
 49
-17.018
 49
0.0
 49
-16.8275
 53
97.49999999999985
 43
-17490.43604986776
 44
-1485.157730168219
 45
-10.01805748181195
 46
6.681966251030575
 79
     6
 49
0.0
 49
-9.702799999999998
 49
0.0
 49
-16.17979999999999
 49
0.0
 49
-6.413499999999999
 53
57.5
 43
-17490.43604986776
 44
-1490.821930168219
 45
0.5728743992673473
 46
13.55905951668713
 79
     6
 49
0.0
 49
-6.35
 49
0.0
 49
-19.812
 49
0.0
 49
-26.289
 53
47.5
 43
-17490.43604986776
 44
-1493.361930168219
 45
-2.5426491033333
 46
14.8129181386018
 79
     6
 49
0.0
 49
-8.255
 49
0.0
 49
-13.1572
 49
0.0
 49
-18.669
 47
0.7649822313258392
 98
        3
 10
4348.732614841686
 20
433.7865565209356
 10
4348.732614841686
 20
338.1637768225725
 10
4345.671011561517
 20
300.6796468301943
  0
LINE
  5
1114
330
1F
100
AcDbEntity
  8
SPOJOVACÍ
  6
Continuous
100
AcDbLine
 10
4348.616098917882
 20
367.6300052203521
 30
0.0
 11
4347.193060756424
 21
361.9378525745094
 31
0.0
  0
LINE
  5
1115
330
1F
100
AcDbEntity
  8
SPOJOVACÍ
  6
Continuous
100
AcDbLine
 10
4348.616098917882
 20
367.6300052203521
 30
0.0
 11
4348.357966414346
 21
367.1821342924447
 31
0.0
  0
LINE
  5
1116
330
1F
100
AcDbEntity
  8
SPOJOVACÍ
  6
Continuous
100
AcDbLine
 10
4348.616098917882
 20
367.6300052203521
 30
0.0
 11
4349.065072973771
 21
367.1821342924447
 31
0.0
  0
LINE
  5
1117
330
1F
100
AcDbEntity
  8
SPOJOVACÍ
  6
Continuous
100
AcDbLine
 10
4347.193060756424
 20
361.9378525745094
 30
0.0
 11
4346.745189831104
 21
362.3857234972399
 31
0.0
  0
LINE
  5
1118
330
1F
100
AcDbEntity
  8
SPOJOVACÍ
  6
Continuous
100
AcDbLine
 10
4347.193060756424
 20
361.9378525745094
 30
0.0
 11
4347.452296390525
 21
362.3857234972399
 31
0.0
  0
LINE
  5
1119
330
1F
100
AcDbEntity
  8
SPOJOVACÍ
  6
Continuous
100
AcDbLine
 10
4348.357966414346
 20
367.1821342924447
 30
0.0
 11
4346.745189831104
 21
362.3857234972399
 31
0.0
  0
LINE
  5
111A
330
1F
100
AcDbEntity
  8
SPOJOVACÍ
  6
Continuous
100
AcDbLine
 10
4349.065072973771
 20
367.1821342924447
 30
0.0
 11
4347.452296390525
 21
362.3857234972399
 31
0.0
  0
LINE
  5
111B
330
1F
100
AcDbEntity
  8
SPOJOVACÍ
  6
Continuous
100
AcDbLine
 10
4355.857052802272
 20
367.1821342924447
 30
0.0
 11
4354.244276219025
 21
362.3857234972399
 31
0.0
  0
LINE
  5
111C
330
1F
100
AcDbEntity
  8
SPOJOVACÍ
  6
Continuous
100
AcDbLine
 10
4355.149946242847
 20
367.1821342924447
 30
0.0
 11
4353.537169659605
 21
362.3857234972399
 31
0.0
  0
LINE
  5
111D
330
1F
100
AcDbEntity
  8
SPOJOVACÍ
  6
Continuous
100
AcDbLine
 10
4353.985040584925
 20
361.9378525745094
 30
0.0
 11
4354.244276219025
 21
362.3857234972399
 31
0.0
  0
LINE
  5
111E
330
1F
100
AcDbEntity
  8
SPOJOVACÍ
  6
Continuous
100
AcDbLine
 10
4353.985040584925
 20
361.9378525745094
 30
0.0
 11
4353.537169659605
 21
362.3857234972399
 31
0.0
  0
LINE
  5
111F
330
1F
100
AcDbEntity
  8
SPOJOVACÍ
  6
Continuous
100
AcDbLine
 10
4355.408078746382
 20
367.6300052203521
 30
0.0
 11
4355.857052802272
 21
367.1821342924447
 31
0.0
  0
LINE
  5
1120
330
1F
100
AcDbEntity
  8
SPOJOVACÍ
  6
Continuous
100
AcDbLine
 10
4355.408078746382
 20
367.6300052203521
 30
0.0
 11
4355.149946242847
 21
367.1821342924447
 31
0.0
  0
LINE
  5
1121
330
1F
100
AcDbEntity
  8
SPOJOVACÍ
  6
Continuous
100
AcDbLine
 10
4355.408078746382
 20
367.6300052203521
 30
0.0
 11
4353.985040584925
 21
361.9378525745094
 31
0.0
  0
LINE
  5
1122
330
1F
100
AcDbEntity
  8
SPOJOVACÍ
  6
Continuous
100
AcDbLine
 10
4352.461062888021
 20
367.1821342924447
 30
0.0
 11
4350.848286304776
 21
362.3857234972399
 31
0.0
  0
LINE
  5
1123
330
1F
100
AcDbEntity
  8
SPOJOVACÍ
  6
Continuous
100
AcDbLine
 10
4351.753956328597
 20
367.1821342924447
 30
0.0
 11
4350.141179745355
 21
362.3857234972399
 31
0.0
  0
LINE
  5
1124
330
1F
100
AcDbEntity
  8
SPOJOVACÍ
  6
Continuous
100
AcDbLine
 10
4350.589050670675
 20
361.9378525745094
 30
0.0
 11
4350.848286304776
 21
362.3857234972399
 31
0.0
  0
LINE
  5
1125
330
1F
100
AcDbEntity
  8
SPOJOVACÍ
  6
Continuous
100
AcDbLine
 10
4350.589050670675
 20
361.9378525745094
 30
0.0
 11
4350.141179745355
 21
362.3857234972399
 31
0.0
  0
LINE
  5
1126
330
1F
100
AcDbEntity
  8
SPOJOVACÍ
  6
Continuous
100
AcDbLine
 10
4352.012088832132
 20
367.6300052203521
 30
0.0
 11
4352.461062888021
 21
367.1821342924447
 31
0.0
  0
LINE
  5
1127
330
1F
100
AcDbEntity
  8
SPOJOVACÍ
  6
Continuous
100
AcDbLine
 10
4352.012088832132
 20
367.6300052203521
 30
0.0
 11
4351.753956328597
 21
367.1821342924447
 31
0.0
  0
LINE
  5
1128
330
1F
100
AcDbEntity
  8
SPOJOVACÍ
  6
Continuous
100
AcDbLine
 10
4352.012088832132
 20
367.6300052203521
 30
0.0
 11
4350.589050670675
 21
361.9378525745094
 31
0.0
  0
HATCH
  5
1129
330
1F
100
AcDbEntity
  8
STAVBA OBRYS
100
AcDbHatch
 10
0.0
 20
0.0
 30
0.0
210
0.0
220
0.0
230
1.0
  2
BRICK
 70
     0
 71
     0
 91
        1
 92
        7
 72
     0
 73
     1
 93
       10
 10
4341.953611091765
 20
579.0081361880964
 10
4177.61978264436
 20
579.0173778393234
 10
4177.61978264436
 20
228.1002874072471
 10
4341.953611091765
 20
228.100287407248
 10
4341.953611091769
 20
334.5016481353147
 10
4313.250897231916
 20
373.7584624765447
 10
4295.660100424639
 20
373.7584624765447
 10
4290.010660083921
 20
377.2839289000219
 10
4295.660100424636
 20
380.8093953234945
 10
4341.953611091762
 20
380.8093953234945
 97
        0
 75
     0
 76
     1
 52
0.0
 41
10.0
 77
     0
 78
     3
 53
0.0
 43
-17490.43604986776
 44
-1485.157730168219
 45
0.0
 46
63.5
 79
     0
 53
90.0
 43
-17490.43604986776
 44
-1485.157730168219
 45
-127.0
 46
0.0000000000000078
 79
     2
 49
63.5
 49
-63.5
 53
90.0
 43
-17426.93604986776
 44
-1485.157730168219
 45
-127.0
 46
0.0000000000000078
 79
     2
 49
-63.5
 49
63.5
 47
1.934738201277294
 98
        1
 10
4259.873858405015
 20
394.9057624904951
  0
HATCH
  5
112E
330
1F
100
AcDbEntity
  8
STAVBA OBRYS
100
AcDbHatch
 10
0.0
 20
0.0
 30
0.0
210
0.0
220
0.0
230
1.0
  2
AR-CONC
 70
     0
 71
     0
 91
        2
 92
        7
 72
     0
 73
     1
 93
        4
 10
4354.453611091769
 20
407.4057379873736
 10
4341.953611091765
 20
407.4057379873736
 10
4341.953611091765
 20
380.8093953234945
 10
4354.453611091762
 20
380.8093953234945
 97
        0
 92
        7
 72
     0
 73
     1
 93
        5
 10
4354.453611091762
 20
373.7584624765456
 10
4341.953611091765
 20
373.7584624765447
 10
4341.953611091765
 20
351.597947170361
 10
4346.549872514079
 20
345.3116223928279
 10
4354.453611091765
 20
345.3116223928279
 97
        0
 75
     0
 76
     1
 52
90.0
 41
0.1
 77
     0
 78
    13
 53
140.0
 43
-19187.04978684412
 44
-1073.953400580049
 45
1.593908553890309
 46
18.2184668996004
 79
     2
 49
1.905
 49
-20.955
 53
85.00000000000001
 43
-19187.04978684412
 44
-1073.953400580049
 45
-19.10566428821799
 46
-3.524282597566697
 79
     2
 49
1.524
 49
-16.764
 53
190.4509999999999
 43
-19186.91696184412
 44
-1072.435200580049
 45
-17.51166878202918
 46
14.69425016659592
 79
     2
 49
1.619
 49
-17.809
 53
136.1841999999999
 43
-19192.12978684412
 44
-1073.953400580049
 45
4.204232793272717
 46
27.10790408921299
 79
     2
 49
2.857499999999999
 49
-31.4325
 53
186.6355999999999
 43
-19191.77943684412
 44
-1071.694410580048
 45
-24.74255558900492
 46
23.74042344662371
 79
     2
 49
2.4285
 49
-26.7135
 53
81.18400000000004
 43
-19192.12978684412
 44
-1073.953400580049
 45
-24.74251178605976
 46
23.74046058139339
 79
     2
 49
2.286
 49
-25.146
 53
111.0
 43
-19190.85978684412
 44
-1071.413400580049
 45
10.22655185167625
 46
15.16148798353833
 79
     2
 49
1.905
 49
-20.955
 53
56.00000000000004
 43
-19190.85978684412
 44
-1071.413400580049
 45
-18.41879661223192
 46
6.180202834764708
 79
     2
 49
1.524
 49
-16.764
 53
161.4514
 43
-19190.00757684412
 44
-1070.149950580048
 45
-8.192285771605742
 46
21.34164907701245
 79
     2
 49
1.618999999999997
 49
-17.80899999999995
 53
127.5
 43
-19187.04978684412
 44
-1073.953400580049
 45
-8.455503887315311
 46
0.3088603250591822
 79
     6
 49
0.0
 49
-16.5608
 49
0.0
 49
-17.018
 49
0.0
 49
-16.8275
 53
97.49999999999985
 43
-19187.04978684412
 44
-1073.953400580049
 45
-10.01805748181195
 46
6.681966251030575
 79
     6
 49
0.0
 49
-9.702799999999998
 49
0.0
 49
-16.17979999999999
 49
0.0
 49
-6.413499999999999
 53
57.5
 43
-19187.04978684412
 44
-1079.617600580049
 45
0.5728743992673473
 46
13.55905951668713
 79
     6
 49
0.0
 49
-6.35
 49
0.0
 49
-19.812
 49
0.0
 49
-26.289
 53
47.5
 43
-19187.04978684412
 44
-1082.157600580049
 45
-2.5426491033333
 46
14.8129181386018
 79
     6
 49
0.0
 49
-8.255
 49
0.0
 49
-13.1572
 49
0.0
 49
-18.669
 47
0.2050603234176583
 98
        2
 10
4349.379341939049
 20
397.0778209767593
 10
4349.379341939049
 20
364.2681542709467
  0
TEXT
  5
15B2
330
1F
100
AcDbEntity
  8
POPIS
100
AcDbText
 10
4155.488410504953
 20
688.1063873594484
 30
0.0
 40
45.0
  1
Požárně dělící příčka (stěna) - jednovrstvé opláštění
 41
0.7
  7
SIMPLEX7
100
AcDbText
  0
LINE
  5
1B16
330
1F
100
AcDbEntity
  8
POPIS
100
AcDbLine
 10
4849.037640727154
 20
284.0457475392268
 30
0.0
 11
4877.634804859088
 21
439.3131359205526
 31
0.0
  0
LINE
  5
1B1B
330
1F
100
AcDbEntity
  8
NOSNÉ KONSTRUKCE
100
AcDbLine
 10
4359.74740078155
 20
389.1157560204553
 30
0.0
 11
4868.389446081811
 21
389.1157560204553
 31
0.0
  0
LINE
  5
1B1C
330
1F
100
AcDbEntity
  8
NOSNÉ KONSTRUKCE
  6
DASHED
100
AcDbLine
 10
4359.74740078155
 20
381.6176210026394
 30
0.0
 11
4867.00843877549
 21
381.6176210026394
 31
0.0
  0
LINE
  5
1B1D
330
1F
100
AcDbEntity
  8
NOSNÉ KONSTRUKCE
  6
DASHED
100
AcDbLine
 10
4359.74740078155
 20
347.6162007113041
 30
0.0
 11
4860.746053564231
 21
347.6162007113041
 31
0.0
  0
LINE
  5
1B1E
330
1F
100
AcDbEntity
  8
NOSNÉ KONSTRUKCE
100
AcDbLine
 10
4359.74740078155
 20
339.4500055115347
 30
0.0
 11
4859.242002862433
 21
339.4500055115347
 31
0.0
  0
HATCH
  5
1D9F
330
1F
100
AcDbEntity
  8
izolace
100
AcDbHatch
 10
0.0
 20
0.0
 30
0.0
210
0.0
220
0.0
230
1.0
  2
AR-SAND
 70
     0
 71
     0
 91
        2
 92
        1
 93
        4
 72
     1
 10
4359.671656072954
 20
414.5438766775775
 11
4354.453611091765
 21
414.5438766775775
 72
     1
 10
4354.453611091765
 20
414.5438766775775
 11
4354.453611091765
 21
402.5438766775776
 72
     1
 10
4354.453611091765
 20
402.5438766775776
 11
4359.671656072954
 21
402.5438766775776
 72
     1
 10
4359.671656072954
 20
402.5438766775776
 11
4359.671656072954
 21
414.5438766775775
 97
        0
 92
        1
 93
        4
 72
     1
 10
4359.671656072954
 20
314.3116223928279
 11
4354.453611091765
 21
314.3116223928279
 72
     1
 10
4354.453611091765
 20
314.3116223928279
 11
4354.453611091765
 21
326.311622392828
 72
     1
 10
4354.453611091765
 20
326.311622392828
 11
4359.671656072954
 21
326.311622392828
 72
     1
 10
4359.671656072954
 20
326.311622392828
 11
4359.671656072954
 21
314.3116223928279
 97
        0
 75
     0
 76
     1
 52
90.0
 41
0.05
 77
     0
 78
     4
 53
127.5
 43
4307.278320019957
 44
0.0
 45
-2.447066186646711
 46
-0.0800015647992021
 79
     6
 49
0.0
 49
-1.9304
 49
0.0
 49
-2.159
 49
0.0
 49
-2.06375
 53
97.49999999999998
 43
4307.278320019957
 44
0.0
 45
-3.584125502841771
 46
2.247616415690013
 79
     6
 49
0.0
 49
-1.0414
 49
0.0
 49
-1.7399
 49
0.0
 49
-0.6667500000000001
 53
57.5
 43
4307.278320019957
 44
-1.5621
 45
-0.0071859233927282
 46
3.95496185120729
 79
     6
 49
0.0
 49
-0.635
 49
0.0
 49
-2.286
 49
0.0
 49
-2.9845
 53
47.5
 43
4307.278320019957
 44
-1.5621
 45
-1.11464661628608
 46
3.817782262361486
 79
     6
 49
0.0
 49
-0.3175
 49
0.0
 49
-1.498599999999999
 49
0.0
 49
-1.7145
 98
        1
 10
4307.278320019957
 20
0.0
  0
HATCH
  5
1DA6
330
1F
100
AcDbEntity
  8
NOSNÉ KONSTRUKCE
100
AcDbHatch
 10
0.0
 20
0.0
 30
0.0
210
0.0
220
0.0
230
1.0
  2
SOLID
 70
     1
 71
     0
 91
        1
 92
        7
 72
     1
 73
     1
 93
       60
 10
4358.449418837856
 20
381.6396521938917
 42
0.0
 10
4358.449418837856
 20
347.2466581594368
 42
-0.3073346934841183
 10
4359.614060957876
 20
345.5053479431243
 42
0.0
 10
4359.614060957876
 20
341.6868361659434
 42
-0.307334693483106
 10
4358.449418837856
 20
339.9455259496379
 42
0.0
 10
4358.449418837856
 20
329.4465918496146
 42
0.4142135623730951
 10
4360.449418837855
 20
327.4465918496148
 42
0.0
 10
4368.648272199362
 20
327.4465918496148
 42
-0.7595816512230912
 10
4372.239714367117
 20
327.4465918496145
 42
0.0
 10
4381.415583771677
 20
327.4465918496188
 42
-0.7595816493590427
 10
4385.007025972395
 20
327.4465918496148
 42
0.0
 10
4394.182893343173
 20
327.4465918496148
 42
-0.7767342353201953
 10
4397.794351927402
 20
327.3686346667875
 42
0.0
 10
4404.362461163876
 20
327.3686346667878
 42
0.4142135623730868
 10
4406.362461163877
 20
329.3686346667874
 42
0.0
 10
4406.362461163877
 20
332.1939604584826
 42
0.0
 10
4405.362461163877
 20
332.1939604584827
 42
0.0
 10
4405.362461163877
 20
329.3686346667878
 42
-0.4142135623730951
 10
4404.362461163876
 20
328.3686346667877
 42
0.0
 10
4398.464765116778
 20
328.3686346667877
 42
0.5694936494219963
 10
4393.538819733279
 20
328.4465918496148
 42
0.0
 10
4385.651101556326
 20
328.4465918496148
 42
0.5590616644338513
 10
4380.771508187747
 20
328.4465918496184
 42
0.0
 10
4372.883789951639
 20
328.4465918496148
 42
0.5590616643157284
 10
4368.004196614839
 20
328.4465918496148
 42
0.0
 10
4360.449418837855
 20
328.4465918496148
 42
-0.4142135623731451
 10
4359.449418837856
 20
329.4465918496146
 42
0.0
 10
4359.449418837856
 20
339.3795960404387
 42
0.2364174637114482
 10
4360.604877924306
 20
341.6614456974525
 42
0.0
 10
4360.604877924306
 20
345.5307384116206
 42
0.2364174637115772
 10
4359.449418837856
 20
347.8125880686359
 42
0.0
 10
4359.449418837856
 20
381.0773619445208
 42
0.2353201211467568
 10
4360.594049410216
 20
383.3527774603447
 42
0.0
 10
4360.591833840231
 20
387.222069540188
 42
0.2364174637122881
 10
4359.435068348437
 20
389.5032572033826
 42
0.0
 10
4359.429380676925
 20
399.4362597658167
 42
-0.4142135623730951
 10
4360.428807909634
 20
400.436832205233
 42
0.0
 10
4367.983584448106
 20
400.441158096325
 42
0.5590616643157161
 10
4372.86317698496
 20
400.4439521678347
 42
0.0
 10
4380.750893927976
 20
400.4484687017465
 42
0.5590616644338511
 10
4385.630486496608
 20
400.451262773278
 42
0.0
 10
4393.51820338047
 20
400.4557793071596
 42
0.5694936494220229
 10
4398.444103317877
 20
400.5365570900537
 42
0.0
 10
4404.341798398124
 20
400.5399341305897
 42
-0.4142135623730951
 10
4405.342370837541
 20
399.5405068978808
 42
0.0
 10
4405.343988628565
 20
396.7151815693624
 42
0.0
 10
4406.343988464627
 20
396.7157541727161
 42
0.0
 10
4406.342370673603
 20
399.5410795012348
 42
0.4142135623730618
 10
4404.341225794771
 20
401.5399339666523
 42
0.0
 10
4397.773117635053
 20
401.536173045276
 42
-0.7767342353201953
 10
4394.161704281423
 20
401.4561479419314
 42
0.0
 10
4384.98583841491
 20
401.4508938095012
 42
-0.759581649359043
 10
4381.394396802965
 20
401.4488373376483
 42
0.0
 10
4372.218528902672
 20
401.443583204058
 42
-0.7595816512230912
 10
4368.627087323687
 20
401.4415267322274
 42
0.0
 10
4360.428235306279
 20
401.4368320412956
 42
0.4142135623731117
 10
4358.429380840862
 20
399.4356871624629
 42
0.0
 10
4358.435392565739
 20
388.9367547836066
 42
-0.3073346934834261
 10
4359.601031574901
 20
387.1961117307486
 42
0.0
 10
4359.60321806755
 20
383.3776005795625
 42
-0.3057747226774016
 97
        0
 75
     0
 76
     1
 47
0.1180065091547201
 98
        1
 10
4358.850082715435
 20
372.2782729174634
  0
LINE
  5
1DA7
330
1F
100
AcDbEntity
  8
izolace
100
AcDbLine
 10
4357.950147252086
 20
388.6310524867501
 30
0.0
 11
4357.950147252086
 21
326.5947776306845
 31
0.0
  0
LINE
  5
1DA8
330
1F
100
AcDbEntity
  8
izolace
100
AcDbLine
 10
4355.950147252083
 20
388.6310524867501
 30
0.0
 11
4355.950147252083
 21
326.5947776306845
 31
0.0
  0
HATCH
  5
1DA9
330
1F
100
AcDbEntity
  8
izolace
100
AcDbHatch
 10
0.0
 20
0.0
 30
0.0
210
0.0
220
0.0
230
1.0
  2
SOLID
 70
     1
 71
     0
 91
        4
 92
        7
 72
     0
 73
     1
 93
        4
 10
4357.950147252086
 20
401.1321294937249
 10
4357.950147252086
 20
388.6310524867501
 10
4355.950147252083
 20
388.6310524867501
 10
4355.950147252083
 20
401.1321294937249
 97
        0
 92
        7
 72
     0
 73
     1
 93
        4
 10
4357.950147252086
 20
380.9743415721528
 10
4357.950147252088
 20
368.4732645651745
 10
4355.950147252083
 20
368.4732645651745
 10
4355.950147252084
 20
380.9743415721529
 97
        0
 92
        7
 72
     0
 73
     1
 93
        4
 10
4357.950147252086
 20
360.240105550523
 10
4357.950147252088
 20
347.7390285435447
 10
4355.950147252083
 20
347.7390285435447
 10
4355.950147252084
 20
360.2401055505231
 97
        0
 92
        7
 72
     1
 73
     1
 93
        7
 10
4357.471221589967
 20
339.0958546376594
 42
0.0
 10
4357.950147252086
 20
339.0958546376594
 42
0.0
 10
4357.950147252086
 20
326.5947776306845
 42
0.0
 10
4355.950147252083
 20
326.5947776306845
 42
0.0
 10
4355.950147252083
 20
338.8594666434054
 42
0.0
 10
4356.108754624165
 20
339.0958546376594
 42
0.0
 10
4356.184427166154
 20
339.0958546376594
 42
0.2771233679601331
 97
        0
 75
     0
 76
     1
 47
0.1334780420591298
 98
        4
 10
4356.64815814354
 20
395.911353922248
 10
4356.64815814354
 20
380.1492675899398
 10
4356.64815814354
 20
353.1667099537335
 10
4356.64815814354
 20
334.8666588948235
  0
HATCH
  5
1DAA
330
1F
100
AcDbEntity
  8
NOSNÉ KONSTRUKCE
100
AcDbHatch
 10
0.0
 20
0.0
 30
0.0
210
0.0
220
0.0
230
1.0
  2
SOLID
 70
     1
 71
     0
 91
        1
 92
        7
 72
     1
 73
     1
 93
       60
 10
4745.395686132677
 20
381.6396521938917
 42
0.0
 10
4745.395686132677
 20
347.2466581594368
 42
-0.3073346934841183
 10
4746.560328252697
 20
345.5053479431243
 42
0.0
 10
4746.560328252697
 20
341.6868361659434
 42
-0.307334693483106
 10
4745.395686132677
 20
339.9455259496379
 42
0.0
 10
4745.395686132677
 20
329.4465918496146
 42
0.4142135623730951
 10
4747.395686132676
 20
327.4465918496148
 42
0.0
 10
4755.594539494182
 20
327.4465918496148
 42
-0.7595816512230912
 10
4759.185981661938
 20
327.4465918496145
 42
0.0
 10
4768.361851066498
 20
327.4465918496188
 42
-0.7595816493590427
 10
4771.953293267216
 20
327.4465918496148
 42
0.0
 10
4781.129160637994
 20
327.4465918496148
 42
-0.7767342353201953
 10
4784.740619222223
 20
327.3686346667875
 42
0.0
 10
4791.308728458698
 20
327.3686346667878
 42
0.4142135623730868
 10
4793.308728458698
 20
329.3686346667874
 42
0.0
 10
4793.308728458698
 20
332.1939604584826
 42
0.0
 10
4792.308728458698
 20
332.1939604584827
 42
0.0
 10
4792.308728458698
 20
329.3686346667878
 42
-0.4142135623730951
 10
4791.308728458698
 20
328.3686346667877
 42
0.0
 10
4785.411032411599
 20
328.3686346667877
 42
0.5694936494219963
 10
4780.4850870281
 20
328.4465918496148
 42
0.0
 10
4772.597368851148
 20
328.4465918496148
 42
0.5590616644338513
 10
4767.717775482568
 20
328.4465918496184
 42
0.0
 10
4759.830057246461
 20
328.4465918496148
 42
0.5590616643157284
 10
4754.95046390966
 20
328.4465918496148
 42
0.0
 10
4747.395686132676
 20
328.4465918496148
 42
-0.4142135623731451
 10
4746.395686132677
 20
329.4465918496146
 42
0.0
 10
4746.395686132677
 20
339.3795960404387
 42
0.2364174637114482
 10
4747.551145219127
 20
341.6614456974525
 42
0.0
 10
4747.551145219127
 20
345.5307384116206
 42
0.2364174637115772
 10
4746.395686132677
 20
347.8125880686359
 42
0.0
 10
4746.395686132677
 20
381.0773619445208
 42
0.2353201211467568
 10
4747.540316705037
 20
383.3527774603447
 42
0.0
 10
4747.538101135052
 20
387.222069540188
 42
0.2364174637122881
 10
4746.381335643258
 20
389.5032572033826
 42
0.0
 10
4746.375647971746
 20
399.4362597658167
 42
-0.4142135623730951
 10
4747.375075204455
 20
400.436832205233
 42
0.0
 10
4754.929851742927
 20
400.441158096325
 42
0.5590616643157161
 10
4759.809444279782
 20
400.4439521678347
 42
0.0
 10
4767.697161222797
 20
400.4484687017465
 42
0.5590616644338511
 10
4772.576753791429
 20
400.451262773278
 42
0.0
 10
4780.464470675291
 20
400.4557793071596
 42
0.5694936494220229
 10
4785.390370612698
 20
400.5365570900537
 42
0.0
 10
4791.288065692945
 20
400.5399341305897
 42
-0.4142135623730951
 10
4792.288638132362
 20
399.5405068978808
 42
0.0
 10
4792.290255923385
 20
396.7151815693624
 42
0.0
 10
4793.290255759448
 20
396.7157541727161
 42
0.0
 10
4793.288637968424
 20
399.5410795012348
 42
0.4142135623730618
 10
4791.287493089592
 20
401.5399339666523
 42
0.0
 10
4784.719384929874
 20
401.536173045276
 42
-0.7767342353201953
 10
4781.107971576244
 20
401.4561479419314
 42
0.0
 10
4771.932105709731
 20
401.4508938095012
 42
-0.759581649359043
 10
4768.340664097786
 20
401.4488373376483
 42
0.0
 10
4759.164796197493
 20
401.443583204058
 42
-0.7595816512230912
 10
4755.573354618509
 20
401.4415267322274
 42
0.0
 10
4747.3745026011
 20
401.4368320412956
 42
0.4142135623731117
 10
4745.375648135683
 20
399.4356871624629
 42
0.0
 10
4745.38165986056
 20
388.9367547836066
 42
-0.3073346934834261
 10
4746.547298869722
 20
387.1961117307486
 42
0.0
 10
4746.549485362371
 20
383.3776005795625
 42
-0.3057747226774016
 97
        0
 75
     0
 76
     1
 47
0.1180065091547201
 98
        1
 10
4745.796350010257
 20
372.2782729174634
  0
LINE
  5
5174
330
1F
100
AcDbEntity
  8
POPIS
100
AcDbLine
 10
4820.267623444594
 20
474.2045400113126
 30
0.0
 11
4780.617818431459
 21
444.3742083444464
 31
0.0
  0
LINE
  5
5175
330
1F
100
AcDbEntity
  8
POPIS
100
AcDbLine
 10
4780.617818431456
 20
401.5024527816047
 30
0.0
 11
4780.617818431459
 21
444.3742083444464
 31
0.0
  0
INSERT
  5
5176
330
1F
100
AcDbEntity
  8
POPIS
100
AcDbBlockReference
  2
E_PUNKT
 10
4780.360304014779
 20
399.32401884367
 30
0.0
  0
TEXT
  5
5177
330
1F
100
AcDbEntity
  8
POPIS
100
AcDbText
 10
4805.716540692447
 20
478.9056031478365
 30
0.0
 40
25.0
  1
04
 41
0.85
  7
SIMPLEX7
100
AcDbText
  0
LINE
  5
519C
330
1F
100
AcDbEntity
  8
POPIS
100
AcDbLine
 10
4456.923981034832
 20
389.1157560204553
 30
0.0
 11
4456.923981034832
 21
474.2045400113126
 31
0.0
  0
INSERT
  5
519D
330
1F
100
AcDbEntity
  8
POPIS
100
AcDbBlockReference
  2
E_PUNKT
 10
4456.896370659205
 20
389.6050160127968
 30
0.0
  0
HATCH
  5
524A
330
1F
100
AcDbEntity
  8
CETRIS
100
AcDbHatch
 10
0.0
 20
0.0
 30
0.0
210
0.0
220
0.0
230
1.0
  2
ANSI31
 70
     0
 71
     0
 91
        4
 92
        7
 72
     0
 73
     1
 93
       12
 10
4856.822174060063
 20
326.311622392828
 10
4767.391419191802
 20
326.311622392828
 10
4767.014109796238
 20
326.0932290222171
 10
4766.341592697808
 20
325.8670974679632
 10
4766.341592697808
 20
320.9112196639213
 10
4766.56855558869
 20
319.3875917104879
 10
4767.181541437842
 20
317.9737245007834
 10
4768.139622507826
 20
316.7663563178832
 10
4769.376756316725
 20
315.848272807443
 10
4770.092061502892
 20
315.5115491695596
 10
4770.092061502892
 20
314.3116223928278
 10
4854.612012781763
 20
314.3116223928277
 97
        0
 92
        7
 72
     0
 73
     1
 93
       23
 10
4763.576180053151
 20
320.1242909407923
 10
4763.642222535072
 20
320.9112196639098
 10
4763.642222535072
 20
324.9594435632051
 10
4762.969705436645
 20
324.7333120089512
 10
4762.592054061333
 20
325.1118935577814
 10
4762.969705436645
 20
325.3295546938295
 10
4763.642222535072
 20
325.555686248129
 10
4763.642222535071
 20
326.3116223928279
 10
4380.024599496494
 20
326.3116223928279
 10
4379.647290100931
 20
326.093229022217
 10
4378.974773002501
 20
325.8670974679632
 10
4378.974773002501
 20
320.9112196639181
 10
4379.201735893384
 20
319.3875917104874
 10
4379.814721742532
 20
317.9737245007824
 10
4380.772802812517
 20
316.7663563178842
 10
4382.009936621417
 20
315.8482728074425
 10
4382.725241807584
 20
315.5115491695592
 10
4382.725241807584
 20
314.3116223928279
 10
4759.891753725624
 20
314.3116223928278
 10
4759.891753725624
 20
315.5115491695596
 10
4761.241438809175
 20
316.2556898060334
 10
4762.352068709533
 20
317.3244617954448
 10
4763.148299188849
 20
318.6434510737437
 97
        0
 92
        7
 72
     0
 73
     1
 93
        5
 10
4363.813712526489
 20
326.3116223928279
 10
4359.671656072954
 20
326.311622392828
 10
4359.671656072954
 20
314.311622392828
 10
4372.524934030316
 20
314.3116223928281
 10
4372.524934030316
 20
314.741179400891
 97
        0
 92
        7
 72
     0
 73
     1
 93
       14
 10
4376.275402839765
 20
324.9594435632047
 10
4375.602885741336
 20
324.7333120089511
 10
4375.225234366026
 20
325.1118935577814
 10
4375.602885741336
 20
325.3295546938299
 10
4376.275402839765
 20
325.5556862481294
 10
4376.275402839765
 20
326.311622392828
 10
4363.81371252649
 20
326.311622392828
 10
4372.524934030316
 20
314.7411794008908
 10
4372.524934030316
 20
315.5115491695591
 10
4373.874619113867
 20
316.2556898060328
 10
4374.985249014225
 20
317.3244617954455
 10
4375.781479493542
 20
318.6434510737427
 10
4376.209360357844
 20
320.1242909407942
 10
4376.275402839765
 20
320.911219663916
 97
        0
 75
     0
 76
     1
 52
0.0
 41
2.5
 77
     0
 78
     1
 53
45.0
 43
1092.642651509111
 44
0.0
 45
-5.61266007566822
 46
5.612660075668221
 79
     0
 47
0.685800279277527
 98
        4
 10
4787.575284939197
 20
324.1517661281414
 10
4694.237295134966
 20
319.3511683487413
 10
4364.809108906414
 20
317.9795653409273
 10
4372.358508083695
 20
322.0943658657361
  0
TEXT
  5
524D
330
1F
100
AcDbEntity
  8
POPIS
100
AcDbText
 10
4233.862243577326
 20
374.2403713682567
 30
0.0
 40
25.0
  1
07
 41
0.85
  7
SIMPLEX7
100
AcDbText
  0
LINE
  5
524E
330
1F
100
AcDbEntity
  8
POPIS
100
AcDbLine
 10
4273.770736576498
 20
385.0755568177555
 30
0.0
 11
4357.950147252086
 21
385.0755568177555
 31
0.0
  0
INSERT
  5
524F
330
1F
100
AcDbEntity
  8
POPIS
100
AcDbBlockReference
  2
E_PUNKT
 10
4356.044252791476
 20
385.1788623065992
 30
0.0
  0
HATCH
  5
53DF
330
1F
100
AcDbEntity
  8
CETRIS
100
AcDbHatch
 10
0.0
 20
0.0
 30
0.0
210
0.0
220
0.0
230
1.0
  2
ANSI31
 70
     0
 71
     0
 91
        5
 92
        7
 72
     0
 73
     1
 93
       12
 10
4768.080659004717
 20
414.5438766775775
 10
4757.974971783111
 20
414.5438766775774
 10
4757.974971783111
 20
413.3439499008463
 10
4757.259666596944
 20
413.007226262963
 10
4756.022532788044
 20
412.0891427525222
 10
4755.064451718057
 20
410.8817745696208
 10
4754.451465868913
 20
409.4679073599208
 10
4754.224502978028
 20
407.9442794064854
 10
4754.224502978027
 20
402.9884016024422
 10
4754.897020076452
 20
402.7622700481892
 10
4755.274329472022
 20
402.5438766775776
 10
4768.080659004717
 20
402.5438766775775
 97
        0
 92
        7
 72
     0
 73
     1
 93
       15
 10
4751.525132815292
 20
407.9442794064935
 10
4751.459090333368
 20
408.7312081296129
 10
4751.031209469072
 20
410.2120479966607
 10
4750.234978989753
 20
411.5310372749608
 10
4749.124349089393
 20
412.5998092643729
 10
4747.774664005843
 20
413.3439499008463
 10
4747.774664005843
 20
414.5438766775775
 10
4618.042069968182
 20
414.5438766775775
 10
4618.042069968181
 20
402.5438766775776
 10
4751.525132815292
 20
402.5438766775776
 10
4751.525132815292
 20
403.2998128222764
 10
4750.852615716865
 20
403.5259443765761
 10
4750.474964341552
 20
403.7436055126246
 10
4750.852615716864
 20
404.1221870614544
 10
4751.525132815292
 20
403.896055507201
 97
        0
 92
        7
 72
     1
 73
     1
 93
        6
 10
4618.042069968182
 20
414.5438766775775
 42
0.0
 10
4540.99494900421
 20
414.5438766775775
 42
-1.0
 10
4538.49494900421
 20
414.5438766775775
 42
0.0
 10
4456.923981034832
 20
414.5438766775775
 42
0.0
 10
4456.923981034832
 20
402.5438766775776
 42
0.0
 10
4618.042069968182
 20
402.5438766775776
 42
0.0
 97
        0
 92
        7
 72
     0
 73
     1
 93
       12
 10
4456.92398103483
 20
414.5438766775775
 10
4382.725241807584
 20
414.5438766775775
 10
4382.725241807584
 20
413.3439499008464
 10
4382.009936621417
 20
413.007226262963
 10
4380.772802812515
 20
412.0891427525204
 10
4379.814721742532
 20
410.8817745696208
 10
4379.201735893384
 20
409.4679073599183
 10
4378.974773002501
 20
407.9442794064891
 10
4378.974773002501
 20
402.9884016024423
 10
4379.647290100931
 20
402.7622700481884
 10
4380.024599496494
 20
402.5438766775776
 10
4456.923981034832
 20
402.5438766775776
 97
        0
 92
        7
 72
     0
 73
     1
 93
       16
 10
4376.209360357843
 20
408.7312081296095
 10
4375.781479493544
 20
410.212047996661
 10
4374.985249014225
 20
411.5310372749602
 10
4373.874619113867
 20
412.5998092643724
 10
4372.524934030316
 20
413.343949900846
 10
4372.524934030316
 20
414.5438766775775
 10
4360.137881296018
 20
414.5438766775776
 10
4359.671656072954
 20
413.9062186110846
 10
4359.671656072951
 20
402.5438766775776
 10
4376.275402839765
 20
402.5438766775776
 10
4376.275402839765
 20
403.299812822276
 10
4375.602885741336
 20
403.5259443765764
 10
4375.225234366026
 20
403.7436055126242
 10
4375.602885741336
 20
404.1221870614545
 10
4376.275402839765
 20
403.8960555072011
 10
4376.275402839765
 20
407.9442794064815
 97
        0
 75
     0
 76
     1
 52
90.0
 41
2.5
 77
     0
 78
     1
 53
135.0
 43
1092.642651509111
 44
0.0
 45
-5.612660075668221
 46
-5.61266007566822
 79
     0
 47
0.754162802673717
 98
        5
 10
4760.510328132657
 20
408.23481834823
 10
4732.585620192021
 20
406.7264893198226
 10
4565.792076755218
 20
406.7264893198226
 10
4434.470446399469
 20
407.4806495847097
 10
4368.809638633882
 20
408.23481834823
  0
HATCH
  5
5409
330
1F
100
AcDbEntity
  8
CETRIS
100
AcDbHatch
 10
0.0
 20
0.0
 30
0.0
210
0.0
220
0.0
230
1.0
  2
ANSI31
 70
     0
 71
     0
 91
        3
 92
        7
 72
     0
 73
     1
 93
       15
 10
4873.072800053171
 20
414.5438766775775
 10
4793.386654003592
 20
414.5438766775776
 10
4793.386654003592
 20
413.3439499008465
 10
4792.036968920041
 20
412.5998092643714
 10
4790.926339019681
 20
411.5310372749588
 10
4790.130108540366
 20
410.2120479966618
 10
4789.702227676065
 20
408.7312081296121
 10
4789.636185194143
 20
407.944279406488
 10
4789.636185194143
 20
403.8960555072008
 10
4790.308702292572
 20
404.1221870614543
 10
4790.686353667882
 20
403.7436055126245
 10
4790.308702292572
 20
403.525944376576
 10
4789.636185194143
 20
403.2998128222764
 10
4789.636185194143
 20
402.5438766775776
 10
4870.86263877487
 20
402.5438766775778
 97
        0
 92
        7
 72
     0
 73
     1
 93
       12
 10
4786.936815031407
 20
407.9442794064915
 10
4786.709852140525
 20
409.4679073599214
 10
4786.096866291376
 20
410.8817745696216
 10
4785.138785221393
 20
412.0891427525202
 10
4783.901651412492
 20
413.0072262629624
 10
4783.186346226324
 20
413.3439499008458
 10
4783.186346226324
 20
414.5438766775775
 10
4780.617818431457
 20
414.5438766775776
 10
4780.617818431456
 20
402.5438766775776
 10
4785.886988537413
 20
402.5438766775776
 10
4786.264297932979
 20
402.7622700481888
 10
4786.936815031407
 20
402.9884016024423
 97
        0
 92
        7
 72
     0
 73
     1
 93
        4
 10
4780.617818431456
 20
414.5438766775775
 10
4773.080659004718
 20
414.5438766775775
 10
4773.080659004716
 20
402.5438766775776
 10
4780.617818431456
 20
402.5438766775777
 97
        0
 75
     0
 76
     1
 52
0.0
 41
2.5
 77
     0
 78
     1
 53
45.0
 43
1092.642651509111
 44
0.0
 45
-5.61266007566822
 46
5.612660075668221
 79
     0
 47
0.754162802673717
 98
        3
 10
4827.680588785988
 20
410.4973076415262
 10
4783.151988027628
 20
407.4806495847097
 10
4775.604768062637
 20
407.4806495847097
  0
TEXT
  5
798D
330
1F
100
AcDbEntity
  8
POPIS
100
AcDbText
 10
4969.118290001434
 20
304.6015370012519
 30
0.0
 40
25.0
  1
UW profil (ocelový nosník I, U)
 41
0.7
  7
SIMPLEX7
100
AcDbText
  0
TEXT
  5
798E
330
1F
100
AcDbEntity
  8
POPIS
100
AcDbText
 10
4914.774586841691
 20
304.6015370012519
 30
0.0
 40
25.0
  1
05
 41
0.85
  7
SIMPLEX7
100
AcDbText
  0
TEXT
  5
798F
330
1F
100
AcDbEntity
  8
POPIS
100
AcDbText
 10
4969.118290001434
 20
233.5126044591615
 30
0.0
 40
25.0
  1
Podtmelení profilu (papír SIBRAL)
 41
0.7
  7
SIMPLEX7
100
AcDbText
  0
TEXT
  5
7990
330
1F
100
AcDbEntity
  8
POPIS
100
AcDbText
 10
4969.118290001434
 20
200.3474060953613
 30
0.0
 40
25.0
  1
Hmoždinka
 41
0.7
  7
SIMPLEX7
100
AcDbText
  0
TEXT
  5
7991
330
1F
100
AcDbEntity
  8
POPIS
100
AcDbText
 10
4969.118290001434
 20
267.7659969983597
 30
0.0
 40
25.0
  1
Tmel DEXAFLAMM - R
 41
0.7
  7
SIMPLEX7
100
AcDbText
  0
TEXT
  5
7992
330
1F
100
AcDbEntity
  8
POPIS
100
AcDbText
 10
4914.774586841691
 20
200.3474060953613
 30
0.0
 40
25.0
  1
08
 41
0.85
  7
SIMPLEX7
100
AcDbText
  0
TEXT
  5
7993
330
1F
100
AcDbEntity
  8
POPIS
100
AcDbText
 10
4914.774586841691
 20
233.5126044591615
 30
0.0
 40
25.0
  1
07
 41
0.85
  7
SIMPLEX7
100
AcDbText
  0
TEXT
  5
7994
330
1F
100
AcDbEntity
  8
POPIS
100
AcDbText
 10
4914.774586841691
 20
267.7659969983597
 30
0.0
 40
25.0
  1
06
 41
0.85
  7
SIMPLEX7
100
AcDbText
  0
TEXT
  5
7995
330
1F
100
AcDbEntity
  8
POPIS
100
AcDbText
 10
4969.118290001434
 20
338.4868085405378
 30
0.0
 40
25.0
  1
CW profil (ocelový nosník I, U) - stojina
 41
0.7
  7
SIMPLEX7
100
AcDbText
  0
TEXT
  5
7996
330
1F
100
AcDbEntity
  8
POPIS
100
AcDbText
 10
4969.118290001434
 20
373.8909697587005
 30
0.0
 40
25.0
  1
Minerální plsť (vzduchová mezera)
 41
0.7
  7
SIMPLEX7
100
AcDbText
  0
TEXT
  5
7997
330
1F
100
AcDbEntity
  8
POPIS
100
AcDbText
 10
4969.118290001434
 20
481.2232710703866
 30
0.0
 40
25.0
  1
Deska CETRIS   
 41
0.7
  7
SIMPLEX7
100
AcDbText
  0
TEXT
  5
7998
330
1F
100
AcDbEntity
  8
POPIS
100
AcDbText
 10
4969.118290001434
 20
444.6282594547593
 30
0.0
 40
25.0
  1
Vrut 4,2x35 (45,55) mm
 41
0.7
  7
SIMPLEX7
100
AcDbText
  0
TEXT
  5
7999
330
1F
100
AcDbEntity
  8
POPIS
100
AcDbText
 10
4914.774586841691
 20
444.6282594547593
 30
0.0
 40
25.0
  1
02
 41
0.85
  7
SIMPLEX7
100
AcDbText
  0
TEXT
  5
799A
330
1F
100
AcDbEntity
  8
POPIS
100
AcDbText
 10
4914.774586841691
 20
373.8909697587005
 30
0.0
 40
25.0
  1
03
 41
0.85
  7
SIMPLEX7
100
AcDbText
  0
TEXT
  5
799B
330
1F
100
AcDbEntity
  8
POPIS
100
AcDbText
 10
4914.774586841691
 20
338.4868085405378
 30
0.0
 40
25.0
  1
04
 41
0.85
  7
SIMPLEX7
100
AcDbText
  0
TEXT
  5
799C
330
1F
100
AcDbEntity
  8
POPIS
100
AcDbText
 10
4914.774586841691
 20
481.2232710703866
 30
0.0
 40
25.0
  1
01
 41
0.85
  7
SIMPLEX7
100
AcDbText
  0
CIRCLE
  5
799D
330
1F
100
AcDbEntity
  8
POPIS
100
AcDbCircle
 10
5141.503504295661
 20
511.7439269236548
 30
0.0
 40
11.13656048292026
  0
TEXT
  5
799E
330
1F
100
AcDbEntity
  8
POPIS
100
AcDbText
 10
5136.74447524048
 20
506.1985811786672
 30
0.0
 40
12.0
  1
R
 41
0.85
  7
SIMPLEX7
100
AcDbText
  0
TEXT
  5
799F
330
1F
100
AcDbEntity
  8
POPIS
100
AcDbText
 10
4187.14577861967
 20
637.5819292291416
 30
0.0
 40
35.0
  1
Napojení u stěny
 41
0.85
  7
SIMPLEX7
100
AcDbText
  0
TEXT
  5
9F9A
330
1F
100
AcDbEntity
  8
POPIS
100
AcDbText
 10
4911.244453271231
 20
411.9755005154104
 30
0.0
 40
25.0
  1
(v exteriéru vrut s viditelnou hlavou a těsnící podložkou)
 41
0.6
 51
10.0
  7
SIMPLEX7
100
AcDbText
  0
ENDSEC
  0
SECTION
  2
OBJECTS
  0
DICTIONARY
  5
C
330
0
100
AcDbDictionary
281
     1
  3
ACAD_GROUP
350
D
  3
ACAD_LAYOUT
350
1A
  3
ACAD_MLINESTYLE
350
17
  3
ACAD_PLOTSETTINGS
350
19
  3
ACAD_PLOTSTYLENAME
350
E
  3
AcDbVariableDictionary
350
17BD
  0
DICTIONARY
  5
D
102
{ACAD_REACTORS
330
C
102
}
330
C
100
AcDbDictionary
281
     1
  0
DICTIONARY
  5
1A
102
{ACAD_REACTORS
330
C
102
}
330
C
100
AcDbDictionary
281
     1
  3
Model
350
22
  3
Rozvržení1
350
1E
  3
Rozvržení2
350
26
  0
DICTIONARY
  5
17
102
{ACAD_REACTORS
330
C
102
}
330
C
100
AcDbDictionary
281
     1
  3
Standard
350
18
  0
DICTIONARY
  5
19
102
{ACAD_REACTORS
330
C
102
}
330
C
100
AcDbDictionary
281
     1
  0
ACDBDICTIONARYWDFLT
  5
E
102
{ACAD_REACTORS
330
C
102
}
330
C
100
AcDbDictionary
281
     1
  3
Normal
350
F
100
AcDbDictionaryWithDefault
340
F
  0
DICTIONARY
  5
17BD
102
{ACAD_REACTORS
330
C
102
}
330
C
100
AcDbDictionary
281
     1
  3
DIMASSOC
350
9F87
  3
SORTENTS
350
17BE
  0
LAYOUT
  5
22
102
{ACAD_REACTORS
330
1A
102
}
330
1A
100
AcDbPlotSettings
  1

  2
HP DeskJet 690C
  4

  6

 40
0.0
 41
0.0
 42
0.0
 43
0.0
 44
0.0
 45
0.0
 46
0.0
 47
0.0
 48
0.0
 49
0.0
140
0.0
141
0.0
142
1.0
143
1.0
 70
  1712
 72
     0
 73
     0
 74
     0
  7
monochrome.ctb
 75
     0
147
1.0
148
0.0
149
0.0
100
AcDbLayout
  1
Model
 70
     1
 71
     0
 10
0.0
 20
0.0
 11
12.0
 21
9.0
 12
0.0
 22
0.0
 32
0.0
 14
0.0
 24
0.0
 34
0.0
 15
0.0
 25
0.0
 35
0.0
146
0.0
 13
0.0
 23
0.0
 33
0.0
 16
1.0
 26
0.0
 36
0.0
 17
0.0
 27
1.0
 37
0.0
 76
     0
330
1F
  0
LAYOUT
  5
1E
102
{ACAD_REACTORS
330
1A
102
}
330
1A
100
AcDbPlotSettings
  1

  2
HP DeskJet 690C
  4

  6

 40
0.0
 41
0.0
 42
0.0
 43
0.0
 44
0.0
 45
0.0
 46
0.0
 47
0.0
 48
0.0
 49
0.0
140
0.0
141
0.0
142
1.0
143
1.0
 70
   688
 72
     0
 73
     0
 74
     5
  7
monochrome.ctb
 75
    16
147
1.0
148
0.0
149
0.0
100
AcDbLayout
  1
Rozvržení1
 70
     1
 71
     1
 10
0.0
 20
0.0
 11
420.0
 21
297.0
 12
0.0
 22
0.0
 32
0.0
 14
1.000000000000000E+20
 24
1.000000000000000E+20
 34
1.000000000000000E+20
 15
-1.000000000000000E+20
 25
-1.000000000000000E+20
 35
-1.000000000000000E+20
146
0.0
 13
0.0
 23
0.0
 33
0.0
 16
1.0
 26
0.0
 36
0.0
 17
0.0
 27
1.0
 37
0.0
 76
     0
330
1B
  0
LAYOUT
  5
26
102
{ACAD_REACTORS
330
1A
102
}
330
1A
100
AcDbPlotSettings
  1

  2
HP DeskJet 690C
  4

  6

 40
0.0
 41
0.0
 42
0.0
 43
0.0
 44
0.0
 45
0.0
 46
0.0
 47
0.0
 48
0.0
 49
0.0
140
0.0
141
0.0
142
1.0
143
1.0
 70
   688
 72
     0
 73
     0
 74
     5
  7
monochrome.ctb
 75
    16
147
1.0
148
0.0
149
0.0
100
AcDbLayout
  1
Rozvržení2
 70
     1
 71
     2
 10
0.0
 20
0.0
 11
12.0
 21
9.0
 12
0.0
 22
0.0
 32
0.0
 14
0.0
 24
0.0
 34
0.0
 15
0.0
 25
0.0
 35
0.0
146
0.0
 13
0.0
 23
0.0
 33
0.0
 16
1.0
 26
0.0
 36
0.0
 17
0.0
 27
1.0
 37
0.0
 76
     0
330
23
  0
MLINESTYLE
  5
18
102
{ACAD_REACTORS
330
17
102
}
330
17
100
AcDbMlineStyle
  2
STANDARD
 70
     0
  3

 62
   256
 51
90.0
 52
90.0
 71
     2
 49
0.5
 62
   256
  6
BYLAYER
 49
-0.5
 62
   256
  6
BYLAYER
  0
ACDBPLACEHOLDER
  5
F
102
{ACAD_REACTORS
330
E
102
}
330
E
  0
DICTIONARYVAR
  5
9F87
102
{ACAD_REACTORS
330
17BD
102
}
330
17BD
100
DictionaryVariables
280
     0
  1
1
  0
DICTIONARYVAR
  5
17BE
102
{ACAD_REACTORS
330
17BD
102
}
330
17BD
100
DictionaryVariables
280
     0
  1
96
  0
ENDSEC
  0
EOF
