  0
SECTION
  2
HEADER
  9
$ACADVER
  1
AC1014
  9
$ACADMAINTVER
 70
     9
  9
$DWGCODEPAGE
  3
ANSI_1250
  9
$INSBASE
 10
0.0
 20
0.0
 30
0.0
  9
$EXTMIN
 10
2474.329179749773
 20
-534.7476901812552
 30
-0.0015258207003583
  9
$EXTMAX
 10
3492.659536685806
 20
745.1613464947841
 30
0.0000000349246037
  9
$LIMMIN
 10
0.0
 20
0.0
  9
$LIMMAX
 10
420.0
 20
297.0
  9
$ORTHOMODE
 70
     1
  9
$REGENMODE
 70
     1
  9
$FILLMODE
 70
     1
  9
$QTEXTMODE
 70
     0
  9
$MIRRTEXT
 70
     1
  9
$DRAGMODE
 70
     2
  9
$LTSCALE
 40
1.0
  9
$OSMODE
 70
   183
  9
$ATTMODE
 70
     1
  9
$TEXTSIZE
 40
2.5
  9
$TRACEWID
 40
1.0
  9
$TEXTSTYLE
  7
STANDARD
  9
$CLAYER
  8
CETRIS
  9
$CELTYPE
  6
BYLAYER
  9
$CECOLOR
 62
   256
  9
$CELTSCALE
 40
1.0
  9
$DELOBJ
 70
     1
  9
$DISPSILH
 70
     0
  9
$DIMSCALE
 40
1.0
  9
$DIMASZ
 40
2.5
  9
$DIMEXO
 40
0.625
  9
$DIMDLI
 40
3.75
  9
$DIMRND
 40
0.0
  9
$DIMDLE
 40
0.0
  9
$DIMEXE
 40
1.25
  9
$DIMTP
 40
0.0
  9
$DIMTM
 40
0.0
  9
$DIMTXT
 40
2.5
  9
$DIMCEN
 40
2.5
  9
$DIMTSZ
 40
0.0
  9
$DIMTOL
 70
     0
  9
$DIMLIM
 70
     0
  9
$DIMTIH
 70
     0
  9
$DIMTOH
 70
     0
  9
$DIMSE1
 70
     0
  9
$DIMSE2
 70
     0
  9
$DIMTAD
 70
     1
  9
$DIMZIN
 70
     8
  9
$DIMBLK
  1

  9
$DIMASO
 70
     1
  9
$DIMSHO
 70
     1
  9
$DIMPOST
  1

  9
$DIMAPOST
  1

  9
$DIMALT
 70
     0
  9
$DIMALTD
 70
     3
  9
$DIMALTF
 40
0.03937007874016
  9
$DIMLFAC
 40
1.0
  9
$DIMTOFL
 70
     1
  9
$DIMTVP
 40
0.0
  9
$DIMTIX
 70
     0
  9
$DIMSOXD
 70
     0
  9
$DIMSAH
 70
     0
  9
$DIMBLK1
  1

  9
$DIMBLK2
  1

  9
$DIMSTYLE
  2
ISO-25
  9
$DIMCLRD
 70
     0
  9
$DIMCLRE
 70
     0
  9
$DIMCLRT
 70
     0
  9
$DIMTFAC
 40
1.0
  9
$DIMGAP
 40
0.625
  9
$DIMJUST
 70
     0
  9
$DIMSD1
 70
     0
  9
$DIMSD2
 70
     0
  9
$DIMTOLJ
 70
     0
  9
$DIMTZIN
 70
     8
  9
$DIMALTZ
 70
     0
  9
$DIMALTTZ
 70
     0
  9
$DIMFIT
 70
     3
  9
$DIMUPT
 70
     0
  9
$DIMUNIT
 70
     2
  9
$DIMDEC
 70
     2
  9
$DIMTDEC
 70
     2
  9
$DIMALTU
 70
     2
  9
$DIMALTTD
 70
     3
  9
$DIMTXSTY
  7
STANDARD
  9
$DIMAUNIT
 70
     0
  9
$LUNITS
 70
     2
  9
$LUPREC
 70
     4
  9
$SKETCHINC
 40
1.0
  9
$FILLETRAD
 40
0.0
  9
$AUNITS
 70
     0
  9
$AUPREC
 70
     0
  9
$MENU
  1
.
  9
$ELEVATION
 40
0.0
  9
$PELEVATION
 40
0.0
  9
$THICKNESS
 40
0.0
  9
$LIMCHECK
 70
     0
  9
$BLIPMODE
 70
     0
  9
$CHAMFERA
 40
10.0
  9
$CHAMFERB
 40
10.0
  9
$CHAMFERC
 40
20.0
  9
$CHAMFERD
 40
0.0
  9
$SKPOLY
 70
     0
  9
$TDCREATE
 40
2452332.512107639
  9
$TDUPDATE
 40
2455601.283869699
  9
$TDINDWG
 40
1.0580245833
  9
$TDUSRTIMER
 40
1.0580106944
  9
$USRTIMER
 70
     1
  9
$ANGBASE
 50
0.0
  9
$ANGDIR
 70
     0
  9
$PDMODE
 70
     0
  9
$PDSIZE
 40
0.0
  9
$PLINEWID
 40
0.0
  9
$COORDS
 70
     0
  9
$SPLFRAME
 70
     0
  9
$SPLINETYPE
 70
     6
  9
$SPLINESEGS
 70
     8
  9
$ATTDIA
 70
     0
  9
$ATTREQ
 70
     1
  9
$HANDLING
 70
     1
  9
$HANDSEED
  5
9FD4
  9
$SURFTAB1
 70
     6
  9
$SURFTAB2
 70
     6
  9
$SURFTYPE
 70
     6
  9
$SURFU
 70
     6
  9
$SURFV
 70
     6
  9
$UCSNAME
  2

  9
$UCSORG
 10
0.0
 20
0.0
 30
0.0
  9
$UCSXDIR
 10
1.0
 20
0.0
 30
0.0
  9
$UCSYDIR
 10
0.0
 20
1.0
 30
0.0
  9
$PUCSNAME
  2

  9
$PUCSORG
 10
0.0
 20
0.0
 30
0.0
  9
$PUCSXDIR
 10
1.0
 20
0.0
 30
0.0
  9
$PUCSYDIR
 10
0.0
 20
1.0
 30
0.0
  9
$USERI1
 70
     0
  9
$USERI2
 70
     0
  9
$USERI3
 70
     0
  9
$USERI4
 70
     0
  9
$USERI5
 70
     0
  9
$USERR1
 40
0.0
  9
$USERR2
 40
0.0
  9
$USERR3
 40
0.0
  9
$USERR4
 40
0.0
  9
$USERR5
 40
0.0
  9
$WORLDVIEW
 70
     1
  9
$SHADEDGE
 70
     3
  9
$SHADEDIF
 70
    70
  9
$TILEMODE
 70
     1
  9
$MAXACTVP
 70
    64
  9
$PINSBASE
 10
0.0
 20
0.0
 30
0.0
  9
$PLIMCHECK
 70
     0
  9
$PEXTMIN
 10
1.000000000000000E+20
 20
1.000000000000000E+20
 30
1.000000000000000E+20
  9
$PEXTMAX
 10
-1.000000000000000E+20
 20
-1.000000000000000E+20
 30
-1.000000000000000E+20
  9
$PLIMMIN
 10
0.0
 20
0.0
  9
$PLIMMAX
 10
420.0
 20
297.0
  9
$UNITMODE
 70
     0
  9
$VISRETAIN
 70
     1
  9
$PLINEGEN
 70
     0
  9
$PSLTSCALE
 70
     1
  9
$TREEDEPTH
 70
  3020
  9
$PICKSTYLE
 70
     1
  9
$CMLSTYLE
  2
STANDARD
  9
$CMLJUST
 70
     0
  9
$CMLSCALE
 40
20.0
  9
$PROXYGRAPHICS
 70
     1
  9
$MEASUREMENT
 70
     1
  0
ENDSEC
  0
SECTION
  2
CLASSES
  0
CLASS
  1
ACDBDICTIONARYWDFLT
  2
AcDbDictionaryWithDefault
  3
AutoCAD 2000
 90
        0
280
     0
281
     0
  0
CLASS
  1
ACDBPLACEHOLDER
  2
AcDbPlaceHolder
  3
AutoCAD 2000
 90
        0
280
     0
281
     0
  0
CLASS
  1
LAYOUT
  2
AcDbLayout
  3
AutoCAD 2000
 90
        0
280
     0
281
     0
  0
CLASS
  1
DICTIONARYVAR
  2
AcDbDictionaryVar
  3
AutoCAD 2000
 90
        0
280
     0
281
     0
  0
CLASS
  1
LONG_TRANSACTION
  2
AcDbLongTransaction
  3
AutoCAD 2000
 90
        0
280
     0
281
     0
  0
CLASS
  1
LWPOLYLINE
  2
AcDbPolyline
  3
AutoCAD 2000
 90
        0
280
     0
281
     1
  0
CLASS
  1
HATCH
  2
AcDbHatch
  3
AutoCAD 2000
 90
        0
280
     0
281
     1
  0
CLASS
  1
XRECORD
  2
AcDbXrecord
  3
AutoCAD 2000
 90
        0
280
     0
281
     0
  0
ENDSEC
  0
SECTION
  2
TABLES
  0
TABLE
  2
VPORT
  5
8
330
0
100
AcDbSymbolTable
 70
     2
  0
VPORT
  5
9FAC
330
8
100
AcDbSymbolTableRecord
100
AcDbViewportTableRecord
  2
*ACTIVE
 70
     0
 10
0.0
 20
0.0
 11
1.0
 21
1.0
 12
3072.965072035388
 22
96.66766917920995
 13
0.0
 23
0.0
 14
10.0
 24
10.0
 15
10.0
 25
10.0
 16
0.0
 26
0.0
 36
1.0
 17
0.0
 27
0.0
 37
0.0
 40
1446.17356239739
 41
2.031862745098039
 42
50.0
 43
0.0
 44
0.0
 50
0.0
 51
0.0
 71
     0
 72
   100
 73
     1
 74
     3
 75
     0
 76
     1
 77
     0
 78
     0
  0
ENDTAB
  0
TABLE
  2
LTYPE
  5
5
330
0
100
AcDbSymbolTable
 70
     5
  0
LTYPE
  5
14
330
5
100
AcDbSymbolTableRecord
100
AcDbLinetypeTableRecord
  2
BYBLOCK
 70
     0
  3

 72
    65
 73
     0
 40
0.0
  0
LTYPE
  5
15
330
5
100
AcDbSymbolTableRecord
100
AcDbLinetypeTableRecord
  2
BYLAYER
 70
     0
  3

 72
    65
 73
     0
 40
0.0
  0
LTYPE
  5
16
330
5
100
AcDbSymbolTableRecord
100
AcDbLinetypeTableRecord
  2
CONTINUOUS
 70
     0
  3
Solid line
 72
    65
 73
     0
 40
0.0
  0
LTYPE
  5
33
330
5
100
AcDbSymbolTableRecord
100
AcDbLinetypeTableRecord
  2
DASHED
 70
     0
  3
Dashed __ __ __ __ __ __ __ __ __ __ __ __ __ _
 72
    65
 73
     2
 40
19.04999999999999
 49
12.7
 74
     0
 49
-6.349999999999999
 74
     0
  0
LTYPE
  5
34
330
5
100
AcDbSymbolTableRecord
100
AcDbLinetypeTableRecord
  2
DASHDOT2
 70
     0
  3
Dash dot (.5x) _._._._._._._._._._._._._._._.
 72
    65
 73
     4
 40
12.7
 49
6.349999999999999
 74
     0
 49
-3.174999999999999
 74
     0
 49
0.0
 74
     0
 49
-3.174999999999999
 74
     0
  0
LTYPE
  5
35
330
5
100
AcDbSymbolTableRecord
100
AcDbLinetypeTableRecord
  2
CIKCAK
 70
     0
  3
Cik-cak /\/\/\/\/\/\/\/\/\/\/\/\/\/\/\/\/\/\/\/
 72
    65
 73
     4
 40
20.32254
 49
0.00254
 74
     0
 49
-5.08
 74
     4
 75
   131
340
3E
 46
5.08
 50
0.0
 44
-5.08
 45
0.0
 49
-10.16
 74
     4
 75
   131
340
3E
 46
5.08
 50
180.0
 44
5.08
 45
0.0
 49
-5.08
 74
     0
  0
LTYPE
  5
36
330
5
100
AcDbSymbolTableRecord
100
AcDbLinetypeTableRecord
  2
IZOLACE
 70
     0
  3
Izolace SSSSSSSSSSSSSSSSSSSSSSSSSSSSSSSSSSSSSSS
 72
    65
 73
     4
 40
10.16253999999999
 49
0.00254
 74
     0
 49
-2.54
 74
     4
 75
   134
340
3E
 46
2.54
 50
0.0
 44
-2.54
 45
0.0
 49
-5.08
 74
     4
 75
   134
340
3E
 46
2.54
 50
180.0
 44
2.54
 45
0.0
 49
-2.54
 74
     0
  0
ENDTAB
  0
TABLE
  2
LAYER
  5
2
330
0
100
AcDbSymbolTable
 70
     8
  0
LAYER
  5
10
330
2
100
AcDbSymbolTableRecord
100
AcDbLayerTableRecord
  2
0
 70
     0
 62
     7
  6
CONTINUOUS
  0
LAYER
  5
37
330
2
100
AcDbSymbolTableRecord
100
AcDbLayerTableRecord
  2
POPIS
 70
     0
 62
    30
  6
CONTINUOUS
  0
LAYER
  5
38
330
2
100
AcDbSymbolTableRecord
100
AcDbLayerTableRecord
  2
SPOJOVACÍ
 70
     0
 62
   180
  6
CONTINUOUS
  0
LAYER
  5
39
330
2
100
AcDbSymbolTableRecord
100
AcDbLayerTableRecord
  2
CETRIS
 70
     0
 62
     1
  6
CONTINUOUS
  0
LAYER
  5
3A
330
2
100
AcDbSymbolTableRecord
100
AcDbLayerTableRecord
  2
NOSNÉ_KONSTRUKCE
 70
     0
 62
    33
  6
CONTINUOUS
  0
LAYER
  5
3B
330
2
100
AcDbSymbolTableRecord
100
AcDbLayerTableRecord
  2
IZOLACE
 70
     0
 62
    73
  6
CONTINUOUS
  0
LAYER
  5
3C
330
2
100
AcDbSymbolTableRecord
100
AcDbLayerTableRecord
  2
STAVBA_OBRYS
 70
     0
 62
     6
  6
CONTINUOUS
  0
LAYER
  5
1B41
330
2
100
AcDbSymbolTableRecord
100
AcDbLayerTableRecord
  2
DEFPOINTS
 70
     0
 62
     7
  6
CONTINUOUS
  0
ENDTAB
  0
TABLE
  2
STYLE
  5
3
330
0
100
AcDbSymbolTable
 70
     3
  0
STYLE
  5
11
330
3
100
AcDbSymbolTableRecord
100
AcDbTextStyleTableRecord
  2
STANDARD
 70
     0
 40
0.0
 41
1.0
 50
0.0
 71
     0
 42
2.5
  3
txt
  4

  0
STYLE
  5
3D
330
3
100
AcDbSymbolTableRecord
100
AcDbTextStyleTableRecord
  2
SIMPLEX7
 70
     0
 40
0.0
 41
0.85
 50
0.0
 71
     0
 42
102.0
  3
ARIAL.TTF
  4

1001
ACAD
1000
Arial CE
1071
    60962
  0
STYLE
  5
3E
330
3
100
AcDbSymbolTableRecord
100
AcDbTextStyleTableRecord
  2

 70
     1
 40
0.0
 41
1.0
 50
0.0
 71
     0
 42
2.5
  3
ltypeshp.shx
  4

  0
ENDTAB
  0
TABLE
  2
VIEW
  5
6
330
0
100
AcDbSymbolTable
 70
     0
  0
ENDTAB
  0
TABLE
  2
UCS
  5
7
330
0
100
AcDbSymbolTable
 70
     0
  0
ENDTAB
  0
TABLE
  2
APPID
  5
9
330
0
100
AcDbSymbolTable
 70
     1
  0
APPID
  5
12
330
9
100
AcDbSymbolTableRecord
100
AcDbRegAppTableRecord
  2
ACAD
 70
     0
  0
ENDTAB
  0
TABLE
  2
DIMSTYLE
  5
A
330
0
100
AcDbSymbolTable
 70
     1
  0
DIMSTYLE
105
27
330
A
100
AcDbSymbolTableRecord
100
AcDbDimStyleTableRecord
  2
ISO-25
 70
     0
  3

  4

  5

  6

  7

 40
1.0
 41
2.5
 42
0.625
 43
3.75
 44
1.25
 45
0.0
 46
0.0
 47
0.0
 48
0.0
140
2.5
141
2.5
142
0.0
143
0.03937007874016
144
1.0
145
0.0
146
1.0
147
0.625
 71
     0
 72
     0
 73
     0
 74
     0
 75
     0
 76
     0
 77
     1
 78
     8
170
     0
171
     3
172
     1
173
     0
174
     0
175
     0
176
     0
177
     0
178
     0
270
     2
271
     2
272
     2
273
     2
274
     3
340
11
275
     0
280
     0
281
     0
282
     0
283
     0
284
     8
285
     0
286
     0
287
     3
288
     0
  0
ENDTAB
  0
TABLE
  2
BLOCK_RECORD
  5
1
330
0
100
AcDbSymbolTable
 70
     3
  0
BLOCK_RECORD
  5
1F
102
{ACAD_XDICTIONARY
360
9FD0
102
}
330
1
100
AcDbSymbolTableRecord
100
AcDbBlockTableRecord
  2
*MODEL_SPACE
  0
BLOCK_RECORD
  5
1B
102
{ACAD_XDICTIONARY
360
9FCE
102
}
330
1
100
AcDbSymbolTableRecord
100
AcDbBlockTableRecord
  2
*PAPER_SPACE
  0
BLOCK_RECORD
  5
2B
330
1
100
AcDbSymbolTableRecord
100
AcDbBlockTableRecord
  2
E_PUNKT
  0
BLOCK_RECORD
  5
2F
330
1
100
AcDbSymbolTableRecord
100
AcDbBlockTableRecord
  2
_ARCHTICK
  0
ENDTAB
  0
ENDSEC
  0
SECTION
  2
BLOCKS
  0
BLOCK
  5
20
330
1F
100
AcDbEntity
  8
0
100
AcDbBlockBegin
  2
*MODEL_SPACE
 70
     0
 10
0.0
 20
0.0
 30
0.0
  3
*MODEL_SPACE
  1

  0
ENDBLK
  5
21
330
1F
100
AcDbEntity
  8
0
100
AcDbBlockEnd
  0
BLOCK
  5
1C
330
1B
100
AcDbEntity
 67
     1
  8
0
100
AcDbBlockBegin
  2
*PAPER_SPACE
 70
     0
 10
0.0
 20
0.0
 30
0.0
  3
*PAPER_SPACE
  1

  0
ENDBLK
  5
1D
330
1B
100
AcDbEntity
 67
     1
  8
0
100
AcDbBlockEnd
  0
BLOCK
  5
2D
330
2B
100
AcDbEntity
  8
0
100
AcDbBlockBegin
  2
E_PUNKT
 70
     0
 10
0.0
 20
0.0
 30
0.0
  3
E_PUNKT
  1

  0
LWPOLYLINE
  5
2C
330
2B
100
AcDbEntity
  8
POPIS
100
AcDbPolyline
 90
        2
 70
     1
 43
2.5
 10
1.27761037562675
 20
0.0290683308725193
 42
-1.0
 10
-1.222389624373249
 20
0.0290683308725193
 42
-1.0
  0
ENDBLK
  5
2E
330
2B
100
AcDbEntity
  8
0
100
AcDbBlockEnd
  0
BLOCK
  5
31
330
2F
100
AcDbEntity
  8
0
100
AcDbBlockBegin
  2
_ARCHTICK
 70
     0
 10
0.0
 20
0.0
 30
0.0
  3
_ARCHTICK
  1

  0
LWPOLYLINE
  5
30
330
2F
100
AcDbEntity
  8
0
  6
BYBLOCK
 62
     0
100
AcDbPolyline
 90
        2
 70
     0
 43
0.15
 10
-0.5
 20
-0.5
 10
0.5
 20
0.5
  0
ENDBLK
  5
32
330
2F
100
AcDbEntity
  8
0
100
AcDbBlockEnd
  0
ENDSEC
  0
SECTION
  2
ENTITIES
  0
LINE
  5
1133
330
1F
100
AcDbEntity
  8
NOSNÉ_KONSTRUKCE
100
AcDbLine
 10
2599.94486403881
 20
365.301103382211
 30
0.0
 11
2599.944864038807
 21
359.3571611002578
 31
0.0
  0
HATCH
  5
1137
330
1F
100
AcDbEntity
  8
IZOLACE
100
AcDbHatch
 10
0.0
 20
0.0
 30
0.0
210
0.0
220
0.0
230
1.0
  2
AR-SAND
 70
     0
 71
     0
 91
        1
 92
        7
 72
     1
 73
     1
 93
       10
 10
2687.714407628405
 20
20.68222286805371
 42
0.0
 10
2675.714407628416
 20
20.68222286805371
 42
0.0
 10
2675.714407628405
 20
15.68222286805007
 42
0.0
 10
2687.714407628405
 20
15.68222286805007
 42
0.0
 10
2687.714407628405
 20
17.73780284002327
 42
0.0
 10
2684.27249787833
 20
17.73780284002327
 42
-0.3323956162604791
 10
2683.073686573167
 20
16.84185291362496
 42
-1.0
 10
2683.073686573167
 20
19.34185291362496
 42
-0.5010556741505267
 10
2684.27249787833
 20
17.73780284002327
 42
0.0
 10
2687.714407628405
 20
17.73780284002327
 42
0.0
 97
        0
 75
     0
 76
     1
 52
90.0
 41
0.05
 77
     0
 78
     4
 53
127.5
 43
-26577.86884891446
 44
-3935.286104375447
 45
-2.447066186646711
 46
-0.0800015647992021
 79
     6
 49
0.0
 49
-1.9304
 49
0.0
 49
-2.159
 49
0.0
 49
-2.06375
 53
97.49999999999994
 43
-26577.86884891446
 44
-3935.286104375447
 45
-3.584125502841771
 46
2.247616415690013
 79
     6
 49
0.0
 49
-1.0414
 49
0.0
 49
-1.7399
 49
0.0
 49
-0.6667500000000001
 53
57.5
 43
-26577.86884891446
 44
-3936.848204375447
 45
-0.0071859233927282
 46
3.95496185120729
 79
     6
 49
0.0
 49
-0.635
 49
0.0
 49
-2.286
 49
0.0
 49
-2.9845
 53
47.5
 43
-26577.86884891446
 44
-3936.848204375447
 45
-1.11464661628608
 46
3.817782262361486
 79
     6
 49
0.0
 49
-0.3175
 49
0.0
 49
-1.498599999999999
 49
0.0
 49
-1.7145
 47
0.0759700453980155
 98
        1
 10
2686.28660713432
 20
19.51007173162702
  0
INSERT
  5
1138
330
1F
100
AcDbEntity
  8
POPIS
100
AcDbBlockReference
  2
E_PUNKT
 10
2683.044618242293
 20
18.11946328925182
 30
0.0
 50
270.0
  0
LINE
  5
1139
330
1F
100
AcDbEntity
  8
SPOJOVACÍ
  6
CONTINUOUS
100
AcDbLine
 10
2685.259673703352
 20
4.995009190340852
 30
0.0
 11
2686.177757213794
 21
6.232142999240522
 31
0.0
  0
LINE
  5
113A
330
1F
100
AcDbEntity
  8
SPOJOVACÍ
  6
CONTINUOUS
100
AcDbLine
 10
2686.177757213794
 20
6.232142999240522
 30
0.0
 11
2686.514480851678
 21
6.947448185408347
 31
0.0
  0
LINE
  5
113B
330
1F
100
AcDbEntity
  8
SPOJOVACÍ
  6
CONTINUOUS
100
AcDbLine
 10
2686.514480851678
 20
-3.252859591859532
 30
0.0
 11
2686.514480851678
 21
6.947448185408347
 31
0.0
  0
LINE
  5
113C
330
1F
100
AcDbEntity
  8
SPOJOVACÍ
  6
CONTINUOUS
100
AcDbLine
 10
2687.714407628409
 20
6.947448185408347
 30
0.0
 11
2686.514480851678
 21
6.947448185408347
 31
0.0
  0
LINE
  5
113D
330
1F
100
AcDbEntity
  8
SPOJOVACÍ
  6
CONTINUOUS
100
AcDbLine
 10
2687.714407628409
 20
-3.252859591859532
 30
0.0
 11
2687.714407628409
 21
6.947448185408347
 31
0.0
  0
LINE
  5
113E
330
1F
100
AcDbEntity
  8
SPOJOVACÍ
  6
CONTINUOUS
100
AcDbLine
 10
2664.812549360453
 20
-0.1749078808391005
 30
0.0
 11
2663.452632346911
 21
3.86949647875349
 31
0.0
  0
LINE
  5
113F
330
1F
100
AcDbEntity
  8
SPOJOVACÍ
  6
CONTINUOUS
100
AcDbLine
 10
2664.216306675298
 20
-0.1749078808391005
 30
0.0
 11
2662.856389661756
 21
3.86949647875349
 31
0.0
  0
LINE
  5
1140
330
1F
100
AcDbEntity
  8
SPOJOVACÍ
  6
CONTINUOUS
100
AcDbLine
 10
2663.234041034884
 20
4.247147849698876
 30
0.0
 11
2663.452632346911
 21
3.86949647875349
 31
0.0
  0
LINE
  5
1141
330
1F
100
AcDbEntity
  8
SPOJOVACÍ
  6
CONTINUOUS
100
AcDbLine
 10
2663.234041034884
 20
4.247147849698876
 30
0.0
 11
2662.856389661756
 21
3.86949647875349
 31
0.0
  0
LINE
  5
1142
330
1F
100
AcDbEntity
  8
SPOJOVACÍ
  6
CONTINUOUS
100
AcDbLine
 10
2664.433967811346
 20
-0.5525592561500617
 30
0.0
 11
2664.812549360453
 21
-0.1749078808391005
 31
0.0
  0
LINE
  5
1143
330
1F
100
AcDbEntity
  8
SPOJOVACÍ
  6
CONTINUOUS
100
AcDbLine
 10
2664.433967811346
 20
-0.5525592561500617
 30
0.0
 11
2664.216306675298
 21
-0.1749078808391005
 31
0.0
  0
LINE
  5
1144
330
1F
100
AcDbEntity
  8
SPOJOVACÍ
  6
CONTINUOUS
100
AcDbLine
 10
2664.433967811346
 20
-0.5525592561500617
 30
0.0
 11
2663.234041034884
 21
4.247147849698876
 31
0.0
  0
LINE
  5
1145
330
1F
100
AcDbEntity
  8
SPOJOVACÍ
  6
CONTINUOUS
100
AcDbLine
 10
2667.932358979415
 20
-0.1749078808391005
 30
0.0
 11
2666.572441965872
 21
3.86949647875349
 31
0.0
  0
LINE
  5
1146
330
1F
100
AcDbEntity
  8
SPOJOVACÍ
  6
CONTINUOUS
100
AcDbLine
 10
2667.336116294267
 20
-0.1749078808391005
 30
0.0
 11
2665.976199280994
 21
3.86949647875349
 31
0.0
  0
LINE
  5
1147
330
1F
100
AcDbEntity
  8
SPOJOVACÍ
  6
CONTINUOUS
100
AcDbLine
 10
2666.354780829824
 20
4.247147849698876
 30
0.0
 11
2666.572441965872
 21
3.86949647875349
 31
0.0
  0
LINE
  5
1148
330
1F
100
AcDbEntity
  8
SPOJOVACÍ
  6
CONTINUOUS
100
AcDbLine
 10
2666.354780829824
 20
4.247147849698876
 30
0.0
 11
2665.976199280994
 21
3.86949647875349
 31
0.0
  0
LINE
  5
1149
330
1F
100
AcDbEntity
  8
SPOJOVACÍ
  6
CONTINUOUS
100
AcDbLine
 10
2667.554707606286
 20
-0.5525592561500617
 30
0.0
 11
2667.932358979415
 21
-0.1749078808391005
 31
0.0
  0
LINE
  5
114A
330
1F
100
AcDbEntity
  8
SPOJOVACÍ
  6
CONTINUOUS
100
AcDbLine
 10
2667.554707606286
 20
-0.5525592561500617
 30
0.0
 11
2667.336116294267
 21
-0.1749078808391005
 31
0.0
  0
LINE
  5
114B
330
1F
100
AcDbEntity
  8
SPOJOVACÍ
  6
CONTINUOUS
100
AcDbLine
 10
2667.554707606286
 20
-0.5525592561500617
 30
0.0
 11
2666.354780829824
 21
4.247147849698876
 31
0.0
  0
LINE
  5
114C
330
1F
100
AcDbEntity
  8
SPOJOVACÍ
  6
CONTINUOUS
100
AcDbLine
 10
2671.052168598384
 20
-0.1749078808391005
 30
0.0
 11
2669.692251585111
 21
3.86949647875349
 31
0.0
  0
LINE
  5
114D
330
1F
100
AcDbEntity
  8
SPOJOVACÍ
  6
CONTINUOUS
100
AcDbLine
 10
2670.455925913229
 20
-0.1749078808391005
 30
0.0
 11
2669.096008899964
 21
3.86949647875349
 31
0.0
  0
LINE
  5
114E
330
1F
100
AcDbEntity
  8
SPOJOVACÍ
  6
CONTINUOUS
100
AcDbLine
 10
2669.474590448793
 20
4.247147849698876
 30
0.0
 11
2669.692251585111
 21
3.86949647875349
 31
0.0
  0
LINE
  5
114F
330
1F
100
AcDbEntity
  8
SPOJOVACÍ
  6
CONTINUOUS
100
AcDbLine
 10
2669.474590448793
 20
4.247147849698876
 30
0.0
 11
2669.096008899964
 21
3.86949647875349
 31
0.0
  0
LINE
  5
1150
330
1F
100
AcDbEntity
  8
SPOJOVACÍ
  6
CONTINUOUS
100
AcDbLine
 10
2670.674517225256
 20
-0.5525592561500617
 30
0.0
 11
2671.052168598384
 21
-0.1749078808391005
 31
0.0
  0
LINE
  5
1151
330
1F
100
AcDbEntity
  8
SPOJOVACÍ
  6
CONTINUOUS
100
AcDbLine
 10
2670.674517225256
 20
-0.5525592561500617
 30
0.0
 11
2670.455925913229
 21
-0.1749078808391005
 31
0.0
  0
LINE
  5
1152
330
1F
100
AcDbEntity
  8
SPOJOVACÍ
  6
CONTINUOUS
100
AcDbLine
 10
2670.674517225256
 20
-0.5525592561500617
 30
0.0
 11
2669.474590448793
 21
4.247147849698876
 31
0.0
  0
LINE
  5
1153
330
1F
100
AcDbEntity
  8
SPOJOVACÍ
  6
CONTINUOUS
100
AcDbLine
 10
2655.328476946415
 20
0.8306121548482678
 30
0.0
 11
2655.017798230641
 21
2.984899296305002
 31
0.0
  0
LINE
  5
1154
330
1F
100
AcDbEntity
  8
SPOJOVACÍ
  6
CONTINUOUS
100
AcDbLine
 10
2655.706128319543
 20
1.208263525793654
 30
0.0
 11
2655.235459366958
 21
2.607247925359615
 31
0.0
  0
LINE
  5
1155
330
1F
100
AcDbEntity
  8
SPOJOVACÍ
  6
CONTINUOUS
100
AcDbLine
 10
2655.109885634396
 20
1.208263525793654
 30
0.0
 11
2654.639216681811
 21
2.607247925359615
 31
0.0
  0
LINE
  5
1156
330
1F
100
AcDbEntity
  8
SPOJOVACÍ
  6
CONTINUOUS
100
AcDbLine
 10
2655.017798230641
 20
2.984899296305002
 30
0.0
 11
2655.235459366958
 21
2.607247925359615
 31
0.0
  0
LINE
  5
1157
330
1F
100
AcDbEntity
  8
SPOJOVACÍ
  6
CONTINUOUS
100
AcDbLine
 10
2655.017798230641
 20
2.984899296305002
 30
0.0
 11
2654.639216681811
 21
2.607247925359615
 31
0.0
  0
LINE
  5
1158
330
1F
100
AcDbEntity
  8
SPOJOVACÍ
  6
CONTINUOUS
100
AcDbLine
 10
2655.328476946415
 20
0.8306121548482678
 30
0.0
 11
2655.706128319543
 21
1.208263525793654
 31
0.0
  0
LINE
  5
1159
330
1F
100
AcDbEntity
  8
SPOJOVACÍ
  6
CONTINUOUS
100
AcDbLine
 10
2655.328476946415
 20
0.8306121548482678
 30
0.0
 11
2655.109885634396
 21
1.208263525793654
 31
0.0
  0
LINE
  5
115A
330
1F
100
AcDbEntity
  8
SPOJOVACÍ
  6
CONTINUOUS
100
AcDbLine
 10
2658.342246524735
 20
0.2659954443768129
 30
0.0
 11
2657.708796807964
 21
3.382084360807994
 31
0.0
  0
LINE
  5
115B
330
1F
100
AcDbEntity
  8
SPOJOVACÍ
  6
CONTINUOUS
100
AcDbLine
 10
2658.720828073841
 20
0.6436468196877741
 30
0.0
 11
2657.926457944013
 21
3.004432989862607
 31
0.0
  0
LINE
  5
115C
330
1F
100
AcDbEntity
  8
SPOJOVACÍ
  6
CONTINUOUS
100
AcDbLine
 10
2658.124585388686
 20
0.6436468196877741
 30
0.0
 11
2657.330215259134
 21
3.004432989862607
 31
0.0
  0
LINE
  5
115D
330
1F
100
AcDbEntity
  8
SPOJOVACÍ
  6
CONTINUOUS
100
AcDbLine
 10
2657.708796807964
 20
3.382084360807994
 30
0.0
 11
2657.926457944013
 21
3.004432989862607
 31
0.0
  0
LINE
  5
115E
330
1F
100
AcDbEntity
  8
SPOJOVACÍ
  6
CONTINUOUS
100
AcDbLine
 10
2657.708796807964
 20
3.382084360807994
 30
0.0
 11
2657.330215259134
 21
3.004432989862607
 31
0.0
  0
LINE
  5
115F
330
1F
100
AcDbEntity
  8
SPOJOVACÍ
  6
CONTINUOUS
100
AcDbLine
 10
2658.342246524735
 20
0.2659954443768129
 30
0.0
 11
2658.720828073841
 21
0.6436468196877741
 31
0.0
  0
LINE
  5
1160
330
1F
100
AcDbEntity
  8
SPOJOVACÍ
  6
CONTINUOUS
100
AcDbLine
 10
2658.342246524735
 20
0.2659954443768129
 30
0.0
 11
2658.124585388686
 21
0.6436468196877741
 31
0.0
  0
LINE
  5
1161
330
1F
100
AcDbEntity
  8
SPOJOVACÍ
  6
CONTINUOUS
100
AcDbLine
 10
2661.356946279033
 20
-0.2986212617290675
 30
0.0
 11
2660.383982396728
 21
3.82670839101388
 31
0.0
  0
LINE
  5
1162
330
1F
100
AcDbEntity
  8
SPOJOVACÍ
  6
CONTINUOUS
100
AcDbLine
 10
2661.734597652161
 20
0.0799602865552061
 30
0.0
 11
2660.601643532777
 21
3.449057020068494
 31
0.0
  0
LINE
  5
1163
330
1F
100
AcDbEntity
  8
SPOJOVACÍ
  6
CONTINUOUS
100
AcDbLine
 10
2661.138354967006
 20
0.0799602865552061
 30
0.0
 11
2660.005400847621
 21
3.449057020068494
 31
0.0
  0
LINE
  5
1164
330
1F
100
AcDbEntity
  8
SPOJOVACÍ
  6
CONTINUOUS
100
AcDbLine
 10
2660.383982396728
 20
3.82670839101388
 30
0.0
 11
2660.601643532777
 21
3.449057020068494
 31
0.0
  0
LINE
  5
1165
330
1F
100
AcDbEntity
  8
SPOJOVACÍ
  6
CONTINUOUS
100
AcDbLine
 10
2660.383982396728
 20
3.82670839101388
 30
0.0
 11
2660.005400847621
 21
3.449057020068494
 31
0.0
  0
LINE
  5
1166
330
1F
100
AcDbEntity
  8
SPOJOVACÍ
  6
CONTINUOUS
100
AcDbLine
 10
2661.356946279033
 20
-0.2986212617290675
 30
0.0
 11
2661.734597652161
 21
0.0799602865552061
 31
0.0
  0
LINE
  5
1167
330
1F
100
AcDbEntity
  8
SPOJOVACÍ
  6
CONTINUOUS
100
AcDbLine
 10
2661.356946279033
 20
-0.2986212617290675
 30
0.0
 11
2661.138354967006
 21
0.0799602865552061
 31
0.0
  0
LINE
  5
1168
330
1F
100
AcDbEntity
  8
SPOJOVACÍ
  6
CONTINUOUS
100
AcDbLine
 10
2674.171978217622
 20
-0.1749078808391005
 30
0.0
 11
2672.812991379782
 21
3.86949647875349
 31
0.0
  0
LINE
  5
1169
330
1F
100
AcDbEntity
  8
SPOJOVACÍ
  6
CONTINUOUS
100
AcDbLine
 10
2673.575735532467
 20
-0.1749078808391005
 30
0.0
 11
2672.216748694903
 21
3.86949647875349
 31
0.0
  0
LINE
  5
116A
330
1F
100
AcDbEntity
  8
SPOJOVACÍ
  6
CONTINUOUS
100
AcDbLine
 10
2672.594400067755
 20
4.247147849698876
 30
0.0
 11
2672.812991379782
 21
3.86949647875349
 31
0.0
  0
LINE
  5
116B
330
1F
100
AcDbEntity
  8
SPOJOVACÍ
  6
CONTINUOUS
100
AcDbLine
 10
2672.594400067755
 20
4.247147849698876
 30
0.0
 11
2672.216748694903
 21
3.86949647875349
 31
0.0
  0
LINE
  5
116C
330
1F
100
AcDbEntity
  8
SPOJOVACÍ
  6
CONTINUOUS
100
AcDbLine
 10
2673.794326844494
 20
-0.5525592561500617
 30
0.0
 11
2674.171978217622
 21
-0.1749078808391005
 31
0.0
  0
LINE
  5
116D
330
1F
100
AcDbEntity
  8
SPOJOVACÍ
  6
CONTINUOUS
100
AcDbLine
 10
2673.794326844494
 20
-0.5525592561500617
 30
0.0
 11
2673.575735532467
 21
-0.1749078808391005
 31
0.0
  0
LINE
  5
116E
330
1F
100
AcDbEntity
  8
SPOJOVACÍ
  6
CONTINUOUS
100
AcDbLine
 10
2673.794326844494
 20
-0.5525592561500617
 30
0.0
 11
2672.594400067755
 21
4.247147849698876
 31
0.0
  0
LINE
  5
116F
330
1F
100
AcDbEntity
  8
SPOJOVACÍ
  6
CONTINUOUS
100
AcDbLine
 10
2677.292718012286
 20
-0.1749078808391005
 30
0.0
 11
2675.93280099902
 21
3.86949647875349
 31
0.0
  0
LINE
  5
1170
330
1F
100
AcDbEntity
  8
SPOJOVACÍ
  6
CONTINUOUS
100
AcDbLine
 10
2676.696475327407
 20
-0.1749078808391005
 30
0.0
 11
2675.336558313865
 21
3.86949647875349
 31
0.0
  0
LINE
  5
1171
330
1F
100
AcDbEntity
  8
SPOJOVACÍ
  6
CONTINUOUS
100
AcDbLine
 10
2675.714209686994
 20
4.247147849698876
 30
0.0
 11
2675.93280099902
 21
3.86949647875349
 31
0.0
  0
LINE
  5
1172
330
1F
100
AcDbEntity
  8
SPOJOVACÍ
  6
CONTINUOUS
100
AcDbLine
 10
2675.714209686994
 20
4.247147849698876
 30
0.0
 11
2675.336558313865
 21
3.86949647875349
 31
0.0
  0
LINE
  5
1173
330
1F
100
AcDbEntity
  8
SPOJOVACÍ
  6
CONTINUOUS
100
AcDbLine
 10
2676.914136463456
 20
-0.5525592561500617
 30
0.0
 11
2677.292718012286
 21
-0.1749078808391005
 31
0.0
  0
LINE
  5
1174
330
1F
100
AcDbEntity
  8
SPOJOVACÍ
  6
CONTINUOUS
100
AcDbLine
 10
2676.914136463456
 20
-0.5525592561500617
 30
0.0
 11
2676.696475327407
 21
-0.1749078808391005
 31
0.0
  0
LINE
  5
1175
330
1F
100
AcDbEntity
  8
SPOJOVACÍ
  6
CONTINUOUS
100
AcDbLine
 10
2676.914136463456
 20
-0.5525592561500617
 30
0.0
 11
2675.714209686994
 21
4.247147849698876
 31
0.0
  0
LINE
  5
1176
330
1F
100
AcDbEntity
  8
SPOJOVACÍ
  6
CONTINUOUS
100
AcDbLine
 10
2660.778376934126
 20
2.951412968857539
 30
0.0
 11
2662.749419445412
 21
3.196979380325274
 31
0.0
  0
LINE
  5
1177
330
1F
100
AcDbEntity
  8
SPOJOVACÍ
  6
CONTINUOUS
100
AcDbLine
 10
2658.071565368227
 20
2.612828976296214
 30
0.0
 11
2660.20817917108
 21
2.879789431633753
 31
0.0
  0
LINE
  5
1178
330
1F
100
AcDbEntity
  8
SPOJOVACÍ
  6
CONTINUOUS
100
AcDbLine
 10
2655.354521868794
 20
2.27331481512715
 30
0.0
 11
2657.499507253778
 21
2.541205443438002
 31
0.0
  0
LINE
  5
1179
330
1F
100
AcDbEntity
  8
SPOJOVACÍ
  6
CONTINUOUS
100
AcDbLine
 10
2655.038262098264
 20
1.461271342875761
 30
0.0
 11
2651.949148280459
 21
1.847294296774407
 31
0.0
  0
LINE
  5
117A
330
1F
100
AcDbEntity
  8
SPOJOVACÍ
  6
CONTINUOUS
100
AcDbLine
 10
2657.979477964472
 20
1.093851905195833
 30
0.0
 11
2655.658689354117
 21
1.384066750349802
 31
0.0
  0
LINE
  5
117B
330
1F
100
AcDbEntity
  8
SPOJOVACÍ
  6
CONTINUOUS
100
AcDbLine
 10
2660.931855940201
 20
0.724572112838132
 30
0.0
 11
2658.610137154137
 21
1.014786962357675
 31
0.0
  0
LINE
  5
117C
330
1F
100
AcDbEntity
  8
SPOJOVACÍ
  6
CONTINUOUS
100
AcDbLine
 10
2651.949148280459
 20
1.847294296774407
 30
0.0
 11
2654.785254281727
 21
2.201691277903364
 31
0.0
  0
LINE
  5
117D
330
1F
100
AcDbEntity
  8
SPOJOVACÍ
  6
CONTINUOUS
100
AcDbLine
 10
2662.749419445412
 20
0.4976092175891154
 30
0.0
 11
2661.552283196055
 21
0.647367520312173
 31
0.0
  0
LINE
  5
117E
330
1F
100
AcDbEntity
  8
SPOJOVACÍ
  6
CONTINUOUS
100
AcDbLine
 10
2663.086143083296
 20
3.196979380325274
 30
0.0
 11
2662.749419445412
 21
3.196979380325274
 31
0.0
  0
LINE
  5
117F
330
1F
100
AcDbEntity
  8
SPOJOVACÍ
  6
CONTINUOUS
100
AcDbLine
 10
2666.208743229908
 20
3.196979380325274
 30
0.0
 11
2663.689827174879
 21
3.196979380325274
 31
0.0
  0
LINE
  5
1180
330
1F
100
AcDbEntity
  8
SPOJOVACÍ
  6
CONTINUOUS
100
AcDbLine
 10
2663.9967851873
 20
0.4976092175891154
 30
0.0
 11
2662.749419445412
 21
0.4976092175891154
 31
0.0
  0
LINE
  5
1181
330
1F
100
AcDbEntity
  8
SPOJOVACÍ
  6
CONTINUOUS
100
AcDbLine
 10
2667.111013751782
 20
0.4976092175891154
 30
0.0
 11
2664.593027872455
 21
0.4976092175891154
 31
0.0
  0
LINE
  5
1182
330
1F
100
AcDbEntity
  8
SPOJOVACÍ
  6
CONTINUOUS
100
AcDbLine
 10
2669.33041320055
 20
3.196979380325274
 30
0.0
 11
2666.809636793841
 21
3.196979380325274
 31
0.0
  0
LINE
  5
1183
330
1F
100
AcDbEntity
  8
SPOJOVACÍ
  6
CONTINUOUS
100
AcDbLine
 10
2672.453013346894
 20
3.196979380325274
 30
0.0
 11
2669.924795534025
 21
3.196979380325274
 31
0.0
  0
LINE
  5
1184
330
1F
100
AcDbEntity
  8
SPOJOVACÍ
  6
CONTINUOUS
100
AcDbLine
 10
2675.568172087078
 20
3.196979380325274
 30
0.0
 11
2673.049256032049
 21
3.196979380325274
 31
0.0
  0
LINE
  5
1185
330
1F
100
AcDbEntity
  8
SPOJOVACÍ
  6
CONTINUOUS
100
AcDbLine
 10
2670.243845831937
 20
0.4976092175891154
 30
0.0
 11
2667.715628019068
 21
0.4976092175891154
 31
0.0
  0
LINE
  5
1186
330
1F
100
AcDbEntity
  8
SPOJOVACÍ
  6
CONTINUOUS
100
AcDbLine
 10
2673.359004572121
 20
0.4976092175891154
 30
0.0
 11
2670.838228165412
 21
0.4976092175891154
 31
0.0
  0
LINE
  5
1187
330
1F
100
AcDbEntity
  8
SPOJOVACÍ
  6
CONTINUOUS
100
AcDbLine
 10
2676.481604718464
 20
0.4976092175891154
 30
0.0
 11
2673.962688663436
 21
0.4976092175891154
 31
0.0
  0
LINE
  5
1188
330
1F
100
AcDbEntity
  8
SPOJOVACÍ
  6
CONTINUOUS
100
AcDbLine
 10
2681.114810357321
 20
0.4976092175891154
 30
0.0
 11
2677.076917227641
 21
0.4976092175891154
 31
0.0
  0
LINE
  5
1189
330
1F
100
AcDbEntity
  8
SPOJOVACÍ
  6
CONTINUOUS
100
AcDbLine
 10
2681.114810357321
 20
3.196979380325274
 30
0.0
 11
2676.171856178393
 21
3.196979380325274
 31
0.0
  0
LINE
  5
118A
330
1F
100
AcDbEntity
  8
SPOJOVACÍ
  6
CONTINUOUS
100
AcDbLine
 10
2683.382578947494
 20
0.003685871368134
 30
0.0
 11
2681.901739080444
 21
0.4315667356675022
 31
0.0
  0
LINE
  5
118B
330
1F
100
AcDbEntity
  8
SPOJOVACÍ
  6
CONTINUOUS
100
AcDbLine
 10
2681.901739080444
 20
0.4315667356675022
 30
0.0
 11
2681.114810357321
 21
0.4976092175891154
 31
0.0
  0
LINE
  5
118C
330
1F
100
AcDbEntity
  8
SPOJOVACÍ
  6
CONTINUOUS
100
AcDbLine
 10
2681.114810357321
 20
3.196979380325274
 30
0.0
 11
2682.63843831075
 21
3.423942271208716
 31
0.0
  0
LINE
  5
118D
330
1F
100
AcDbEntity
  8
SPOJOVACÍ
  6
CONTINUOUS
100
AcDbLine
 10
2686.514480851678
 20
-3.252859591859532
 30
0.0
 11
2685.770340215203
 21
-1.903174508308666
 31
0.0
  0
LINE
  5
118E
330
1F
100
AcDbEntity
  8
SPOJOVACÍ
  6
CONTINUOUS
100
AcDbLine
 10
2685.770340215203
 20
-1.903174508308666
 30
0.0
 11
2684.701568225791
 21
-0.7925446079500489
 31
0.0
  0
LINE
  5
118F
330
1F
100
AcDbEntity
  8
SPOJOVACÍ
  6
CONTINUOUS
100
AcDbLine
 10
2687.714407628409
 20
-3.252859591859532
 30
0.0
 11
2686.514480851678
 21
-3.252859591859532
 31
0.0
  0
LINE
  5
1190
330
1F
100
AcDbEntity
  8
SPOJOVACÍ
  6
CONTINUOUS
100
AcDbLine
 10
2682.63843831075
 20
3.423942271208716
 30
0.0
 11
2684.052305520454
 21
4.036928120356378
 31
0.0
  0
LINE
  5
1191
330
1F
100
AcDbEntity
  8
SPOJOVACÍ
  6
CONTINUOUS
100
AcDbLine
 10
2684.701568225791
 20
-0.7925446079500489
 30
0.0
 11
2683.382578947494
 21
0.003685871368134
 31
0.0
  0
LINE
  5
1192
330
1F
100
AcDbEntity
  8
SPOJOVACÍ
  6
CONTINUOUS
100
AcDbLine
 10
2687.714407628409
 20
27.41730827752667
 30
0.0
 11
2687.714407628409
 21
37.61761605479455
 31
0.0
  0
LINE
  5
1193
330
1F
100
AcDbEntity
  8
SPOJOVACÍ
  6
CONTINUOUS
100
AcDbLine
 10
2684.701568225791
 20
29.87762326143615
 30
0.0
 11
2683.382578947494
 21
30.67385374075433
 31
0.0
  0
LINE
  5
1194
330
1F
100
AcDbEntity
  8
SPOJOVACÍ
  6
CONTINUOUS
100
AcDbLine
 10
2682.63843831075
 20
34.09411014059492
 30
0.0
 11
2684.052305520454
 21
34.70709598974258
 31
0.0
  0
LINE
  5
1195
330
1F
100
AcDbEntity
  8
SPOJOVACÍ
  6
CONTINUOUS
100
AcDbLine
 10
2687.714407628409
 20
27.41730827752667
 30
0.0
 11
2686.514480851678
 21
27.41730827752667
 31
0.0
  0
LINE
  5
1196
330
1F
100
AcDbEntity
  8
SPOJOVACÍ
  6
CONTINUOUS
100
AcDbLine
 10
2685.770340215203
 20
28.76699336107753
 30
0.0
 11
2684.701568225791
 21
29.87762326143615
 31
0.0
  0
LINE
  5
1197
330
1F
100
AcDbEntity
  8
SPOJOVACÍ
  6
CONTINUOUS
100
AcDbLine
 10
2686.514480851678
 20
27.41730827752667
 30
0.0
 11
2685.770340215203
 21
28.76699336107753
 31
0.0
  0
LINE
  5
1198
330
1F
100
AcDbEntity
  8
SPOJOVACÍ
  6
CONTINUOUS
100
AcDbLine
 10
2687.714407628409
 20
37.61761605479455
 30
0.0
 11
2686.514480851678
 21
37.61761605479455
 31
0.0
  0
LINE
  5
1199
330
1F
100
AcDbEntity
  8
SPOJOVACÍ
  6
CONTINUOUS
100
AcDbLine
 10
2686.514480851678
 20
27.41730827752667
 30
0.0
 11
2686.514480851678
 21
37.61761605479455
 31
0.0
  0
LINE
  5
119A
330
1F
100
AcDbEntity
  8
SPOJOVACÍ
  6
CONTINUOUS
100
AcDbLine
 10
2686.177757213794
 20
36.90231086862672
 30
0.0
 11
2686.514480851678
 21
37.61761605479455
 31
0.0
  0
LINE
  5
119B
330
1F
100
AcDbEntity
  8
SPOJOVACÍ
  6
CONTINUOUS
100
AcDbLine
 10
2685.259673703352
 20
35.66517705972705
 30
0.0
 11
2686.177757213794
 21
36.90231086862672
 31
0.0
  0
LINE
  5
119C
330
1F
100
AcDbEntity
  8
SPOJOVACÍ
  6
CONTINUOUS
100
AcDbLine
 10
2681.114810357321
 20
33.86714724971148
 30
0.0
 11
2682.63843831075
 21
34.09411014059492
 31
0.0
  0
LINE
  5
119D
330
1F
100
AcDbEntity
  8
SPOJOVACÍ
  6
CONTINUOUS
100
AcDbLine
 10
2681.901739080444
 20
31.1017346050537
 30
0.0
 11
2681.114810357321
 21
31.16777708697532
 31
0.0
  0
LINE
  5
119E
330
1F
100
AcDbEntity
  8
SPOJOVACÍ
  6
CONTINUOUS
100
AcDbLine
 10
2683.382578947494
 20
30.67385374075433
 30
0.0
 11
2681.901739080444
 21
31.1017346050537
 31
0.0
  0
LINE
  5
119F
330
1F
100
AcDbEntity
  8
SPOJOVACÍ
  6
CONTINUOUS
100
AcDbLine
 10
2681.114810357321
 20
33.86714724971148
 30
0.0
 11
2676.171856178393
 21
33.86714724971148
 31
0.0
  0
LINE
  5
11A0
330
1F
100
AcDbEntity
  8
SPOJOVACÍ
  6
CONTINUOUS
100
AcDbLine
 10
2681.114810357321
 20
31.16777708697532
 30
0.0
 11
2677.076917227641
 21
31.16777708697532
 31
0.0
  0
LINE
  5
11A1
330
1F
100
AcDbEntity
  8
SPOJOVACÍ
  6
CONTINUOUS
100
AcDbLine
 10
2676.481604718464
 20
31.16777708697532
 30
0.0
 11
2673.962688663436
 21
31.16777708697532
 31
0.0
  0
LINE
  5
11A2
330
1F
100
AcDbEntity
  8
SPOJOVACÍ
  6
CONTINUOUS
100
AcDbLine
 10
2673.359004572121
 20
31.16777708697532
 30
0.0
 11
2670.838228165412
 21
31.16777708697532
 31
0.0
  0
LINE
  5
11A3
330
1F
100
AcDbEntity
  8
SPOJOVACÍ
  6
CONTINUOUS
100
AcDbLine
 10
2670.243845831937
 20
31.16777708697532
 30
0.0
 11
2667.715628019068
 21
31.16777708697532
 31
0.0
  0
LINE
  5
11A4
330
1F
100
AcDbEntity
  8
SPOJOVACÍ
  6
CONTINUOUS
100
AcDbLine
 10
2675.568172087078
 20
33.86714724971148
 30
0.0
 11
2673.049256032049
 21
33.86714724971148
 31
0.0
  0
LINE
  5
11A5
330
1F
100
AcDbEntity
  8
SPOJOVACÍ
  6
CONTINUOUS
100
AcDbLine
 10
2672.453013346894
 20
33.86714724971148
 30
0.0
 11
2669.924795534025
 21
33.86714724971148
 31
0.0
  0
LINE
  5
11A6
330
1F
100
AcDbEntity
  8
SPOJOVACÍ
  6
CONTINUOUS
100
AcDbLine
 10
2669.33041320055
 20
33.86714724971148
 30
0.0
 11
2666.809636793841
 21
33.86714724971148
 31
0.0
  0
LINE
  5
11A7
330
1F
100
AcDbEntity
  8
SPOJOVACÍ
  6
CONTINUOUS
100
AcDbLine
 10
2667.111013751782
 20
31.16777708697532
 30
0.0
 11
2664.593027872455
 21
31.16777708697532
 31
0.0
  0
LINE
  5
11A8
330
1F
100
AcDbEntity
  8
SPOJOVACÍ
  6
CONTINUOUS
100
AcDbLine
 10
2663.9967851873
 20
31.16777708697532
 30
0.0
 11
2662.749419445412
 21
31.16777708697532
 31
0.0
  0
LINE
  5
11A9
330
1F
100
AcDbEntity
  8
SPOJOVACÍ
  6
CONTINUOUS
100
AcDbLine
 10
2666.208743229908
 20
33.86714724971148
 30
0.0
 11
2663.689827174879
 21
33.86714724971148
 31
0.0
  0
LINE
  5
11AA
330
1F
100
AcDbEntity
  8
SPOJOVACÍ
  6
CONTINUOUS
100
AcDbLine
 10
2663.086143083296
 20
33.86714724971148
 30
0.0
 11
2662.749419445412
 21
33.86714724971148
 31
0.0
  0
LINE
  5
11AB
330
1F
100
AcDbEntity
  8
SPOJOVACÍ
  6
CONTINUOUS
100
AcDbLine
 10
2662.749419445412
 20
31.16777708697532
 30
0.0
 11
2661.552283196055
 21
31.31753538969837
 31
0.0
  0
LINE
  5
11AC
330
1F
100
AcDbEntity
  8
SPOJOVACÍ
  6
CONTINUOUS
100
AcDbLine
 10
2651.949148280459
 20
32.51746216616061
 30
0.0
 11
2654.785254281727
 21
32.87185914728957
 31
0.0
  0
LINE
  5
11AD
330
1F
100
AcDbEntity
  8
SPOJOVACÍ
  6
CONTINUOUS
100
AcDbLine
 10
2660.931855940201
 20
31.39473998222433
 30
0.0
 11
2658.610137154137
 21
31.68495483174388
 31
0.0
  0
LINE
  5
11AE
330
1F
100
AcDbEntity
  8
SPOJOVACÍ
  6
CONTINUOUS
100
AcDbLine
 10
2657.979477964472
 20
31.76401977458203
 30
0.0
 11
2655.658689354117
 21
32.054234619736
 31
0.0
  0
LINE
  5
11AF
330
1F
100
AcDbEntity
  8
SPOJOVACÍ
  6
CONTINUOUS
100
AcDbLine
 10
2655.038262098264
 20
32.13143921226196
 30
0.0
 11
2651.949148280459
 21
32.51746216616061
 31
0.0
  0
LINE
  5
11B0
330
1F
100
AcDbEntity
  8
SPOJOVACÍ
  6
CONTINUOUS
100
AcDbLine
 10
2655.354521868794
 20
32.94348268451335
 30
0.0
 11
2657.499507253778
 21
33.2113733128242
 31
0.0
  0
LINE
  5
11B1
330
1F
100
AcDbEntity
  8
SPOJOVACÍ
  6
CONTINUOUS
100
AcDbLine
 10
2658.071565368227
 20
33.28299684568241
 30
0.0
 11
2660.20817917108
 21
33.54995730101995
 31
0.0
  0
LINE
  5
11B2
330
1F
100
AcDbEntity
  8
SPOJOVACÍ
  6
CONTINUOUS
100
AcDbLine
 10
2660.778376934126
 20
33.62158083824374
 30
0.0
 11
2662.749419445412
 21
33.86714724971148
 31
0.0
  0
LINE
  5
11B3
330
1F
100
AcDbEntity
  8
SPOJOVACÍ
  6
CONTINUOUS
100
AcDbLine
 10
2676.914136463456
 20
30.11760861323614
 30
0.0
 11
2675.714209686994
 21
34.91731571908508
 31
0.0
  0
LINE
  5
11B4
330
1F
100
AcDbEntity
  8
SPOJOVACÍ
  6
CONTINUOUS
100
AcDbLine
 10
2676.914136463456
 20
30.11760861323614
 30
0.0
 11
2676.696475327407
 21
30.4952599885471
 31
0.0
  0
LINE
  5
11B5
330
1F
100
AcDbEntity
  8
SPOJOVACÍ
  6
CONTINUOUS
100
AcDbLine
 10
2676.914136463456
 20
30.11760861323614
 30
0.0
 11
2677.292718012286
 21
30.4952599885471
 31
0.0
  0
LINE
  5
11B6
330
1F
100
AcDbEntity
  8
SPOJOVACÍ
  6
CONTINUOUS
100
AcDbLine
 10
2675.714209686994
 20
34.91731571908508
 30
0.0
 11
2675.336558313865
 21
34.53966434813969
 31
0.0
  0
LINE
  5
11B7
330
1F
100
AcDbEntity
  8
SPOJOVACÍ
  6
CONTINUOUS
100
AcDbLine
 10
2675.714209686994
 20
34.91731571908508
 30
0.0
 11
2675.93280099902
 21
34.53966434813969
 31
0.0
  0
LINE
  5
11B8
330
1F
100
AcDbEntity
  8
SPOJOVACÍ
  6
CONTINUOUS
100
AcDbLine
 10
2676.696475327407
 20
30.4952599885471
 30
0.0
 11
2675.336558313865
 21
34.53966434813969
 31
0.0
  0
LINE
  5
11B9
330
1F
100
AcDbEntity
  8
SPOJOVACÍ
  6
CONTINUOUS
100
AcDbLine
 10
2677.292718012286
 20
30.4952599885471
 30
0.0
 11
2675.93280099902
 21
34.53966434813969
 31
0.0
  0
LINE
  5
11BA
330
1F
100
AcDbEntity
  8
SPOJOVACÍ
  6
CONTINUOUS
100
AcDbLine
 10
2673.794326844494
 20
30.11760861323614
 30
0.0
 11
2672.594400067755
 21
34.91731571908508
 31
0.0
  0
LINE
  5
11BB
330
1F
100
AcDbEntity
  8
SPOJOVACÍ
  6
CONTINUOUS
100
AcDbLine
 10
2673.794326844494
 20
30.11760861323614
 30
0.0
 11
2673.575735532467
 21
30.4952599885471
 31
0.0
  0
LINE
  5
11BC
330
1F
100
AcDbEntity
  8
SPOJOVACÍ
  6
CONTINUOUS
100
AcDbLine
 10
2673.794326844494
 20
30.11760861323614
 30
0.0
 11
2674.171978217622
 21
30.4952599885471
 31
0.0
  0
LINE
  5
11BD
330
1F
100
AcDbEntity
  8
SPOJOVACÍ
  6
CONTINUOUS
100
AcDbLine
 10
2672.594400067755
 20
34.91731571908508
 30
0.0
 11
2672.216748694903
 21
34.53966434813969
 31
0.0
  0
LINE
  5
11BE
330
1F
100
AcDbEntity
  8
SPOJOVACÍ
  6
CONTINUOUS
100
AcDbLine
 10
2672.594400067755
 20
34.91731571908508
 30
0.0
 11
2672.812991379782
 21
34.53966434813969
 31
0.0
  0
LINE
  5
11BF
330
1F
100
AcDbEntity
  8
SPOJOVACÍ
  6
CONTINUOUS
100
AcDbLine
 10
2673.575735532467
 20
30.4952599885471
 30
0.0
 11
2672.216748694903
 21
34.53966434813969
 31
0.0
  0
LINE
  5
11C0
330
1F
100
AcDbEntity
  8
SPOJOVACÍ
  6
CONTINUOUS
100
AcDbLine
 10
2674.171978217622
 20
30.4952599885471
 30
0.0
 11
2672.812991379782
 21
34.53966434813969
 31
0.0
  0
LINE
  5
11C1
330
1F
100
AcDbEntity
  8
SPOJOVACÍ
  6
CONTINUOUS
100
AcDbLine
 10
2661.356946279033
 20
30.37154660765713
 30
0.0
 11
2661.138354967006
 21
30.75012815594141
 31
0.0
  0
LINE
  5
11C2
330
1F
100
AcDbEntity
  8
SPOJOVACÍ
  6
CONTINUOUS
100
AcDbLine
 10
2661.356946279033
 20
30.37154660765713
 30
0.0
 11
2661.734597652161
 21
30.75012815594141
 31
0.0
  0
LINE
  5
11C3
330
1F
100
AcDbEntity
  8
SPOJOVACÍ
  6
CONTINUOUS
100
AcDbLine
 10
2660.383982396728
 20
34.49687626040008
 30
0.0
 11
2660.005400847621
 21
34.1192248894547
 31
0.0
  0
LINE
  5
11C4
330
1F
100
AcDbEntity
  8
SPOJOVACÍ
  6
CONTINUOUS
100
AcDbLine
 10
2660.383982396728
 20
34.49687626040008
 30
0.0
 11
2660.601643532777
 21
34.1192248894547
 31
0.0
  0
LINE
  5
11C5
330
1F
100
AcDbEntity
  8
SPOJOVACÍ
  6
CONTINUOUS
100
AcDbLine
 10
2661.138354967006
 20
30.75012815594141
 30
0.0
 11
2660.005400847621
 21
34.1192248894547
 31
0.0
  0
LINE
  5
11C6
330
1F
100
AcDbEntity
  8
SPOJOVACÍ
  6
CONTINUOUS
100
AcDbLine
 10
2661.734597652161
 20
30.75012815594141
 30
0.0
 11
2660.601643532777
 21
34.1192248894547
 31
0.0
  0
LINE
  5
11C7
330
1F
100
AcDbEntity
  8
SPOJOVACÍ
  6
CONTINUOUS
100
AcDbLine
 10
2661.356946279033
 20
30.37154660765713
 30
0.0
 11
2660.383982396728
 21
34.49687626040008
 31
0.0
  0
LINE
  5
11C8
330
1F
100
AcDbEntity
  8
SPOJOVACÍ
  6
CONTINUOUS
100
AcDbLine
 10
2658.342246524735
 20
30.93616331376301
 30
0.0
 11
2658.124585388686
 21
31.31381468907397
 31
0.0
  0
LINE
  5
11C9
330
1F
100
AcDbEntity
  8
SPOJOVACÍ
  6
CONTINUOUS
100
AcDbLine
 10
2658.342246524735
 20
30.93616331376301
 30
0.0
 11
2658.720828073841
 21
31.31381468907397
 31
0.0
  0
LINE
  5
11CA
330
1F
100
AcDbEntity
  8
SPOJOVACÍ
  6
CONTINUOUS
100
AcDbLine
 10
2657.708796807964
 20
34.05225223019419
 30
0.0
 11
2657.330215259134
 21
33.67460085924881
 31
0.0
  0
LINE
  5
11CB
330
1F
100
AcDbEntity
  8
SPOJOVACÍ
  6
CONTINUOUS
100
AcDbLine
 10
2657.708796807964
 20
34.05225223019419
 30
0.0
 11
2657.926457944013
 21
33.67460085924881
 31
0.0
  0
LINE
  5
11CC
330
1F
100
AcDbEntity
  8
SPOJOVACÍ
  6
CONTINUOUS
100
AcDbLine
 10
2658.124585388686
 20
31.31381468907397
 30
0.0
 11
2657.330215259134
 21
33.67460085924881
 31
0.0
  0
LINE
  5
11CD
330
1F
100
AcDbEntity
  8
SPOJOVACÍ
  6
CONTINUOUS
100
AcDbLine
 10
2658.720828073841
 20
31.31381468907397
 30
0.0
 11
2657.926457944013
 21
33.67460085924881
 31
0.0
  0
LINE
  5
11CE
330
1F
100
AcDbEntity
  8
SPOJOVACÍ
  6
CONTINUOUS
100
AcDbLine
 10
2658.342246524735
 20
30.93616331376301
 30
0.0
 11
2657.708796807964
 21
34.05225223019419
 31
0.0
  0
LINE
  5
11CF
330
1F
100
AcDbEntity
  8
SPOJOVACÍ
  6
CONTINUOUS
100
AcDbLine
 10
2655.328476946415
 20
31.50078002423447
 30
0.0
 11
2655.109885634396
 21
31.87843139517986
 31
0.0
  0
LINE
  5
11D0
330
1F
100
AcDbEntity
  8
SPOJOVACÍ
  6
CONTINUOUS
100
AcDbLine
 10
2655.328476946415
 20
31.50078002423447
 30
0.0
 11
2655.706128319543
 21
31.87843139517986
 31
0.0
  0
LINE
  5
11D1
330
1F
100
AcDbEntity
  8
SPOJOVACÍ
  6
CONTINUOUS
100
AcDbLine
 10
2655.017798230641
 20
33.6550671656912
 30
0.0
 11
2654.639216681811
 21
33.27741579474582
 31
0.0
  0
LINE
  5
11D2
330
1F
100
AcDbEntity
  8
SPOJOVACÍ
  6
CONTINUOUS
100
AcDbLine
 10
2655.017798230641
 20
33.6550671656912
 30
0.0
 11
2655.235459366958
 21
33.27741579474582
 31
0.0
  0
LINE
  5
11D3
330
1F
100
AcDbEntity
  8
SPOJOVACÍ
  6
CONTINUOUS
100
AcDbLine
 10
2655.109885634396
 20
31.87843139517986
 30
0.0
 11
2654.639216681811
 21
33.27741579474582
 31
0.0
  0
LINE
  5
11D4
330
1F
100
AcDbEntity
  8
SPOJOVACÍ
  6
CONTINUOUS
100
AcDbLine
 10
2655.706128319543
 20
31.87843139517986
 30
0.0
 11
2655.235459366958
 21
33.27741579474582
 31
0.0
  0
LINE
  5
11D5
330
1F
100
AcDbEntity
  8
SPOJOVACÍ
  6
CONTINUOUS
100
AcDbLine
 10
2655.328476946415
 20
31.50078002423447
 30
0.0
 11
2655.017798230641
 21
33.6550671656912
 31
0.0
  0
LINE
  5
11D6
330
1F
100
AcDbEntity
  8
SPOJOVACÍ
  6
CONTINUOUS
100
AcDbLine
 10
2670.674517225256
 20
30.11760861323614
 30
0.0
 11
2669.474590448793
 21
34.91731571908508
 31
0.0
  0
LINE
  5
11D7
330
1F
100
AcDbEntity
  8
SPOJOVACÍ
  6
CONTINUOUS
100
AcDbLine
 10
2670.674517225256
 20
30.11760861323614
 30
0.0
 11
2670.455925913229
 21
30.4952599885471
 31
0.0
  0
LINE
  5
11D8
330
1F
100
AcDbEntity
  8
SPOJOVACÍ
  6
CONTINUOUS
100
AcDbLine
 10
2670.674517225256
 20
30.11760861323614
 30
0.0
 11
2671.052168598384
 21
30.4952599885471
 31
0.0
  0
LINE
  5
11D9
330
1F
100
AcDbEntity
  8
SPOJOVACÍ
  6
CONTINUOUS
100
AcDbLine
 10
2669.474590448793
 20
34.91731571908508
 30
0.0
 11
2669.096008899964
 21
34.53966434813969
 31
0.0
  0
LINE
  5
11DA
330
1F
100
AcDbEntity
  8
SPOJOVACÍ
  6
CONTINUOUS
100
AcDbLine
 10
2669.474590448793
 20
34.91731571908508
 30
0.0
 11
2669.692251585111
 21
34.53966434813969
 31
0.0
  0
LINE
  5
11DB
330
1F
100
AcDbEntity
  8
SPOJOVACÍ
  6
CONTINUOUS
100
AcDbLine
 10
2670.455925913229
 20
30.4952599885471
 30
0.0
 11
2669.096008899964
 21
34.53966434813969
 31
0.0
  0
LINE
  5
11DC
330
1F
100
AcDbEntity
  8
SPOJOVACÍ
  6
CONTINUOUS
100
AcDbLine
 10
2671.052168598384
 20
30.4952599885471
 30
0.0
 11
2669.692251585111
 21
34.53966434813969
 31
0.0
  0
LINE
  5
11DD
330
1F
100
AcDbEntity
  8
SPOJOVACÍ
  6
CONTINUOUS
100
AcDbLine
 10
2667.554707606286
 20
30.11760861323614
 30
0.0
 11
2666.354780829824
 21
34.91731571908508
 31
0.0
  0
LINE
  5
11DE
330
1F
100
AcDbEntity
  8
SPOJOVACÍ
  6
CONTINUOUS
100
AcDbLine
 10
2667.554707606286
 20
30.11760861323614
 30
0.0
 11
2667.336116294267
 21
30.4952599885471
 31
0.0
  0
LINE
  5
11DF
330
1F
100
AcDbEntity
  8
SPOJOVACÍ
  6
CONTINUOUS
100
AcDbLine
 10
2667.554707606286
 20
30.11760861323614
 30
0.0
 11
2667.932358979415
 21
30.4952599885471
 31
0.0
  0
LINE
  5
11E0
330
1F
100
AcDbEntity
  8
SPOJOVACÍ
  6
CONTINUOUS
100
AcDbLine
 10
2666.354780829824
 20
34.91731571908508
 30
0.0
 11
2665.976199280994
 21
34.53966434813969
 31
0.0
  0
LINE
  5
11E1
330
1F
100
AcDbEntity
  8
SPOJOVACÍ
  6
CONTINUOUS
100
AcDbLine
 10
2666.354780829824
 20
34.91731571908508
 30
0.0
 11
2666.572441965872
 21
34.53966434813969
 31
0.0
  0
LINE
  5
11E2
330
1F
100
AcDbEntity
  8
SPOJOVACÍ
  6
CONTINUOUS
100
AcDbLine
 10
2667.336116294267
 20
30.4952599885471
 30
0.0
 11
2665.976199280994
 21
34.53966434813969
 31
0.0
  0
LINE
  5
11E3
330
1F
100
AcDbEntity
  8
SPOJOVACÍ
  6
CONTINUOUS
100
AcDbLine
 10
2667.932358979415
 20
30.4952599885471
 30
0.0
 11
2666.572441965872
 21
34.53966434813969
 31
0.0
  0
LINE
  5
11E4
330
1F
100
AcDbEntity
  8
SPOJOVACÍ
  6
CONTINUOUS
100
AcDbLine
 10
2664.433967811346
 20
30.11760861323614
 30
0.0
 11
2663.234041034884
 21
34.91731571908508
 31
0.0
  0
LINE
  5
11E5
330
1F
100
AcDbEntity
  8
SPOJOVACÍ
  6
CONTINUOUS
100
AcDbLine
 10
2664.433967811346
 20
30.11760861323614
 30
0.0
 11
2664.216306675298
 21
30.4952599885471
 31
0.0
  0
LINE
  5
11E6
330
1F
100
AcDbEntity
  8
SPOJOVACÍ
  6
CONTINUOUS
100
AcDbLine
 10
2664.433967811346
 20
30.11760861323614
 30
0.0
 11
2664.812549360453
 21
30.4952599885471
 31
0.0
  0
LINE
  5
11E7
330
1F
100
AcDbEntity
  8
SPOJOVACÍ
  6
CONTINUOUS
100
AcDbLine
 10
2663.234041034884
 20
34.91731571908508
 30
0.0
 11
2662.856389661756
 21
34.53966434813969
 31
0.0
  0
LINE
  5
11E8
330
1F
100
AcDbEntity
  8
SPOJOVACÍ
  6
CONTINUOUS
100
AcDbLine
 10
2663.234041034884
 20
34.91731571908508
 30
0.0
 11
2663.452632346911
 21
34.53966434813969
 31
0.0
  0
LINE
  5
11E9
330
1F
100
AcDbEntity
  8
SPOJOVACÍ
  6
CONTINUOUS
100
AcDbLine
 10
2664.216306675298
 20
30.4952599885471
 30
0.0
 11
2662.856389661756
 21
34.53966434813969
 31
0.0
  0
LINE
  5
11EA
330
1F
100
AcDbEntity
  8
SPOJOVACÍ
  6
CONTINUOUS
100
AcDbLine
 10
2664.812549360453
 20
30.4952599885471
 30
0.0
 11
2663.452632346911
 21
34.53966434813969
 31
0.0
  0
LWPOLYLINE
  5
11EB
330
1F
100
AcDbEntity
  8
IZOLACE
100
AcDbPolyline
 90
        4
 70
     1
 43
0.0
 10
2687.714407628405
 20
15.68222286805007
 10
2687.714407628409
 20
20.68222286805371
 10
2675.714407628409
 20
20.68222286805371
 10
2675.714407628405
 20
15.68222286805007
  0
LINE
  5
11EC
330
1F
100
AcDbEntity
  8
CETRIS
100
AcDbLine
 10
2687.71440762846
 20
392.9818924745739
 30
0.0
 11
2687.714407628412
 21
106.1252481818014
 31
0.0
  0
LINE
  5
11EE
330
1F
100
AcDbEntity
  8
CETRIS
100
AcDbLine
 10
2687.714407628413
 20
15.68222286805007
 30
0.0
 11
2675.714407628405
 21
15.68222286805007
 31
0.0
  0
LINE
  5
11EF
330
1F
100
AcDbEntity
  8
CETRIS
100
AcDbLine
 10
2687.714407628413
 20
20.68222286805371
 30
0.0
 11
2675.714407628409
 21
20.68222286805371
 31
0.0
  0
LWPOLYLINE
  5
11F0
102
{ACAD_REACTORS
330
1DA2
102
}
330
1F
100
AcDbEntity
  8
IZOLACE
100
AcDbPolyline
 90
        4
 70
     1
 43
0.0
 10
2587.482153343662
 20
-419.4456607452068
 10
2587.482153343662
 20
-414.2276157640173
 10
2599.482153343662
 20
-414.2276157640173
 10
2599.482153343662
 20
-419.4456607452068
  0
LWPOLYLINE
  5
11F2
102
{ACAD_REACTORS
330
1DA2
102
}
330
1F
100
AcDbEntity
  8
IZOLACE
100
AcDbPolyline
 90
        4
 70
     1
 43
0.0
 10
2687.714407628413
 20
-419.4456607452068
 10
2687.714407628413
 20
-414.2276157640173
 10
2675.714407628413
 20
-414.2276157640173
 10
2675.714407628413
 20
-419.4456607452068
  0
LINE
  5
11F3
102
{ACAD_REACTORS
330
50BD
102
}
330
1F
100
AcDbEntity
  8
STAVBA_OBRYS
100
AcDbLine
 10
2700.275807325768
 20
98.8725505323066
 30
0.0
 11
2557.942456784232
 21
125.0875221971029
 31
0.0
  0
LINE
  5
11F4
102
{ACAD_REACTORS
330
50BD
102
}
330
1F
100
AcDbEntity
  8
STAVBA_OBRYS
100
AcDbLine
 10
2700.275807325768
 20
103.8116882474398
 30
0.0
 11
2557.942456784232
 21
130.0266599122362
 31
0.0
  0
ARC
  5
11F5
330
1F
100
AcDbEntity
  8
STAVBA_OBRYS
100
AcDbCircle
 10
2506.693377057552
 20
478.257703805191
 30
0.0
 40
30.75920541038431
100
AcDbArc
 50
328.6393089719886
 51
236.585687264536
  0
LINE
  5
11F6
330
1F
100
AcDbEntity
  8
STAVBA_OBRYS
100
AcDbLine
 10
2553.377055678451
 20
537.0328256701904
 30
0.0
 11
2589.547887726658
 21
422.9638405968787
 31
0.0
  0
LINE
  5
11F7
330
1F
100
AcDbEntity
  8
STAVBA_OBRYS
100
AcDbLine
 10
2625.728808766998
 20
537.0328256701904
 30
0.0
 11
2589.557976718785
 21
422.9638405968787
 31
0.0
  0
CIRCLE
  5
11F8
330
1F
100
AcDbEntity
  8
STAVBA_OBRYS
100
AcDbCircle
 10
2672.399841932132
 20
478.257703805191
 30
0.0
 40
30.75920541038431
  0
CIRCLE
  5
11F9
330
1F
100
AcDbEntity
  8
STAVBA_OBRYS
100
AcDbCircle
 10
2767.805471096111
 20
478.257703805191
 30
0.0
 40
30.75920541038431
  0
LINE
  5
11FA
330
1F
100
AcDbEntity
  8
SPOJOVACÍ
  6
CONTINUOUS
100
AcDbLine
 10
2640.800536171184
 20
-422.2291172320094
 30
0.0
 11
2635.108383525341
 21
-423.6521553934673
 31
0.0
  0
LINE
  5
11FB
330
1F
100
AcDbEntity
  8
SPOJOVACÍ
  6
CONTINUOUS
100
AcDbLine
 10
2640.800536171184
 20
-422.2291172320094
 30
0.0
 11
2640.352665243277
 21
-422.4872497355447
 31
0.0
  0
LINE
  5
11FC
330
1F
100
AcDbEntity
  8
SPOJOVACÍ
  6
CONTINUOUS
100
AcDbLine
 10
2640.800536171184
 20
-422.2291172320094
 30
0.0
 11
2640.352665243277
 21
-421.7801431761201
 31
0.0
  0
LINE
  5
11FD
330
1F
100
AcDbEntity
  8
SPOJOVACÍ
  6
CONTINUOUS
100
AcDbLine
 10
2635.108383525341
 20
-423.6521553934673
 30
0.0
 11
2635.55625444807
 21
-424.1000263187872
 31
0.0
  0
LINE
  5
11FE
330
1F
100
AcDbEntity
  8
SPOJOVACÍ
  6
CONTINUOUS
100
AcDbLine
 10
2635.108383525341
 20
-423.6521553934673
 30
0.0
 11
2635.55625444807
 21
-423.3929197593663
 31
0.0
  0
LINE
  5
11FF
330
1F
100
AcDbEntity
  8
SPOJOVACÍ
  6
CONTINUOUS
100
AcDbLine
 10
2640.352665243277
 20
-422.4872497355447
 30
0.0
 11
2635.55625444807
 21
-424.1000263187872
 31
0.0
  0
LINE
  5
1200
330
1F
100
AcDbEntity
  8
SPOJOVACÍ
  6
CONTINUOUS
100
AcDbLine
 10
2640.352665243277
 20
-421.7801431761201
 30
0.0
 11
2635.55625444807
 21
-423.3929197593663
 31
0.0
  0
LINE
  5
1201
330
1F
100
AcDbEntity
  8
SPOJOVACÍ
  6
CONTINUOUS
100
AcDbLine
 10
2640.800536171184
 20
-418.8331273177594
 30
0.0
 11
2635.108383525341
 21
-420.2561654792173
 31
0.0
  0
LINE
  5
1202
330
1F
100
AcDbEntity
  8
SPOJOVACÍ
  6
CONTINUOUS
100
AcDbLine
 10
2640.800536171184
 20
-418.8331273177594
 30
0.0
 11
2640.352665243277
 21
-419.0912598212946
 31
0.0
  0
LINE
  5
1203
330
1F
100
AcDbEntity
  8
SPOJOVACÍ
  6
CONTINUOUS
100
AcDbLine
 10
2640.800536171184
 20
-418.8331273177594
 30
0.0
 11
2640.352665243277
 21
-418.3841532618701
 31
0.0
  0
LINE
  5
1204
330
1F
100
AcDbEntity
  8
SPOJOVACÍ
  6
CONTINUOUS
100
AcDbLine
 10
2635.108383525341
 20
-420.2561654792173
 30
0.0
 11
2635.55625444807
 21
-420.7040364045371
 31
0.0
  0
LINE
  5
1205
330
1F
100
AcDbEntity
  8
SPOJOVACÍ
  6
CONTINUOUS
100
AcDbLine
 10
2635.108383525341
 20
-420.2561654792173
 30
0.0
 11
2635.55625444807
 21
-419.9969298451162
 31
0.0
  0
LINE
  5
1206
330
1F
100
AcDbEntity
  8
SPOJOVACÍ
  6
CONTINUOUS
100
AcDbLine
 10
2640.352665243277
 20
-419.0912598212946
 30
0.0
 11
2635.55625444807
 21
-420.7040364045371
 31
0.0
  0
LINE
  5
1207
330
1F
100
AcDbEntity
  8
SPOJOVACÍ
  6
CONTINUOUS
100
AcDbLine
 10
2640.352665243277
 20
-418.3841532618701
 30
0.0
 11
2635.55625444807
 21
-419.9969298451162
 31
0.0
  0
LINE
  5
1208
330
1F
100
AcDbEntity
  8
SPOJOVACÍ
  6
CONTINUOUS
100
AcDbLine
 10
2640.352665243277
 20
-425.1761330903702
 30
0.0
 11
2635.55625444807
 21
-426.7889096736164
 31
0.0
  0
LINE
  5
1209
330
1F
100
AcDbEntity
  8
SPOJOVACÍ
  6
CONTINUOUS
100
AcDbLine
 10
2640.352665243277
 20
-425.8832396497949
 30
0.0
 11
2635.55625444807
 21
-427.4960162330374
 31
0.0
  0
LINE
  5
120A
330
1F
100
AcDbEntity
  8
SPOJOVACÍ
  6
CONTINUOUS
100
AcDbLine
 10
2635.108383525341
 20
-427.0481453077175
 30
0.0
 11
2635.55625444807
 21
-426.7889096736164
 31
0.0
  0
LINE
  5
120B
330
1F
100
AcDbEntity
  8
SPOJOVACÍ
  6
CONTINUOUS
100
AcDbLine
 10
2635.108383525341
 20
-427.0481453077175
 30
0.0
 11
2635.55625444807
 21
-427.4960162330374
 31
0.0
  0
LINE
  5
120C
330
1F
100
AcDbEntity
  8
SPOJOVACÍ
  6
CONTINUOUS
100
AcDbLine
 10
2640.800536171184
 20
-425.6251071462595
 30
0.0
 11
2640.352665243277
 21
-425.1761330903702
 31
0.0
  0
LINE
  5
120D
330
1F
100
AcDbEntity
  8
SPOJOVACÍ
  6
CONTINUOUS
100
AcDbLine
 10
2640.800536171184
 20
-425.6251071462595
 30
0.0
 11
2640.352665243277
 21
-425.8832396497949
 31
0.0
  0
LINE
  5
120E
330
1F
100
AcDbEntity
  8
SPOJOVACÍ
  6
CONTINUOUS
100
AcDbLine
 10
2640.800536171184
 20
-425.6251071462595
 30
0.0
 11
2635.108383525341
 21
-427.0481453077175
 31
0.0
  0
LINE
  5
120F
330
1F
100
AcDbEntity
  8
NOSNÉ_KONSTRUKCE
100
AcDbLine
 10
2669.623846273036
 20
-368.5807629565699
 30
0.0
 11
2669.623846273036
 21
-367.0807629565699
 31
0.0
  0
LINE
  5
1210
330
1F
100
AcDbEntity
  8
NOSNÉ_KONSTRUKCE
100
AcDbLine
 10
2605.270189832488
 20
-364.8982315845662
 30
0.0
 11
2605.270189832488
 21
-366.3982315845662
 31
0.0
  0
LINE
  5
1211
102
{ACAD_REACTORS
330
50BD
102
}
330
1F
100
AcDbEntity
  8
CETRIS
100
AcDbLine
 10
2599.482153343659
 20
-414.227615764021
 30
0.0
 11
2599.482153343661
 21
-63.05156310253983
 31
0.0
  0
LINE
  5
1212
102
{ACAD_REACTORS
330
50BD
102
}
330
1F
100
AcDbEntity
  8
CETRIS
100
AcDbLine
 10
2587.482153343662
 20
-414.227615764021
 30
0.0
 11
2587.482153343662
 21
-60.84140182424016
 31
0.0
  0
LINE
  5
1213
330
1F
100
AcDbEntity
  8
CETRIS
100
AcDbLine
 10
2687.714407628409
 20
-414.2276157640173
 30
0.0
 11
2687.714407628409
 21
-79.30218909564314
 31
0.0
  0
LINE
  5
1214
330
1F
100
AcDbEntity
  8
CETRIS
100
AcDbLine
 10
2675.714407628409
 20
-414.227615764021
 30
0.0
 11
2675.714407628417
 21
-77.09202781734484
 31
0.0
  0
LINE
  5
1215
330
1F
100
AcDbEntity
  8
IZOLACE
100
AcDbLine
 10
2661.981138894876
 20
-416.6167198241657
 30
0.0
 11
2599.94486403881
 21
-416.6167198241657
 31
0.0
  0
LINE
  5
1216
330
1F
100
AcDbEntity
  8
IZOLACE
100
AcDbLine
 10
2661.981138894876
 20
-418.6167198241694
 30
0.0
 11
2599.94486403881
 21
-418.6167198241694
 31
0.0
  0
LWPOLYLINE
  5
1217
330
1F
100
AcDbEntity
  8
IZOLACE
100
AcDbPolyline
 90
        4
 70
     1
 43
0.0
 10
2599.94486403881
 20
-418.6167198241694
 10
2599.94486403881
 20
-416.6167198241657
 10
2612.445941045786
 20
-416.6167198241657
 10
2612.445941045786
 20
-418.6167198241694
  0
LWPOLYLINE
  5
1218
330
1F
100
AcDbEntity
  8
IZOLACE
100
AcDbPolyline
 90
        4
 70
     1
 43
0.0
 10
2641.823350973301
 20
-418.6167198241694
 10
2641.823350973301
 20
-416.6167198241657
 10
2654.324427980279
 20
-416.6167198241657
 10
2654.324427980279
 20
-418.6167198241694
  0
LINE
  5
121A
330
1F
100
AcDbEntity
  8
SPOJOVACÍ
100
AcDbLine
 10
2644.704459850851
 20
-413.3693039243646
 30
0.0
 11
2644.704459850851
 21
-414.246214546498
 31
0.0
  0
LINE
  5
121B
330
1F
100
AcDbEntity
  8
SPOJOVACÍ
100
AcDbLine
 10
2644.704459850851
 20
-414.246214546498
 30
0.0
 11
2644.704459850851
 21
-413.3693039243646
 31
0.0
  0
LINE
  5
121C
330
1F
100
AcDbEntity
  8
SPOJOVACÍ
  6
DASHED
100
AcDbLine
 10
2644.704459850851
 20
-414.246214546498
 30
0.0
 11
2639.665397350851
 21
-417.4288488490731
 31
0.0
  0
LINE
  5
121D
330
1F
100
AcDbEntity
  8
SPOJOVACÍ
100
AcDbLine
 10
2631.204459850851
 20
-414.246214546498
 30
0.0
 11
2636.24352235085
 21
-417.4288488490767
 31
0.0
  0
LINE
  5
121E
330
1F
100
AcDbEntity
  8
SPOJOVACÍ
100
AcDbLine
 10
2631.204459850851
 20
-414.246214546498
 30
0.0
 11
2631.204459850851
 21
-413.3693039243646
 31
0.0
  0
LINE
  5
121F
330
1F
100
AcDbEntity
  8
SPOJOVACÍ
100
AcDbLine
 10
2644.704459850851
 20
-412.8046261800284
 30
0.0
 11
2644.704459850851
 21
-414.246214546498
 31
0.0
  0
LINE
  5
1220
330
1F
100
AcDbEntity
  8
SPOJOVACÍ
100
AcDbLine
 10
2631.204459850851
 20
-412.8046261800284
 30
0.0
 11
2631.204459850851
 21
-414.246214546498
 31
0.0
  0
LINE
  5
1221
330
1F
100
AcDbEntity
  8
SPOJOVACÍ
100
AcDbLine
 10
2644.704459850851
 20
-412.8046261800284
 30
0.0
 11
2631.204459850851
 21
-412.8046261800284
 31
0.0
  0
LINE
  5
1222
330
1F
100
AcDbEntity
  8
SPOJOVACÍ
  6
DASHDOT2
100
AcDbLine
 10
2637.954459850851
 20
-402.9077511797606
 30
0.0
 11
2637.954459850851
 21
-471.3135063887295
 31
0.0
  0
LINE
  5
1223
330
1F
100
AcDbEntity
  8
SPOJOVACÍ
  6
CONTINUOUS
100
AcDbLine
 10
2640.167435270555
 20
-462.850991579706
 30
0.0
 11
2639.777023048889
 21
-463.0764138702345
 31
0.0
  0
LINE
  5
1224
330
1F
100
AcDbEntity
  8
SPOJOVACÍ
  6
CONTINUOUS
100
AcDbLine
 10
2640.167435270555
 20
-462.850991579706
 30
0.0
 11
2639.777023048889
 21
-462.4615386011667
 31
0.0
  0
LINE
  5
1225
330
1F
100
AcDbEntity
  8
SPOJOVACÍ
  6
CONTINUOUS
100
AcDbLine
 10
2635.913189066166
 20
-463.8543605833349
 30
0.0
 11
2636.302642042454
 21
-464.2447728058489
 31
0.0
  0
LINE
  5
1226
330
1F
100
AcDbEntity
  8
SPOJOVACÍ
  6
CONTINUOUS
100
AcDbLine
 10
2635.913189066166
 20
-463.8543605833349
 30
0.0
 11
2636.302642042454
 21
-463.6298975367846
 31
0.0
  0
LINE
  5
1227
330
1F
100
AcDbEntity
  8
SPOJOVACÍ
  6
CONTINUOUS
100
AcDbLine
 10
2639.777023048889
 20
-463.0764138702345
 30
0.0
 11
2636.302642042454
 21
-464.2447728058489
 31
0.0
  0
LINE
  5
1228
330
1F
100
AcDbEntity
  8
SPOJOVACÍ
  6
CONTINUOUS
100
AcDbLine
 10
2639.777023048889
 20
-462.4615386011667
 30
0.0
 11
2636.302642042454
 21
-463.6298975367846
 31
0.0
  0
LINE
  5
1229
330
1F
100
AcDbEntity
  8
SPOJOVACÍ
  6
CONTINUOUS
100
AcDbLine
 10
2640.167435270555
 20
-462.850991579706
 30
0.0
 11
2635.913189066166
 21
-463.8543605833349
 31
0.0
  0
LINE
  5
122A
330
1F
100
AcDbEntity
  8
SPOJOVACÍ
  6
CONTINUOUS
100
AcDbLine
 10
2639.585174292387
 20
-465.959900701326
 30
0.0
 11
2639.195721311596
 21
-466.1843637478762
 31
0.0
  0
LINE
  5
122B
330
1F
100
AcDbEntity
  8
SPOJOVACÍ
  6
CONTINUOUS
100
AcDbLine
 10
2639.585174292387
 20
-465.959900701326
 30
0.0
 11
2639.195721311596
 21
-465.5694884788119
 31
0.0
  0
LINE
  5
122C
330
1F
100
AcDbEntity
  8
SPOJOVACÍ
  6
CONTINUOUS
100
AcDbLine
 10
2636.371707597314
 20
-466.6131457217436
 30
0.0
 11
2636.761160573605
 21
-467.0035579439739
 31
0.0
  0
LINE
  5
122D
330
1F
100
AcDbEntity
  8
SPOJOVACÍ
  6
CONTINUOUS
100
AcDbLine
 10
2636.371707597314
 20
-466.6131457217436
 30
0.0
 11
2636.761160573605
 21
-466.388682675197
 31
0.0
  0
LINE
  5
122E
330
1F
100
AcDbEntity
  8
SPOJOVACÍ
  6
CONTINUOUS
100
AcDbLine
 10
2639.195721311596
 20
-466.1843637478762
 30
0.0
 11
2636.761160573605
 21
-467.0035579439739
 31
0.0
  0
LINE
  5
122F
330
1F
100
AcDbEntity
  8
SPOJOVACÍ
  6
CONTINUOUS
100
AcDbLine
 10
2639.195721311596
 20
-465.5694884788119
 30
0.0
 11
2636.761160573605
 21
-466.388682675197
 31
0.0
  0
LINE
  5
1230
330
1F
100
AcDbEntity
  8
SPOJOVACÍ
  6
CONTINUOUS
100
AcDbLine
 10
2639.585174292387
 20
-465.959900701326
 30
0.0
 11
2636.371707597314
 21
-466.6131457217436
 31
0.0
  0
LINE
  5
1231
330
1F
100
AcDbEntity
  8
SPOJOVACÍ
  6
CONTINUOUS
100
AcDbLine
 10
2639.002913309712
 20
-469.0678505789676
 30
0.0
 11
2638.613460333425
 21
-469.2932728694889
 31
0.0
  0
LINE
  5
1232
330
1F
100
AcDbEntity
  8
SPOJOVACÍ
  6
CONTINUOUS
100
AcDbLine
 10
2639.002913309712
 20
-469.0678505789676
 30
0.0
 11
2638.613460333425
 21
-468.6783976004319
 31
0.0
  0
LINE
  5
1233
330
1F
100
AcDbEntity
  8
SPOJOVACÍ
  6
CONTINUOUS
100
AcDbLine
 10
2636.781304695086
 20
-469.3882380046109
 30
0.0
 11
2637.17075767137
 21
-469.7786502268447
 31
0.0
  0
LINE
  5
1234
330
1F
100
AcDbEntity
  8
SPOJOVACÍ
  6
CONTINUOUS
100
AcDbLine
 10
2636.781304695086
 20
-469.3882380046109
 30
0.0
 11
2637.17075767137
 21
-469.1637749577806
 31
0.0
  0
LINE
  5
1235
330
1F
100
AcDbEntity
  8
SPOJOVACÍ
  6
CONTINUOUS
100
AcDbLine
 10
2638.613460333425
 20
-469.2932728694889
 30
0.0
 11
2637.17075767137
 21
-469.7786502268447
 31
0.0
  0
LINE
  5
1236
330
1F
100
AcDbEntity
  8
SPOJOVACÍ
  6
CONTINUOUS
100
AcDbLine
 10
2638.613460333425
 20
-468.6783976004319
 30
0.0
 11
2637.17075767137
 21
-469.1637749577806
 31
0.0
  0
LINE
  5
1237
330
1F
100
AcDbEntity
  8
SPOJOVACÍ
  6
CONTINUOUS
100
AcDbLine
 10
2639.002913309712
 20
-469.0678505789676
 30
0.0
 11
2636.781304695086
 21
-469.3882380046109
 31
0.0
  0
LINE
  5
1238
330
1F
100
AcDbEntity
  8
SPOJOVACÍ
  6
CONTINUOUS
100
AcDbLine
 10
2640.80053617377
 20
-459.585006287891
 30
0.0
 11
2635.108383527931
 21
-461.0080444493489
 31
0.0
  0
LINE
  5
1239
330
1F
100
AcDbEntity
  8
SPOJOVACÍ
  6
CONTINUOUS
100
AcDbLine
 10
2640.80053617377
 20
-459.585006287891
 30
0.0
 11
2640.352665245864
 21
-459.8431387914263
 31
0.0
  0
LINE
  5
123A
330
1F
100
AcDbEntity
  8
SPOJOVACÍ
  6
CONTINUOUS
100
AcDbLine
 10
2640.80053617377
 20
-459.585006287891
 30
0.0
 11
2640.352665245864
 21
-459.1360322320017
 31
0.0
  0
LINE
  5
123B
330
1F
100
AcDbEntity
  8
SPOJOVACÍ
  6
CONTINUOUS
100
AcDbLine
 10
2635.108383527931
 20
-461.0080444493489
 30
0.0
 11
2635.556254450661
 21
-461.4559153746689
 31
0.0
  0
LINE
  5
123C
330
1F
100
AcDbEntity
  8
SPOJOVACÍ
  6
CONTINUOUS
100
AcDbLine
 10
2635.108383527931
 20
-461.0080444493489
 30
0.0
 11
2635.556254450661
 21
-460.7488088152479
 31
0.0
  0
LINE
  5
123D
330
1F
100
AcDbEntity
  8
SPOJOVACÍ
  6
CONTINUOUS
100
AcDbLine
 10
2640.352665245864
 20
-459.8431387914263
 30
0.0
 11
2635.556254450661
 21
-461.4559153746689
 31
0.0
  0
LINE
  5
123E
330
1F
100
AcDbEntity
  8
SPOJOVACÍ
  6
CONTINUOUS
100
AcDbLine
 10
2640.352665245864
 20
-459.1360322320017
 30
0.0
 11
2635.556254450661
 21
-460.7488088152479
 31
0.0
  0
LINE
  5
123F
330
1F
100
AcDbEntity
  8
SPOJOVACÍ
  6
DASHED
100
AcDbLine
 10
2639.665397350851
 20
-458.2170342213124
 30
0.0
 11
2639.665397350851
 21
-417.4288488490731
 31
0.0
  0
LINE
  5
1240
330
1F
100
AcDbEntity
  8
SPOJOVACÍ
  6
DASHED
100
AcDbLine
 10
2636.24352235085
 20
-458.2170342213124
 30
0.0
 11
2636.24352235085
 21
-417.4288488490767
 31
0.0
  0
LINE
  5
1241
330
1F
100
AcDbEntity
  8
SPOJOVACÍ
  6
DASHED
100
AcDbLine
 10
2637.954459850851
 20
-469.8111437502673
 30
0.0
 11
2639.665397350851
 21
-457.1058836265735
 31
0.0
  0
LINE
  5
1242
330
1F
100
AcDbEntity
  8
SPOJOVACÍ
  6
DASHED
100
AcDbLine
 10
2637.954459850851
 20
-469.8111437502673
 30
0.0
 11
2636.24352235085
 21
-457.1058836265735
 31
0.0
  0
LINE
  5
1243
330
1F
100
AcDbEntity
  8
SPOJOVACÍ
  6
CONTINUOUS
100
AcDbLine
 10
2640.352665245864
 20
-455.7400423177516
 30
0.0
 11
2635.556254450661
 21
-457.3528189009977
 31
0.0
  0
LINE
  5
1244
330
1F
100
AcDbEntity
  8
SPOJOVACÍ
  6
CONTINUOUS
100
AcDbLine
 10
2640.352665245864
 20
-456.4471488771762
 30
0.0
 11
2635.556254450661
 21
-458.0599254604187
 31
0.0
  0
LINE
  5
1245
330
1F
100
AcDbEntity
  8
SPOJOVACÍ
  6
CONTINUOUS
100
AcDbLine
 10
2635.108383527931
 20
-457.6120545350988
 30
0.0
 11
2635.556254450661
 21
-457.3528189009977
 31
0.0
  0
LINE
  5
1246
330
1F
100
AcDbEntity
  8
SPOJOVACÍ
  6
CONTINUOUS
100
AcDbLine
 10
2635.108383527931
 20
-457.6120545350988
 30
0.0
 11
2635.556254450661
 21
-458.0599254604187
 31
0.0
  0
LINE
  5
1247
330
1F
100
AcDbEntity
  8
SPOJOVACÍ
  6
CONTINUOUS
100
AcDbLine
 10
2640.80053617377
 20
-456.1890163736409
 30
0.0
 11
2640.352665245864
 21
-455.7400423177516
 31
0.0
  0
LINE
  5
1248
330
1F
100
AcDbEntity
  8
SPOJOVACÍ
  6
CONTINUOUS
100
AcDbLine
 10
2640.80053617377
 20
-456.1890163736409
 30
0.0
 11
2640.352665245864
 21
-456.4471488771762
 31
0.0
  0
LINE
  5
1249
330
1F
100
AcDbEntity
  8
SPOJOVACÍ
  6
CONTINUOUS
100
AcDbLine
 10
2640.80053617377
 20
-456.1890163736409
 30
0.0
 11
2635.108383527931
 21
-457.6120545350988
 31
0.0
  0
LINE
  5
124A
330
1F
100
AcDbEntity
  8
SPOJOVACÍ
  6
CONTINUOUS
100
AcDbLine
 10
2640.80053617377
 20
-452.7930264593908
 30
0.0
 11
2635.108383527931
 21
-454.2160646208487
 31
0.0
  0
LINE
  5
124B
330
1F
100
AcDbEntity
  8
SPOJOVACÍ
  6
CONTINUOUS
100
AcDbLine
 10
2640.80053617377
 20
-452.7930264593908
 30
0.0
 11
2640.352665245864
 21
-453.0511589629261
 31
0.0
  0
LINE
  5
124C
330
1F
100
AcDbEntity
  8
SPOJOVACÍ
  6
CONTINUOUS
100
AcDbLine
 10
2640.80053617377
 20
-452.7930264593908
 30
0.0
 11
2640.352665245864
 21
-452.3440524035016
 31
0.0
  0
LINE
  5
124D
330
1F
100
AcDbEntity
  8
SPOJOVACÍ
  6
CONTINUOUS
100
AcDbLine
 10
2635.108383527931
 20
-454.2160646208487
 30
0.0
 11
2635.556254450661
 21
-454.6639355461686
 31
0.0
  0
LINE
  5
124E
330
1F
100
AcDbEntity
  8
SPOJOVACÍ
  6
CONTINUOUS
100
AcDbLine
 10
2635.108383527931
 20
-454.2160646208487
 30
0.0
 11
2635.556254450661
 21
-453.9568289867477
 31
0.0
  0
LINE
  5
124F
330
1F
100
AcDbEntity
  8
SPOJOVACÍ
  6
CONTINUOUS
100
AcDbLine
 10
2640.352665245864
 20
-453.0511589629261
 30
0.0
 11
2635.556254450661
 21
-454.6639355461686
 31
0.0
  0
LINE
  5
1250
330
1F
100
AcDbEntity
  8
SPOJOVACÍ
  6
CONTINUOUS
100
AcDbLine
 10
2640.352665245864
 20
-452.3440524035016
 30
0.0
 11
2635.556254450661
 21
-453.9568289867477
 31
0.0
  0
LINE
  5
1251
330
1F
100
AcDbEntity
  8
SPOJOVACÍ
  6
CONTINUOUS
100
AcDbLine
 10
2640.80053617377
 20
-449.3970365451407
 30
0.0
 11
2635.108383527931
 21
-450.8200747065987
 31
0.0
  0
LINE
  5
1252
330
1F
100
AcDbEntity
  8
SPOJOVACÍ
  6
CONTINUOUS
100
AcDbLine
 10
2640.80053617377
 20
-449.3970365451407
 30
0.0
 11
2640.352665245864
 21
-449.655169048676
 31
0.0
  0
LINE
  5
1253
330
1F
100
AcDbEntity
  8
SPOJOVACÍ
  6
CONTINUOUS
100
AcDbLine
 10
2640.80053617377
 20
-449.3970365451407
 30
0.0
 11
2640.352665245864
 21
-448.9480624892514
 31
0.0
  0
LINE
  5
1254
330
1F
100
AcDbEntity
  8
SPOJOVACÍ
  6
CONTINUOUS
100
AcDbLine
 10
2635.108383527931
 20
-450.8200747065987
 30
0.0
 11
2635.556254450661
 21
-451.2679456319185
 31
0.0
  0
LINE
  5
1255
330
1F
100
AcDbEntity
  8
SPOJOVACÍ
  6
CONTINUOUS
100
AcDbLine
 10
2635.108383527931
 20
-450.8200747065987
 30
0.0
 11
2635.556254450661
 21
-450.5608390724976
 31
0.0
  0
LINE
  5
1256
330
1F
100
AcDbEntity
  8
SPOJOVACÍ
  6
CONTINUOUS
100
AcDbLine
 10
2640.352665245864
 20
-449.655169048676
 30
0.0
 11
2635.556254450661
 21
-451.2679456319185
 31
0.0
  0
LINE
  5
1257
330
1F
100
AcDbEntity
  8
SPOJOVACÍ
  6
CONTINUOUS
100
AcDbLine
 10
2640.352665245864
 20
-448.9480624892514
 30
0.0
 11
2635.556254450661
 21
-450.5608390724976
 31
0.0
  0
LINE
  5
1258
330
1F
100
AcDbEntity
  8
SPOJOVACÍ
  6
CONTINUOUS
100
AcDbLine
 10
2640.80053617377
 20
-446.0010466308906
 30
0.0
 11
2635.108383527931
 21
-447.4240847923486
 31
0.0
  0
LINE
  5
1259
330
1F
100
AcDbEntity
  8
SPOJOVACÍ
  6
CONTINUOUS
100
AcDbLine
 10
2640.80053617377
 20
-446.0010466308906
 30
0.0
 11
2640.352665245864
 21
-446.2591791344259
 31
0.0
  0
LINE
  5
125A
330
1F
100
AcDbEntity
  8
SPOJOVACÍ
  6
CONTINUOUS
100
AcDbLine
 10
2640.80053617377
 20
-446.0010466308906
 30
0.0
 11
2640.352665245864
 21
-445.5520725750013
 31
0.0
  0
LINE
  5
125B
330
1F
100
AcDbEntity
  8
SPOJOVACÍ
  6
CONTINUOUS
100
AcDbLine
 10
2635.108383527931
 20
-447.4240847923486
 30
0.0
 11
2635.556254450661
 21
-447.8719557176685
 31
0.0
  0
LINE
  5
125C
330
1F
100
AcDbEntity
  8
SPOJOVACÍ
  6
CONTINUOUS
100
AcDbLine
 10
2635.108383527931
 20
-447.4240847923486
 30
0.0
 11
2635.556254450661
 21
-447.1648491582475
 31
0.0
  0
LINE
  5
125D
330
1F
100
AcDbEntity
  8
SPOJOVACÍ
  6
CONTINUOUS
100
AcDbLine
 10
2640.352665245864
 20
-446.2591791344259
 30
0.0
 11
2635.556254450661
 21
-447.8719557176685
 31
0.0
  0
LINE
  5
125E
330
1F
100
AcDbEntity
  8
SPOJOVACÍ
  6
CONTINUOUS
100
AcDbLine
 10
2640.352665245864
 20
-445.5520725750013
 30
0.0
 11
2635.556254450661
 21
-447.1648491582475
 31
0.0
  0
LINE
  5
125F
330
1F
100
AcDbEntity
  8
SPOJOVACÍ
  6
CONTINUOUS
100
AcDbLine
 10
2640.80053617377
 20
-442.6050567166405
 30
0.0
 11
2635.108383527931
 21
-444.0280948780984
 31
0.0
  0
LINE
  5
1260
330
1F
100
AcDbEntity
  8
SPOJOVACÍ
  6
CONTINUOUS
100
AcDbLine
 10
2640.80053617377
 20
-442.6050567166405
 30
0.0
 11
2640.352665245864
 21
-442.8631892201758
 31
0.0
  0
LINE
  5
1261
330
1F
100
AcDbEntity
  8
SPOJOVACÍ
  6
CONTINUOUS
100
AcDbLine
 10
2640.80053617377
 20
-442.6050567166405
 30
0.0
 11
2640.352665245864
 21
-442.1560826607512
 31
0.0
  0
LINE
  5
1262
330
1F
100
AcDbEntity
  8
SPOJOVACÍ
  6
CONTINUOUS
100
AcDbLine
 10
2635.108383527931
 20
-444.0280948780984
 30
0.0
 11
2635.556254450661
 21
-444.4759658034183
 31
0.0
  0
LINE
  5
1263
330
1F
100
AcDbEntity
  8
SPOJOVACÍ
  6
CONTINUOUS
100
AcDbLine
 10
2635.108383527931
 20
-444.0280948780984
 30
0.0
 11
2635.556254450661
 21
-443.7688592439974
 31
0.0
  0
LINE
  5
1264
330
1F
100
AcDbEntity
  8
SPOJOVACÍ
  6
CONTINUOUS
100
AcDbLine
 10
2640.352665245864
 20
-442.8631892201758
 30
0.0
 11
2635.556254450661
 21
-444.4759658034183
 31
0.0
  0
LINE
  5
1265
330
1F
100
AcDbEntity
  8
SPOJOVACÍ
  6
CONTINUOUS
100
AcDbLine
 10
2640.352665245864
 20
-442.1560826607512
 30
0.0
 11
2635.556254450661
 21
-443.7688592439974
 31
0.0
  0
LINE
  5
1266
330
1F
100
AcDbEntity
  8
SPOJOVACÍ
  6
CONTINUOUS
100
AcDbLine
 10
2640.80053617377
 20
-439.2090668023904
 30
0.0
 11
2635.108383527931
 21
-440.6321049638484
 31
0.0
  0
LINE
  5
1267
330
1F
100
AcDbEntity
  8
SPOJOVACÍ
  6
CONTINUOUS
100
AcDbLine
 10
2640.80053617377
 20
-439.2090668023904
 30
0.0
 11
2640.352665245864
 21
-439.4671993059257
 31
0.0
  0
LINE
  5
1268
330
1F
100
AcDbEntity
  8
SPOJOVACÍ
  6
CONTINUOUS
100
AcDbLine
 10
2640.80053617377
 20
-439.2090668023904
 30
0.0
 11
2640.352665245864
 21
-438.7600927465012
 31
0.0
  0
LINE
  5
1269
330
1F
100
AcDbEntity
  8
SPOJOVACÍ
  6
CONTINUOUS
100
AcDbLine
 10
2635.108383527931
 20
-440.6321049638484
 30
0.0
 11
2635.556254450661
 21
-441.0799758891682
 31
0.0
  0
LINE
  5
126A
330
1F
100
AcDbEntity
  8
SPOJOVACÍ
  6
CONTINUOUS
100
AcDbLine
 10
2635.108383527931
 20
-440.6321049638484
 30
0.0
 11
2635.556254450661
 21
-440.3728693297473
 31
0.0
  0
LINE
  5
126B
330
1F
100
AcDbEntity
  8
SPOJOVACÍ
  6
CONTINUOUS
100
AcDbLine
 10
2640.352665245864
 20
-439.4671993059257
 30
0.0
 11
2635.556254450661
 21
-441.0799758891682
 31
0.0
  0
LINE
  5
126C
330
1F
100
AcDbEntity
  8
SPOJOVACÍ
  6
CONTINUOUS
100
AcDbLine
 10
2640.352665245864
 20
-438.7600927465012
 30
0.0
 11
2635.556254450661
 21
-440.3728693297473
 31
0.0
  0
LINE
  5
126D
330
1F
100
AcDbEntity
  8
SPOJOVACÍ
  6
CONTINUOUS
100
AcDbLine
 10
2640.80053617377
 20
-435.8130768881403
 30
0.0
 11
2635.108383527931
 21
-437.2361150495983
 31
0.0
  0
LINE
  5
126E
330
1F
100
AcDbEntity
  8
SPOJOVACÍ
  6
CONTINUOUS
100
AcDbLine
 10
2640.80053617377
 20
-435.8130768881403
 30
0.0
 11
2640.352665245864
 21
-436.0712093916756
 31
0.0
  0
LINE
  5
126F
330
1F
100
AcDbEntity
  8
SPOJOVACÍ
  6
CONTINUOUS
100
AcDbLine
 10
2640.80053617377
 20
-435.8130768881403
 30
0.0
 11
2640.352665245864
 21
-435.3641028322511
 31
0.0
  0
LINE
  5
1270
330
1F
100
AcDbEntity
  8
SPOJOVACÍ
  6
CONTINUOUS
100
AcDbLine
 10
2635.108383527931
 20
-437.2361150495983
 30
0.0
 11
2635.556254450661
 21
-437.6839859749181
 31
0.0
  0
LINE
  5
1271
330
1F
100
AcDbEntity
  8
SPOJOVACÍ
  6
CONTINUOUS
100
AcDbLine
 10
2635.108383527931
 20
-437.2361150495983
 30
0.0
 11
2635.556254450661
 21
-436.9768794154972
 31
0.0
  0
LINE
  5
1272
330
1F
100
AcDbEntity
  8
SPOJOVACÍ
  6
CONTINUOUS
100
AcDbLine
 10
2640.352665245864
 20
-436.0712093916756
 30
0.0
 11
2635.556254450661
 21
-437.6839859749181
 31
0.0
  0
LINE
  5
1273
330
1F
100
AcDbEntity
  8
SPOJOVACÍ
  6
CONTINUOUS
100
AcDbLine
 10
2640.352665245864
 20
-435.3641028322511
 30
0.0
 11
2635.556254450661
 21
-436.9768794154972
 31
0.0
  0
LINE
  5
1274
330
1F
100
AcDbEntity
  8
SPOJOVACÍ
  6
CONTINUOUS
100
AcDbLine
 10
2640.352665245864
 20
-428.5721230037508
 30
0.0
 11
2635.556254450661
 21
-430.1848995869971
 31
0.0
  0
LINE
  5
1275
330
1F
100
AcDbEntity
  8
SPOJOVACÍ
  6
CONTINUOUS
100
AcDbLine
 10
2640.352665245864
 20
-429.2792295631755
 30
0.0
 11
2635.556254450661
 21
-430.892006146418
 31
0.0
  0
LINE
  5
1276
330
1F
100
AcDbEntity
  8
SPOJOVACÍ
  6
CONTINUOUS
100
AcDbLine
 10
2635.108383527931
 20
-430.4441352210981
 30
0.0
 11
2635.556254450661
 21
-430.1848995869971
 31
0.0
  0
LINE
  5
1277
330
1F
100
AcDbEntity
  8
SPOJOVACÍ
  6
CONTINUOUS
100
AcDbLine
 10
2635.108383527931
 20
-430.4441352210981
 30
0.0
 11
2635.556254450661
 21
-430.892006146418
 31
0.0
  0
LINE
  5
1278
330
1F
100
AcDbEntity
  8
SPOJOVACÍ
  6
CONTINUOUS
100
AcDbLine
 10
2640.80053617377
 20
-429.0210970596401
 30
0.0
 11
2640.352665245864
 21
-428.5721230037508
 31
0.0
  0
LINE
  5
1279
330
1F
100
AcDbEntity
  8
SPOJOVACÍ
  6
CONTINUOUS
100
AcDbLine
 10
2640.80053617377
 20
-429.0210970596401
 30
0.0
 11
2640.352665245864
 21
-429.2792295631755
 31
0.0
  0
LINE
  5
127A
330
1F
100
AcDbEntity
  8
SPOJOVACÍ
  6
CONTINUOUS
100
AcDbLine
 10
2640.80053617377
 20
-429.0210970596401
 30
0.0
 11
2635.108383527931
 21
-430.4441352210981
 31
0.0
  0
LINE
  5
127B
330
1F
100
AcDbEntity
  8
SPOJOVACÍ
  6
CONTINUOUS
100
AcDbLine
 10
2640.352665245864
 20
-431.9681129180009
 30
0.0
 11
2635.556254450661
 21
-433.5808895012471
 31
0.0
  0
LINE
  5
127C
330
1F
100
AcDbEntity
  8
SPOJOVACÍ
  6
CONTINUOUS
100
AcDbLine
 10
2640.352665245864
 20
-432.6752194774256
 30
0.0
 11
2635.556254450661
 21
-434.2879960606681
 31
0.0
  0
LINE
  5
127D
330
1F
100
AcDbEntity
  8
SPOJOVACÍ
  6
CONTINUOUS
100
AcDbLine
 10
2635.108383527931
 20
-433.8401251353482
 30
0.0
 11
2635.556254450661
 21
-433.5808895012471
 31
0.0
  0
LINE
  5
127E
330
1F
100
AcDbEntity
  8
SPOJOVACÍ
  6
CONTINUOUS
100
AcDbLine
 10
2635.108383527931
 20
-433.8401251353482
 30
0.0
 11
2635.556254450661
 21
-434.2879960606681
 31
0.0
  0
LINE
  5
127F
330
1F
100
AcDbEntity
  8
SPOJOVACÍ
  6
CONTINUOUS
100
AcDbLine
 10
2640.80053617377
 20
-432.4170869738902
 30
0.0
 11
2640.352665245864
 21
-431.9681129180009
 31
0.0
  0
LINE
  5
1280
330
1F
100
AcDbEntity
  8
SPOJOVACÍ
  6
CONTINUOUS
100
AcDbLine
 10
2640.80053617377
 20
-432.4170869738902
 30
0.0
 11
2640.352665245864
 21
-432.6752194774256
 31
0.0
  0
LINE
  5
1281
330
1F
100
AcDbEntity
  8
SPOJOVACÍ
  6
CONTINUOUS
100
AcDbLine
 10
2640.80053617377
 20
-432.4170869738902
 30
0.0
 11
2635.108383527931
 21
-433.8401251353482
 31
0.0
  0
LINE
  5
1282
330
1F
100
AcDbEntity
  8
SPOJOVACÍ
100
AcDbLine
 10
2644.704459850851
 20
-414.246214546498
 30
0.0
 11
2631.204459850851
 21
-414.246214546498
 31
0.0
  0
LINE
  5
1283
330
1F
100
AcDbEntity
  8
SPOJOVACÍ
  6
CIKCAK
 48
0.25
100
AcDbLine
 10
2641.479926274325
 20
-418.6167198241694
 30
0.0
 11
2641.479926274325
 21
-466.0811056395052
 31
0.0
  0
LINE
  5
1284
330
1F
100
AcDbEntity
  8
SPOJOVACÍ
 48
0.25
100
AcDbLine
 10
2641.479926274325
 20
-466.0811056395052
 30
0.0
 11
2637.954459850851
 21
-471.7305459802211
 31
0.0
  0
LINE
  5
1285
330
1F
100
AcDbEntity
  8
SPOJOVACÍ
 48
0.25
100
AcDbLine
 10
2634.428993427377
 20
-466.0811056395016
 30
0.0
 11
2637.954459850851
 21
-471.7305459802211
 31
0.0
  0
LINE
  5
1286
330
1F
100
AcDbEntity
  8
SPOJOVACÍ
  6
CIKCAK
 48
0.25
100
AcDbLine
 10
2634.428993427377
 20
-418.6167198241694
 30
0.0
 11
2634.428993427377
 21
-466.0811056395016
 31
0.0
  0
LINE
  5
1287
330
1F
100
AcDbEntity
  8
SPOJOVACÍ
  6
CONTINUOUS
100
AcDbLine
 10
2610.384011611615
 20
-362.6403847145786
 30
0.0
 11
2611.743928625157
 21
-358.595980354986
 31
0.0
  0
LINE
  5
1288
330
1F
100
AcDbEntity
  8
SPOJOVACÍ
  6
CONTINUOUS
100
AcDbLine
 10
2610.980254296769
 20
-362.6403847145786
 30
0.0
 11
2612.340171310312
 21
-358.595980354986
 31
0.0
  0
LINE
  5
1289
330
1F
100
AcDbEntity
  8
SPOJOVACÍ
  6
CONTINUOUS
100
AcDbLine
 10
2611.962519937184
 20
-358.2183289840406
 30
0.0
 11
2611.743928625157
 21
-358.595980354986
 31
0.0
  0
LINE
  5
128A
330
1F
100
AcDbEntity
  8
SPOJOVACÍ
  6
CONTINUOUS
100
AcDbLine
 10
2611.962519937184
 20
-358.2183289840406
 30
0.0
 11
2612.340171310312
 21
-358.595980354986
 31
0.0
  0
LINE
  5
128B
330
1F
100
AcDbEntity
  8
SPOJOVACÍ
  6
CONTINUOUS
100
AcDbLine
 10
2610.762593160721
 20
-363.0180360898896
 30
0.0
 11
2610.384011611615
 21
-362.6403847145786
 31
0.0
  0
LINE
  5
128C
330
1F
100
AcDbEntity
  8
SPOJOVACÍ
  6
CONTINUOUS
100
AcDbLine
 10
2610.762593160721
 20
-363.0180360898896
 30
0.0
 11
2610.980254296769
 21
-362.6403847145786
 31
0.0
  0
LINE
  5
128D
330
1F
100
AcDbEntity
  8
SPOJOVACÍ
  6
CONTINUOUS
100
AcDbLine
 10
2610.762593160721
 20
-363.0180360898896
 30
0.0
 11
2611.962519937184
 21
-358.2183289840406
 31
0.0
  0
LINE
  5
128E
330
1F
100
AcDbEntity
  8
SPOJOVACÍ
  6
CONTINUOUS
100
AcDbLine
 10
2607.264201992653
 20
-362.6403847145786
 30
0.0
 11
2608.624119006195
 21
-358.595980354986
 31
0.0
  0
LINE
  5
128F
330
1F
100
AcDbEntity
  8
SPOJOVACÍ
  6
CONTINUOUS
100
AcDbLine
 10
2607.8604446778
 20
-362.6403847145786
 30
0.0
 11
2609.220361691074
 21
-358.595980354986
 31
0.0
  0
LINE
  5
1290
330
1F
100
AcDbEntity
  8
SPOJOVACÍ
  6
CONTINUOUS
100
AcDbLine
 10
2608.841780142244
 20
-358.2183289840406
 30
0.0
 11
2608.624119006195
 21
-358.595980354986
 31
0.0
  0
LINE
  5
1291
330
1F
100
AcDbEntity
  8
SPOJOVACÍ
  6
CONTINUOUS
100
AcDbLine
 10
2608.841780142244
 20
-358.2183289840406
 30
0.0
 11
2609.220361691074
 21
-358.595980354986
 31
0.0
  0
LINE
  5
1292
330
1F
100
AcDbEntity
  8
SPOJOVACÍ
  6
CONTINUOUS
100
AcDbLine
 10
2607.641853365781
 20
-363.0180360898896
 30
0.0
 11
2607.264201992653
 21
-362.6403847145786
 31
0.0
  0
LINE
  5
1293
330
1F
100
AcDbEntity
  8
SPOJOVACÍ
  6
CONTINUOUS
100
AcDbLine
 10
2607.641853365781
 20
-363.0180360898896
 30
0.0
 11
2607.8604446778
 21
-362.6403847145786
 31
0.0
  0
LINE
  5
1294
330
1F
100
AcDbEntity
  8
SPOJOVACÍ
  6
CONTINUOUS
100
AcDbLine
 10
2607.641853365781
 20
-363.0180360898896
 30
0.0
 11
2608.841780142244
 21
-358.2183289840406
 31
0.0
  0
LINE
  5
1295
330
1F
100
AcDbEntity
  8
SPOJOVACÍ
  6
CONTINUOUS
100
AcDbLine
 10
2604.144392373684
 20
-362.6403847145786
 30
0.0
 11
2605.504309386957
 21
-358.595980354986
 31
0.0
  0
LINE
  5
1296
330
1F
100
AcDbEntity
  8
SPOJOVACÍ
  6
CONTINUOUS
100
AcDbLine
 10
2604.740635058838
 20
-362.6403847145786
 30
0.0
 11
2606.100552072105
 21
-358.595980354986
 31
0.0
  0
LINE
  5
1297
330
1F
100
AcDbEntity
  8
SPOJOVACÍ
  6
CONTINUOUS
100
AcDbLine
 10
2605.721970523275
 20
-358.2183289840406
 30
0.0
 11
2605.504309386957
 21
-358.595980354986
 31
0.0
  0
LINE
  5
1298
330
1F
100
AcDbEntity
  8
SPOJOVACÍ
  6
CONTINUOUS
100
AcDbLine
 10
2605.721970523275
 20
-358.2183289840406
 30
0.0
 11
2606.100552072105
 21
-358.595980354986
 31
0.0
  0
LINE
  5
1299
330
1F
100
AcDbEntity
  8
SPOJOVACÍ
  6
CONTINUOUS
100
AcDbLine
 10
2604.522043746812
 20
-363.0180360898896
 30
0.0
 11
2604.144392373684
 21
-362.6403847145786
 31
0.0
  0
LINE
  5
129A
330
1F
100
AcDbEntity
  8
SPOJOVACÍ
  6
CONTINUOUS
100
AcDbLine
 10
2604.522043746812
 20
-363.0180360898896
 30
0.0
 11
2604.740635058838
 21
-362.6403847145786
 31
0.0
  0
LINE
  5
129B
330
1F
100
AcDbEntity
  8
SPOJOVACÍ
  6
CONTINUOUS
100
AcDbLine
 10
2604.522043746812
 20
-363.0180360898896
 30
0.0
 11
2605.721970523275
 21
-358.2183289840406
 31
0.0
  0
LINE
  5
129C
330
1F
100
AcDbEntity
  8
SPOJOVACÍ
  6
CONTINUOUS
100
AcDbLine
 10
2619.868084025652
 20
-361.6348646788912
 30
0.0
 11
2620.178762741427
 21
-359.4805775374345
 31
0.0
  0
LINE
  5
129D
330
1F
100
AcDbEntity
  8
SPOJOVACÍ
  6
CONTINUOUS
100
AcDbLine
 10
2619.490432652524
 20
-361.2572133079459
 30
0.0
 11
2619.961101605109
 21
-359.8582289083799
 31
0.0
  0
LINE
  5
129E
330
1F
100
AcDbEntity
  8
SPOJOVACÍ
  6
CONTINUOUS
100
AcDbLine
 10
2620.086675337672
 20
-361.2572133079459
 30
0.0
 11
2620.557344290256
 21
-359.8582289083799
 31
0.0
  0
LINE
  5
129F
330
1F
100
AcDbEntity
  8
SPOJOVACÍ
  6
CONTINUOUS
100
AcDbLine
 10
2620.178762741427
 20
-359.4805775374345
 30
0.0
 11
2619.961101605109
 21
-359.8582289083799
 31
0.0
  0
LINE
  5
12A0
330
1F
100
AcDbEntity
  8
SPOJOVACÍ
  6
CONTINUOUS
100
AcDbLine
 10
2620.178762741427
 20
-359.4805775374345
 30
0.0
 11
2620.557344290256
 21
-359.8582289083799
 31
0.0
  0
LINE
  5
12A1
330
1F
100
AcDbEntity
  8
SPOJOVACÍ
  6
CONTINUOUS
100
AcDbLine
 10
2619.868084025652
 20
-361.6348646788912
 30
0.0
 11
2619.490432652524
 21
-361.2572133079459
 31
0.0
  0
LINE
  5
12A2
330
1F
100
AcDbEntity
  8
SPOJOVACÍ
  6
CONTINUOUS
100
AcDbLine
 10
2619.868084025652
 20
-361.6348646788912
 30
0.0
 11
2620.086675337672
 21
-361.2572133079459
 31
0.0
  0
LINE
  5
12A3
330
1F
100
AcDbEntity
  8
SPOJOVACÍ
  6
CONTINUOUS
100
AcDbLine
 10
2616.854314447333
 20
-362.1994813893627
 30
0.0
 11
2617.487764164103
 21
-359.0833924729315
 31
0.0
  0
LINE
  5
12A4
330
1F
100
AcDbEntity
  8
SPOJOVACÍ
  6
CONTINUOUS
100
AcDbLine
 10
2616.475732898226
 20
-361.8218300140517
 30
0.0
 11
2617.270103028054
 21
-359.4610438438769
 31
0.0
  0
LINE
  5
12A5
330
1F
100
AcDbEntity
  8
SPOJOVACÍ
  6
CONTINUOUS
100
AcDbLine
 10
2617.071975583381
 20
-361.8218300140517
 30
0.0
 11
2617.866345712933
 21
-359.4610438438769
 31
0.0
  0
LINE
  5
12A6
330
1F
100
AcDbEntity
  8
SPOJOVACÍ
  6
CONTINUOUS
100
AcDbLine
 10
2617.487764164103
 20
-359.0833924729315
 30
0.0
 11
2617.270103028054
 21
-359.4610438438769
 31
0.0
  0
LINE
  5
12A7
330
1F
100
AcDbEntity
  8
SPOJOVACÍ
  6
CONTINUOUS
100
AcDbLine
 10
2617.487764164103
 20
-359.0833924729315
 30
0.0
 11
2617.866345712933
 21
-359.4610438438769
 31
0.0
  0
LINE
  5
12A8
330
1F
100
AcDbEntity
  8
SPOJOVACÍ
  6
CONTINUOUS
100
AcDbLine
 10
2616.854314447333
 20
-362.1994813893627
 30
0.0
 11
2616.475732898226
 21
-361.8218300140517
 31
0.0
  0
LINE
  5
12A9
330
1F
100
AcDbEntity
  8
SPOJOVACÍ
  6
CONTINUOUS
100
AcDbLine
 10
2616.854314447333
 20
-362.1994813893627
 30
0.0
 11
2617.071975583381
 21
-361.8218300140517
 31
0.0
  0
LINE
  5
12AA
330
1F
100
AcDbEntity
  8
SPOJOVACÍ
  6
CONTINUOUS
100
AcDbLine
 10
2613.839614693035
 20
-362.7640980954686
 30
0.0
 11
2614.81257857534
 21
-358.6387684427256
 31
0.0
  0
LINE
  5
12AB
330
1F
100
AcDbEntity
  8
SPOJOVACÍ
  6
CONTINUOUS
100
AcDbLine
 10
2613.461963319907
 20
-362.3855165471843
 30
0.0
 11
2614.594917439291
 21
-359.016419813671
 31
0.0
  0
LINE
  5
12AC
330
1F
100
AcDbEntity
  8
SPOJOVACÍ
  6
CONTINUOUS
100
AcDbLine
 10
2614.058206005061
 20
-362.3855165471843
 30
0.0
 11
2615.191160124446
 21
-359.016419813671
 31
0.0
  0
LINE
  5
12AD
330
1F
100
AcDbEntity
  8
SPOJOVACÍ
  6
CONTINUOUS
100
AcDbLine
 10
2614.81257857534
 20
-358.6387684427256
 30
0.0
 11
2614.594917439291
 21
-359.016419813671
 31
0.0
  0
LINE
  5
12AE
330
1F
100
AcDbEntity
  8
SPOJOVACÍ
  6
CONTINUOUS
100
AcDbLine
 10
2614.81257857534
 20
-358.6387684427256
 30
0.0
 11
2615.191160124446
 21
-359.016419813671
 31
0.0
  0
LINE
  5
12AF
330
1F
100
AcDbEntity
  8
SPOJOVACÍ
  6
CONTINUOUS
100
AcDbLine
 10
2613.839614693035
 20
-362.7640980954686
 30
0.0
 11
2613.461963319907
 21
-362.3855165471843
 31
0.0
  0
LINE
  5
12B0
330
1F
100
AcDbEntity
  8
SPOJOVACÍ
  6
CONTINUOUS
100
AcDbLine
 10
2613.839614693035
 20
-362.7640980954686
 30
0.0
 11
2614.058206005061
 21
-362.3855165471843
 31
0.0
  0
LINE
  5
12B1
330
1F
100
AcDbEntity
  8
SPOJOVACÍ
  6
CONTINUOUS
100
AcDbLine
 10
2601.024582754446
 20
-362.6403847145786
 30
0.0
 11
2602.383569592286
 21
-358.595980354986
 31
0.0
  0
LINE
  5
12B2
330
1F
100
AcDbEntity
  8
SPOJOVACÍ
  6
CONTINUOUS
100
AcDbLine
 10
2601.6208254396
 20
-362.6403847145786
 30
0.0
 11
2602.979812277164
 21
-358.595980354986
 31
0.0
  0
LINE
  5
12B3
330
1F
100
AcDbEntity
  8
SPOJOVACÍ
  6
CONTINUOUS
100
AcDbLine
 10
2602.602160904313
 20
-358.2183289840406
 30
0.0
 11
2602.383569592286
 21
-358.595980354986
 31
0.0
  0
LINE
  5
12B4
330
1F
100
AcDbEntity
  8
SPOJOVACÍ
  6
CONTINUOUS
100
AcDbLine
 10
2602.602160904313
 20
-358.2183289840406
 30
0.0
 11
2602.979812277164
 21
-358.595980354986
 31
0.0
  0
LINE
  5
12B5
330
1F
100
AcDbEntity
  8
SPOJOVACÍ
  6
CONTINUOUS
100
AcDbLine
 10
2601.402234127574
 20
-363.0180360898896
 30
0.0
 11
2601.024582754446
 21
-362.6403847145786
 31
0.0
  0
LINE
  5
12B6
330
1F
100
AcDbEntity
  8
SPOJOVACÍ
  6
CONTINUOUS
100
AcDbLine
 10
2601.402234127574
 20
-363.0180360898896
 30
0.0
 11
2601.6208254396
 21
-362.6403847145786
 31
0.0
  0
LINE
  5
12B7
330
1F
100
AcDbEntity
  8
SPOJOVACÍ
  6
CONTINUOUS
100
AcDbLine
 10
2601.402234127574
 20
-363.0180360898896
 30
0.0
 11
2602.602160904313
 21
-358.2183289840406
 31
0.0
  0
LINE
  5
12B8
102
{ACAD_REACTORS
330
50BD
102
}
330
1F
100
AcDbEntity
  8
SPOJOVACÍ
  6
CONTINUOUS
100
AcDbLine
 10
2597.903842959782
 20
-362.6403847145786
 30
0.0
 11
2599.263759973048
 21
-358.595980354986
 31
0.0
  0
LINE
  5
12B9
102
{ACAD_REACTORS
330
50BD
102
}
330
1F
100
AcDbEntity
  8
SPOJOVACÍ
  6
CONTINUOUS
100
AcDbLine
 10
2598.50008564466
 20
-362.6403847145786
 30
0.0
 11
2599.860002658202
 21
-358.595980354986
 31
0.0
  0
LINE
  5
12BA
330
1F
100
AcDbEntity
  8
SPOJOVACÍ
  6
CONTINUOUS
100
AcDbLine
 10
2599.482351285074
 20
-358.2183289840406
 30
0.0
 11
2599.263759973048
 21
-358.595980354986
 31
0.0
  0
LINE
  5
12BB
330
1F
100
AcDbEntity
  8
SPOJOVACÍ
  6
CONTINUOUS
100
AcDbLine
 10
2599.482351285074
 20
-358.2183289840406
 30
0.0
 11
2599.860002658202
 21
-358.595980354986
 31
0.0
  0
LINE
  5
12BC
102
{ACAD_REACTORS
330
50BD
102
}
330
1F
100
AcDbEntity
  8
SPOJOVACÍ
  6
CONTINUOUS
100
AcDbLine
 10
2598.282424508612
 20
-363.0180360898896
 30
0.0
 11
2597.903842959782
 21
-362.6403847145786
 31
0.0
  0
LINE
  5
12BD
330
1F
100
AcDbEntity
  8
SPOJOVACÍ
  6
CONTINUOUS
100
AcDbLine
 10
2598.282424508612
 20
-363.0180360898896
 30
0.0
 11
2598.50008564466
 21
-362.6403847145786
 31
0.0
  0
LINE
  5
12BE
330
1F
100
AcDbEntity
  8
SPOJOVACÍ
  6
CONTINUOUS
100
AcDbLine
 10
2598.282424508612
 20
-363.0180360898896
 30
0.0
 11
2599.482351285074
 21
-358.2183289840406
 31
0.0
  0
LINE
  5
12BF
330
1F
100
AcDbEntity
  8
SPOJOVACÍ
  6
CONTINUOUS
100
AcDbLine
 10
2614.418184037942
 20
-359.514063864882
 30
0.0
 11
2612.447141526656
 21
-359.2684974534142
 31
0.0
  0
LINE
  5
12C0
330
1F
100
AcDbEntity
  8
SPOJOVACÍ
  6
CONTINUOUS
100
AcDbLine
 10
2617.124995603841
 20
-359.8526478574433
 30
0.0
 11
2614.988381800987
 21
-359.5856874021058
 31
0.0
  0
LINE
  5
12C1
330
1F
100
AcDbEntity
  8
SPOJOVACÍ
  6
CONTINUOUS
100
AcDbLine
 10
2619.842039103274
 20
-360.1921620186124
 30
0.0
 11
2617.697053718289
 21
-359.9242713903015
 31
0.0
  0
LINE
  5
12C2
330
1F
100
AcDbEntity
  8
SPOJOVACÍ
  6
CONTINUOUS
100
AcDbLine
 10
2620.158298873804
 20
-361.0042054908638
 30
0.0
 11
2623.247412691609
 21
-360.6181825369651
 31
0.0
  0
LINE
  5
12C3
330
1F
100
AcDbEntity
  8
SPOJOVACÍ
  6
CONTINUOUS
100
AcDbLine
 10
2617.217083007595
 20
-361.3716249285437
 30
0.0
 11
2619.537871617951
 21
-361.0814100833897
 31
0.0
  0
LINE
  5
12C4
330
1F
100
AcDbEntity
  8
SPOJOVACÍ
  6
CONTINUOUS
100
AcDbLine
 10
2614.264705031866
 20
-361.7409047209014
 30
0.0
 11
2616.586423817931
 21
-361.4506898713818
 31
0.0
  0
LINE
  5
12C5
330
1F
100
AcDbEntity
  8
SPOJOVACÍ
  6
CONTINUOUS
100
AcDbLine
 10
2623.247412691609
 20
-360.6181825369651
 30
0.0
 11
2620.411306690341
 21
-360.2637855558362
 31
0.0
  0
LINE
  5
12C6
330
1F
100
AcDbEntity
  8
SPOJOVACÍ
  6
CONTINUOUS
100
AcDbLine
 10
2612.447141526656
 20
-361.9678676161504
 30
0.0
 11
2613.644277776013
 21
-361.8181093134273
 31
0.0
  0
LINE
  5
12C7
330
1F
100
AcDbEntity
  8
SPOJOVACÍ
  6
CONTINUOUS
100
AcDbLine
 10
2612.110417888772
 20
-359.2684974534142
 30
0.0
 11
2612.447141526656
 21
-359.2684974534142
 31
0.0
  0
LINE
  5
12C8
330
1F
100
AcDbEntity
  8
SPOJOVACÍ
  6
CONTINUOUS
100
AcDbLine
 10
2608.987817742159
 20
-359.2684974534142
 30
0.0
 11
2611.506733797188
 21
-359.2684974534142
 31
0.0
  0
LINE
  5
12C9
330
1F
100
AcDbEntity
  8
SPOJOVACÍ
  6
CONTINUOUS
100
AcDbLine
 10
2611.199775784767
 20
-361.9678676161504
 30
0.0
 11
2612.447141526656
 21
-361.9678676161504
 31
0.0
  0
LINE
  5
12CA
330
1F
100
AcDbEntity
  8
SPOJOVACÍ
  6
CONTINUOUS
100
AcDbLine
 10
2608.085547220285
 20
-361.9678676161504
 30
0.0
 11
2610.603533099613
 21
-361.9678676161504
 31
0.0
  0
LINE
  5
12CB
330
1F
100
AcDbEntity
  8
SPOJOVACÍ
  6
CONTINUOUS
100
AcDbLine
 10
2605.866147771517
 20
-359.2684974534142
 30
0.0
 11
2608.386924178226
 21
-359.2684974534142
 31
0.0
  0
LINE
  5
12CC
330
1F
100
AcDbEntity
  8
SPOJOVACÍ
  6
CONTINUOUS
100
AcDbLine
 10
2602.743547625173
 20
-359.2684974534142
 30
0.0
 11
2605.271765438043
 21
-359.2684974534142
 31
0.0
  0
LINE
  5
12CD
330
1F
100
AcDbEntity
  8
SPOJOVACÍ
  6
CONTINUOUS
100
AcDbLine
 10
2599.62838888499
 20
-359.2684974534142
 30
0.0
 11
2602.147304940019
 21
-359.2684974534142
 31
0.0
  0
LINE
  5
12CE
330
1F
100
AcDbEntity
  8
SPOJOVACÍ
  6
CONTINUOUS
100
AcDbLine
 10
2604.952715140131
 20
-361.9678676161504
 30
0.0
 11
2607.480932952999
 21
-361.9678676161504
 31
0.0
  0
LINE
  5
12CF
330
1F
100
AcDbEntity
  8
SPOJOVACÍ
  6
CONTINUOUS
100
AcDbLine
 10
2601.837556399947
 20
-361.9678676161504
 30
0.0
 11
2604.358332806656
 21
-361.9678676161504
 31
0.0
  0
LINE
  5
12D0
102
{ACAD_REACTORS
330
50BD
102
}
330
1F
100
AcDbEntity
  8
SPOJOVACÍ
  6
CONTINUOUS
100
AcDbLine
 10
2598.714956253603
 20
-361.9678676161504
 30
0.0
 11
2601.233872308632
 21
-361.9678676161504
 31
0.0
  0
LINE
  5
12D1
102
{ACAD_REACTORS
330
50BD
102
}
330
1F
100
AcDbEntity
  8
SPOJOVACÍ
  6
CONTINUOUS
100
AcDbLine
 10
2594.081750614746
 20
-361.9678676161504
 30
0.0
 11
2598.119643744427
 21
-361.9678676161504
 31
0.0
  0
LINE
  5
12D2
102
{ACAD_REACTORS
330
50BD
102
}
330
1F
100
AcDbEntity
  8
SPOJOVACÍ
  6
CONTINUOUS
100
AcDbLine
 10
2594.081750614746
 20
-359.2684974534142
 30
0.0
 11
2599.024704793675
 21
-359.2684974534142
 31
0.0
  0
LINE
  5
12D3
102
{ACAD_REACTORS
330
50BD
102
}
330
1F
100
AcDbEntity
  8
SPOJOVACÍ
  6
CONTINUOUS
100
AcDbLine
 10
2588.68208012039
 20
-365.718336425599
 30
0.0
 11
2589.426220756864
 21
-364.3686513420482
 31
0.0
  0
LINE
  5
12D4
102
{ACAD_REACTORS
330
50BD
102
}
330
1F
100
AcDbEntity
  8
SPOJOVACÍ
  6
CONTINUOUS
100
AcDbLine
 10
2589.426220756864
 20
-364.3686513420482
 30
0.0
 11
2590.494992746276
 21
-363.2580214416896
 31
0.0
  0
LINE
  5
12D5
102
{ACAD_REACTORS
330
50BD
102
}
330
1F
100
AcDbEntity
  8
SPOJOVACÍ
  6
CONTINUOUS
100
AcDbLine
 10
2590.494992746276
 20
-363.2580214416896
 30
0.0
 11
2591.813982024574
 21
-362.4617909623714
 31
0.0
  0
LINE
  5
12D6
102
{ACAD_REACTORS
330
50BD
102
}
330
1F
100
AcDbEntity
  8
SPOJOVACÍ
  6
CONTINUOUS
100
AcDbLine
 10
2591.813982024574
 20
-362.4617909623714
 30
0.0
 11
2593.294821891624
 21
-362.033910098072
 31
0.0
  0
LINE
  5
12D7
102
{ACAD_REACTORS
330
50BD
102
}
330
1F
100
AcDbEntity
  8
SPOJOVACÍ
  6
CONTINUOUS
100
AcDbLine
 10
2593.294821891624
 20
-362.033910098072
 30
0.0
 11
2594.081750614746
 21
-361.9678676161504
 31
0.0
  0
LINE
  5
12D8
102
{ACAD_REACTORS
330
50BD
102
}
330
1F
100
AcDbEntity
  8
SPOJOVACÍ
  6
CONTINUOUS
100
AcDbLine
 10
2589.936887268715
 20
-357.4704676433987
 30
0.0
 11
2589.018803758273
 21
-356.233333834499
 31
0.0
  0
LINE
  5
12D9
102
{ACAD_REACTORS
330
50BD
102
}
330
1F
100
AcDbEntity
  8
SPOJOVACÍ
  6
CONTINUOUS
100
AcDbLine
 10
2589.018803758273
 20
-356.233333834499
 30
0.0
 11
2588.68208012039
 21
-355.5180286483312
 31
0.0
  0
LINE
  5
12DA
330
1F
100
AcDbEntity
  8
SPOJOVACÍ
  6
CONTINUOUS
100
AcDbLine
 10
2588.68208012039
 20
-365.718336425599
 30
0.0
 11
2588.68208012039
 21
-355.5180286483312
 31
0.0
  0
LINE
  5
12DB
102
{ACAD_REACTORS
330
50BD
102
}
330
1F
100
AcDbEntity
  8
SPOJOVACÍ
  6
CONTINUOUS
100
AcDbLine
 10
2587.482153343659
 20
-365.718336425599
 30
0.0
 11
2588.68208012039
 21
-365.718336425599
 31
0.0
  0
LINE
  5
12DC
330
1F
100
AcDbEntity
  8
SPOJOVACÍ
  6
CONTINUOUS
100
AcDbLine
 10
2587.482153343659
 20
-365.718336425599
 30
0.0
 11
2587.482153343659
 21
-355.5180286483312
 31
0.0
  0
LINE
  5
12DD
102
{ACAD_REACTORS
330
50BD
102
}
330
1F
100
AcDbEntity
  8
SPOJOVACÍ
  6
CONTINUOUS
100
AcDbLine
 10
2587.482153343659
 20
-355.5180286483312
 30
0.0
 11
2588.68208012039
 21
-355.5180286483312
 31
0.0
  0
LINE
  5
12DE
102
{ACAD_REACTORS
330
50BD
102
}
330
1F
100
AcDbEntity
  8
SPOJOVACÍ
  6
CONTINUOUS
100
AcDbLine
 10
2594.081750614746
 20
-359.2684974534142
 30
0.0
 11
2592.558122661317
 21
-359.0415345625308
 31
0.0
  0
LINE
  5
12DF
102
{ACAD_REACTORS
330
50BD
102
}
330
1F
100
AcDbEntity
  8
SPOJOVACÍ
  6
CONTINUOUS
100
AcDbLine
 10
2592.558122661317
 20
-359.0415345625308
 30
0.0
 11
2591.144255451614
 21
-358.4285487133831
 31
0.0
  0
LINE
  5
12E0
102
{ACAD_REACTORS
330
50BD
102
}
330
1F
100
AcDbEntity
  8
SPOJOVACÍ
  6
CONTINUOUS
100
AcDbLine
 10
2591.144255451614
 20
-358.4285487133831
 30
0.0
 11
2589.936887268715
 21
-357.4704676433987
 31
0.0
  0
LINE
  5
12E1
330
1F
100
AcDbEntity
  8
SPOJOVACÍ
  6
CONTINUOUS
100
AcDbLine
 10
2684.052305520454
 20
-358.4285487133831
 30
0.0
 11
2685.259673703352
 21
-357.4704676433987
 31
0.0
  0
LINE
  5
12E2
330
1F
100
AcDbEntity
  8
SPOJOVACÍ
  6
CONTINUOUS
100
AcDbLine
 10
2682.63843831075
 20
-359.0415345625308
 30
0.0
 11
2684.052305520454
 21
-358.4285487133831
 31
0.0
  0
LINE
  5
12E3
330
1F
100
AcDbEntity
  8
SPOJOVACÍ
  6
CONTINUOUS
100
AcDbLine
 10
2681.114810357321
 20
-359.2684974534142
 30
0.0
 11
2682.63843831075
 21
-359.0415345625308
 31
0.0
  0
LINE
  5
12E4
330
1F
100
AcDbEntity
  8
SPOJOVACÍ
  6
CONTINUOUS
100
AcDbLine
 10
2687.714407628409
 20
-355.5180286483312
 30
0.0
 11
2686.514480851678
 21
-355.5180286483312
 31
0.0
  0
LINE
  5
12E5
330
1F
100
AcDbEntity
  8
SPOJOVACÍ
  6
CONTINUOUS
100
AcDbLine
 10
2687.714407628409
 20
-365.718336425599
 30
0.0
 11
2687.714407628409
 21
-355.5180286483312
 31
0.0
  0
LINE
  5
12E6
330
1F
100
AcDbEntity
  8
SPOJOVACÍ
  6
CONTINUOUS
100
AcDbLine
 10
2687.714407628409
 20
-365.718336425599
 30
0.0
 11
2686.514480851678
 21
-365.718336425599
 31
0.0
  0
LINE
  5
12E7
330
1F
100
AcDbEntity
  8
SPOJOVACÍ
  6
CONTINUOUS
100
AcDbLine
 10
2686.514480851678
 20
-365.718336425599
 30
0.0
 11
2686.514480851678
 21
-355.5180286483312
 31
0.0
  0
LINE
  5
12E8
330
1F
100
AcDbEntity
  8
SPOJOVACÍ
  6
CONTINUOUS
100
AcDbLine
 10
2686.177757213794
 20
-356.233333834499
 30
0.0
 11
2686.514480851678
 21
-355.5180286483312
 31
0.0
  0
LINE
  5
12E9
330
1F
100
AcDbEntity
  8
SPOJOVACÍ
  6
CONTINUOUS
100
AcDbLine
 10
2685.259673703352
 20
-357.4704676433987
 30
0.0
 11
2686.177757213794
 21
-356.233333834499
 31
0.0
  0
LINE
  5
12EA
330
1F
100
AcDbEntity
  8
SPOJOVACÍ
  6
CONTINUOUS
100
AcDbLine
 10
2681.901739080444
 20
-362.033910098072
 30
0.0
 11
2681.114810357321
 21
-361.9678676161504
 31
0.0
  0
LINE
  5
12EB
330
1F
100
AcDbEntity
  8
SPOJOVACÍ
  6
CONTINUOUS
100
AcDbLine
 10
2683.382578947494
 20
-362.4617909623714
 30
0.0
 11
2681.901739080444
 21
-362.033910098072
 31
0.0
  0
LINE
  5
12EC
330
1F
100
AcDbEntity
  8
SPOJOVACÍ
  6
CONTINUOUS
100
AcDbLine
 10
2684.701568225791
 20
-363.2580214416896
 30
0.0
 11
2683.382578947494
 21
-362.4617909623714
 31
0.0
  0
LINE
  5
12ED
330
1F
100
AcDbEntity
  8
SPOJOVACÍ
  6
CONTINUOUS
100
AcDbLine
 10
2685.770340215203
 20
-364.3686513420482
 30
0.0
 11
2684.701568225791
 21
-363.2580214416896
 31
0.0
  0
LINE
  5
12EE
330
1F
100
AcDbEntity
  8
SPOJOVACÍ
  6
CONTINUOUS
100
AcDbLine
 10
2686.514480851678
 20
-365.718336425599
 30
0.0
 11
2685.770340215203
 21
-364.3686513420482
 31
0.0
  0
LINE
  5
12EF
330
1F
100
AcDbEntity
  8
SPOJOVACÍ
  6
CONTINUOUS
100
AcDbLine
 10
2681.114810357321
 20
-359.2684974534142
 30
0.0
 11
2676.171856178393
 21
-359.2684974534142
 31
0.0
  0
LINE
  5
12F0
330
1F
100
AcDbEntity
  8
SPOJOVACÍ
  6
CONTINUOUS
100
AcDbLine
 10
2681.114810357321
 20
-361.9678676161504
 30
0.0
 11
2677.076917227641
 21
-361.9678676161504
 31
0.0
  0
LINE
  5
12F1
330
1F
100
AcDbEntity
  8
SPOJOVACÍ
  6
CONTINUOUS
100
AcDbLine
 10
2676.481604718464
 20
-361.9678676161504
 30
0.0
 11
2673.962688663436
 21
-361.9678676161504
 31
0.0
  0
LINE
  5
12F2
330
1F
100
AcDbEntity
  8
SPOJOVACÍ
  6
CONTINUOUS
100
AcDbLine
 10
2673.359004572121
 20
-361.9678676161504
 30
0.0
 11
2670.838228165412
 21
-361.9678676161504
 31
0.0
  0
LINE
  5
12F3
330
1F
100
AcDbEntity
  8
SPOJOVACÍ
  6
CONTINUOUS
100
AcDbLine
 10
2670.243845831937
 20
-361.9678676161504
 30
0.0
 11
2667.715628019068
 21
-361.9678676161504
 31
0.0
  0
LINE
  5
12F4
330
1F
100
AcDbEntity
  8
SPOJOVACÍ
  6
CONTINUOUS
100
AcDbLine
 10
2675.568172087078
 20
-359.2684974534142
 30
0.0
 11
2673.049256032049
 21
-359.2684974534142
 31
0.0
  0
LINE
  5
12F5
330
1F
100
AcDbEntity
  8
SPOJOVACÍ
  6
CONTINUOUS
100
AcDbLine
 10
2672.453013346894
 20
-359.2684974534142
 30
0.0
 11
2669.924795534025
 21
-359.2684974534142
 31
0.0
  0
LINE
  5
12F6
330
1F
100
AcDbEntity
  8
SPOJOVACÍ
  6
CONTINUOUS
100
AcDbLine
 10
2669.33041320055
 20
-359.2684974534142
 30
0.0
 11
2666.809636793841
 21
-359.2684974534142
 31
0.0
  0
LINE
  5
12F7
330
1F
100
AcDbEntity
  8
SPOJOVACÍ
  6
CONTINUOUS
100
AcDbLine
 10
2667.111013751782
 20
-361.9678676161504
 30
0.0
 11
2664.593027872455
 21
-361.9678676161504
 31
0.0
  0
LINE
  5
12F8
330
1F
100
AcDbEntity
  8
SPOJOVACÍ
  6
CONTINUOUS
100
AcDbLine
 10
2663.9967851873
 20
-361.9678676161504
 30
0.0
 11
2662.749419445412
 21
-361.9678676161504
 31
0.0
  0
LINE
  5
12F9
330
1F
100
AcDbEntity
  8
SPOJOVACÍ
  6
CONTINUOUS
100
AcDbLine
 10
2666.208743229908
 20
-359.2684974534142
 30
0.0
 11
2663.689827174879
 21
-359.2684974534142
 31
0.0
  0
LINE
  5
12FA
330
1F
100
AcDbEntity
  8
SPOJOVACÍ
  6
CONTINUOUS
100
AcDbLine
 10
2663.086143083296
 20
-359.2684974534142
 30
0.0
 11
2662.749419445412
 21
-359.2684974534142
 31
0.0
  0
LINE
  5
12FB
330
1F
100
AcDbEntity
  8
SPOJOVACÍ
  6
CONTINUOUS
100
AcDbLine
 10
2662.749419445412
 20
-361.9678676161504
 30
0.0
 11
2661.552283196055
 21
-361.8181093134273
 31
0.0
  0
LINE
  5
12FC
330
1F
100
AcDbEntity
  8
SPOJOVACÍ
  6
CONTINUOUS
100
AcDbLine
 10
2651.949148280459
 20
-360.6181825369651
 30
0.0
 11
2654.785254281727
 21
-360.2637855558362
 31
0.0
  0
LINE
  5
12FD
330
1F
100
AcDbEntity
  8
SPOJOVACÍ
  6
CONTINUOUS
100
AcDbLine
 10
2660.931855940201
 20
-361.7409047209014
 30
0.0
 11
2658.610137154137
 21
-361.4506898713818
 31
0.0
  0
LINE
  5
12FE
330
1F
100
AcDbEntity
  8
SPOJOVACÍ
  6
CONTINUOUS
100
AcDbLine
 10
2657.979477964472
 20
-361.3716249285437
 30
0.0
 11
2655.658689354117
 21
-361.0814100833897
 31
0.0
  0
LINE
  5
12FF
330
1F
100
AcDbEntity
  8
SPOJOVACÍ
  6
CONTINUOUS
100
AcDbLine
 10
2655.038262098264
 20
-361.0042054908638
 30
0.0
 11
2651.949148280459
 21
-360.6181825369651
 31
0.0
  0
LINE
  5
1300
330
1F
100
AcDbEntity
  8
SPOJOVACÍ
  6
CONTINUOUS
100
AcDbLine
 10
2655.354521868794
 20
-360.1921620186124
 30
0.0
 11
2657.499507253778
 21
-359.9242713903015
 31
0.0
  0
LINE
  5
1301
330
1F
100
AcDbEntity
  8
SPOJOVACÍ
  6
CONTINUOUS
100
AcDbLine
 10
2658.071565368227
 20
-359.8526478574433
 30
0.0
 11
2660.20817917108
 21
-359.5856874021058
 31
0.0
  0
LINE
  5
1302
330
1F
100
AcDbEntity
  8
SPOJOVACÍ
  6
CONTINUOUS
100
AcDbLine
 10
2660.778376934126
 20
-359.514063864882
 30
0.0
 11
2662.749419445412
 21
-359.2684974534142
 31
0.0
  0
LINE
  5
1303
330
1F
100
AcDbEntity
  8
SPOJOVACÍ
  6
CONTINUOUS
100
AcDbLine
 10
2676.914136463456
 20
-363.0180360898896
 30
0.0
 11
2675.714209686994
 21
-358.2183289840406
 31
0.0
  0
LINE
  5
1304
330
1F
100
AcDbEntity
  8
SPOJOVACÍ
  6
CONTINUOUS
100
AcDbLine
 10
2676.914136463456
 20
-363.0180360898896
 30
0.0
 11
2676.696475327407
 21
-362.6403847145786
 31
0.0
  0
LINE
  5
1305
330
1F
100
AcDbEntity
  8
SPOJOVACÍ
  6
CONTINUOUS
100
AcDbLine
 10
2676.914136463456
 20
-363.0180360898896
 30
0.0
 11
2677.292718012286
 21
-362.6403847145786
 31
0.0
  0
LINE
  5
1306
330
1F
100
AcDbEntity
  8
SPOJOVACÍ
  6
CONTINUOUS
100
AcDbLine
 10
2675.714209686994
 20
-358.2183289840406
 30
0.0
 11
2675.336558313865
 21
-358.595980354986
 31
0.0
  0
LINE
  5
1307
330
1F
100
AcDbEntity
  8
SPOJOVACÍ
  6
CONTINUOUS
100
AcDbLine
 10
2675.714209686994
 20
-358.2183289840406
 30
0.0
 11
2675.93280099902
 21
-358.595980354986
 31
0.0
  0
LINE
  5
1308
330
1F
100
AcDbEntity
  8
SPOJOVACÍ
  6
CONTINUOUS
100
AcDbLine
 10
2676.696475327407
 20
-362.6403847145786
 30
0.0
 11
2675.336558313865
 21
-358.595980354986
 31
0.0
  0
LINE
  5
1309
330
1F
100
AcDbEntity
  8
SPOJOVACÍ
  6
CONTINUOUS
100
AcDbLine
 10
2677.292718012286
 20
-362.6403847145786
 30
0.0
 11
2675.93280099902
 21
-358.595980354986
 31
0.0
  0
LINE
  5
130A
330
1F
100
AcDbEntity
  8
SPOJOVACÍ
  6
CONTINUOUS
100
AcDbLine
 10
2673.794326844494
 20
-363.0180360898896
 30
0.0
 11
2672.594400067755
 21
-358.2183289840406
 31
0.0
  0
LINE
  5
130B
330
1F
100
AcDbEntity
  8
SPOJOVACÍ
  6
CONTINUOUS
100
AcDbLine
 10
2673.794326844494
 20
-363.0180360898896
 30
0.0
 11
2673.575735532467
 21
-362.6403847145786
 31
0.0
  0
LINE
  5
130C
330
1F
100
AcDbEntity
  8
SPOJOVACÍ
  6
CONTINUOUS
100
AcDbLine
 10
2673.794326844494
 20
-363.0180360898896
 30
0.0
 11
2674.171978217622
 21
-362.6403847145786
 31
0.0
  0
LINE
  5
130D
330
1F
100
AcDbEntity
  8
SPOJOVACÍ
  6
CONTINUOUS
100
AcDbLine
 10
2672.594400067755
 20
-358.2183289840406
 30
0.0
 11
2672.216748694903
 21
-358.595980354986
 31
0.0
  0
LINE
  5
130E
330
1F
100
AcDbEntity
  8
SPOJOVACÍ
  6
CONTINUOUS
100
AcDbLine
 10
2672.594400067755
 20
-358.2183289840406
 30
0.0
 11
2672.812991379782
 21
-358.595980354986
 31
0.0
  0
LINE
  5
130F
330
1F
100
AcDbEntity
  8
SPOJOVACÍ
  6
CONTINUOUS
100
AcDbLine
 10
2673.575735532467
 20
-362.6403847145786
 30
0.0
 11
2672.216748694903
 21
-358.595980354986
 31
0.0
  0
LINE
  5
1310
330
1F
100
AcDbEntity
  8
SPOJOVACÍ
  6
CONTINUOUS
100
AcDbLine
 10
2674.171978217622
 20
-362.6403847145786
 30
0.0
 11
2672.812991379782
 21
-358.595980354986
 31
0.0
  0
LINE
  5
1311
330
1F
100
AcDbEntity
  8
SPOJOVACÍ
  6
CONTINUOUS
100
AcDbLine
 10
2661.356946279033
 20
-362.7640980954686
 30
0.0
 11
2661.138354967006
 21
-362.3855165471843
 31
0.0
  0
LINE
  5
1312
330
1F
100
AcDbEntity
  8
SPOJOVACÍ
  6
CONTINUOUS
100
AcDbLine
 10
2661.356946279033
 20
-362.7640980954686
 30
0.0
 11
2661.734597652161
 21
-362.3855165471843
 31
0.0
  0
LINE
  5
1313
330
1F
100
AcDbEntity
  8
SPOJOVACÍ
  6
CONTINUOUS
100
AcDbLine
 10
2660.383982396728
 20
-358.6387684427256
 30
0.0
 11
2660.005400847621
 21
-359.016419813671
 31
0.0
  0
LINE
  5
1314
330
1F
100
AcDbEntity
  8
SPOJOVACÍ
  6
CONTINUOUS
100
AcDbLine
 10
2660.383982396728
 20
-358.6387684427256
 30
0.0
 11
2660.601643532777
 21
-359.016419813671
 31
0.0
  0
LINE
  5
1315
330
1F
100
AcDbEntity
  8
SPOJOVACÍ
  6
CONTINUOUS
100
AcDbLine
 10
2661.138354967006
 20
-362.3855165471843
 30
0.0
 11
2660.005400847621
 21
-359.016419813671
 31
0.0
  0
LINE
  5
1316
330
1F
100
AcDbEntity
  8
SPOJOVACÍ
  6
CONTINUOUS
100
AcDbLine
 10
2661.734597652161
 20
-362.3855165471843
 30
0.0
 11
2660.601643532777
 21
-359.016419813671
 31
0.0
  0
LINE
  5
1317
330
1F
100
AcDbEntity
  8
SPOJOVACÍ
  6
CONTINUOUS
100
AcDbLine
 10
2661.356946279033
 20
-362.7640980954686
 30
0.0
 11
2660.383982396728
 21
-358.6387684427256
 31
0.0
  0
LINE
  5
1318
330
1F
100
AcDbEntity
  8
SPOJOVACÍ
  6
CONTINUOUS
100
AcDbLine
 10
2658.342246524735
 20
-362.1994813893627
 30
0.0
 11
2658.124585388686
 21
-361.8218300140517
 31
0.0
  0
LINE
  5
1319
330
1F
100
AcDbEntity
  8
SPOJOVACÍ
  6
CONTINUOUS
100
AcDbLine
 10
2658.342246524735
 20
-362.1994813893627
 30
0.0
 11
2658.720828073841
 21
-361.8218300140517
 31
0.0
  0
LINE
  5
131A
330
1F
100
AcDbEntity
  8
SPOJOVACÍ
  6
CONTINUOUS
100
AcDbLine
 10
2657.708796807964
 20
-359.0833924729315
 30
0.0
 11
2657.330215259134
 21
-359.4610438438769
 31
0.0
  0
LINE
  5
131B
330
1F
100
AcDbEntity
  8
SPOJOVACÍ
  6
CONTINUOUS
100
AcDbLine
 10
2657.708796807964
 20
-359.0833924729315
 30
0.0
 11
2657.926457944013
 21
-359.4610438438769
 31
0.0
  0
LINE
  5
131C
330
1F
100
AcDbEntity
  8
SPOJOVACÍ
  6
CONTINUOUS
100
AcDbLine
 10
2658.124585388686
 20
-361.8218300140517
 30
0.0
 11
2657.330215259134
 21
-359.4610438438769
 31
0.0
  0
LINE
  5
131D
330
1F
100
AcDbEntity
  8
SPOJOVACÍ
  6
CONTINUOUS
100
AcDbLine
 10
2658.720828073841
 20
-361.8218300140517
 30
0.0
 11
2657.926457944013
 21
-359.4610438438769
 31
0.0
  0
LINE
  5
131E
330
1F
100
AcDbEntity
  8
SPOJOVACÍ
  6
CONTINUOUS
100
AcDbLine
 10
2658.342246524735
 20
-362.1994813893627
 30
0.0
 11
2657.708796807964
 21
-359.0833924729315
 31
0.0
  0
LINE
  5
131F
330
1F
100
AcDbEntity
  8
SPOJOVACÍ
  6
CONTINUOUS
100
AcDbLine
 10
2655.328476946415
 20
-361.6348646788912
 30
0.0
 11
2655.109885634396
 21
-361.2572133079459
 31
0.0
  0
LINE
  5
1320
330
1F
100
AcDbEntity
  8
SPOJOVACÍ
  6
CONTINUOUS
100
AcDbLine
 10
2655.328476946415
 20
-361.6348646788912
 30
0.0
 11
2655.706128319543
 21
-361.2572133079459
 31
0.0
  0
LINE
  5
1321
330
1F
100
AcDbEntity
  8
SPOJOVACÍ
  6
CONTINUOUS
100
AcDbLine
 10
2655.017798230641
 20
-359.4805775374345
 30
0.0
 11
2654.639216681811
 21
-359.8582289083799
 31
0.0
  0
LINE
  5
1322
330
1F
100
AcDbEntity
  8
SPOJOVACÍ
  6
CONTINUOUS
100
AcDbLine
 10
2655.017798230641
 20
-359.4805775374345
 30
0.0
 11
2655.235459366958
 21
-359.8582289083799
 31
0.0
  0
LINE
  5
1323
330
1F
100
AcDbEntity
  8
SPOJOVACÍ
  6
CONTINUOUS
100
AcDbLine
 10
2655.109885634396
 20
-361.2572133079459
 30
0.0
 11
2654.639216681811
 21
-359.8582289083799
 31
0.0
  0
LINE
  5
1324
330
1F
100
AcDbEntity
  8
SPOJOVACÍ
  6
CONTINUOUS
100
AcDbLine
 10
2655.706128319543
 20
-361.2572133079459
 30
0.0
 11
2655.235459366958
 21
-359.8582289083799
 31
0.0
  0
LINE
  5
1325
330
1F
100
AcDbEntity
  8
SPOJOVACÍ
  6
CONTINUOUS
100
AcDbLine
 10
2655.328476946415
 20
-361.6348646788912
 30
0.0
 11
2655.017798230641
 21
-359.4805775374345
 31
0.0
  0
LINE
  5
1326
330
1F
100
AcDbEntity
  8
SPOJOVACÍ
  6
CONTINUOUS
100
AcDbLine
 10
2670.674517225256
 20
-363.0180360898896
 30
0.0
 11
2669.474590448793
 21
-358.2183289840406
 31
0.0
  0
LINE
  5
1327
330
1F
100
AcDbEntity
  8
SPOJOVACÍ
  6
CONTINUOUS
100
AcDbLine
 10
2670.674517225256
 20
-363.0180360898896
 30
0.0
 11
2670.455925913229
 21
-362.6403847145786
 31
0.0
  0
LINE
  5
1328
330
1F
100
AcDbEntity
  8
SPOJOVACÍ
  6
CONTINUOUS
100
AcDbLine
 10
2670.674517225256
 20
-363.0180360898896
 30
0.0
 11
2671.052168598384
 21
-362.6403847145786
 31
0.0
  0
LINE
  5
1329
330
1F
100
AcDbEntity
  8
SPOJOVACÍ
  6
CONTINUOUS
100
AcDbLine
 10
2669.474590448793
 20
-358.2183289840406
 30
0.0
 11
2669.096008899964
 21
-358.595980354986
 31
0.0
  0
LINE
  5
132A
330
1F
100
AcDbEntity
  8
SPOJOVACÍ
  6
CONTINUOUS
100
AcDbLine
 10
2669.474590448793
 20
-358.2183289840406
 30
0.0
 11
2669.692251585111
 21
-358.595980354986
 31
0.0
  0
LINE
  5
132B
330
1F
100
AcDbEntity
  8
SPOJOVACÍ
  6
CONTINUOUS
100
AcDbLine
 10
2670.455925913229
 20
-362.6403847145786
 30
0.0
 11
2669.096008899964
 21
-358.595980354986
 31
0.0
  0
LINE
  5
132C
330
1F
100
AcDbEntity
  8
SPOJOVACÍ
  6
CONTINUOUS
100
AcDbLine
 10
2671.052168598384
 20
-362.6403847145786
 30
0.0
 11
2669.692251585111
 21
-358.595980354986
 31
0.0
  0
LINE
  5
132D
330
1F
100
AcDbEntity
  8
SPOJOVACÍ
  6
CONTINUOUS
100
AcDbLine
 10
2667.554707606286
 20
-363.0180360898896
 30
0.0
 11
2666.354780829824
 21
-358.2183289840406
 31
0.0
  0
LINE
  5
132E
330
1F
100
AcDbEntity
  8
SPOJOVACÍ
  6
CONTINUOUS
100
AcDbLine
 10
2667.554707606286
 20
-363.0180360898896
 30
0.0
 11
2667.336116294267
 21
-362.6403847145786
 31
0.0
  0
LINE
  5
132F
330
1F
100
AcDbEntity
  8
SPOJOVACÍ
  6
CONTINUOUS
100
AcDbLine
 10
2667.554707606286
 20
-363.0180360898896
 30
0.0
 11
2667.932358979415
 21
-362.6403847145786
 31
0.0
  0
LINE
  5
1330
330
1F
100
AcDbEntity
  8
SPOJOVACÍ
  6
CONTINUOUS
100
AcDbLine
 10
2666.354780829824
 20
-358.2183289840406
 30
0.0
 11
2665.976199280994
 21
-358.595980354986
 31
0.0
  0
LINE
  5
1331
330
1F
100
AcDbEntity
  8
SPOJOVACÍ
  6
CONTINUOUS
100
AcDbLine
 10
2666.354780829824
 20
-358.2183289840406
 30
0.0
 11
2666.572441965872
 21
-358.595980354986
 31
0.0
  0
LINE
  5
1332
330
1F
100
AcDbEntity
  8
SPOJOVACÍ
  6
CONTINUOUS
100
AcDbLine
 10
2667.336116294267
 20
-362.6403847145786
 30
0.0
 11
2665.976199280994
 21
-358.595980354986
 31
0.0
  0
LINE
  5
1333
330
1F
100
AcDbEntity
  8
SPOJOVACÍ
  6
CONTINUOUS
100
AcDbLine
 10
2667.932358979415
 20
-362.6403847145786
 30
0.0
 11
2666.572441965872
 21
-358.595980354986
 31
0.0
  0
LINE
  5
1334
330
1F
100
AcDbEntity
  8
SPOJOVACÍ
  6
CONTINUOUS
100
AcDbLine
 10
2664.433967811346
 20
-363.0180360898896
 30
0.0
 11
2663.234041034884
 21
-358.2183289840406
 31
0.0
  0
LINE
  5
1335
330
1F
100
AcDbEntity
  8
SPOJOVACÍ
  6
CONTINUOUS
100
AcDbLine
 10
2664.433967811346
 20
-363.0180360898896
 30
0.0
 11
2664.216306675298
 21
-362.6403847145786
 31
0.0
  0
LINE
  5
1336
330
1F
100
AcDbEntity
  8
SPOJOVACÍ
  6
CONTINUOUS
100
AcDbLine
 10
2664.433967811346
 20
-363.0180360898896
 30
0.0
 11
2664.812549360453
 21
-362.6403847145786
 31
0.0
  0
LINE
  5
1337
330
1F
100
AcDbEntity
  8
SPOJOVACÍ
  6
CONTINUOUS
100
AcDbLine
 10
2663.234041034884
 20
-358.2183289840406
 30
0.0
 11
2662.856389661756
 21
-358.595980354986
 31
0.0
  0
LINE
  5
1338
330
1F
100
AcDbEntity
  8
SPOJOVACÍ
  6
CONTINUOUS
100
AcDbLine
 10
2663.234041034884
 20
-358.2183289840406
 30
0.0
 11
2663.452632346911
 21
-358.595980354986
 31
0.0
  0
LINE
  5
1339
330
1F
100
AcDbEntity
  8
SPOJOVACÍ
  6
CONTINUOUS
100
AcDbLine
 10
2664.216306675298
 20
-362.6403847145786
 30
0.0
 11
2662.856389661756
 21
-358.595980354986
 31
0.0
  0
LINE
  5
133A
330
1F
100
AcDbEntity
  8
SPOJOVACÍ
  6
CONTINUOUS
100
AcDbLine
 10
2664.812549360453
 20
-362.6403847145786
 30
0.0
 11
2663.452632346911
 21
-358.595980354986
 31
0.0
  0
LINE
  5
133D
330
1F
100
AcDbEntity
  8
IZOLACE
  6
IZOLACE
 48
2.2
100
AcDbLine
 10
2637.032570663972
 20
-412.8046261800284
 30
0.0
 11
2637.032570663969
 21
-69.9676029646514
 31
0.0
  0
LINE
  5
133E
102
{ACAD_REACTORS
330
50BD
102
}
330
1F
100
AcDbEntity
  8
CETRIS
100
AcDbLine
 10
2587.482153343659
 20
-414.227615764021
 30
0.0
 11
2599.482153343659
 21
-414.227615764021
 31
0.0
  0
LINE
  5
133F
330
1F
100
AcDbEntity
  8
CETRIS
100
AcDbLine
 10
2675.714407628409
 20
-414.227615764021
 30
0.0
 11
2687.714407628409
 21
-414.2276157640173
 31
0.0
  0
LINE
  5
1340
330
1F
100
AcDbEntity
  8
STAVBA_OBRYS
100
AcDbLine
 10
2474.869299759924
 20
-419.4456607452068
 30
0.0
 11
2827.189434286269
 21
-419.4456607452068
 31
0.0
  0
LINE
  5
1341
330
1F
100
AcDbEntity
  8
STAVBA_OBRYS
100
AcDbLine
 10
2827.189434286268
 20
-417.3847348271977
 30
0.0
 11
2690.583643438378
 21
-417.3847348271976
 31
0.0
  0
LWPOLYLINE
  5
1342
330
1F
100
AcDbEntity
  8
STAVBA_OBRYS
100
AcDbPolyline
 90
        4
 70
     1
 43
0.0
 10
2690.583643438378
 20
-417.3847348271976
 10
2790.583643438378
 20
-417.3847348271976
 10
2790.583643438378
 20
-412.3847348271977
 10
2690.583643438378
 20
-412.3847348271977
  0
LWPOLYLINE
  5
1343
330
1F
100
AcDbEntity
  8
STAVBA_OBRYS
100
AcDbPolyline
 90
        4
 70
     0
 43
0.0
 10
2827.189434286268
 20
-412.3847348271977
 10
2794.297182035418
 20
-412.3847348271977
 10
2794.297182035418
 20
-417.3847348271976
 10
2827.189434286268
 20
-417.3847348271976
  0
LINE
  5
1344
330
1F
100
AcDbEntity
  8
STAVBA_OBRYS
100
AcDbLine
 10
2794.297182035418
 20
-412.3847348271977
 30
0.0
 11
2790.583643438378
 21
-412.3847348271977
 31
0.0
  0
LWPOLYLINE
  5
1347
330
1F
100
AcDbEntity
  8
STAVBA_OBRYS
100
AcDbPolyline
 90
        4
 70
     1
 43
0.0
 10
2690.643996542869
 20
-410.1080077429962
 10
2695.68912106803
 20
-410.1080077429962
 10
2695.68912106803
 20
-378.1103834916377
 10
2690.643996542869
 20
-378.1103834916377
  0
LINE
  5
1348
330
1F
100
AcDbEntity
  8
STAVBA_OBRYS
100
AcDbLine
 10
2690.643996542869
 20
-378.1103834916377
 30
0.0
 11
2687.714407628409
 21
-378.1103834916377
 31
0.0
  0
LINE
  5
1349
330
1F
100
AcDbEntity
  8
STAVBA_OBRYS
100
AcDbLine
 10
2695.68912106803
 20
-410.1080077429962
 30
0.0
 11
2695.68912106803
 21
-412.3847348271977
 31
0.0
  0
LINE
  5
134A
330
1F
100
AcDbEntity
  8
STAVBA_OBRYS
100
AcDbLine
 10
2690.643996542869
 20
-410.1080077429962
 30
0.0
 11
2690.583643438378
 21
-412.3847348271977
 31
0.0
  0
TEXT
  5
134C
330
1F
100
AcDbEntity
  8
POPIS
100
AcDbText
 10
2747.970641810028
 20
-486.6247544372779
 30
0.0
 40
25.0
  1
08
 41
0.85
  7
SIMPLEX7
100
AcDbText
  0
TEXT
  5
134D
330
1F
100
AcDbEntity
  8
POPIS
100
AcDbText
 10
2492.168668405036
 20
-486.6247544372779
 30
0.0
 40
25.0
  1
07
 41
0.85
  7
SIMPLEX7
100
AcDbText
  0
LINE
  5
134E
330
1F
100
AcDbEntity
  8
POPIS
100
AcDbLine
 10
2638.619425266701
 20
-441.075325881173
 30
0.0
 11
2741.408038436162
 21
-474.9627587555135
 31
0.0
  0
LINE
  5
134F
330
1F
100
AcDbEntity
  8
POPIS
100
AcDbLine
 10
2613.517640643487
 20
-417.739042698193
 30
0.0
 11
2529.972135401531
 21
-473.7949057611315
 31
0.0
  0
INSERT
  5
1350
330
1F
100
AcDbEntity
  8
POPIS
100
AcDbBlockReference
  2
E_PUNKT
 10
2638.590356935827
 20
-441.0477155055462
 30
0.0
 50
270.0
  0
INSERT
  5
1351
330
1F
100
AcDbEntity
  8
POPIS
100
AcDbBlockReference
  2
E_PUNKT
 10
2613.488572312613
 20
-417.7114323225662
 30
0.0
 50
270.0
  0
INSERT
  5
1352
330
1F
100
AcDbEntity
  8
POPIS
100
AcDbBlockReference
  2
E_PUNKT
 10
2683.512965566348
 20
-416.5888938552864
 30
0.0
 50
270.0
  0
INSERT
  5
1353
330
1F
100
AcDbEntity
  8
POPIS
100
AcDbBlockReference
  2
E_PUNKT
 10
2673.556049048155
 20
-382.8622914568488
 30
0.0
 50
270.0
  0
TEXT
  5
1354
330
1F
100
AcDbEntity
  8
POPIS
100
AcDbText
 10
2762.952963743868
 20
-383.2109121505661
 30
0.0
 40
25.0
  1
06
 41
0.85
  7
SIMPLEX7
100
AcDbText
  0
TEXT
  5
1355
330
1F
100
AcDbEntity
  8
POPIS
100
AcDbText
 10
2762.952963743868
 20
-344.0775007766885
 30
0.0
 40
25.0
  1
05
 41
0.85
  7
SIMPLEX7
100
AcDbText
  0
LINE
  5
1357
330
1F
100
AcDbEntity
  8
POPIS
100
AcDbLine
 10
2755.594992313938
 20
-370.445921366534
 30
0.0
 11
2683.542033897222
 21
-416.6165042309132
 31
0.0
  0
LINE
  5
1358
102
{ACAD_REACTORS
330
50BD
102
}
330
1F
100
AcDbEntity
  8
SPOJOVACÍ
  6
CONTINUOUS
100
AcDbLine
 10
2591.144255451614
 20
-131.9264843216099
 30
0.0
 11
2589.936887268715
 21
-130.9684032516254
 31
0.0
  0
LINE
  5
1359
102
{ACAD_REACTORS
330
50BD
102
}
330
1F
100
AcDbEntity
  8
SPOJOVACÍ
  6
CONTINUOUS
100
AcDbLine
 10
2592.558122661317
 20
-132.5394701707575
 30
0.0
 11
2591.144255451614
 21
-131.9264843216099
 31
0.0
  0
LINE
  5
135A
102
{ACAD_REACTORS
330
50BD
102
}
330
1F
100
AcDbEntity
  8
SPOJOVACÍ
  6
CONTINUOUS
100
AcDbLine
 10
2594.081750614746
 20
-132.766433061641
 30
0.0
 11
2592.558122661317
 21
-132.5394701707575
 31
0.0
  0
LINE
  5
135B
102
{ACAD_REACTORS
330
50BD
102
}
330
1F
100
AcDbEntity
  8
SPOJOVACÍ
  6
CONTINUOUS
100
AcDbLine
 10
2587.482153343659
 20
-129.0159642565579
 30
0.0
 11
2588.68208012039
 21
-129.0159642565579
 31
0.0
  0
LINE
  5
135C
330
1F
100
AcDbEntity
  8
SPOJOVACÍ
  6
CONTINUOUS
100
AcDbLine
 10
2587.482153343659
 20
-139.2162720338258
 30
0.0
 11
2587.482153343659
 21
-129.0159642565579
 31
0.0
  0
LINE
  5
135D
102
{ACAD_REACTORS
330
50BD
102
}
330
1F
100
AcDbEntity
  8
SPOJOVACÍ
  6
CONTINUOUS
100
AcDbLine
 10
2587.482153343659
 20
-139.2162720338258
 30
0.0
 11
2588.68208012039
 21
-139.2162720338258
 31
0.0
  0
LINE
  5
135E
330
1F
100
AcDbEntity
  8
SPOJOVACÍ
  6
CONTINUOUS
100
AcDbLine
 10
2588.68208012039
 20
-139.2162720338258
 30
0.0
 11
2588.68208012039
 21
-129.0159642565579
 31
0.0
  0
LINE
  5
135F
102
{ACAD_REACTORS
330
50BD
102
}
330
1F
100
AcDbEntity
  8
SPOJOVACÍ
  6
CONTINUOUS
100
AcDbLine
 10
2589.018803758273
 20
-129.7312694427257
 30
0.0
 11
2588.68208012039
 21
-129.0159642565579
 31
0.0
  0
LINE
  5
1360
102
{ACAD_REACTORS
330
50BD
102
}
330
1F
100
AcDbEntity
  8
SPOJOVACÍ
  6
CONTINUOUS
100
AcDbLine
 10
2589.936887268715
 20
-130.9684032516254
 30
0.0
 11
2589.018803758273
 21
-129.7312694427257
 31
0.0
  0
LINE
  5
1361
102
{ACAD_REACTORS
330
50BD
102
}
330
1F
100
AcDbEntity
  8
SPOJOVACÍ
  6
CONTINUOUS
100
AcDbLine
 10
2593.294821891624
 20
-135.5318457062987
 30
0.0
 11
2594.081750614746
 21
-135.4658032243771
 31
0.0
  0
LINE
  5
1362
102
{ACAD_REACTORS
330
50BD
102
}
330
1F
100
AcDbEntity
  8
SPOJOVACÍ
  6
CONTINUOUS
100
AcDbLine
 10
2591.813982024574
 20
-135.9597265705981
 30
0.0
 11
2593.294821891624
 21
-135.5318457062987
 31
0.0
  0
LINE
  5
1363
102
{ACAD_REACTORS
330
50BD
102
}
330
1F
100
AcDbEntity
  8
SPOJOVACÍ
  6
CONTINUOUS
100
AcDbLine
 10
2590.494992746276
 20
-136.7559570499163
 30
0.0
 11
2591.813982024574
 21
-135.9597265705981
 31
0.0
  0
LINE
  5
1364
102
{ACAD_REACTORS
330
50BD
102
}
330
1F
100
AcDbEntity
  8
SPOJOVACÍ
  6
CONTINUOUS
100
AcDbLine
 10
2589.426220756864
 20
-137.8665869502749
 30
0.0
 11
2590.494992746276
 21
-136.7559570499163
 31
0.0
  0
LINE
  5
1365
102
{ACAD_REACTORS
330
50BD
102
}
330
1F
100
AcDbEntity
  8
SPOJOVACÍ
  6
CONTINUOUS
100
AcDbLine
 10
2588.68208012039
 20
-139.2162720338258
 30
0.0
 11
2589.426220756864
 21
-137.8665869502749
 31
0.0
  0
LINE
  5
1366
102
{ACAD_REACTORS
330
50BD
102
}
330
1F
100
AcDbEntity
  8
SPOJOVACÍ
  6
CONTINUOUS
100
AcDbLine
 10
2594.081750614746
 20
-132.766433061641
 30
0.0
 11
2599.024704793675
 21
-132.766433061641
 31
0.0
  0
LINE
  5
1367
102
{ACAD_REACTORS
330
50BD
102
}
330
1F
100
AcDbEntity
  8
SPOJOVACÍ
  6
CONTINUOUS
100
AcDbLine
 10
2594.081750614746
 20
-135.4658032243771
 30
0.0
 11
2598.119643744427
 21
-135.4658032243771
 31
0.0
  0
LINE
  5
1368
102
{ACAD_REACTORS
330
50BD
102
}
330
1F
100
AcDbEntity
  8
SPOJOVACÍ
  6
CONTINUOUS
100
AcDbLine
 10
2598.714956253603
 20
-135.4658032243771
 30
0.0
 11
2601.233872308632
 21
-135.4658032243771
 31
0.0
  0
LINE
  5
1369
330
1F
100
AcDbEntity
  8
SPOJOVACÍ
  6
CONTINUOUS
100
AcDbLine
 10
2601.837556399947
 20
-135.4658032243771
 30
0.0
 11
2604.358332806656
 21
-135.4658032243771
 31
0.0
  0
LINE
  5
136A
330
1F
100
AcDbEntity
  8
SPOJOVACÍ
  6
CONTINUOUS
100
AcDbLine
 10
2604.952715140131
 20
-135.4658032243771
 30
0.0
 11
2607.480932952999
 21
-135.4658032243771
 31
0.0
  0
LINE
  5
136B
330
1F
100
AcDbEntity
  8
SPOJOVACÍ
  6
CONTINUOUS
100
AcDbLine
 10
2599.62838888499
 20
-132.766433061641
 30
0.0
 11
2602.147304940019
 21
-132.766433061641
 31
0.0
  0
LINE
  5
136C
330
1F
100
AcDbEntity
  8
SPOJOVACÍ
  6
CONTINUOUS
100
AcDbLine
 10
2602.743547625173
 20
-132.766433061641
 30
0.0
 11
2605.271765438043
 21
-132.766433061641
 31
0.0
  0
LINE
  5
136D
330
1F
100
AcDbEntity
  8
SPOJOVACÍ
  6
CONTINUOUS
100
AcDbLine
 10
2605.866147771517
 20
-132.766433061641
 30
0.0
 11
2608.386924178226
 21
-132.766433061641
 31
0.0
  0
LINE
  5
136E
330
1F
100
AcDbEntity
  8
SPOJOVACÍ
  6
CONTINUOUS
100
AcDbLine
 10
2608.085547220285
 20
-135.4658032243771
 30
0.0
 11
2610.603533099613
 21
-135.4658032243771
 31
0.0
  0
LINE
  5
136F
330
1F
100
AcDbEntity
  8
SPOJOVACÍ
  6
CONTINUOUS
100
AcDbLine
 10
2611.199775784767
 20
-135.4658032243771
 30
0.0
 11
2612.447141526656
 21
-135.4658032243771
 31
0.0
  0
LINE
  5
1370
330
1F
100
AcDbEntity
  8
SPOJOVACÍ
  6
CONTINUOUS
100
AcDbLine
 10
2608.987817742159
 20
-132.766433061641
 30
0.0
 11
2611.506733797188
 21
-132.766433061641
 31
0.0
  0
LINE
  5
1371
330
1F
100
AcDbEntity
  8
SPOJOVACÍ
  6
CONTINUOUS
100
AcDbLine
 10
2612.110417888772
 20
-132.766433061641
 30
0.0
 11
2612.447141526656
 21
-132.766433061641
 31
0.0
  0
LINE
  5
1372
330
1F
100
AcDbEntity
  8
SPOJOVACÍ
  6
CONTINUOUS
100
AcDbLine
 10
2612.447141526656
 20
-135.4658032243771
 30
0.0
 11
2613.644277776013
 21
-135.3160449216541
 31
0.0
  0
LINE
  5
1373
330
1F
100
AcDbEntity
  8
SPOJOVACÍ
  6
CONTINUOUS
100
AcDbLine
 10
2623.247412691609
 20
-134.1161181451918
 30
0.0
 11
2620.411306690341
 21
-133.7617211640629
 31
0.0
  0
LINE
  5
1374
330
1F
100
AcDbEntity
  8
SPOJOVACÍ
  6
CONTINUOUS
100
AcDbLine
 10
2614.264705031866
 20
-135.2388403291281
 30
0.0
 11
2616.586423817931
 21
-134.9486254796086
 31
0.0
  0
LINE
  5
1375
330
1F
100
AcDbEntity
  8
SPOJOVACÍ
  6
CONTINUOUS
100
AcDbLine
 10
2617.217083007595
 20
-134.8695605367704
 30
0.0
 11
2619.537871617951
 21
-134.5793456916164
 31
0.0
  0
LINE
  5
1376
330
1F
100
AcDbEntity
  8
SPOJOVACÍ
  6
CONTINUOUS
100
AcDbLine
 10
2620.158298873804
 20
-134.5021410990905
 30
0.0
 11
2623.247412691609
 21
-134.1161181451918
 31
0.0
  0
LINE
  5
1377
330
1F
100
AcDbEntity
  8
SPOJOVACÍ
  6
CONTINUOUS
100
AcDbLine
 10
2619.842039103274
 20
-133.6900976268391
 30
0.0
 11
2617.697053718289
 21
-133.4222069985282
 31
0.0
  0
LINE
  5
1378
330
1F
100
AcDbEntity
  8
SPOJOVACÍ
  6
CONTINUOUS
100
AcDbLine
 10
2617.124995603841
 20
-133.35058346567
 30
0.0
 11
2614.988381800987
 21
-133.0836230103325
 31
0.0
  0
LINE
  5
1379
330
1F
100
AcDbEntity
  8
SPOJOVACÍ
  6
CONTINUOUS
100
AcDbLine
 10
2614.418184037942
 20
-133.0119994731087
 30
0.0
 11
2612.447141526656
 21
-132.766433061641
 31
0.0
  0
LINE
  5
137A
330
1F
100
AcDbEntity
  8
SPOJOVACÍ
  6
CONTINUOUS
100
AcDbLine
 10
2598.282424508612
 20
-136.5159716981163
 30
0.0
 11
2599.482351285074
 21
-131.7162645922674
 31
0.0
  0
LINE
  5
137B
330
1F
100
AcDbEntity
  8
SPOJOVACÍ
  6
CONTINUOUS
100
AcDbLine
 10
2598.282424508612
 20
-136.5159716981163
 30
0.0
 11
2598.50008564466
 21
-136.1383203228053
 31
0.0
  0
LINE
  5
137C
102
{ACAD_REACTORS
330
50BD
102
}
330
1F
100
AcDbEntity
  8
SPOJOVACÍ
  6
CONTINUOUS
100
AcDbLine
 10
2598.282424508612
 20
-136.5159716981163
 30
0.0
 11
2597.903842959782
 21
-136.1383203228053
 31
0.0
  0
LINE
  5
137D
330
1F
100
AcDbEntity
  8
SPOJOVACÍ
  6
CONTINUOUS
100
AcDbLine
 10
2599.482351285074
 20
-131.7162645922674
 30
0.0
 11
2599.860002658202
 21
-132.0939159632128
 31
0.0
  0
LINE
  5
137E
330
1F
100
AcDbEntity
  8
SPOJOVACÍ
  6
CONTINUOUS
100
AcDbLine
 10
2599.482351285074
 20
-131.7162645922674
 30
0.0
 11
2599.263759973048
 21
-132.0939159632128
 31
0.0
  0
LINE
  5
137F
102
{ACAD_REACTORS
330
50BD
102
}
330
1F
100
AcDbEntity
  8
SPOJOVACÍ
  6
CONTINUOUS
100
AcDbLine
 10
2598.50008564466
 20
-136.1383203228053
 30
0.0
 11
2599.860002658202
 21
-132.0939159632128
 31
0.0
  0
LINE
  5
1380
102
{ACAD_REACTORS
330
50BD
102
}
330
1F
100
AcDbEntity
  8
SPOJOVACÍ
  6
CONTINUOUS
100
AcDbLine
 10
2597.903842959782
 20
-136.1383203228053
 30
0.0
 11
2599.263759973048
 21
-132.0939159632128
 31
0.0
  0
LINE
  5
1381
330
1F
100
AcDbEntity
  8
SPOJOVACÍ
  6
CONTINUOUS
100
AcDbLine
 10
2601.402234127574
 20
-136.5159716981163
 30
0.0
 11
2602.602160904313
 21
-131.7162645922674
 31
0.0
  0
LINE
  5
1382
330
1F
100
AcDbEntity
  8
SPOJOVACÍ
  6
CONTINUOUS
100
AcDbLine
 10
2601.402234127574
 20
-136.5159716981163
 30
0.0
 11
2601.6208254396
 21
-136.1383203228053
 31
0.0
  0
LINE
  5
1383
330
1F
100
AcDbEntity
  8
SPOJOVACÍ
  6
CONTINUOUS
100
AcDbLine
 10
2601.402234127574
 20
-136.5159716981163
 30
0.0
 11
2601.024582754446
 21
-136.1383203228053
 31
0.0
  0
LINE
  5
1384
330
1F
100
AcDbEntity
  8
SPOJOVACÍ
  6
CONTINUOUS
100
AcDbLine
 10
2602.602160904313
 20
-131.7162645922674
 30
0.0
 11
2602.979812277164
 21
-132.0939159632128
 31
0.0
  0
LINE
  5
1385
330
1F
100
AcDbEntity
  8
SPOJOVACÍ
  6
CONTINUOUS
100
AcDbLine
 10
2602.602160904313
 20
-131.7162645922674
 30
0.0
 11
2602.383569592286
 21
-132.0939159632128
 31
0.0
  0
LINE
  5
1386
330
1F
100
AcDbEntity
  8
SPOJOVACÍ
  6
CONTINUOUS
100
AcDbLine
 10
2601.6208254396
 20
-136.1383203228053
 30
0.0
 11
2602.979812277164
 21
-132.0939159632128
 31
0.0
  0
LINE
  5
1387
330
1F
100
AcDbEntity
  8
SPOJOVACÍ
  6
CONTINUOUS
100
AcDbLine
 10
2601.024582754446
 20
-136.1383203228053
 30
0.0
 11
2602.383569592286
 21
-132.0939159632128
 31
0.0
  0
LINE
  5
1388
330
1F
100
AcDbEntity
  8
SPOJOVACÍ
  6
CONTINUOUS
100
AcDbLine
 10
2613.839614693035
 20
-136.2620337036953
 30
0.0
 11
2614.058206005061
 21
-135.883452155411
 31
0.0
  0
LINE
  5
1389
330
1F
100
AcDbEntity
  8
SPOJOVACÍ
  6
CONTINUOUS
100
AcDbLine
 10
2613.839614693035
 20
-136.2620337036953
 30
0.0
 11
2613.461963319907
 21
-135.883452155411
 31
0.0
  0
LINE
  5
138A
330
1F
100
AcDbEntity
  8
SPOJOVACÍ
  6
CONTINUOUS
100
AcDbLine
 10
2614.81257857534
 20
-132.1367040509524
 30
0.0
 11
2615.191160124446
 21
-132.5143554218978
 31
0.0
  0
LINE
  5
138B
330
1F
100
AcDbEntity
  8
SPOJOVACÍ
  6
CONTINUOUS
100
AcDbLine
 10
2614.81257857534
 20
-132.1367040509524
 30
0.0
 11
2614.594917439291
 21
-132.5143554218978
 31
0.0
  0
LINE
  5
138C
330
1F
100
AcDbEntity
  8
SPOJOVACÍ
  6
CONTINUOUS
100
AcDbLine
 10
2614.058206005061
 20
-135.883452155411
 30
0.0
 11
2615.191160124446
 21
-132.5143554218978
 31
0.0
  0
LINE
  5
138D
330
1F
100
AcDbEntity
  8
SPOJOVACÍ
  6
CONTINUOUS
100
AcDbLine
 10
2613.461963319907
 20
-135.883452155411
 30
0.0
 11
2614.594917439291
 21
-132.5143554218978
 31
0.0
  0
LINE
  5
138E
330
1F
100
AcDbEntity
  8
SPOJOVACÍ
  6
CONTINUOUS
100
AcDbLine
 10
2613.839614693035
 20
-136.2620337036953
 30
0.0
 11
2614.81257857534
 21
-132.1367040509524
 31
0.0
  0
LINE
  5
138F
330
1F
100
AcDbEntity
  8
SPOJOVACÍ
  6
CONTINUOUS
100
AcDbLine
 10
2616.854314447333
 20
-135.6974169975894
 30
0.0
 11
2617.071975583381
 21
-135.3197656222785
 31
0.0
  0
LINE
  5
1390
330
1F
100
AcDbEntity
  8
SPOJOVACÍ
  6
CONTINUOUS
100
AcDbLine
 10
2616.854314447333
 20
-135.6974169975894
 30
0.0
 11
2616.475732898226
 21
-135.3197656222785
 31
0.0
  0
LINE
  5
1391
330
1F
100
AcDbEntity
  8
SPOJOVACÍ
  6
CONTINUOUS
100
AcDbLine
 10
2617.487764164103
 20
-132.5813280811583
 30
0.0
 11
2617.866345712933
 21
-132.9589794521036
 31
0.0
  0
LINE
  5
1392
330
1F
100
AcDbEntity
  8
SPOJOVACÍ
  6
CONTINUOUS
100
AcDbLine
 10
2617.487764164103
 20
-132.5813280811583
 30
0.0
 11
2617.270103028054
 21
-132.9589794521036
 31
0.0
  0
LINE
  5
1393
330
1F
100
AcDbEntity
  8
SPOJOVACÍ
  6
CONTINUOUS
100
AcDbLine
 10
2617.071975583381
 20
-135.3197656222785
 30
0.0
 11
2617.866345712933
 21
-132.9589794521036
 31
0.0
  0
LINE
  5
1394
330
1F
100
AcDbEntity
  8
SPOJOVACÍ
  6
CONTINUOUS
100
AcDbLine
 10
2616.475732898226
 20
-135.3197656222785
 30
0.0
 11
2617.270103028054
 21
-132.9589794521036
 31
0.0
  0
LINE
  5
1395
330
1F
100
AcDbEntity
  8
SPOJOVACÍ
  6
CONTINUOUS
100
AcDbLine
 10
2616.854314447333
 20
-135.6974169975894
 30
0.0
 11
2617.487764164103
 21
-132.5813280811583
 31
0.0
  0
LINE
  5
1396
330
1F
100
AcDbEntity
  8
SPOJOVACÍ
  6
CONTINUOUS
100
AcDbLine
 10
2619.868084025652
 20
-135.132800287118
 30
0.0
 11
2620.086675337672
 21
-134.7551489161726
 31
0.0
  0
LINE
  5
1397
330
1F
100
AcDbEntity
  8
SPOJOVACÍ
  6
CONTINUOUS
100
AcDbLine
 10
2619.868084025652
 20
-135.132800287118
 30
0.0
 11
2619.490432652524
 21
-134.7551489161726
 31
0.0
  0
LINE
  5
1398
330
1F
100
AcDbEntity
  8
SPOJOVACÍ
  6
CONTINUOUS
100
AcDbLine
 10
2620.178762741427
 20
-132.9785131456612
 30
0.0
 11
2620.557344290256
 21
-133.3561645166066
 31
0.0
  0
LINE
  5
1399
330
1F
100
AcDbEntity
  8
SPOJOVACÍ
  6
CONTINUOUS
100
AcDbLine
 10
2620.178762741427
 20
-132.9785131456612
 30
0.0
 11
2619.961101605109
 21
-133.3561645166066
 31
0.0
  0
LINE
  5
139A
330
1F
100
AcDbEntity
  8
SPOJOVACÍ
  6
CONTINUOUS
100
AcDbLine
 10
2620.086675337672
 20
-134.7551489161726
 30
0.0
 11
2620.557344290256
 21
-133.3561645166066
 31
0.0
  0
LINE
  5
139B
330
1F
100
AcDbEntity
  8
SPOJOVACÍ
  6
CONTINUOUS
100
AcDbLine
 10
2619.490432652524
 20
-134.7551489161726
 30
0.0
 11
2619.961101605109
 21
-133.3561645166066
 31
0.0
  0
LINE
  5
139C
330
1F
100
AcDbEntity
  8
SPOJOVACÍ
  6
CONTINUOUS
100
AcDbLine
 10
2619.868084025652
 20
-135.132800287118
 30
0.0
 11
2620.178762741427
 21
-132.9785131456612
 31
0.0
  0
LINE
  5
139D
330
1F
100
AcDbEntity
  8
SPOJOVACÍ
  6
CONTINUOUS
100
AcDbLine
 10
2604.522043746812
 20
-136.5159716981163
 30
0.0
 11
2605.721970523275
 21
-131.7162645922674
 31
0.0
  0
LINE
  5
139E
330
1F
100
AcDbEntity
  8
SPOJOVACÍ
  6
CONTINUOUS
100
AcDbLine
 10
2604.522043746812
 20
-136.5159716981163
 30
0.0
 11
2604.740635058838
 21
-136.1383203228053
 31
0.0
  0
LINE
  5
139F
330
1F
100
AcDbEntity
  8
SPOJOVACÍ
  6
CONTINUOUS
100
AcDbLine
 10
2604.522043746812
 20
-136.5159716981163
 30
0.0
 11
2604.144392373684
 21
-136.1383203228053
 31
0.0
  0
LINE
  5
13A0
330
1F
100
AcDbEntity
  8
SPOJOVACÍ
  6
CONTINUOUS
100
AcDbLine
 10
2605.721970523275
 20
-131.7162645922674
 30
0.0
 11
2606.100552072105
 21
-132.0939159632128
 31
0.0
  0
LINE
  5
13A1
330
1F
100
AcDbEntity
  8
SPOJOVACÍ
  6
CONTINUOUS
100
AcDbLine
 10
2605.721970523275
 20
-131.7162645922674
 30
0.0
 11
2605.504309386957
 21
-132.0939159632128
 31
0.0
  0
LINE
  5
13A2
330
1F
100
AcDbEntity
  8
SPOJOVACÍ
  6
CONTINUOUS
100
AcDbLine
 10
2604.740635058838
 20
-136.1383203228053
 30
0.0
 11
2606.100552072105
 21
-132.0939159632128
 31
0.0
  0
LINE
  5
13A3
330
1F
100
AcDbEntity
  8
SPOJOVACÍ
  6
CONTINUOUS
100
AcDbLine
 10
2604.144392373684
 20
-136.1383203228053
 30
0.0
 11
2605.504309386957
 21
-132.0939159632128
 31
0.0
  0
LINE
  5
13A4
330
1F
100
AcDbEntity
  8
SPOJOVACÍ
  6
CONTINUOUS
100
AcDbLine
 10
2607.641853365781
 20
-136.5159716981163
 30
0.0
 11
2608.841780142244
 21
-131.7162645922674
 31
0.0
  0
LINE
  5
13A5
330
1F
100
AcDbEntity
  8
SPOJOVACÍ
  6
CONTINUOUS
100
AcDbLine
 10
2607.641853365781
 20
-136.5159716981163
 30
0.0
 11
2607.8604446778
 21
-136.1383203228053
 31
0.0
  0
LINE
  5
13A6
330
1F
100
AcDbEntity
  8
SPOJOVACÍ
  6
CONTINUOUS
100
AcDbLine
 10
2607.641853365781
 20
-136.5159716981163
 30
0.0
 11
2607.264201992653
 21
-136.1383203228053
 31
0.0
  0
LINE
  5
13A7
330
1F
100
AcDbEntity
  8
SPOJOVACÍ
  6
CONTINUOUS
100
AcDbLine
 10
2608.841780142244
 20
-131.7162645922674
 30
0.0
 11
2609.220361691074
 21
-132.0939159632128
 31
0.0
  0
LINE
  5
13A8
330
1F
100
AcDbEntity
  8
SPOJOVACÍ
  6
CONTINUOUS
100
AcDbLine
 10
2608.841780142244
 20
-131.7162645922674
 30
0.0
 11
2608.624119006195
 21
-132.0939159632128
 31
0.0
  0
LINE
  5
13A9
330
1F
100
AcDbEntity
  8
SPOJOVACÍ
  6
CONTINUOUS
100
AcDbLine
 10
2607.8604446778
 20
-136.1383203228053
 30
0.0
 11
2609.220361691074
 21
-132.0939159632128
 31
0.0
  0
LINE
  5
13AA
330
1F
100
AcDbEntity
  8
SPOJOVACÍ
  6
CONTINUOUS
100
AcDbLine
 10
2607.264201992653
 20
-136.1383203228053
 30
0.0
 11
2608.624119006195
 21
-132.0939159632128
 31
0.0
  0
LINE
  5
13AB
330
1F
100
AcDbEntity
  8
SPOJOVACÍ
  6
CONTINUOUS
100
AcDbLine
 10
2610.762593160721
 20
-136.5159716981163
 30
0.0
 11
2611.962519937184
 21
-131.7162645922674
 31
0.0
  0
LINE
  5
13AC
330
1F
100
AcDbEntity
  8
SPOJOVACÍ
  6
CONTINUOUS
100
AcDbLine
 10
2610.762593160721
 20
-136.5159716981163
 30
0.0
 11
2610.980254296769
 21
-136.1383203228053
 31
0.0
  0
LINE
  5
13AD
330
1F
100
AcDbEntity
  8
SPOJOVACÍ
  6
CONTINUOUS
100
AcDbLine
 10
2610.762593160721
 20
-136.5159716981163
 30
0.0
 11
2610.384011611615
 21
-136.1383203228053
 31
0.0
  0
LINE
  5
13AE
330
1F
100
AcDbEntity
  8
SPOJOVACÍ
  6
CONTINUOUS
100
AcDbLine
 10
2611.962519937184
 20
-131.7162645922674
 30
0.0
 11
2612.340171310312
 21
-132.0939159632128
 31
0.0
  0
LINE
  5
13AF
330
1F
100
AcDbEntity
  8
SPOJOVACÍ
  6
CONTINUOUS
100
AcDbLine
 10
2611.962519937184
 20
-131.7162645922674
 30
0.0
 11
2611.743928625157
 21
-132.0939159632128
 31
0.0
  0
LINE
  5
13B0
330
1F
100
AcDbEntity
  8
SPOJOVACÍ
  6
CONTINUOUS
100
AcDbLine
 10
2610.980254296769
 20
-136.1383203228053
 30
0.0
 11
2612.340171310312
 21
-132.0939159632128
 31
0.0
  0
LINE
  5
13B1
330
1F
100
AcDbEntity
  8
SPOJOVACÍ
  6
CONTINUOUS
100
AcDbLine
 10
2610.384011611615
 20
-136.1383203228053
 30
0.0
 11
2611.743928625157
 21
-132.0939159632128
 31
0.0
  0
LINE
  5
13B2
330
1F
100
AcDbEntity
  8
SPOJOVACÍ
  6
CONTINUOUS
100
AcDbLine
 10
2664.812549360453
 20
-136.1383203228053
 30
0.0
 11
2663.452632346911
 21
-132.0939159632128
 31
0.0
  0
LINE
  5
13B3
330
1F
100
AcDbEntity
  8
SPOJOVACÍ
  6
CONTINUOUS
100
AcDbLine
 10
2664.216306675298
 20
-136.1383203228053
 30
0.0
 11
2662.856389661756
 21
-132.0939159632128
 31
0.0
  0
LINE
  5
13B4
330
1F
100
AcDbEntity
  8
SPOJOVACÍ
  6
CONTINUOUS
100
AcDbLine
 10
2663.234041034884
 20
-131.7162645922674
 30
0.0
 11
2663.452632346911
 21
-132.0939159632128
 31
0.0
  0
LINE
  5
13B5
330
1F
100
AcDbEntity
  8
SPOJOVACÍ
  6
CONTINUOUS
100
AcDbLine
 10
2663.234041034884
 20
-131.7162645922674
 30
0.0
 11
2662.856389661756
 21
-132.0939159632128
 31
0.0
  0
LINE
  5
13B6
330
1F
100
AcDbEntity
  8
SPOJOVACÍ
  6
CONTINUOUS
100
AcDbLine
 10
2664.433967811346
 20
-136.5159716981163
 30
0.0
 11
2664.812549360453
 21
-136.1383203228053
 31
0.0
  0
LINE
  5
13B7
330
1F
100
AcDbEntity
  8
SPOJOVACÍ
  6
CONTINUOUS
100
AcDbLine
 10
2664.433967811346
 20
-136.5159716981163
 30
0.0
 11
2664.216306675298
 21
-136.1383203228053
 31
0.0
  0
LINE
  5
13B8
330
1F
100
AcDbEntity
  8
SPOJOVACÍ
  6
CONTINUOUS
100
AcDbLine
 10
2664.433967811346
 20
-136.5159716981163
 30
0.0
 11
2663.234041034884
 21
-131.7162645922674
 31
0.0
  0
LINE
  5
13B9
330
1F
100
AcDbEntity
  8
SPOJOVACÍ
  6
CONTINUOUS
100
AcDbLine
 10
2667.932358979415
 20
-136.1383203228053
 30
0.0
 11
2666.572441965872
 21
-132.0939159632128
 31
0.0
  0
LINE
  5
13BA
330
1F
100
AcDbEntity
  8
SPOJOVACÍ
  6
CONTINUOUS
100
AcDbLine
 10
2667.336116294267
 20
-136.1383203228053
 30
0.0
 11
2665.976199280994
 21
-132.0939159632128
 31
0.0
  0
LINE
  5
13BB
330
1F
100
AcDbEntity
  8
SPOJOVACÍ
  6
CONTINUOUS
100
AcDbLine
 10
2666.354780829824
 20
-131.7162645922674
 30
0.0
 11
2666.572441965872
 21
-132.0939159632128
 31
0.0
  0
LINE
  5
13BC
330
1F
100
AcDbEntity
  8
SPOJOVACÍ
  6
CONTINUOUS
100
AcDbLine
 10
2666.354780829824
 20
-131.7162645922674
 30
0.0
 11
2665.976199280994
 21
-132.0939159632128
 31
0.0
  0
LINE
  5
13BD
330
1F
100
AcDbEntity
  8
SPOJOVACÍ
  6
CONTINUOUS
100
AcDbLine
 10
2667.554707606286
 20
-136.5159716981163
 30
0.0
 11
2667.932358979415
 21
-136.1383203228053
 31
0.0
  0
LINE
  5
13BE
330
1F
100
AcDbEntity
  8
SPOJOVACÍ
  6
CONTINUOUS
100
AcDbLine
 10
2667.554707606286
 20
-136.5159716981163
 30
0.0
 11
2667.336116294267
 21
-136.1383203228053
 31
0.0
  0
LINE
  5
13BF
330
1F
100
AcDbEntity
  8
SPOJOVACÍ
  6
CONTINUOUS
100
AcDbLine
 10
2667.554707606286
 20
-136.5159716981163
 30
0.0
 11
2666.354780829824
 21
-131.7162645922674
 31
0.0
  0
LINE
  5
13C0
330
1F
100
AcDbEntity
  8
SPOJOVACÍ
  6
CONTINUOUS
100
AcDbLine
 10
2671.052168598384
 20
-136.1383203228053
 30
0.0
 11
2669.692251585111
 21
-132.0939159632128
 31
0.0
  0
LINE
  5
13C1
330
1F
100
AcDbEntity
  8
SPOJOVACÍ
  6
CONTINUOUS
100
AcDbLine
 10
2670.455925913229
 20
-136.1383203228053
 30
0.0
 11
2669.096008899964
 21
-132.0939159632128
 31
0.0
  0
LINE
  5
13C2
330
1F
100
AcDbEntity
  8
SPOJOVACÍ
  6
CONTINUOUS
100
AcDbLine
 10
2669.474590448793
 20
-131.7162645922674
 30
0.0
 11
2669.692251585111
 21
-132.0939159632128
 31
0.0
  0
LINE
  5
13C3
330
1F
100
AcDbEntity
  8
SPOJOVACÍ
  6
CONTINUOUS
100
AcDbLine
 10
2669.474590448793
 20
-131.7162645922674
 30
0.0
 11
2669.096008899964
 21
-132.0939159632128
 31
0.0
  0
LINE
  5
13C4
330
1F
100
AcDbEntity
  8
SPOJOVACÍ
  6
CONTINUOUS
100
AcDbLine
 10
2670.674517225256
 20
-136.5159716981163
 30
0.0
 11
2671.052168598384
 21
-136.1383203228053
 31
0.0
  0
LINE
  5
13C5
330
1F
100
AcDbEntity
  8
SPOJOVACÍ
  6
CONTINUOUS
100
AcDbLine
 10
2670.674517225256
 20
-136.5159716981163
 30
0.0
 11
2670.455925913229
 21
-136.1383203228053
 31
0.0
  0
LINE
  5
13C6
330
1F
100
AcDbEntity
  8
SPOJOVACÍ
  6
CONTINUOUS
100
AcDbLine
 10
2670.674517225256
 20
-136.5159716981163
 30
0.0
 11
2669.474590448793
 21
-131.7162645922674
 31
0.0
  0
LINE
  5
13C7
330
1F
100
AcDbEntity
  8
SPOJOVACÍ
  6
CONTINUOUS
100
AcDbLine
 10
2655.328476946415
 20
-135.132800287118
 30
0.0
 11
2655.017798230641
 21
-132.9785131456612
 31
0.0
  0
LINE
  5
13C8
330
1F
100
AcDbEntity
  8
SPOJOVACÍ
  6
CONTINUOUS
100
AcDbLine
 10
2655.706128319543
 20
-134.7551489161726
 30
0.0
 11
2655.235459366958
 21
-133.3561645166066
 31
0.0
  0
LINE
  5
13C9
330
1F
100
AcDbEntity
  8
SPOJOVACÍ
  6
CONTINUOUS
100
AcDbLine
 10
2655.109885634396
 20
-134.7551489161726
 30
0.0
 11
2654.639216681811
 21
-133.3561645166066
 31
0.0
  0
LINE
  5
13CA
330
1F
100
AcDbEntity
  8
SPOJOVACÍ
  6
CONTINUOUS
100
AcDbLine
 10
2655.017798230641
 20
-132.9785131456612
 30
0.0
 11
2655.235459366958
 21
-133.3561645166066
 31
0.0
  0
LINE
  5
13CB
330
1F
100
AcDbEntity
  8
SPOJOVACÍ
  6
CONTINUOUS
100
AcDbLine
 10
2655.017798230641
 20
-132.9785131456612
 30
0.0
 11
2654.639216681811
 21
-133.3561645166066
 31
0.0
  0
LINE
  5
13CC
330
1F
100
AcDbEntity
  8
SPOJOVACÍ
  6
CONTINUOUS
100
AcDbLine
 10
2655.328476946415
 20
-135.132800287118
 30
0.0
 11
2655.706128319543
 21
-134.7551489161726
 31
0.0
  0
LINE
  5
13CD
330
1F
100
AcDbEntity
  8
SPOJOVACÍ
  6
CONTINUOUS
100
AcDbLine
 10
2655.328476946415
 20
-135.132800287118
 30
0.0
 11
2655.109885634396
 21
-134.7551489161726
 31
0.0
  0
LINE
  5
13CE
330
1F
100
AcDbEntity
  8
SPOJOVACÍ
  6
CONTINUOUS
100
AcDbLine
 10
2658.342246524735
 20
-135.6974169975894
 30
0.0
 11
2657.708796807964
 21
-132.5813280811583
 31
0.0
  0
LINE
  5
13CF
330
1F
100
AcDbEntity
  8
SPOJOVACÍ
  6
CONTINUOUS
100
AcDbLine
 10
2658.720828073841
 20
-135.3197656222785
 30
0.0
 11
2657.926457944013
 21
-132.9589794521036
 31
0.0
  0
LINE
  5
13D0
330
1F
100
AcDbEntity
  8
SPOJOVACÍ
  6
CONTINUOUS
100
AcDbLine
 10
2658.124585388686
 20
-135.3197656222785
 30
0.0
 11
2657.330215259134
 21
-132.9589794521036
 31
0.0
  0
LINE
  5
13D1
330
1F
100
AcDbEntity
  8
SPOJOVACÍ
  6
CONTINUOUS
100
AcDbLine
 10
2657.708796807964
 20
-132.5813280811583
 30
0.0
 11
2657.926457944013
 21
-132.9589794521036
 31
0.0
  0
LINE
  5
13D2
330
1F
100
AcDbEntity
  8
SPOJOVACÍ
  6
CONTINUOUS
100
AcDbLine
 10
2657.708796807964
 20
-132.5813280811583
 30
0.0
 11
2657.330215259134
 21
-132.9589794521036
 31
0.0
  0
LINE
  5
13D3
330
1F
100
AcDbEntity
  8
SPOJOVACÍ
  6
CONTINUOUS
100
AcDbLine
 10
2658.342246524735
 20
-135.6974169975894
 30
0.0
 11
2658.720828073841
 21
-135.3197656222785
 31
0.0
  0
LINE
  5
13D4
330
1F
100
AcDbEntity
  8
SPOJOVACÍ
  6
CONTINUOUS
100
AcDbLine
 10
2658.342246524735
 20
-135.6974169975894
 30
0.0
 11
2658.124585388686
 21
-135.3197656222785
 31
0.0
  0
LINE
  5
13D5
330
1F
100
AcDbEntity
  8
SPOJOVACÍ
  6
CONTINUOUS
100
AcDbLine
 10
2661.356946279033
 20
-136.2620337036953
 30
0.0
 11
2660.383982396728
 21
-132.1367040509524
 31
0.0
  0
LINE
  5
13D6
330
1F
100
AcDbEntity
  8
SPOJOVACÍ
  6
CONTINUOUS
100
AcDbLine
 10
2661.734597652161
 20
-135.883452155411
 30
0.0
 11
2660.601643532777
 21
-132.5143554218978
 31
0.0
  0
LINE
  5
13D7
330
1F
100
AcDbEntity
  8
SPOJOVACÍ
  6
CONTINUOUS
100
AcDbLine
 10
2661.138354967006
 20
-135.883452155411
 30
0.0
 11
2660.005400847621
 21
-132.5143554218978
 31
0.0
  0
LINE
  5
13D8
330
1F
100
AcDbEntity
  8
SPOJOVACÍ
  6
CONTINUOUS
100
AcDbLine
 10
2660.383982396728
 20
-132.1367040509524
 30
0.0
 11
2660.601643532777
 21
-132.5143554218978
 31
0.0
  0
LINE
  5
13D9
330
1F
100
AcDbEntity
  8
SPOJOVACÍ
  6
CONTINUOUS
100
AcDbLine
 10
2660.383982396728
 20
-132.1367040509524
 30
0.0
 11
2660.005400847621
 21
-132.5143554218978
 31
0.0
  0
LINE
  5
13DA
330
1F
100
AcDbEntity
  8
SPOJOVACÍ
  6
CONTINUOUS
100
AcDbLine
 10
2661.356946279033
 20
-136.2620337036953
 30
0.0
 11
2661.734597652161
 21
-135.883452155411
 31
0.0
  0
LINE
  5
13DB
330
1F
100
AcDbEntity
  8
SPOJOVACÍ
  6
CONTINUOUS
100
AcDbLine
 10
2661.356946279033
 20
-136.2620337036953
 30
0.0
 11
2661.138354967006
 21
-135.883452155411
 31
0.0
  0
LINE
  5
13DC
330
1F
100
AcDbEntity
  8
SPOJOVACÍ
  6
CONTINUOUS
100
AcDbLine
 10
2674.171978217622
 20
-136.1383203228053
 30
0.0
 11
2672.812991379782
 21
-132.0939159632128
 31
0.0
  0
LINE
  5
13DD
330
1F
100
AcDbEntity
  8
SPOJOVACÍ
  6
CONTINUOUS
100
AcDbLine
 10
2673.575735532467
 20
-136.1383203228053
 30
0.0
 11
2672.216748694903
 21
-132.0939159632128
 31
0.0
  0
LINE
  5
13DE
330
1F
100
AcDbEntity
  8
SPOJOVACÍ
  6
CONTINUOUS
100
AcDbLine
 10
2672.594400067755
 20
-131.7162645922674
 30
0.0
 11
2672.812991379782
 21
-132.0939159632128
 31
0.0
  0
LINE
  5
13DF
330
1F
100
AcDbEntity
  8
SPOJOVACÍ
  6
CONTINUOUS
100
AcDbLine
 10
2672.594400067755
 20
-131.7162645922674
 30
0.0
 11
2672.216748694903
 21
-132.0939159632128
 31
0.0
  0
LINE
  5
13E0
330
1F
100
AcDbEntity
  8
SPOJOVACÍ
  6
CONTINUOUS
100
AcDbLine
 10
2673.794326844494
 20
-136.5159716981163
 30
0.0
 11
2674.171978217622
 21
-136.1383203228053
 31
0.0
  0
LINE
  5
13E1
330
1F
100
AcDbEntity
  8
SPOJOVACÍ
  6
CONTINUOUS
100
AcDbLine
 10
2673.794326844494
 20
-136.5159716981163
 30
0.0
 11
2673.575735532467
 21
-136.1383203228053
 31
0.0
  0
LINE
  5
13E2
330
1F
100
AcDbEntity
  8
SPOJOVACÍ
  6
CONTINUOUS
100
AcDbLine
 10
2673.794326844494
 20
-136.5159716981163
 30
0.0
 11
2672.594400067755
 21
-131.7162645922674
 31
0.0
  0
LINE
  5
13E3
330
1F
100
AcDbEntity
  8
SPOJOVACÍ
  6
CONTINUOUS
100
AcDbLine
 10
2677.292718012286
 20
-136.1383203228053
 30
0.0
 11
2675.93280099902
 21
-132.0939159632128
 31
0.0
  0
LINE
  5
13E4
330
1F
100
AcDbEntity
  8
SPOJOVACÍ
  6
CONTINUOUS
100
AcDbLine
 10
2676.696475327407
 20
-136.1383203228053
 30
0.0
 11
2675.336558313865
 21
-132.0939159632128
 31
0.0
  0
LINE
  5
13E5
330
1F
100
AcDbEntity
  8
SPOJOVACÍ
  6
CONTINUOUS
100
AcDbLine
 10
2675.714209686994
 20
-131.7162645922674
 30
0.0
 11
2675.93280099902
 21
-132.0939159632128
 31
0.0
  0
LINE
  5
13E6
330
1F
100
AcDbEntity
  8
SPOJOVACÍ
  6
CONTINUOUS
100
AcDbLine
 10
2675.714209686994
 20
-131.7162645922674
 30
0.0
 11
2675.336558313865
 21
-132.0939159632128
 31
0.0
  0
LINE
  5
13E7
330
1F
100
AcDbEntity
  8
SPOJOVACÍ
  6
CONTINUOUS
100
AcDbLine
 10
2676.914136463456
 20
-136.5159716981163
 30
0.0
 11
2677.292718012286
 21
-136.1383203228053
 31
0.0
  0
LINE
  5
13E8
330
1F
100
AcDbEntity
  8
SPOJOVACÍ
  6
CONTINUOUS
100
AcDbLine
 10
2676.914136463456
 20
-136.5159716981163
 30
0.0
 11
2676.696475327407
 21
-136.1383203228053
 31
0.0
  0
LINE
  5
13E9
330
1F
100
AcDbEntity
  8
SPOJOVACÍ
  6
CONTINUOUS
100
AcDbLine
 10
2676.914136463456
 20
-136.5159716981163
 30
0.0
 11
2675.714209686994
 21
-131.7162645922674
 31
0.0
  0
LINE
  5
13EA
330
1F
100
AcDbEntity
  8
SPOJOVACÍ
  6
CONTINUOUS
100
AcDbLine
 10
2660.778376934126
 20
-133.0119994731087
 30
0.0
 11
2662.749419445412
 21
-132.766433061641
 31
0.0
  0
LINE
  5
13EB
330
1F
100
AcDbEntity
  8
SPOJOVACÍ
  6
CONTINUOUS
100
AcDbLine
 10
2658.071565368227
 20
-133.35058346567
 30
0.0
 11
2660.20817917108
 21
-133.0836230103325
 31
0.0
  0
LINE
  5
13EC
330
1F
100
AcDbEntity
  8
SPOJOVACÍ
  6
CONTINUOUS
100
AcDbLine
 10
2655.354521868794
 20
-133.6900976268391
 30
0.0
 11
2657.499507253778
 21
-133.4222069985282
 31
0.0
  0
LINE
  5
13ED
330
1F
100
AcDbEntity
  8
SPOJOVACÍ
  6
CONTINUOUS
100
AcDbLine
 10
2655.038262098264
 20
-134.5021410990905
 30
0.0
 11
2651.949148280459
 21
-134.1161181451918
 31
0.0
  0
LINE
  5
13EE
330
1F
100
AcDbEntity
  8
SPOJOVACÍ
  6
CONTINUOUS
100
AcDbLine
 10
2657.979477964472
 20
-134.8695605367704
 30
0.0
 11
2655.658689354117
 21
-134.5793456916164
 31
0.0
  0
LINE
  5
13EF
330
1F
100
AcDbEntity
  8
SPOJOVACÍ
  6
CONTINUOUS
100
AcDbLine
 10
2660.931855940201
 20
-135.2388403291281
 30
0.0
 11
2658.610137154137
 21
-134.9486254796086
 31
0.0
  0
LINE
  5
13F0
330
1F
100
AcDbEntity
  8
SPOJOVACÍ
  6
CONTINUOUS
100
AcDbLine
 10
2651.949148280459
 20
-134.1161181451918
 30
0.0
 11
2654.785254281727
 21
-133.7617211640629
 31
0.0
  0
LINE
  5
13F1
330
1F
100
AcDbEntity
  8
SPOJOVACÍ
  6
CONTINUOUS
100
AcDbLine
 10
2662.749419445412
 20
-135.4658032243771
 30
0.0
 11
2661.552283196055
 21
-135.3160449216541
 31
0.0
  0
LINE
  5
13F2
330
1F
100
AcDbEntity
  8
SPOJOVACÍ
  6
CONTINUOUS
100
AcDbLine
 10
2663.086143083296
 20
-132.766433061641
 30
0.0
 11
2662.749419445412
 21
-132.766433061641
 31
0.0
  0
LINE
  5
13F3
330
1F
100
AcDbEntity
  8
SPOJOVACÍ
  6
CONTINUOUS
100
AcDbLine
 10
2666.208743229908
 20
-132.766433061641
 30
0.0
 11
2663.689827174879
 21
-132.766433061641
 31
0.0
  0
LINE
  5
13F4
330
1F
100
AcDbEntity
  8
SPOJOVACÍ
  6
CONTINUOUS
100
AcDbLine
 10
2663.9967851873
 20
-135.4658032243771
 30
0.0
 11
2662.749419445412
 21
-135.4658032243771
 31
0.0
  0
LINE
  5
13F5
330
1F
100
AcDbEntity
  8
SPOJOVACÍ
  6
CONTINUOUS
100
AcDbLine
 10
2667.111013751782
 20
-135.4658032243771
 30
0.0
 11
2664.593027872455
 21
-135.4658032243771
 31
0.0
  0
LINE
  5
13F6
330
1F
100
AcDbEntity
  8
SPOJOVACÍ
  6
CONTINUOUS
100
AcDbLine
 10
2669.33041320055
 20
-132.766433061641
 30
0.0
 11
2666.809636793841
 21
-132.766433061641
 31
0.0
  0
LINE
  5
13F7
330
1F
100
AcDbEntity
  8
SPOJOVACÍ
  6
CONTINUOUS
100
AcDbLine
 10
2672.453013346894
 20
-132.766433061641
 30
0.0
 11
2669.924795534025
 21
-132.766433061641
 31
0.0
  0
LINE
  5
13F8
330
1F
100
AcDbEntity
  8
SPOJOVACÍ
  6
CONTINUOUS
100
AcDbLine
 10
2675.568172087078
 20
-132.766433061641
 30
0.0
 11
2673.049256032049
 21
-132.766433061641
 31
0.0
  0
LINE
  5
13F9
330
1F
100
AcDbEntity
  8
SPOJOVACÍ
  6
CONTINUOUS
100
AcDbLine
 10
2670.243845831937
 20
-135.4658032243771
 30
0.0
 11
2667.715628019068
 21
-135.4658032243771
 31
0.0
  0
LINE
  5
13FA
330
1F
100
AcDbEntity
  8
SPOJOVACÍ
  6
CONTINUOUS
100
AcDbLine
 10
2673.359004572121
 20
-135.4658032243771
 30
0.0
 11
2670.838228165412
 21
-135.4658032243771
 31
0.0
  0
LINE
  5
13FB
330
1F
100
AcDbEntity
  8
SPOJOVACÍ
  6
CONTINUOUS
100
AcDbLine
 10
2676.481604718464
 20
-135.4658032243771
 30
0.0
 11
2673.962688663436
 21
-135.4658032243771
 31
0.0
  0
LINE
  5
13FC
330
1F
100
AcDbEntity
  8
SPOJOVACÍ
  6
CONTINUOUS
100
AcDbLine
 10
2681.114810357321
 20
-135.4658032243771
 30
0.0
 11
2677.076917227641
 21
-135.4658032243771
 31
0.0
  0
LINE
  5
13FD
330
1F
100
AcDbEntity
  8
SPOJOVACÍ
  6
CONTINUOUS
100
AcDbLine
 10
2681.114810357321
 20
-132.766433061641
 30
0.0
 11
2676.171856178393
 21
-132.766433061641
 31
0.0
  0
LINE
  5
13FE
330
1F
100
AcDbEntity
  8
SPOJOVACÍ
  6
CONTINUOUS
100
AcDbLine
 10
2686.514480851678
 20
-139.2162720338258
 30
0.0
 11
2685.770340215203
 21
-137.8665869502749
 31
0.0
  0
LINE
  5
13FF
330
1F
100
AcDbEntity
  8
SPOJOVACÍ
  6
CONTINUOUS
100
AcDbLine
 10
2685.770340215203
 20
-137.8665869502749
 30
0.0
 11
2684.701568225791
 21
-136.7559570499163
 31
0.0
  0
LINE
  5
1400
330
1F
100
AcDbEntity
  8
SPOJOVACÍ
  6
CONTINUOUS
100
AcDbLine
 10
2684.701568225791
 20
-136.7559570499163
 30
0.0
 11
2683.382578947494
 21
-135.9597265705981
 31
0.0
  0
LINE
  5
1401
330
1F
100
AcDbEntity
  8
SPOJOVACÍ
  6
CONTINUOUS
100
AcDbLine
 10
2683.382578947494
 20
-135.9597265705981
 30
0.0
 11
2681.901739080444
 21
-135.5318457062987
 31
0.0
  0
LINE
  5
1402
330
1F
100
AcDbEntity
  8
SPOJOVACÍ
  6
CONTINUOUS
100
AcDbLine
 10
2681.901739080444
 20
-135.5318457062987
 30
0.0
 11
2681.114810357321
 21
-135.4658032243771
 31
0.0
  0
LINE
  5
1403
330
1F
100
AcDbEntity
  8
SPOJOVACÍ
  6
CONTINUOUS
100
AcDbLine
 10
2685.259673703352
 20
-130.9684032516254
 30
0.0
 11
2686.177757213794
 21
-129.7312694427257
 31
0.0
  0
LINE
  5
1404
330
1F
100
AcDbEntity
  8
SPOJOVACÍ
  6
CONTINUOUS
100
AcDbLine
 10
2686.177757213794
 20
-129.7312694427257
 30
0.0
 11
2686.514480851678
 21
-129.0159642565579
 31
0.0
  0
LINE
  5
1405
330
1F
100
AcDbEntity
  8
SPOJOVACÍ
  6
CONTINUOUS
100
AcDbLine
 10
2686.514480851678
 20
-139.2162720338258
 30
0.0
 11
2686.514480851678
 21
-129.0159642565579
 31
0.0
  0
LINE
  5
1406
330
1F
100
AcDbEntity
  8
SPOJOVACÍ
  6
CONTINUOUS
100
AcDbLine
 10
2687.714407628409
 20
-139.2162720338258
 30
0.0
 11
2686.514480851678
 21
-139.2162720338258
 31
0.0
  0
LINE
  5
1407
330
1F
100
AcDbEntity
  8
SPOJOVACÍ
  6
CONTINUOUS
100
AcDbLine
 10
2687.714407628409
 20
-139.2162720338258
 30
0.0
 11
2687.714407628409
 21
-129.0159642565579
 31
0.0
  0
LINE
  5
1408
330
1F
100
AcDbEntity
  8
SPOJOVACÍ
  6
CONTINUOUS
100
AcDbLine
 10
2687.714407628409
 20
-129.0159642565579
 30
0.0
 11
2686.514480851678
 21
-129.0159642565579
 31
0.0
  0
LINE
  5
1409
330
1F
100
AcDbEntity
  8
SPOJOVACÍ
  6
CONTINUOUS
100
AcDbLine
 10
2681.114810357321
 20
-132.766433061641
 30
0.0
 11
2682.63843831075
 21
-132.5394701707575
 31
0.0
  0
LINE
  5
140A
330
1F
100
AcDbEntity
  8
SPOJOVACÍ
  6
CONTINUOUS
100
AcDbLine
 10
2682.63843831075
 20
-132.5394701707575
 30
0.0
 11
2684.052305520454
 21
-131.9264843216099
 31
0.0
  0
LINE
  5
140B
330
1F
100
AcDbEntity
  8
SPOJOVACÍ
  6
CONTINUOUS
100
AcDbLine
 10
2684.052305520454
 20
-131.9264843216099
 30
0.0
 11
2685.259673703352
 21
-130.9684032516254
 31
0.0
  0
TEXT
  5
140C
330
1F
100
AcDbEntity
  8
POPIS
100
AcDbText
 10
2762.952963743868
 20
-255.9584669695866
 30
0.0
 40
25.0
  1
04
 41
0.85
  7
SIMPLEX7
100
AcDbText
  0
TEXT
  5
140D
330
1F
100
AcDbEntity
  8
POPIS
100
AcDbText
 10
2762.952963743868
 20
-204.8974143567354
 30
0.0
 40
25.0
  1
03
 41
0.85
  7
SIMPLEX7
100
AcDbText
  0
TEXT
  5
140E
330
1F
100
AcDbEntity
  8
POPIS
100
AcDbText
 10
2762.952963743868
 20
-147.3836610792384
 30
0.0
 40
25.0
  1
02
 41
0.85
  7
SIMPLEX7
100
AcDbText
  0
TEXT
  5
140F
330
1F
100
AcDbEntity
  8
POPIS
100
AcDbText
 10
2762.952963743868
 20
7.044573305951189
 30
0.0
 40
25.0
  1
06
 41
0.85
  7
SIMPLEX7
100
AcDbText
  0
LINE
  5
1410
330
1F
100
AcDbEntity
  8
POPIS
100
AcDbLine
 10
2757.796752532577
 20
17.73780284002327
 30
0.0
 11
2684.27249787833
 21
17.73780284002327
 31
0.0
  0
LINE
  5
1411
330
1F
100
AcDbEntity
  8
POPIS
100
AcDbLine
 10
2757.796752532577
 20
-134.1078453168213
 30
0.0
 11
2688.102736010263
 21
-134.1078453168213
 31
0.0
  0
LINE
  5
1412
330
1F
100
AcDbEntity
  8
POPIS
100
AcDbLine
 10
2757.796752532577
 20
-193.1321277755325
 30
0.0
 11
2651.104209858367
 21
-193.1321277755325
 31
0.0
  0
LINE
  5
1413
330
1F
100
AcDbEntity
  8
POPIS
100
AcDbLine
 10
2757.796752532577
 20
-245.1900438917784
 30
0.0
 11
2669.623846273032
 21
-245.1900438917784
 31
0.0
  0
INSERT
  5
1414
330
1F
100
AcDbEntity
  8
POPIS
100
AcDbBlockReference
  2
E_PUNKT
 10
2686.485412520804
 20
-134.088507769565
 30
0.0
 50
270.0
  0
INSERT
  5
1415
330
1F
100
AcDbEntity
  8
POPIS
100
AcDbBlockReference
  2
E_PUNKT
 10
2649.825141527493
 20
-193.1045173999057
 30
0.0
 50
270.0
  0
INSERT
  5
1416
330
1F
100
AcDbEntity
  8
POPIS
100
AcDbBlockReference
  2
E_PUNKT
 10
2669.594777942162
 20
-245.4271687594275
 30
0.0
 50
270.0
  0
LINE
  5
1419
330
1F
100
AcDbEntity
  8
STAVBA_OBRYS
100
AcDbLine
 10
2584.552564429202
 20
-378.1103834916377
 30
0.0
 11
2587.482153343662
 21
-378.1103834916377
 31
0.0
  0
LWPOLYLINE
  5
141A
330
1F
100
AcDbEntity
  8
STAVBA_OBRYS
100
AcDbPolyline
 90
        4
 70
     1
 43
0.0
 10
2584.552564429202
 20
-410.1080077429962
 10
2579.507439904042
 20
-410.1080077429962
 10
2579.507439904042
 20
-378.1103834916377
 10
2584.552564429202
 20
-378.1103834916377
  0
LWPOLYLINE
  5
141B
330
1F
100
AcDbEntity
  8
STAVBA_OBRYS
100
AcDbPolyline
 90
        4
 70
     1
 43
0.0
 10
2584.612917533693
 20
-417.3847348271976
 10
2484.612917533693
 20
-417.3847348271976
 10
2484.612917533693
 20
-412.3847348271977
 10
2584.612917533693
 20
-412.3847348271977
  0
LINE
  5
141C
330
1F
100
AcDbEntity
  8
STAVBA_OBRYS
100
AcDbLine
 10
2584.552564429202
 20
-410.1080077429962
 30
0.0
 11
2584.612917533693
 21
-412.3847348271977
 31
0.0
  0
LINE
  5
141D
330
1F
100
AcDbEntity
  8
STAVBA_OBRYS
100
AcDbLine
 10
2579.507439904042
 20
-410.1080077429962
 30
0.0
 11
2579.507439904042
 21
-412.3847348271977
 31
0.0
  0
LINE
  5
141E
330
1F
100
AcDbEntity
  8
STAVBA_OBRYS
100
AcDbLine
 10
2480.899378936654
 20
-412.3847348271977
 30
0.0
 11
2484.612917533693
 21
-412.3847348271977
 31
0.0
  0
LWPOLYLINE
  5
141F
330
1F
100
AcDbEntity
  8
STAVBA_OBRYS
100
AcDbPolyline
 90
        4
 70
     0
 43
0.0
 10
2474.869299759924
 20
-412.3847348271977
 10
2480.899378936654
 20
-412.3847348271977
 10
2480.899378936654
 20
-417.3847348271976
 10
2474.869299759924
 20
-417.3847348271976
  0
LINE
  5
1420
330
1F
100
AcDbEntity
  8
STAVBA_OBRYS
100
AcDbLine
 10
2474.869299759924
 20
-417.3847348271981
 30
0.0
 11
2584.612917533693
 21
-417.3847348271976
 31
0.0
  0
LINE
  5
1421
330
1F
100
AcDbEntity
  8
STAVBA_OBRYS
100
AcDbLine
 10
2586.947279357275
 20
-365.4456607452068
 30
0.0
 11
2587.482153343662
 21
-365.4456607452068
 31
0.0
  0
HATCH
  5
1422
330
1F
100
AcDbEntity
  8
STAVBA_OBRYS
100
AcDbHatch
 10
0.0
 20
0.0
 30
0.0
210
0.0
220
0.0
230
1.0
  2
AR-SAND
 70
     0
 71
     0
 91
        3
 92
        7
 72
     0
 73
     1
 93
        9
 10
2587.482153343669
 20
-378.1103834916377
 10
2584.552564429202
 20
-378.1103834916377
 10
2584.552564429202
 20
-410.1080077429221
 10
2584.612917533693
 20
-412.3847348269917
 10
2584.612917533693
 20
-417.3847348271976
 10
2474.869299759928
 20
-417.3847348271981
 10
2474.869299759928
 20
-419.433207518656
 10
2586.947279357275
 20
-419.433207518656
 10
2587.482153343662
 20
-419.433207518656
 97
        0
 92
       22
 72
     0
 73
     1
 93
        4
 10
2584.552564429202
 20
-410.1080077429962
 10
2579.507439904042
 20
-410.1080077429967
 10
2579.507439904042
 20
-412.3847348271977
 10
2584.612917533697
 20
-412.3847348271977
 97
        0
 92
       23
 72
     0
 73
     1
 93
        4
 10
2484.612917533693
 20
-412.3847348271977
 10
2480.899378936654
 20
-412.3847348271977
 10
2480.89937893665
 20
-417.3847348271981
 10
2484.612917533693
 20
-417.3847348271981
 97
        0
 75
     0
 76
     1
 52
90.0
 41
0.05
 77
     0
 78
     4
 53
127.5
 43
-23508.94984523015
 44
-2624.820868748031
 45
-2.447066186646711
 46
-0.0800015647992021
 79
     6
 49
0.0
 49
-1.9304
 49
0.0
 49
-2.159
 49
0.0
 49
-2.06375
 53
97.49999999999992
 43
-23508.94984523015
 44
-2624.820868748031
 45
-3.584125502841771
 46
2.247616415690013
 79
     6
 49
0.0
 49
-1.0414
 49
0.0
 49
-1.7399
 49
0.0
 49
-0.6667500000000001
 53
57.5
 43
-23508.94984523015
 44
-2626.382968748031
 45
-0.0071859233927282
 46
3.95496185120729
 79
     6
 49
0.0
 49
-0.635
 49
0.0
 49
-2.286
 49
0.0
 49
-2.9845
 53
47.5
 43
-23508.94984523015
 44
-2626.382968748031
 45
-1.11464661628608
 46
3.817782262361486
 79
     6
 49
0.0
 49
-0.3175
 49
0.0
 49
-1.498599999999999
 49
0.0
 49
-1.7145
 47
0.2229474623524009
 98
        3
 10
2586.296505919155
 20
-416.1388218382801
 10
2582.727164992506
 20
-411.2339894733507
 10
2483.008442901209
 20
-415.2470380659126
  0
LINE
  5
1424
330
1F
100
AcDbEntity
  8
NOSNÉ_KONSTRUKCE
  6
DASHED
100
AcDbLine
 10
2620.205923815941
 20
-414.4938052825912
 30
0.0
 11
2620.205923815933
 21
-65.87254751553655
 31
0.0
  0
LINE
  5
143C
330
1F
100
AcDbEntity
  8
STAVBA_OBRYS
100
AcDbLine
 10
2680.633065818768
 20
398.1999374557633
 30
0.0
 11
2675.373345364252
 21
410.6999374557633
 31
0.0
  0
LINE
  5
145D
102
{ACAD_REACTORS
330
50BD
102
}
330
1F
100
AcDbEntity
  8
CETRIS
100
AcDbLine
 10
2599.482153343659
 20
392.9818924745775
 30
0.0
 11
2599.482153343659
 21
122.3758741749061
 31
0.0
  0
LINE
  5
145E
102
{ACAD_REACTORS
330
50BD
102
}
330
1F
100
AcDbEntity
  8
CETRIS
100
AcDbLine
 10
2587.482153343659
 20
392.9818924745775
 30
0.0
 11
2587.482153343661
 21
124.5860354532051
 31
0.0
  0
LINE
  5
1460
330
1F
100
AcDbEntity
  8
CETRIS
100
AcDbLine
 10
2675.714407628409
 20
392.9818924745739
 30
0.0
 11
2675.714407628409
 21
108.3354094601018
 31
0.0
  0
LINE
  5
1466
330
1F
100
AcDbEntity
  8
CETRIS
100
AcDbLine
 10
2587.482153343659
 20
392.9818924745775
 30
0.0
 11
2599.482153343659
 21
392.9818924745775
 31
0.0
  0
LINE
  5
1467
330
1F
100
AcDbEntity
  8
CETRIS
100
AcDbLine
 10
2675.714407628409
 20
392.9818924745775
 30
0.0
 11
2687.714407628409
 21
392.9818924745739
 31
0.0
  0
LINE
  5
14D5
330
1F
100
AcDbEntity
  8
SPOJOVACÍ
  6
CONTINUOUS
100
AcDbLine
 10
2610.384011611615
 20
348.7656199771288
 30
0.0
 11
2611.743928625157
 21
344.7212156175362
 31
0.0
  0
LINE
  5
14D6
330
1F
100
AcDbEntity
  8
SPOJOVACÍ
  6
CONTINUOUS
100
AcDbLine
 10
2610.980254296769
 20
348.7656199771288
 30
0.0
 11
2612.340171310312
 21
344.7212156175362
 31
0.0
  0
LINE
  5
14D7
330
1F
100
AcDbEntity
  8
SPOJOVACÍ
  6
CONTINUOUS
100
AcDbLine
 10
2611.962519937184
 20
344.3435642465908
 30
0.0
 11
2611.743928625157
 21
344.7212156175362
 31
0.0
  0
LINE
  5
14D8
330
1F
100
AcDbEntity
  8
SPOJOVACÍ
  6
CONTINUOUS
100
AcDbLine
 10
2611.962519937184
 20
344.3435642465908
 30
0.0
 11
2612.340171310312
 21
344.7212156175362
 31
0.0
  0
LINE
  5
14D9
330
1F
100
AcDbEntity
  8
SPOJOVACÍ
  6
CONTINUOUS
100
AcDbLine
 10
2610.762593160721
 20
349.1432713524397
 30
0.0
 11
2610.384011611615
 21
348.7656199771288
 31
0.0
  0
LINE
  5
14DA
330
1F
100
AcDbEntity
  8
SPOJOVACÍ
  6
CONTINUOUS
100
AcDbLine
 10
2610.762593160721
 20
349.1432713524397
 30
0.0
 11
2610.980254296769
 21
348.7656199771288
 31
0.0
  0
LINE
  5
14DB
330
1F
100
AcDbEntity
  8
SPOJOVACÍ
  6
CONTINUOUS
100
AcDbLine
 10
2610.762593160721
 20
349.1432713524397
 30
0.0
 11
2611.962519937184
 21
344.3435642465908
 31
0.0
  0
LINE
  5
14DC
330
1F
100
AcDbEntity
  8
SPOJOVACÍ
  6
CONTINUOUS
100
AcDbLine
 10
2607.264201992653
 20
348.7656199771288
 30
0.0
 11
2608.624119006195
 21
344.7212156175362
 31
0.0
  0
LINE
  5
14DD
330
1F
100
AcDbEntity
  8
SPOJOVACÍ
  6
CONTINUOUS
100
AcDbLine
 10
2607.8604446778
 20
348.7656199771288
 30
0.0
 11
2609.220361691074
 21
344.7212156175362
 31
0.0
  0
LINE
  5
14DE
330
1F
100
AcDbEntity
  8
SPOJOVACÍ
  6
CONTINUOUS
100
AcDbLine
 10
2608.841780142244
 20
344.3435642465908
 30
0.0
 11
2608.624119006195
 21
344.7212156175362
 31
0.0
  0
LINE
  5
14DF
330
1F
100
AcDbEntity
  8
SPOJOVACÍ
  6
CONTINUOUS
100
AcDbLine
 10
2608.841780142244
 20
344.3435642465908
 30
0.0
 11
2609.220361691074
 21
344.7212156175362
 31
0.0
  0
LINE
  5
14E0
330
1F
100
AcDbEntity
  8
SPOJOVACÍ
  6
CONTINUOUS
100
AcDbLine
 10
2607.641853365781
 20
349.1432713524397
 30
0.0
 11
2607.264201992653
 21
348.7656199771288
 31
0.0
  0
LINE
  5
14E1
330
1F
100
AcDbEntity
  8
SPOJOVACÍ
  6
CONTINUOUS
100
AcDbLine
 10
2607.641853365781
 20
349.1432713524397
 30
0.0
 11
2607.8604446778
 21
348.7656199771288
 31
0.0
  0
LINE
  5
14E2
330
1F
100
AcDbEntity
  8
SPOJOVACÍ
  6
CONTINUOUS
100
AcDbLine
 10
2607.641853365781
 20
349.1432713524397
 30
0.0
 11
2608.841780142244
 21
344.3435642465908
 31
0.0
  0
LINE
  5
14E3
330
1F
100
AcDbEntity
  8
SPOJOVACÍ
  6
CONTINUOUS
100
AcDbLine
 10
2604.144392373684
 20
348.7656199771288
 30
0.0
 11
2605.504309386957
 21
344.7212156175362
 31
0.0
  0
LINE
  5
14E4
330
1F
100
AcDbEntity
  8
SPOJOVACÍ
  6
CONTINUOUS
100
AcDbLine
 10
2604.740635058838
 20
348.7656199771288
 30
0.0
 11
2606.100552072105
 21
344.7212156175362
 31
0.0
  0
LINE
  5
14E5
330
1F
100
AcDbEntity
  8
SPOJOVACÍ
  6
CONTINUOUS
100
AcDbLine
 10
2605.721970523275
 20
344.3435642465908
 30
0.0
 11
2605.504309386957
 21
344.7212156175362
 31
0.0
  0
LINE
  5
14E6
330
1F
100
AcDbEntity
  8
SPOJOVACÍ
  6
CONTINUOUS
100
AcDbLine
 10
2605.721970523275
 20
344.3435642465908
 30
0.0
 11
2606.100552072105
 21
344.7212156175362
 31
0.0
  0
LINE
  5
14E7
330
1F
100
AcDbEntity
  8
SPOJOVACÍ
  6
CONTINUOUS
100
AcDbLine
 10
2604.522043746812
 20
349.1432713524397
 30
0.0
 11
2604.144392373684
 21
348.7656199771288
 31
0.0
  0
LINE
  5
14E8
330
1F
100
AcDbEntity
  8
SPOJOVACÍ
  6
CONTINUOUS
100
AcDbLine
 10
2604.522043746812
 20
349.1432713524397
 30
0.0
 11
2604.740635058838
 21
348.7656199771288
 31
0.0
  0
LINE
  5
14E9
330
1F
100
AcDbEntity
  8
SPOJOVACÍ
  6
CONTINUOUS
100
AcDbLine
 10
2604.522043746812
 20
349.1432713524397
 30
0.0
 11
2605.721970523275
 21
344.3435642465908
 31
0.0
  0
LINE
  5
14EA
330
1F
100
AcDbEntity
  8
SPOJOVACÍ
  6
CONTINUOUS
100
AcDbLine
 10
2619.868084025652
 20
347.7600999414414
 30
0.0
 11
2620.178762741427
 21
345.6058127999847
 31
0.0
  0
LINE
  5
14EB
330
1F
100
AcDbEntity
  8
SPOJOVACÍ
  6
CONTINUOUS
100
AcDbLine
 10
2619.490432652524
 20
347.382448570496
 30
0.0
 11
2619.961101605109
 21
345.9834641709301
 31
0.0
  0
LINE
  5
14EC
330
1F
100
AcDbEntity
  8
SPOJOVACÍ
  6
CONTINUOUS
100
AcDbLine
 10
2620.086675337672
 20
347.382448570496
 30
0.0
 11
2620.557344290256
 21
345.9834641709301
 31
0.0
  0
LINE
  5
14ED
330
1F
100
AcDbEntity
  8
SPOJOVACÍ
  6
CONTINUOUS
100
AcDbLine
 10
2620.178762741427
 20
345.6058127999847
 30
0.0
 11
2619.961101605109
 21
345.9834641709301
 31
0.0
  0
LINE
  5
14EE
330
1F
100
AcDbEntity
  8
SPOJOVACÍ
  6
CONTINUOUS
100
AcDbLine
 10
2620.178762741427
 20
345.6058127999847
 30
0.0
 11
2620.557344290256
 21
345.9834641709301
 31
0.0
  0
LINE
  5
14EF
330
1F
100
AcDbEntity
  8
SPOJOVACÍ
  6
CONTINUOUS
100
AcDbLine
 10
2619.868084025652
 20
347.7600999414414
 30
0.0
 11
2619.490432652524
 21
347.382448570496
 31
0.0
  0
LINE
  5
14F0
330
1F
100
AcDbEntity
  8
SPOJOVACÍ
  6
CONTINUOUS
100
AcDbLine
 10
2619.868084025652
 20
347.7600999414414
 30
0.0
 11
2620.086675337672
 21
347.382448570496
 31
0.0
  0
LINE
  5
14F1
330
1F
100
AcDbEntity
  8
SPOJOVACÍ
  6
CONTINUOUS
100
AcDbLine
 10
2616.854314447333
 20
348.3247166519129
 30
0.0
 11
2617.487764164103
 21
345.2086277354817
 31
0.0
  0
LINE
  5
14F2
330
1F
100
AcDbEntity
  8
SPOJOVACÍ
  6
CONTINUOUS
100
AcDbLine
 10
2616.475732898226
 20
347.9470652766019
 30
0.0
 11
2617.270103028054
 21
345.5862791064271
 31
0.0
  0
LINE
  5
14F3
330
1F
100
AcDbEntity
  8
SPOJOVACÍ
  6
CONTINUOUS
100
AcDbLine
 10
2617.071975583381
 20
347.9470652766019
 30
0.0
 11
2617.866345712933
 21
345.5862791064271
 31
0.0
  0
LINE
  5
14F4
330
1F
100
AcDbEntity
  8
SPOJOVACÍ
  6
CONTINUOUS
100
AcDbLine
 10
2617.487764164103
 20
345.2086277354817
 30
0.0
 11
2617.270103028054
 21
345.5862791064271
 31
0.0
  0
LINE
  5
14F5
330
1F
100
AcDbEntity
  8
SPOJOVACÍ
  6
CONTINUOUS
100
AcDbLine
 10
2617.487764164103
 20
345.2086277354817
 30
0.0
 11
2617.866345712933
 21
345.5862791064271
 31
0.0
  0
LINE
  5
14F6
330
1F
100
AcDbEntity
  8
SPOJOVACÍ
  6
CONTINUOUS
100
AcDbLine
 10
2616.854314447333
 20
348.3247166519129
 30
0.0
 11
2616.475732898226
 21
347.9470652766019
 31
0.0
  0
LINE
  5
14F7
330
1F
100
AcDbEntity
  8
SPOJOVACÍ
  6
CONTINUOUS
100
AcDbLine
 10
2616.854314447333
 20
348.3247166519129
 30
0.0
 11
2617.071975583381
 21
347.9470652766019
 31
0.0
  0
LINE
  5
14F8
330
1F
100
AcDbEntity
  8
SPOJOVACÍ
  6
CONTINUOUS
100
AcDbLine
 10
2613.839614693035
 20
348.8893333580187
 30
0.0
 11
2614.81257857534
 21
344.7640037052758
 31
0.0
  0
LINE
  5
14F9
330
1F
100
AcDbEntity
  8
SPOJOVACÍ
  6
CONTINUOUS
100
AcDbLine
 10
2613.461963319907
 20
348.5107518097345
 30
0.0
 11
2614.594917439291
 21
345.1416550762212
 31
0.0
  0
LINE
  5
14FA
330
1F
100
AcDbEntity
  8
SPOJOVACÍ
  6
CONTINUOUS
100
AcDbLine
 10
2614.058206005061
 20
348.5107518097345
 30
0.0
 11
2615.191160124446
 21
345.1416550762212
 31
0.0
  0
LINE
  5
14FB
330
1F
100
AcDbEntity
  8
SPOJOVACÍ
  6
CONTINUOUS
100
AcDbLine
 10
2614.81257857534
 20
344.7640037052758
 30
0.0
 11
2614.594917439291
 21
345.1416550762212
 31
0.0
  0
LINE
  5
14FC
330
1F
100
AcDbEntity
  8
SPOJOVACÍ
  6
CONTINUOUS
100
AcDbLine
 10
2614.81257857534
 20
344.7640037052758
 30
0.0
 11
2615.191160124446
 21
345.1416550762212
 31
0.0
  0
LINE
  5
14FD
330
1F
100
AcDbEntity
  8
SPOJOVACÍ
  6
CONTINUOUS
100
AcDbLine
 10
2613.839614693035
 20
348.8893333580187
 30
0.0
 11
2613.461963319907
 21
348.5107518097345
 31
0.0
  0
LINE
  5
14FE
330
1F
100
AcDbEntity
  8
SPOJOVACÍ
  6
CONTINUOUS
100
AcDbLine
 10
2613.839614693035
 20
348.8893333580187
 30
0.0
 11
2614.058206005061
 21
348.5107518097345
 31
0.0
  0
LINE
  5
14FF
330
1F
100
AcDbEntity
  8
SPOJOVACÍ
  6
CONTINUOUS
100
AcDbLine
 10
2601.024582754446
 20
348.7656199771288
 30
0.0
 11
2602.383569592286
 21
344.7212156175362
 31
0.0
  0
LINE
  5
1500
330
1F
100
AcDbEntity
  8
SPOJOVACÍ
  6
CONTINUOUS
100
AcDbLine
 10
2601.6208254396
 20
348.7656199771288
 30
0.0
 11
2602.979812277164
 21
344.7212156175362
 31
0.0
  0
LINE
  5
1501
330
1F
100
AcDbEntity
  8
SPOJOVACÍ
  6
CONTINUOUS
100
AcDbLine
 10
2602.602160904313
 20
344.3435642465908
 30
0.0
 11
2602.383569592286
 21
344.7212156175362
 31
0.0
  0
LINE
  5
1502
330
1F
100
AcDbEntity
  8
SPOJOVACÍ
  6
CONTINUOUS
100
AcDbLine
 10
2602.602160904313
 20
344.3435642465908
 30
0.0
 11
2602.979812277164
 21
344.7212156175362
 31
0.0
  0
LINE
  5
1503
330
1F
100
AcDbEntity
  8
SPOJOVACÍ
  6
CONTINUOUS
100
AcDbLine
 10
2601.402234127574
 20
349.1432713524397
 30
0.0
 11
2601.024582754446
 21
348.7656199771288
 31
0.0
  0
LINE
  5
1504
330
1F
100
AcDbEntity
  8
SPOJOVACÍ
  6
CONTINUOUS
100
AcDbLine
 10
2601.402234127574
 20
349.1432713524397
 30
0.0
 11
2601.6208254396
 21
348.7656199771288
 31
0.0
  0
LINE
  5
1505
330
1F
100
AcDbEntity
  8
SPOJOVACÍ
  6
CONTINUOUS
100
AcDbLine
 10
2601.402234127574
 20
349.1432713524397
 30
0.0
 11
2602.602160904313
 21
344.3435642465908
 31
0.0
  0
LINE
  5
1506
102
{ACAD_REACTORS
330
50BD
102
}
330
1F
100
AcDbEntity
  8
SPOJOVACÍ
  6
CONTINUOUS
100
AcDbLine
 10
2597.903842959782
 20
348.7656199771288
 30
0.0
 11
2599.263759973048
 21
344.7212156175362
 31
0.0
  0
LINE
  5
1507
102
{ACAD_REACTORS
330
50BD
102
}
330
1F
100
AcDbEntity
  8
SPOJOVACÍ
  6
CONTINUOUS
100
AcDbLine
 10
2598.50008564466
 20
348.7656199771288
 30
0.0
 11
2599.860002658202
 21
344.7212156175362
 31
0.0
  0
LINE
  5
1508
330
1F
100
AcDbEntity
  8
SPOJOVACÍ
  6
CONTINUOUS
100
AcDbLine
 10
2599.482351285074
 20
344.3435642465908
 30
0.0
 11
2599.263759973048
 21
344.7212156175362
 31
0.0
  0
LINE
  5
1509
330
1F
100
AcDbEntity
  8
SPOJOVACÍ
  6
CONTINUOUS
100
AcDbLine
 10
2599.482351285074
 20
344.3435642465908
 30
0.0
 11
2599.860002658202
 21
344.7212156175362
 31
0.0
  0
LINE
  5
150A
102
{ACAD_REACTORS
330
50BD
102
}
330
1F
100
AcDbEntity
  8
SPOJOVACÍ
  6
CONTINUOUS
100
AcDbLine
 10
2598.282424508612
 20
349.1432713524397
 30
0.0
 11
2597.903842959782
 21
348.7656199771288
 31
0.0
  0
LINE
  5
150B
330
1F
100
AcDbEntity
  8
SPOJOVACÍ
  6
CONTINUOUS
100
AcDbLine
 10
2598.282424508612
 20
349.1432713524397
 30
0.0
 11
2598.50008564466
 21
348.7656199771288
 31
0.0
  0
LINE
  5
150C
330
1F
100
AcDbEntity
  8
SPOJOVACÍ
  6
CONTINUOUS
100
AcDbLine
 10
2598.282424508612
 20
349.1432713524397
 30
0.0
 11
2599.482351285074
 21
344.3435642465908
 31
0.0
  0
LINE
  5
150D
330
1F
100
AcDbEntity
  8
SPOJOVACÍ
  6
CONTINUOUS
100
AcDbLine
 10
2614.418184037942
 20
345.6392991274321
 30
0.0
 11
2612.447141526656
 21
345.3937327159644
 31
0.0
  0
LINE
  5
150E
330
1F
100
AcDbEntity
  8
SPOJOVACÍ
  6
CONTINUOUS
100
AcDbLine
 10
2617.124995603841
 20
345.9778831199935
 30
0.0
 11
2614.988381800987
 21
345.7109226646559
 31
0.0
  0
LINE
  5
150F
330
1F
100
AcDbEntity
  8
SPOJOVACÍ
  6
CONTINUOUS
100
AcDbLine
 10
2619.842039103274
 20
346.3173972811625
 30
0.0
 11
2617.697053718289
 21
346.0495066528517
 31
0.0
  0
LINE
  5
1510
330
1F
100
AcDbEntity
  8
SPOJOVACÍ
  6
CONTINUOUS
100
AcDbLine
 10
2620.158298873804
 20
347.1294407534139
 30
0.0
 11
2623.247412691609
 21
346.7434177995153
 31
0.0
  0
LINE
  5
1511
330
1F
100
AcDbEntity
  8
SPOJOVACÍ
  6
CONTINUOUS
100
AcDbLine
 10
2617.217083007595
 20
347.4968601910938
 30
0.0
 11
2619.537871617951
 21
347.2066453459399
 31
0.0
  0
LINE
  5
1512
330
1F
100
AcDbEntity
  8
SPOJOVACÍ
  6
CONTINUOUS
100
AcDbLine
 10
2614.264705031866
 20
347.8661399834515
 30
0.0
 11
2616.586423817931
 21
347.575925133932
 31
0.0
  0
LINE
  5
1513
330
1F
100
AcDbEntity
  8
SPOJOVACÍ
  6
CONTINUOUS
100
AcDbLine
 10
2623.247412691609
 20
346.7434177995153
 30
0.0
 11
2620.411306690341
 21
346.3890208183863
 31
0.0
  0
LINE
  5
1514
330
1F
100
AcDbEntity
  8
SPOJOVACÍ
  6
CONTINUOUS
100
AcDbLine
 10
2612.447141526656
 20
348.0931028787006
 30
0.0
 11
2613.644277776013
 21
347.9433445759775
 31
0.0
  0
LINE
  5
1515
330
1F
100
AcDbEntity
  8
SPOJOVACÍ
  6
CONTINUOUS
100
AcDbLine
 10
2612.110417888772
 20
345.3937327159644
 30
0.0
 11
2612.447141526656
 21
345.3937327159644
 31
0.0
  0
LINE
  5
1516
330
1F
100
AcDbEntity
  8
SPOJOVACÍ
  6
CONTINUOUS
100
AcDbLine
 10
2608.987817742159
 20
345.3937327159644
 30
0.0
 11
2611.506733797188
 21
345.3937327159644
 31
0.0
  0
LINE
  5
1517
330
1F
100
AcDbEntity
  8
SPOJOVACÍ
  6
CONTINUOUS
100
AcDbLine
 10
2611.199775784767
 20
348.0931028787006
 30
0.0
 11
2612.447141526656
 21
348.0931028787006
 31
0.0
  0
LINE
  5
1518
330
1F
100
AcDbEntity
  8
SPOJOVACÍ
  6
CONTINUOUS
100
AcDbLine
 10
2608.085547220285
 20
348.0931028787006
 30
0.0
 11
2610.603533099613
 21
348.0931028787006
 31
0.0
  0
LINE
  5
1519
330
1F
100
AcDbEntity
  8
SPOJOVACÍ
  6
CONTINUOUS
100
AcDbLine
 10
2605.866147771517
 20
345.3937327159644
 30
0.0
 11
2608.386924178226
 21
345.3937327159644
 31
0.0
  0
LINE
  5
151A
330
1F
100
AcDbEntity
  8
SPOJOVACÍ
  6
CONTINUOUS
100
AcDbLine
 10
2602.743547625173
 20
345.3937327159644
 30
0.0
 11
2605.271765438043
 21
345.3937327159644
 31
0.0
  0
LINE
  5
151B
330
1F
100
AcDbEntity
  8
SPOJOVACÍ
  6
CONTINUOUS
100
AcDbLine
 10
2599.62838888499
 20
345.3937327159644
 30
0.0
 11
2602.147304940019
 21
345.3937327159644
 31
0.0
  0
LINE
  5
151C
330
1F
100
AcDbEntity
  8
SPOJOVACÍ
  6
CONTINUOUS
100
AcDbLine
 10
2604.952715140131
 20
348.0931028787006
 30
0.0
 11
2607.480932952999
 21
348.0931028787006
 31
0.0
  0
LINE
  5
151D
330
1F
100
AcDbEntity
  8
SPOJOVACÍ
  6
CONTINUOUS
100
AcDbLine
 10
2601.837556399947
 20
348.0931028787006
 30
0.0
 11
2604.358332806656
 21
348.0931028787006
 31
0.0
  0
LINE
  5
151E
102
{ACAD_REACTORS
330
50BD
102
}
330
1F
100
AcDbEntity
  8
SPOJOVACÍ
  6
CONTINUOUS
100
AcDbLine
 10
2598.714956253603
 20
348.0931028787006
 30
0.0
 11
2601.233872308632
 21
348.0931028787006
 31
0.0
  0
LINE
  5
151F
102
{ACAD_REACTORS
330
50BD
102
}
330
1F
100
AcDbEntity
  8
SPOJOVACÍ
  6
CONTINUOUS
100
AcDbLine
 10
2594.081750614746
 20
348.0931028787006
 30
0.0
 11
2598.119643744427
 21
348.0931028787006
 31
0.0
  0
LINE
  5
1520
102
{ACAD_REACTORS
330
50BD
102
}
330
1F
100
AcDbEntity
  8
SPOJOVACÍ
  6
CONTINUOUS
100
AcDbLine
 10
2594.081750614746
 20
345.3937327159644
 30
0.0
 11
2599.024704793675
 21
345.3937327159644
 31
0.0
  0
LINE
  5
1521
102
{ACAD_REACTORS
330
50BD
102
}
330
1F
100
AcDbEntity
  8
SPOJOVACÍ
  6
CONTINUOUS
100
AcDbLine
 10
2588.68208012039
 20
351.8435716881492
 30
0.0
 11
2589.426220756864
 21
350.4938866045983
 31
0.0
  0
LINE
  5
1522
102
{ACAD_REACTORS
330
50BD
102
}
330
1F
100
AcDbEntity
  8
SPOJOVACÍ
  6
CONTINUOUS
100
AcDbLine
 10
2589.426220756864
 20
350.4938866045983
 30
0.0
 11
2590.494992746276
 21
349.3832567042397
 31
0.0
  0
LINE
  5
1523
102
{ACAD_REACTORS
330
50BD
102
}
330
1F
100
AcDbEntity
  8
SPOJOVACÍ
  6
CONTINUOUS
100
AcDbLine
 10
2590.494992746276
 20
349.3832567042397
 30
0.0
 11
2591.813982024574
 21
348.5870262249215
 31
0.0
  0
LINE
  5
1524
102
{ACAD_REACTORS
330
50BD
102
}
330
1F
100
AcDbEntity
  8
SPOJOVACÍ
  6
CONTINUOUS
100
AcDbLine
 10
2591.813982024574
 20
348.5870262249215
 30
0.0
 11
2593.294821891624
 21
348.1591453606222
 31
0.0
  0
LINE
  5
1525
102
{ACAD_REACTORS
330
50BD
102
}
330
1F
100
AcDbEntity
  8
SPOJOVACÍ
  6
CONTINUOUS
100
AcDbLine
 10
2593.294821891624
 20
348.1591453606222
 30
0.0
 11
2594.081750614746
 21
348.0931028787006
 31
0.0
  0
LINE
  5
1526
102
{ACAD_REACTORS
330
50BD
102
}
330
1F
100
AcDbEntity
  8
SPOJOVACÍ
  6
CONTINUOUS
100
AcDbLine
 10
2589.936887268715
 20
343.5957029059488
 30
0.0
 11
2589.018803758273
 21
342.3585690970492
 31
0.0
  0
LINE
  5
1527
102
{ACAD_REACTORS
330
50BD
102
}
330
1F
100
AcDbEntity
  8
SPOJOVACÍ
  6
CONTINUOUS
100
AcDbLine
 10
2589.018803758273
 20
342.3585690970492
 30
0.0
 11
2588.68208012039
 21
341.6432639108813
 31
0.0
  0
LINE
  5
1528
330
1F
100
AcDbEntity
  8
SPOJOVACÍ
  6
CONTINUOUS
100
AcDbLine
 10
2588.68208012039
 20
351.8435716881492
 30
0.0
 11
2588.68208012039
 21
341.6432639108813
 31
0.0
  0
LINE
  5
1529
102
{ACAD_REACTORS
330
50BD
102
}
330
1F
100
AcDbEntity
  8
SPOJOVACÍ
  6
CONTINUOUS
100
AcDbLine
 10
2587.482153343659
 20
351.8435716881492
 30
0.0
 11
2588.68208012039
 21
351.8435716881492
 31
0.0
  0
LINE
  5
152A
330
1F
100
AcDbEntity
  8
SPOJOVACÍ
  6
CONTINUOUS
100
AcDbLine
 10
2587.482153343659
 20
351.8435716881492
 30
0.0
 11
2587.482153343659
 21
341.6432639108813
 31
0.0
  0
LINE
  5
152B
102
{ACAD_REACTORS
330
50BD
102
}
330
1F
100
AcDbEntity
  8
SPOJOVACÍ
  6
CONTINUOUS
100
AcDbLine
 10
2587.482153343659
 20
341.6432639108813
 30
0.0
 11
2588.68208012039
 21
341.6432639108813
 31
0.0
  0
LINE
  5
152C
102
{ACAD_REACTORS
330
50BD
102
}
330
1F
100
AcDbEntity
  8
SPOJOVACÍ
  6
CONTINUOUS
100
AcDbLine
 10
2594.081750614746
 20
345.3937327159644
 30
0.0
 11
2592.558122661317
 21
345.166769825081
 31
0.0
  0
LINE
  5
152D
102
{ACAD_REACTORS
330
50BD
102
}
330
1F
100
AcDbEntity
  8
SPOJOVACÍ
  6
CONTINUOUS
100
AcDbLine
 10
2592.558122661317
 20
345.166769825081
 30
0.0
 11
2591.144255451614
 21
344.5537839759333
 31
0.0
  0
LINE
  5
152E
102
{ACAD_REACTORS
330
50BD
102
}
330
1F
100
AcDbEntity
  8
SPOJOVACÍ
  6
CONTINUOUS
100
AcDbLine
 10
2591.144255451614
 20
344.5537839759333
 30
0.0
 11
2589.936887268715
 21
343.5957029059488
 31
0.0
  0
LINE
  5
152F
330
1F
100
AcDbEntity
  8
SPOJOVACÍ
  6
CONTINUOUS
100
AcDbLine
 10
2684.052305520454
 20
344.5537839759333
 30
0.0
 11
2685.259673703352
 21
343.5957029059488
 31
0.0
  0
LINE
  5
1530
330
1F
100
AcDbEntity
  8
SPOJOVACÍ
  6
CONTINUOUS
100
AcDbLine
 10
2682.63843831075
 20
345.166769825081
 30
0.0
 11
2684.052305520454
 21
344.5537839759333
 31
0.0
  0
LINE
  5
1531
330
1F
100
AcDbEntity
  8
SPOJOVACÍ
  6
CONTINUOUS
100
AcDbLine
 10
2681.114810357321
 20
345.3937327159644
 30
0.0
 11
2682.63843831075
 21
345.166769825081
 31
0.0
  0
LINE
  5
1532
330
1F
100
AcDbEntity
  8
SPOJOVACÍ
  6
CONTINUOUS
100
AcDbLine
 10
2687.714407628409
 20
341.6432639108813
 30
0.0
 11
2686.514480851678
 21
341.6432639108813
 31
0.0
  0
LINE
  5
1533
330
1F
100
AcDbEntity
  8
SPOJOVACÍ
  6
CONTINUOUS
100
AcDbLine
 10
2687.714407628409
 20
351.8435716881492
 30
0.0
 11
2687.714407628409
 21
341.6432639108813
 31
0.0
  0
LINE
  5
1534
330
1F
100
AcDbEntity
  8
SPOJOVACÍ
  6
CONTINUOUS
100
AcDbLine
 10
2687.714407628409
 20
351.8435716881492
 30
0.0
 11
2686.514480851678
 21
351.8435716881492
 31
0.0
  0
LINE
  5
1535
330
1F
100
AcDbEntity
  8
SPOJOVACÍ
  6
CONTINUOUS
100
AcDbLine
 10
2686.514480851678
 20
351.8435716881492
 30
0.0
 11
2686.514480851678
 21
341.6432639108813
 31
0.0
  0
LINE
  5
1536
330
1F
100
AcDbEntity
  8
SPOJOVACÍ
  6
CONTINUOUS
100
AcDbLine
 10
2686.177757213794
 20
342.3585690970492
 30
0.0
 11
2686.514480851678
 21
341.6432639108813
 31
0.0
  0
LINE
  5
1537
330
1F
100
AcDbEntity
  8
SPOJOVACÍ
  6
CONTINUOUS
100
AcDbLine
 10
2685.259673703352
 20
343.5957029059488
 30
0.0
 11
2686.177757213794
 21
342.3585690970492
 31
0.0
  0
LINE
  5
1538
330
1F
100
AcDbEntity
  8
SPOJOVACÍ
  6
CONTINUOUS
100
AcDbLine
 10
2681.901739080444
 20
348.1591453606222
 30
0.0
 11
2681.114810357321
 21
348.0931028787006
 31
0.0
  0
LINE
  5
1539
330
1F
100
AcDbEntity
  8
SPOJOVACÍ
  6
CONTINUOUS
100
AcDbLine
 10
2683.382578947494
 20
348.5870262249215
 30
0.0
 11
2681.901739080444
 21
348.1591453606222
 31
0.0
  0
LINE
  5
153A
330
1F
100
AcDbEntity
  8
SPOJOVACÍ
  6
CONTINUOUS
100
AcDbLine
 10
2684.701568225791
 20
349.3832567042397
 30
0.0
 11
2683.382578947494
 21
348.5870262249215
 31
0.0
  0
LINE
  5
153B
330
1F
100
AcDbEntity
  8
SPOJOVACÍ
  6
CONTINUOUS
100
AcDbLine
 10
2685.770340215203
 20
350.4938866045983
 30
0.0
 11
2684.701568225791
 21
349.3832567042397
 31
0.0
  0
LINE
  5
153C
330
1F
100
AcDbEntity
  8
SPOJOVACÍ
  6
CONTINUOUS
100
AcDbLine
 10
2686.514480851678
 20
351.8435716881492
 30
0.0
 11
2685.770340215203
 21
350.4938866045983
 31
0.0
  0
LINE
  5
153D
330
1F
100
AcDbEntity
  8
SPOJOVACÍ
  6
CONTINUOUS
100
AcDbLine
 10
2681.114810357321
 20
345.3937327159644
 30
0.0
 11
2676.171856178393
 21
345.3937327159644
 31
0.0
  0
LINE
  5
153E
330
1F
100
AcDbEntity
  8
SPOJOVACÍ
  6
CONTINUOUS
100
AcDbLine
 10
2681.114810357321
 20
348.0931028787006
 30
0.0
 11
2677.076917227641
 21
348.0931028787006
 31
0.0
  0
LINE
  5
153F
330
1F
100
AcDbEntity
  8
SPOJOVACÍ
  6
CONTINUOUS
100
AcDbLine
 10
2676.481604718464
 20
348.0931028787006
 30
0.0
 11
2673.962688663436
 21
348.0931028787006
 31
0.0
  0
LINE
  5
1540
330
1F
100
AcDbEntity
  8
SPOJOVACÍ
  6
CONTINUOUS
100
AcDbLine
 10
2673.359004572121
 20
348.0931028787006
 30
0.0
 11
2670.838228165412
 21
348.0931028787006
 31
0.0
  0
LINE
  5
1541
330
1F
100
AcDbEntity
  8
SPOJOVACÍ
  6
CONTINUOUS
100
AcDbLine
 10
2670.243845831937
 20
348.0931028787006
 30
0.0
 11
2667.715628019068
 21
348.0931028787006
 31
0.0
  0
LINE
  5
1542
330
1F
100
AcDbEntity
  8
SPOJOVACÍ
  6
CONTINUOUS
100
AcDbLine
 10
2675.568172087078
 20
345.3937327159644
 30
0.0
 11
2673.049256032049
 21
345.3937327159644
 31
0.0
  0
LINE
  5
1543
330
1F
100
AcDbEntity
  8
SPOJOVACÍ
  6
CONTINUOUS
100
AcDbLine
 10
2672.453013346894
 20
345.3937327159644
 30
0.0
 11
2669.924795534025
 21
345.3937327159644
 31
0.0
  0
LINE
  5
1544
330
1F
100
AcDbEntity
  8
SPOJOVACÍ
  6
CONTINUOUS
100
AcDbLine
 10
2669.33041320055
 20
345.3937327159644
 30
0.0
 11
2666.809636793841
 21
345.3937327159644
 31
0.0
  0
LINE
  5
1545
330
1F
100
AcDbEntity
  8
SPOJOVACÍ
  6
CONTINUOUS
100
AcDbLine
 10
2667.111013751782
 20
348.0931028787006
 30
0.0
 11
2664.593027872455
 21
348.0931028787006
 31
0.0
  0
LINE
  5
1546
330
1F
100
AcDbEntity
  8
SPOJOVACÍ
  6
CONTINUOUS
100
AcDbLine
 10
2663.9967851873
 20
348.0931028787006
 30
0.0
 11
2662.749419445412
 21
348.0931028787006
 31
0.0
  0
LINE
  5
1547
330
1F
100
AcDbEntity
  8
SPOJOVACÍ
  6
CONTINUOUS
100
AcDbLine
 10
2666.208743229908
 20
345.3937327159644
 30
0.0
 11
2663.689827174879
 21
345.3937327159644
 31
0.0
  0
LINE
  5
1548
330
1F
100
AcDbEntity
  8
SPOJOVACÍ
  6
CONTINUOUS
100
AcDbLine
 10
2663.086143083296
 20
345.3937327159644
 30
0.0
 11
2662.749419445412
 21
345.3937327159644
 31
0.0
  0
LINE
  5
1549
330
1F
100
AcDbEntity
  8
SPOJOVACÍ
  6
CONTINUOUS
100
AcDbLine
 10
2662.749419445412
 20
348.0931028787006
 30
0.0
 11
2661.552283196055
 21
347.9433445759775
 31
0.0
  0
LINE
  5
154A
330
1F
100
AcDbEntity
  8
SPOJOVACÍ
  6
CONTINUOUS
100
AcDbLine
 10
2651.949148280459
 20
346.7434177995153
 30
0.0
 11
2654.785254281727
 21
346.3890208183863
 31
0.0
  0
LINE
  5
154B
330
1F
100
AcDbEntity
  8
SPOJOVACÍ
  6
CONTINUOUS
100
AcDbLine
 10
2660.931855940201
 20
347.8661399834515
 30
0.0
 11
2658.610137154137
 21
347.575925133932
 31
0.0
  0
LINE
  5
154C
330
1F
100
AcDbEntity
  8
SPOJOVACÍ
  6
CONTINUOUS
100
AcDbLine
 10
2657.979477964472
 20
347.4968601910938
 30
0.0
 11
2655.658689354117
 21
347.2066453459399
 31
0.0
  0
LINE
  5
154D
330
1F
100
AcDbEntity
  8
SPOJOVACÍ
  6
CONTINUOUS
100
AcDbLine
 10
2655.038262098264
 20
347.1294407534139
 30
0.0
 11
2651.949148280459
 21
346.7434177995153
 31
0.0
  0
LINE
  5
154E
330
1F
100
AcDbEntity
  8
SPOJOVACÍ
  6
CONTINUOUS
100
AcDbLine
 10
2655.354521868794
 20
346.3173972811625
 30
0.0
 11
2657.499507253778
 21
346.0495066528517
 31
0.0
  0
LINE
  5
154F
330
1F
100
AcDbEntity
  8
SPOJOVACÍ
  6
CONTINUOUS
100
AcDbLine
 10
2658.071565368227
 20
345.9778831199935
 30
0.0
 11
2660.20817917108
 21
345.7109226646559
 31
0.0
  0
LINE
  5
1550
330
1F
100
AcDbEntity
  8
SPOJOVACÍ
  6
CONTINUOUS
100
AcDbLine
 10
2660.778376934126
 20
345.6392991274321
 30
0.0
 11
2662.749419445412
 21
345.3937327159644
 31
0.0
  0
LINE
  5
1551
330
1F
100
AcDbEntity
  8
SPOJOVACÍ
  6
CONTINUOUS
100
AcDbLine
 10
2676.914136463456
 20
349.1432713524397
 30
0.0
 11
2675.714209686994
 21
344.3435642465908
 31
0.0
  0
LINE
  5
1552
330
1F
100
AcDbEntity
  8
SPOJOVACÍ
  6
CONTINUOUS
100
AcDbLine
 10
2676.914136463456
 20
349.1432713524397
 30
0.0
 11
2676.696475327407
 21
348.7656199771288
 31
0.0
  0
LINE
  5
1553
330
1F
100
AcDbEntity
  8
SPOJOVACÍ
  6
CONTINUOUS
100
AcDbLine
 10
2676.914136463456
 20
349.1432713524397
 30
0.0
 11
2677.292718012286
 21
348.7656199771288
 31
0.0
  0
LINE
  5
1554
330
1F
100
AcDbEntity
  8
SPOJOVACÍ
  6
CONTINUOUS
100
AcDbLine
 10
2675.714209686994
 20
344.3435642465908
 30
0.0
 11
2675.336558313865
 21
344.7212156175362
 31
0.0
  0
LINE
  5
1555
330
1F
100
AcDbEntity
  8
SPOJOVACÍ
  6
CONTINUOUS
100
AcDbLine
 10
2675.714209686994
 20
344.3435642465908
 30
0.0
 11
2675.93280099902
 21
344.7212156175362
 31
0.0
  0
LINE
  5
1556
330
1F
100
AcDbEntity
  8
SPOJOVACÍ
  6
CONTINUOUS
100
AcDbLine
 10
2676.696475327407
 20
348.7656199771288
 30
0.0
 11
2675.336558313865
 21
344.7212156175362
 31
0.0
  0
LINE
  5
1557
330
1F
100
AcDbEntity
  8
SPOJOVACÍ
  6
CONTINUOUS
100
AcDbLine
 10
2677.292718012286
 20
348.7656199771288
 30
0.0
 11
2675.93280099902
 21
344.7212156175362
 31
0.0
  0
LINE
  5
1558
330
1F
100
AcDbEntity
  8
SPOJOVACÍ
  6
CONTINUOUS
100
AcDbLine
 10
2673.794326844494
 20
349.1432713524397
 30
0.0
 11
2672.594400067755
 21
344.3435642465908
 31
0.0
  0
LINE
  5
1559
330
1F
100
AcDbEntity
  8
SPOJOVACÍ
  6
CONTINUOUS
100
AcDbLine
 10
2673.794326844494
 20
349.1432713524397
 30
0.0
 11
2673.575735532467
 21
348.7656199771288
 31
0.0
  0
LINE
  5
155A
330
1F
100
AcDbEntity
  8
SPOJOVACÍ
  6
CONTINUOUS
100
AcDbLine
 10
2673.794326844494
 20
349.1432713524397
 30
0.0
 11
2674.171978217622
 21
348.7656199771288
 31
0.0
  0
LINE
  5
155B
330
1F
100
AcDbEntity
  8
SPOJOVACÍ
  6
CONTINUOUS
100
AcDbLine
 10
2672.594400067755
 20
344.3435642465908
 30
0.0
 11
2672.216748694903
 21
344.7212156175362
 31
0.0
  0
LINE
  5
155C
330
1F
100
AcDbEntity
  8
SPOJOVACÍ
  6
CONTINUOUS
100
AcDbLine
 10
2672.594400067755
 20
344.3435642465908
 30
0.0
 11
2672.812991379782
 21
344.7212156175362
 31
0.0
  0
LINE
  5
155D
330
1F
100
AcDbEntity
  8
SPOJOVACÍ
  6
CONTINUOUS
100
AcDbLine
 10
2673.575735532467
 20
348.7656199771288
 30
0.0
 11
2672.216748694903
 21
344.7212156175362
 31
0.0
  0
LINE
  5
155E
330
1F
100
AcDbEntity
  8
SPOJOVACÍ
  6
CONTINUOUS
100
AcDbLine
 10
2674.171978217622
 20
348.7656199771288
 30
0.0
 11
2672.812991379782
 21
344.7212156175362
 31
0.0
  0
LINE
  5
155F
330
1F
100
AcDbEntity
  8
SPOJOVACÍ
  6
CONTINUOUS
100
AcDbLine
 10
2661.356946279033
 20
348.8893333580187
 30
0.0
 11
2661.138354967006
 21
348.5107518097345
 31
0.0
  0
LINE
  5
1560
330
1F
100
AcDbEntity
  8
SPOJOVACÍ
  6
CONTINUOUS
100
AcDbLine
 10
2661.356946279033
 20
348.8893333580187
 30
0.0
 11
2661.734597652161
 21
348.5107518097345
 31
0.0
  0
LINE
  5
1561
330
1F
100
AcDbEntity
  8
SPOJOVACÍ
  6
CONTINUOUS
100
AcDbLine
 10
2660.383982396728
 20
344.7640037052758
 30
0.0
 11
2660.005400847621
 21
345.1416550762212
 31
0.0
  0
LINE
  5
1562
330
1F
100
AcDbEntity
  8
SPOJOVACÍ
  6
CONTINUOUS
100
AcDbLine
 10
2660.383982396728
 20
344.7640037052758
 30
0.0
 11
2660.601643532777
 21
345.1416550762212
 31
0.0
  0
LINE
  5
1563
330
1F
100
AcDbEntity
  8
SPOJOVACÍ
  6
CONTINUOUS
100
AcDbLine
 10
2661.138354967006
 20
348.5107518097345
 30
0.0
 11
2660.005400847621
 21
345.1416550762212
 31
0.0
  0
LINE
  5
1564
330
1F
100
AcDbEntity
  8
SPOJOVACÍ
  6
CONTINUOUS
100
AcDbLine
 10
2661.734597652161
 20
348.5107518097345
 30
0.0
 11
2660.601643532777
 21
345.1416550762212
 31
0.0
  0
LINE
  5
1565
330
1F
100
AcDbEntity
  8
SPOJOVACÍ
  6
CONTINUOUS
100
AcDbLine
 10
2661.356946279033
 20
348.8893333580187
 30
0.0
 11
2660.383982396728
 21
344.7640037052758
 31
0.0
  0
LINE
  5
1566
330
1F
100
AcDbEntity
  8
SPOJOVACÍ
  6
CONTINUOUS
100
AcDbLine
 10
2658.342246524735
 20
348.3247166519129
 30
0.0
 11
2658.124585388686
 21
347.9470652766019
 31
0.0
  0
LINE
  5
1567
330
1F
100
AcDbEntity
  8
SPOJOVACÍ
  6
CONTINUOUS
100
AcDbLine
 10
2658.342246524735
 20
348.3247166519129
 30
0.0
 11
2658.720828073841
 21
347.9470652766019
 31
0.0
  0
LINE
  5
1568
330
1F
100
AcDbEntity
  8
SPOJOVACÍ
  6
CONTINUOUS
100
AcDbLine
 10
2657.708796807964
 20
345.2086277354817
 30
0.0
 11
2657.330215259134
 21
345.5862791064271
 31
0.0
  0
LINE
  5
1569
330
1F
100
AcDbEntity
  8
SPOJOVACÍ
  6
CONTINUOUS
100
AcDbLine
 10
2657.708796807964
 20
345.2086277354817
 30
0.0
 11
2657.926457944013
 21
345.5862791064271
 31
0.0
  0
LINE
  5
156A
330
1F
100
AcDbEntity
  8
SPOJOVACÍ
  6
CONTINUOUS
100
AcDbLine
 10
2658.124585388686
 20
347.9470652766019
 30
0.0
 11
2657.330215259134
 21
345.5862791064271
 31
0.0
  0
LINE
  5
156B
330
1F
100
AcDbEntity
  8
SPOJOVACÍ
  6
CONTINUOUS
100
AcDbLine
 10
2658.720828073841
 20
347.9470652766019
 30
0.0
 11
2657.926457944013
 21
345.5862791064271
 31
0.0
  0
LINE
  5
156C
330
1F
100
AcDbEntity
  8
SPOJOVACÍ
  6
CONTINUOUS
100
AcDbLine
 10
2658.342246524735
 20
348.3247166519129
 30
0.0
 11
2657.708796807964
 21
345.2086277354817
 31
0.0
  0
LINE
  5
156D
330
1F
100
AcDbEntity
  8
SPOJOVACÍ
  6
CONTINUOUS
100
AcDbLine
 10
2655.328476946415
 20
347.7600999414414
 30
0.0
 11
2655.109885634396
 21
347.382448570496
 31
0.0
  0
LINE
  5
156E
330
1F
100
AcDbEntity
  8
SPOJOVACÍ
  6
CONTINUOUS
100
AcDbLine
 10
2655.328476946415
 20
347.7600999414414
 30
0.0
 11
2655.706128319543
 21
347.382448570496
 31
0.0
  0
LINE
  5
156F
330
1F
100
AcDbEntity
  8
SPOJOVACÍ
  6
CONTINUOUS
100
AcDbLine
 10
2655.017798230641
 20
345.6058127999847
 30
0.0
 11
2654.639216681811
 21
345.9834641709301
 31
0.0
  0
LINE
  5
1570
330
1F
100
AcDbEntity
  8
SPOJOVACÍ
  6
CONTINUOUS
100
AcDbLine
 10
2655.017798230641
 20
345.6058127999847
 30
0.0
 11
2655.235459366958
 21
345.9834641709301
 31
0.0
  0
LINE
  5
1571
330
1F
100
AcDbEntity
  8
SPOJOVACÍ
  6
CONTINUOUS
100
AcDbLine
 10
2655.109885634396
 20
347.382448570496
 30
0.0
 11
2654.639216681811
 21
345.9834641709301
 31
0.0
  0
LINE
  5
1572
330
1F
100
AcDbEntity
  8
SPOJOVACÍ
  6
CONTINUOUS
100
AcDbLine
 10
2655.706128319543
 20
347.382448570496
 30
0.0
 11
2655.235459366958
 21
345.9834641709301
 31
0.0
  0
LINE
  5
1573
330
1F
100
AcDbEntity
  8
SPOJOVACÍ
  6
CONTINUOUS
100
AcDbLine
 10
2655.328476946415
 20
347.7600999414414
 30
0.0
 11
2655.017798230641
 21
345.6058127999847
 31
0.0
  0
LINE
  5
1574
330
1F
100
AcDbEntity
  8
SPOJOVACÍ
  6
CONTINUOUS
100
AcDbLine
 10
2670.674517225256
 20
349.1432713524397
 30
0.0
 11
2669.474590448793
 21
344.3435642465908
 31
0.0
  0
LINE
  5
1575
330
1F
100
AcDbEntity
  8
SPOJOVACÍ
  6
CONTINUOUS
100
AcDbLine
 10
2670.674517225256
 20
349.1432713524397
 30
0.0
 11
2670.455925913229
 21
348.7656199771288
 31
0.0
  0
LINE
  5
1576
330
1F
100
AcDbEntity
  8
SPOJOVACÍ
  6
CONTINUOUS
100
AcDbLine
 10
2670.674517225256
 20
349.1432713524397
 30
0.0
 11
2671.052168598384
 21
348.7656199771288
 31
0.0
  0
LINE
  5
1577
330
1F
100
AcDbEntity
  8
SPOJOVACÍ
  6
CONTINUOUS
100
AcDbLine
 10
2669.474590448793
 20
344.3435642465908
 30
0.0
 11
2669.096008899964
 21
344.7212156175362
 31
0.0
  0
LINE
  5
1578
330
1F
100
AcDbEntity
  8
SPOJOVACÍ
  6
CONTINUOUS
100
AcDbLine
 10
2669.474590448793
 20
344.3435642465908
 30
0.0
 11
2669.692251585111
 21
344.7212156175362
 31
0.0
  0
LINE
  5
1579
330
1F
100
AcDbEntity
  8
SPOJOVACÍ
  6
CONTINUOUS
100
AcDbLine
 10
2670.455925913229
 20
348.7656199771288
 30
0.0
 11
2669.096008899964
 21
344.7212156175362
 31
0.0
  0
LINE
  5
157A
330
1F
100
AcDbEntity
  8
SPOJOVACÍ
  6
CONTINUOUS
100
AcDbLine
 10
2671.052168598384
 20
348.7656199771288
 30
0.0
 11
2669.692251585111
 21
344.7212156175362
 31
0.0
  0
LINE
  5
157B
330
1F
100
AcDbEntity
  8
SPOJOVACÍ
  6
CONTINUOUS
100
AcDbLine
 10
2667.554707606286
 20
349.1432713524397
 30
0.0
 11
2666.354780829824
 21
344.3435642465908
 31
0.0
  0
LINE
  5
157C
330
1F
100
AcDbEntity
  8
SPOJOVACÍ
  6
CONTINUOUS
100
AcDbLine
 10
2667.554707606286
 20
349.1432713524397
 30
0.0
 11
2667.336116294267
 21
348.7656199771288
 31
0.0
  0
LINE
  5
157D
330
1F
100
AcDbEntity
  8
SPOJOVACÍ
  6
CONTINUOUS
100
AcDbLine
 10
2667.554707606286
 20
349.1432713524397
 30
0.0
 11
2667.932358979415
 21
348.7656199771288
 31
0.0
  0
LINE
  5
157E
330
1F
100
AcDbEntity
  8
SPOJOVACÍ
  6
CONTINUOUS
100
AcDbLine
 10
2666.354780829824
 20
344.3435642465908
 30
0.0
 11
2665.976199280994
 21
344.7212156175362
 31
0.0
  0
LINE
  5
157F
330
1F
100
AcDbEntity
  8
SPOJOVACÍ
  6
CONTINUOUS
100
AcDbLine
 10
2666.354780829824
 20
344.3435642465908
 30
0.0
 11
2666.572441965872
 21
344.7212156175362
 31
0.0
  0
LINE
  5
1580
330
1F
100
AcDbEntity
  8
SPOJOVACÍ
  6
CONTINUOUS
100
AcDbLine
 10
2667.336116294267
 20
348.7656199771288
 30
0.0
 11
2665.976199280994
 21
344.7212156175362
 31
0.0
  0
LINE
  5
1581
330
1F
100
AcDbEntity
  8
SPOJOVACÍ
  6
CONTINUOUS
100
AcDbLine
 10
2667.932358979415
 20
348.7656199771288
 30
0.0
 11
2666.572441965872
 21
344.7212156175362
 31
0.0
  0
LINE
  5
1582
330
1F
100
AcDbEntity
  8
SPOJOVACÍ
  6
CONTINUOUS
100
AcDbLine
 10
2664.433967811346
 20
349.1432713524397
 30
0.0
 11
2663.234041034884
 21
344.3435642465908
 31
0.0
  0
LINE
  5
1583
330
1F
100
AcDbEntity
  8
SPOJOVACÍ
  6
CONTINUOUS
100
AcDbLine
 10
2664.433967811346
 20
349.1432713524397
 30
0.0
 11
2664.216306675298
 21
348.7656199771288
 31
0.0
  0
LINE
  5
1584
330
1F
100
AcDbEntity
  8
SPOJOVACÍ
  6
CONTINUOUS
100
AcDbLine
 10
2664.433967811346
 20
349.1432713524397
 30
0.0
 11
2664.812549360453
 21
348.7656199771288
 31
0.0
  0
LINE
  5
1585
330
1F
100
AcDbEntity
  8
SPOJOVACÍ
  6
CONTINUOUS
100
AcDbLine
 10
2663.234041034884
 20
344.3435642465908
 30
0.0
 11
2662.856389661756
 21
344.7212156175362
 31
0.0
  0
LINE
  5
1586
330
1F
100
AcDbEntity
  8
SPOJOVACÍ
  6
CONTINUOUS
100
AcDbLine
 10
2663.234041034884
 20
344.3435642465908
 30
0.0
 11
2663.452632346911
 21
344.7212156175362
 31
0.0
  0
LINE
  5
1587
330
1F
100
AcDbEntity
  8
SPOJOVACÍ
  6
CONTINUOUS
100
AcDbLine
 10
2664.216306675298
 20
348.7656199771288
 30
0.0
 11
2662.856389661756
 21
344.7212156175362
 31
0.0
  0
LINE
  5
1588
330
1F
100
AcDbEntity
  8
SPOJOVACÍ
  6
CONTINUOUS
100
AcDbLine
 10
2664.812549360453
 20
348.7656199771288
 30
0.0
 11
2663.452632346911
 21
344.7212156175362
 31
0.0
  0
LINE
  5
1589
330
1F
100
AcDbEntity
  8
NOSNÉ_KONSTRUKCE
100
AcDbLine
 10
2673.71208291794
 20
405.0657121795937
 30
0.0
 11
2673.712082917937
 21
108.7041978385741
 31
0.0
  0
LINE
  5
158A
330
1F
100
AcDbEntity
  8
NOSNÉ_KONSTRUKCE
100
AcDbLine
 10
2601.181944961539
 20
406.4274498093025
 30
0.0
 11
2601.181944961533
 21
122.0628063736555
 31
0.0
  0
LINE
  5
158B
330
1F
100
AcDbEntity
  8
IZOLACE
  6
IZOLACE
 48
2.2
100
AcDbLine
 10
2637.032570663972
 20
403.7169686634149
 30
0.0
 11
2637.032570663972
 21
117.6319013336879
 31
0.0
  0
LWPOLYLINE
  5
158C
102
{ACAD_REACTORS
330
1DA1
330
50BD
102
}
330
1F
100
AcDbEntity
  8
IZOLACE
100
AcDbPolyline
 90
        4
 70
     1
 43
0.0
 10
2587.482153343659
 20
392.9818924745739
 10
2587.482153343659
 20
398.1999374557633
 10
2599.482153343659
 20
398.1999374557633
 10
2599.482153343659
 20
392.9818924745739
  0
LWPOLYLINE
  5
158D
102
{ACAD_REACTORS
330
1DA1
102
}
330
1F
100
AcDbEntity
  8
IZOLACE
100
AcDbPolyline
 90
        4
 70
     1
 43
0.0
 10
2687.714407628409
 20
392.9818924745739
 10
2687.714407628409
 20
398.1999374557633
 10
2675.714407628409
 20
398.1999374557633
 10
2675.714407628409
 20
392.9818924745739
  0
LINE
  5
158F
330
1F
100
AcDbEntity
  8
POPIS
100
AcDbLine
 10
2637.954459850851
 20
431.7544925026354
 30
0.0
 11
2533.805572822799
 21
516.9550478954469
 31
0.0
  0
LINE
  5
1591
330
1F
100
AcDbEntity
  8
STAVBA_OBRYS
100
AcDbLine
 10
2680.633065818768
 20
398.1999374557633
 30
0.0
 11
2827.177964175687
 21
398.1999374557633
 31
0.0
  0
LINE
  5
1592
330
1F
100
AcDbEntity
  8
STAVBA_OBRYS
100
AcDbLine
 10
2827.189434286268
 20
410.6999374557633
 30
0.0
 11
2476.270818358079
 21
410.6999374557633
 31
0.0
  0
LINE
  5
1593
330
1F
100
AcDbEntity
  8
STAVBA_OBRYS
100
AcDbLine
 10
2593.482153343659
 20
398.1999374557633
 30
0.0
 11
2476.270818358079
 21
398.1999374557633
 31
0.0
  0
LINE
  5
159D
330
1F
100
AcDbEntity
  8
STAVBA_OBRYS
100
AcDbLine
 10
2593.482153343659
 20
398.1999374557633
 30
0.0
 11
2598.741873798175
 21
410.6999374557633
 31
0.0
  0
LINE
  5
159F
330
1F
100
AcDbEntity
  8
STAVBA_OBRYS
100
AcDbLine
 10
2827.189434286268
 20
537.0328256701904
 30
0.0
 11
2476.270818358079
 21
537.0328256701904
 31
0.0
  0
LINE
  5
15A0
330
1F
100
AcDbEntity
  8
STAVBA_OBRYS
100
AcDbLine
 10
2827.189434286268
 20
577.0328256701905
 30
0.0
 11
2474.832180697944
 21
577.0328256701905
 31
0.0
  0
LINE
  5
15A1
330
1F
100
AcDbEntity
  8
STAVBA_OBRYS
100
AcDbLine
 10
2827.177964175687
 20
595.0328256701904
 30
0.0
 11
2474.687378038093
 21
595.0328256701904
 31
0.0
  0
TEXT
  5
15A2
330
1F
100
AcDbEntity
  8
POPIS
100
AcDbText
 10
2896.458783833827
 20
-169.5470686046931
 30
0.0
 40
25.0
  1
08
 41
0.85
  7
SIMPLEX7
100
AcDbText
  0
TEXT
  5
15A3
330
1F
100
AcDbEntity
  8
POPIS
100
AcDbText
 10
2950.802486993568
 20
-169.5470686046931
 30
0.0
 40
25.0
  1
Hmoždinka
 41
0.7
  7
SIMPLEX7
100
AcDbText
  0
TEXT
  5
15A4
330
1F
100
AcDbEntity
  8
POPIS
100
AcDbText
 10
2950.802486993568
 20
-136.3818702408927
 30
0.0
 40
25.0
  1
Podtmelení profilu (papír SIBRAL)
 41
0.7
  7
SIMPLEX7
100
AcDbText
  0
TEXT
  5
15A5
330
1F
100
AcDbEntity
  8
POPIS
100
AcDbText
 10
2896.458783833827
 20
-136.3818702408927
 30
0.0
 40
25.0
  1
07
 41
0.85
  7
SIMPLEX7
100
AcDbText
  0
CIRCLE
  5
15A6
330
1F
100
AcDbEntity
  8
POPIS
100
AcDbCircle
 10
3123.187701287795
 20
141.8494522236003
 30
0.0
 40
11.13656048292026
  0
TEXT
  5
15A7
330
1F
100
AcDbEntity
  8
POPIS
100
AcDbText
 10
3118.428672232614
 20
136.3041064786127
 30
0.0
 40
12.0
  1
R
 41
0.85
  7
SIMPLEX7
100
AcDbText
  0
TEXT
  5
15A8
330
1F
100
AcDbEntity
  8
POPIS
100
AcDbText
 10
2896.458783833827
 20
-102.1284777016946
 30
0.0
 40
25.0
  1
06
 41
0.85
  7
SIMPLEX7
100
AcDbText
  0
TEXT
  5
15A9
330
1F
100
AcDbEntity
  8
POPIS
100
AcDbText
 10
2950.802486993568
 20
-102.1284777016946
 30
0.0
 40
25.0
  1
Tmel DEXAFLAMM - R
 41
0.7
  7
SIMPLEX7
100
AcDbText
  0
TEXT
  5
15AA
330
1F
100
AcDbEntity
  8
POPIS
100
AcDbText
 10
2950.802486993568
 20
-31.40766615951656
 30
0.0
 40
25.0
  1
CW profil (ocelový nosník I, U) - stojina
 41
0.7
  7
SIMPLEX7
100
AcDbText
  0
TEXT
  5
15AB
330
1F
100
AcDbEntity
  8
POPIS
100
AcDbText
 10
2896.458783833827
 20
-31.40766615951656
 30
0.0
 40
25.0
  1
04
 41
0.85
  7
SIMPLEX7
100
AcDbText
  0
TEXT
  5
15AC
330
1F
100
AcDbEntity
  8
POPIS
100
AcDbText
 10
2950.802486993568
 20
3.996495058646132
 30
0.0
 40
25.0
  1
Minerální plsť (vzduchová mezera)
 41
0.7
  7
SIMPLEX7
100
AcDbText
  0
TEXT
  5
15AD
330
1F
100
AcDbEntity
  8
POPIS
100
AcDbText
 10
2896.458783833827
 20
3.996495058646132
 30
0.0
 40
25.0
  1
03
 41
0.85
  7
SIMPLEX7
100
AcDbText
  0
TEXT
  5
15AE
330
1F
100
AcDbEntity
  8
POPIS
100
AcDbText
 10
2950.802486993568
 20
74.73378475470486
 30
0.0
 40
25.0
  1
Vrut 4,2x35 (45,55) mm
 41
0.7
  7
SIMPLEX7
100
AcDbText
  0
TEXT
  5
15AF
330
1F
100
AcDbEntity
  8
POPIS
100
AcDbText
 10
2896.458783833827
 20
74.73378475470486
 30
0.0
 40
25.0
  1
02
 41
0.85
  7
SIMPLEX7
100
AcDbText
  0
TEXT
  5
15B0
330
1F
100
AcDbEntity
  8
POPIS
100
AcDbText
 10
2950.802486993568
 20
111.3287963703321
 30
0.0
 40
25.0
  1
Deska CETRIS   
 41
0.7
  7
SIMPLEX7
100
AcDbText
  0
TEXT
  5
15B1
330
1F
100
AcDbEntity
  8
POPIS
100
AcDbText
 10
2896.458783833827
 20
111.3287963703321
 30
0.0
 40
25.0
  1
01
 41
0.85
  7
SIMPLEX7
100
AcDbText
  0
TEXT
  5
15B2
330
1F
100
AcDbEntity
  8
POPIS
100
AcDbText
 10
2475.098143205996
 20
688.1063873594484
 30
0.0
 40
45.0
  1
Požárně dělící příčka (stěna) - jednovrstvé opláštění
 41
0.7
  7
SIMPLEX7
100
AcDbText
  0
TEXT
  5
15B4
330
1F
100
AcDbEntity
  8
POPIS
100
AcDbText
 10
2494.905522218516
 20
509.7882110114742
 30
0.0
 40
25.0
  1
08
 41
0.85
  7
SIMPLEX7
100
AcDbText
  0
TEXT
  5
15B5
330
1F
100
AcDbEntity
  8
POPIS
100
AcDbText
 10
2494.905522218516
 20
447.8678093005735
 30
0.0
 40
25.0
  1
07
 41
0.85
  7
SIMPLEX7
100
AcDbText
  0
TEXT
  5
15B6
330
1F
100
AcDbEntity
  8
POPIS
100
AcDbText
 10
2494.905522218516
 20
366.5061447777359
 30
0.0
 40
25.0
  1
06
 41
0.85
  7
SIMPLEX7
100
AcDbText
  0
TEXT
  5
15B7
330
1F
100
AcDbEntity
  8
POPIS
100
AcDbText
 10
2494.905522218516
 20
326.0794659175896
 30
0.0
 40
25.0
  1
05
 41
0.85
  7
SIMPLEX7
100
AcDbText
  0
TEXT
  5
15B8
330
1F
100
AcDbEntity
  8
POPIS
100
AcDbText
 10
2759.894302250948
 20
289.8640376452583
 30
0.0
 40
25.0
  1
01
 41
0.85
  7
SIMPLEX7
100
AcDbText
  0
TEXT
  5
15B9
330
1F
100
AcDbEntity
  8
POPIS
100
AcDbText
 10
2759.894302250948
 20
333.3543174490521
 30
0.0
 40
25.0
  1
02
 41
0.85
  7
SIMPLEX7
100
AcDbText
  0
INSERT
  5
15BB
330
1F
100
AcDbEntity
  8
POPIS
100
AcDbBlockReference
  2
E_PUNKT
 10
2590.538317245115
 20
395.4852651596036
 30
0.0
 50
270.0
  0
INSERT
  5
15BC
102
{ACAD_REACTORS
330
50BD
102
}
330
1F
100
AcDbEntity
  8
POPIS
100
AcDbBlockReference
  2
E_PUNKT
 10
2600.444014069072
 20
368.3215815563651
 30
0.0
 50
270.0
  0
LINE
  5
15BD
330
1F
100
AcDbEntity
  8
POPIS
100
AcDbLine
 10
2611.84969517339
 20
408.7485406782814
 30
0.0
 11
2533.881888477361
 21
458.4569112893693
 31
0.0
  0
LINE
  5
15BE
330
1F
100
AcDbEntity
  8
POPIS
100
AcDbLine
 10
2590.670775520408
 20
395.8779647315421
 30
0.0
 11
2533.786620819894
 21
379.637391120759
 31
0.0
  0
LINE
  5
15BF
102
{ACAD_REACTORS
330
50BD
102
}
330
1F
100
AcDbEntity
  8
POPIS
100
AcDbLine
 10
2599.482153343659
 20
367.9707596041521
 30
0.0
 11
2533.786620819894
 21
342.2178962463902
 31
0.0
  0
TEXT
  5
15C0
330
1F
100
AcDbEntity
  8
POPIS
100
AcDbText
 10
2759.894302250948
 20
228.8043701895928
 30
0.0
 40
25.0
  1
03
 41
0.85
  7
SIMPLEX7
100
AcDbText
  0
LINE
  5
15C1
330
1F
100
AcDbEntity
  8
POPIS
100
AcDbLine
 10
2757.84424534938
 20
240.7156514676933
 30
0.0
 11
2618.39871061327
 21
241.0277867772747
 31
0.0
  0
INSERT
  5
15C2
330
1F
100
AcDbEntity
  8
POPIS
100
AcDbBlockReference
  2
E_PUNKT
 10
2618.713007780552
 20
241.1987109156277
 30
0.0
 50
270.0
  0
INSERT
  5
15C3
330
1F
100
AcDbEntity
  8
POPIS
100
AcDbBlockReference
  2
E_PUNKT
 10
2685.257433890325
 20
347.261174390145
 30
0.0
 50
270.0
  0
LINE
  5
15C4
330
1F
100
AcDbEntity
  8
POPIS
100
AcDbLine
 10
2757.844245349377
 20
347.3790706680181
 30
0.0
 11
2685.276744195889
 21
347.3790706680181
 31
0.0
  0
LINE
  5
15C5
330
1F
100
AcDbEntity
  8
POPIS
100
AcDbLine
 10
2757.84424534938
 20
301.8614237231047
 30
0.0
 11
2687.714407628409
 21
301.8614237231047
 31
0.0
  0
TEXT
  5
15C6
330
1F
100
AcDbEntity
  8
POPIS
100
AcDbText
 10
2896.458783833827
 20
-65.29293769880246
 30
0.0
 40
25.0
  1
05
 41
0.85
  7
SIMPLEX7
100
AcDbText
  0
TEXT
  5
15C7
330
1F
100
AcDbEntity
  8
POPIS
100
AcDbText
 10
2950.802486993568
 20
-65.29293769880246
 30
0.0
 40
25.0
  1
UW profil (ocelový nosník I, U)
 41
0.7
  7
SIMPLEX7
100
AcDbText
  0
TEXT
  5
15C8
330
1F
100
AcDbEntity
  8
POPIS
100
AcDbText
 10
2494.905522218516
 20
196.6709304322437
 30
0.0
 40
25.0
  1
04
 41
0.85
  7
SIMPLEX7
100
AcDbText
  0
LINE
  5
15C9
102
{ACAD_REACTORS
330
50BD
102
}
330
1F
100
AcDbEntity
  8
POPIS
100
AcDbLine
 10
2533.786620819894
 20
204.8720709282968
 30
0.0
 11
2605.270189832481
 21
204.872070928295
 31
0.0
  0
INSERT
  5
15CA
330
1F
100
AcDbEntity
  8
POPIS
100
AcDbBlockReference
  2
E_PUNKT
 10
2605.241121501607
 20
204.8996813039218
 30
0.0
 50
270.0
  0
LINE
  5
15CB
330
1F
100
AcDbEntity
  8
STAVBA_OBRYS
100
AcDbLine
 10
2651.724391266881
 20
595.0328256701904
 30
0.0
 11
2651.730126322174
 21
577.0328256701905
 31
0.0
  0
LINE
  5
15CC
330
1F
100
AcDbEntity
  8
STAVBA_OBRYS
100
AcDbLine
 10
2551.724396342629
 20
595.000964253516
 30
0.0
 11
2551.730131397922
 21
577.000964253516
 31
0.0
  0
LINE
  5
15CD
330
1F
100
AcDbEntity
  8
STAVBA_OBRYS
100
AcDbLine
 10
2751.724386191134
 20
595.0646870868649
 30
0.0
 11
2751.730121246426
 21
577.064687086865
 31
0.0
  0
LWPOLYLINE
  5
15CE
330
1F
100
AcDbEntity
  8
STAVBA_OBRYS
100
AcDbPolyline
 90
        6
 70
     0
 43
0.0
 10
2617.758648471331
 20
577.0328256701902
 42
0.0132290984651571
 10
2615.137999607788
 20
579.3377186487239
 42
0.0157521173632038
 10
2611.251373803344
 20
582.3755139117317
 42
0.0073640874174249
 10
2605.690994575761
 20
586.3215956226156
 42
0.0194185739168057
 10
2603.504542592149
 20
587.7034784217528
 42
0.0567960585128809
 10
2596.209393200865
 20
590.8857154682034
  0
LWPOLYLINE
  5
15CF
330
1F
100
AcDbEntity
  8
STAVBA_OBRYS
100
AcDbPolyline
 90
        2
 70
     0
 43
0.0
 10
2625.525508465937
 20
577.0328256701912
 10
2634.166256872733
 20
585.6885944739931
  0
LWPOLYLINE
  5
15D0
330
1F
100
AcDbEntity
  8
STAVBA_OBRYS
100
AcDbPolyline
 90
        4
 70
     0
 43
0.0
 10
2631.042331958258
 20
577.0328256701902
 42
0.0269616495147096
 10
2628.370384239013
 20
581.3266588709918
 42
0.0258674098621065
 10
2624.491173862257
 20
586.3015949654961
 42
0.079372571536355
 10
2617.030271397889
 20
595.0328256701903
  0
LWPOLYLINE
  5
15D1
330
1F
100
AcDbEntity
  8
STAVBA_OBRYS
100
AcDbPolyline
 90
        4
 70
     0
 43
0.0
 10
2642.341208063157
 20
577.0328256701902
 42
0.0061395084242039
 10
2640.893782280189
 20
581.6238804983656
 42
0.0582629403736403
 10
2638.902382438493
 20
585.9196815370848
 42
0.0424769481457602
 10
2632.182500396593
 20
595.0328256701903
  0
LWPOLYLINE
  5
15D2
330
1F
100
AcDbEntity
  8
STAVBA_OBRYS
100
AcDbPolyline
 90
        2
 70
     0
 43
0.0
 10
2551.728277992759
 20
582.8180473096324
 42
-0.0558582670487531
 10
2560.209072756061
 20
595.0328256701903
  0
LWPOLYLINE
  5
15D3
330
1F
100
AcDbEntity
  8
STAVBA_OBRYS
100
AcDbPolyline
 90
        4
 70
     0
 43
0.0
 10
2561.384554756594
 20
577.0328256701902
 42
-0.0256269988680247
 10
2563.909569404914
 20
581.1235928704916
 42
-0.0258674098621065
 10
2567.757358774288
 20
586.1228707443912
 42
-0.0807730785506472
 10
2575.316923149676
 20
595.0328256701903
  0
LWPOLYLINE
  5
15D4
330
1F
100
AcDbEntity
  8
STAVBA_OBRYS
100
AcDbPolyline
 90
        2
 70
     0
 43
0.0
 10
2566.245605412816
 20
577.0328256701912
 10
2557.045365815826
 20
584.2697940621254
  0
LWPOLYLINE
  5
15D5
330
1F
100
AcDbEntity
  8
STAVBA_OBRYS
100
AcDbPolyline
 90
        6
 70
     0
 43
0.0
 10
2574.693497436783
 20
577.0328256701902
 42
-0.0124742646996712
 10
2577.15422249449
 20
579.2180612456629
 42
-0.0157521173632038
 10
2581.021631878007
 20
582.2802834557603
 42
-0.0073640874174249
 10
2586.557038910043
 20
586.2613193778805
 42
-0.0194185739168057
 10
2588.734741103693
 20
587.6569502398767
 42
-0.0567960585128809
 10
2596.009696384066
 20
590.8850863785153
  0
POLYLINE
  5
15D6
330
1F
100
AcDbEntity
  8
STAVBA_OBRYS
100
AcDb2dPolyline
 66
     1
 10
0.0
 20
0.0
 30
0.0
  0
VERTEX
  5
15D7
330
15D6
100
AcDbEntity
  8
STAVBA_OBRYS
100
AcDbVertex
100
AcDb2dVertex
 10
2602.058128470173
 20
577.0328256701905
 30
0.0
 42
0.0141362754529377
  0
VERTEX
  5
15D8
330
15D6
100
AcDbEntity
  8
STAVBA_OBRYS
100
AcDbVertex
100
AcDb2dVertex
 10
2599.460506916821
 20
578.4684612219479
 30
0.0
 42
0.056967459841729
  0
VERTEX
  5
15D9
330
15D6
100
AcDbEntity
  8
STAVBA_OBRYS
100
AcDbVertex
100
AcDb2dVertex
 10
2596.891370179942
 20
579.443744224187
 30
0.0
 42
0.0373408083348504
  0
VERTEX
  5
15DA
330
15D6
100
AcDbEntity
  8
STAVBA_OBRYS
100
AcDbVertex
100
AcDb2dVertex
 10
2596.624544929374
 20
579.4907428733276
 30
0.0
 42
0.0052305969362967
  0
VERTEX
  5
15DB
330
15D6
100
AcDbEntity
  8
STAVBA_OBRYS
100
AcDbVertex
100
AcDb2dVertex
 10
2596.209393200865
 20
579.5278912336134
 30
0.0
  0
SEQEND
  5
15DC
330
15D6
100
AcDbEntity
  8
STAVBA_OBRYS
  0
POLYLINE
  5
15DD
330
1F
100
AcDbEntity
  8
STAVBA_OBRYS
100
AcDb2dPolyline
 66
     1
 10
0.0
 20
0.0
 30
0.0
  0
VERTEX
  5
15DE
330
15DD
100
AcDbEntity
  8
STAVBA_OBRYS
100
AcDbVertex
100
AcDb2dVertex
 10
2590.310593405218
 20
577.0328256701905
 30
0.0
 42
-0.0137909154721682
  0
VERTEX
  5
15DF
330
15DD
100
AcDbEntity
  8
STAVBA_OBRYS
100
AcDbVertex
100
AcDb2dVertex
 10
2592.836880681185
 20
578.4475953161727
 30
0.0
 42
-0.056967459841729
  0
VERTEX
  5
15E0
330
15DD
100
AcDbEntity
  8
STAVBA_OBRYS
100
AcDbVertex
100
AcDb2dVertex
 10
2595.399821768107
 20
579.4390455127086
 30
0.0
 42
-0.0373408083348504
  0
VERTEX
  5
15E1
330
15DD
100
AcDbEntity
  8
STAVBA_OBRYS
100
AcDbVertex
100
AcDb2dVertex
 10
2595.66634561323
 20
579.4877243309265
 30
0.0
 42
-0.0052305969362967
  0
VERTEX
  5
15E2
330
15DD
100
AcDbEntity
  8
STAVBA_OBRYS
100
AcDbVertex
100
AcDb2dVertex
 10
2596.081255052984
 20
579.527487569755
 30
0.0
  0
SEQEND
  5
15E3
330
15DD
100
AcDbEntity
  8
STAVBA_OBRYS
  0
POLYLINE
  5
15E4
330
1F
100
AcDbEntity
  8
STAVBA_OBRYS
100
AcDb2dPolyline
 66
     1
 10
0.0
 20
0.0
 30
0.0
  0
VERTEX
  5
15E5
330
15E4
100
AcDbEntity
  8
STAVBA_OBRYS
100
AcDbVertex
100
AcDb2dVertex
 10
2790.310593405222
 20
577.064687086865
 30
0.0
 42
-0.0137909154721682
  0
VERTEX
  5
15E6
330
15E4
100
AcDbEntity
  8
STAVBA_OBRYS
100
AcDbVertex
100
AcDb2dVertex
 10
2792.836880681188
 20
578.4794567328481
 30
0.0
 42
-0.056967459841729
  0
VERTEX
  5
15E7
330
15E4
100
AcDbEntity
  8
STAVBA_OBRYS
100
AcDbVertex
100
AcDb2dVertex
 10
2795.399821768111
 20
579.4709069293831
 30
0.0
 42
-0.0373408083348504
  0
VERTEX
  5
15E8
330
15E4
100
AcDbEntity
  8
STAVBA_OBRYS
100
AcDbVertex
100
AcDb2dVertex
 10
2795.666345613233
 20
579.5195857476009
 30
0.0
 42
-0.0052305969362967
  0
VERTEX
  5
15E9
330
15E4
100
AcDbEntity
  8
STAVBA_OBRYS
100
AcDbVertex
100
AcDb2dVertex
 10
2796.081255052988
 20
579.5593489864295
 30
0.0
  0
SEQEND
  5
15EA
330
15E4
100
AcDbEntity
  8
STAVBA_OBRYS
  0
POLYLINE
  5
15EB
330
1F
100
AcDbEntity
  8
STAVBA_OBRYS
100
AcDb2dPolyline
 66
     1
 10
0.0
 20
0.0
 30
0.0
  0
VERTEX
  5
15EC
330
15EB
100
AcDbEntity
  8
STAVBA_OBRYS
100
AcDbVertex
100
AcDb2dVertex
 10
2802.058128470176
 20
577.064687086865
 30
0.0
 42
0.0141362754529377
  0
VERTEX
  5
15ED
330
15EB
100
AcDbEntity
  8
STAVBA_OBRYS
100
AcDbVertex
100
AcDb2dVertex
 10
2799.460506916824
 20
578.5003226386216
 30
0.0
 42
0.056967459841729
  0
VERTEX
  5
15EE
330
15EB
100
AcDbEntity
  8
STAVBA_OBRYS
100
AcDbVertex
100
AcDb2dVertex
 10
2796.891370179946
 20
579.4756056408614
 30
0.0
 42
0.0373408083348504
  0
VERTEX
  5
15EF
330
15EB
100
AcDbEntity
  8
STAVBA_OBRYS
100
AcDbVertex
100
AcDb2dVertex
 10
2796.624544929378
 20
579.522604290003
 30
0.0
 42
0.0052305969362967
  0
VERTEX
  5
15F0
330
15EB
100
AcDbEntity
  8
STAVBA_OBRYS
100
AcDbVertex
100
AcDb2dVertex
 10
2796.209393200868
 20
579.5597526502879
 30
0.0
  0
SEQEND
  5
15F1
330
15EB
100
AcDbEntity
  8
STAVBA_OBRYS
  0
LWPOLYLINE
  5
15F2
330
1F
100
AcDbEntity
  8
STAVBA_OBRYS
100
AcDbPolyline
 90
        6
 70
     0
 43
0.0
 10
2774.693497436786
 20
577.0646870868647
 42
-0.0124742646996712
 10
2777.154222494493
 20
579.2499226623365
 42
-0.0157521173632038
 10
2781.021631878011
 20
582.3121448724357
 42
-0.0073640874174249
 10
2786.557038910046
 20
586.2931807945549
 42
-0.0194185739168057
 10
2788.734741103697
 20
587.6888116565512
 42
-0.0567960585128809
 10
2796.00969638407
 20
590.9169477951897
  0
LWPOLYLINE
  5
15F3
330
1F
100
AcDbEntity
  8
STAVBA_OBRYS
100
AcDbPolyline
 90
        2
 70
     0
 43
0.0
 10
2766.245605412819
 20
577.0646870868656
 10
2757.045365815829
 20
584.3016554788007
  0
LWPOLYLINE
  5
15F4
330
1F
100
AcDbEntity
  8
STAVBA_OBRYS
100
AcDbPolyline
 90
        4
 70
     0
 43
0.0
 10
2761.384554756598
 20
577.0646870868647
 42
-0.0256269988680247
 10
2763.909569404917
 20
581.155454287166
 42
-0.0258674098621065
 10
2767.757358774292
 20
586.1547321610657
 42
-0.0807730785506472
 10
2775.316923149679
 20
595.0646870868647
  0
LWPOLYLINE
  5
15F5
330
1F
100
AcDbEntity
  8
STAVBA_OBRYS
100
AcDbPolyline
 90
        2
 70
     0
 43
0.0
 10
2751.728277992762
 20
582.849908726306
 42
-0.0558582670487531
 10
2760.209072756064
 20
595.0646870868657
  0
LWPOLYLINE
  5
15F6
330
1F
100
AcDbEntity
  8
STAVBA_OBRYS
100
AcDbPolyline
 90
        3
 70
     0
 43
0.0
 10
2827.177964175687
 20
583.0036127286873
 42
0.0175375526296756
 10
2824.491173862261
 20
586.3334563821706
 42
0.079372571536355
 10
2817.030271397893
 20
595.0646870868638
  0
LWPOLYLINE
  5
15F8
330
1F
100
AcDbEntity
  8
STAVBA_OBRYS
100
AcDbPolyline
 90
        6
 70
     0
 43
0.0
 10
2817.758648471335
 20
577.0646870868647
 42
0.0132290984651571
 10
2815.137999607792
 20
579.3695800653984
 42
0.0157521173632038
 10
2811.251373803348
 20
582.4073753284062
 42
0.0073640874174249
 10
2805.690994575765
 20
586.3534570392892
 42
0.0194185739168057
 10
2803.504542592152
 20
587.7353398384273
 42
0.0567960585128809
 10
2796.209393200868
 20
590.9175768848779
  0
LWPOLYLINE
  5
15F9
330
1F
100
AcDbEntity
  8
STAVBA_OBRYS
100
AcDbPolyline
 90
        6
 70
     0
 43
0.0
 10
2717.752905086021
 20
595.0749009164208
 42
-0.0132290984651571
 10
2715.133725497584
 20
592.7683384542267
 42
-0.0157521173632038
 10
2711.249036251356
 20
589.7280671400237
 42
-0.0073640874174249
 10
2705.691172707644
 20
585.7784429993041
 42
-0.0194185739168057
 10
2703.50560174277
 20
584.395167211647
 42
-0.0567960585128809
 10
2696.212481644128
 20
581.2082821356323
  0
LWPOLYLINE
  5
15FA
330
1F
100
AcDbEntity
  8
STAVBA_OBRYS
100
AcDbPolyline
 90
        2
 70
     0
 43
0.0
 10
2725.519763503718
 20
595.0798501794186
 10
2734.166025857033
 20
586.4295892624247
  0
LWPOLYLINE
  5
15FB
330
1F
100
AcDbEntity
  8
STAVBA_OBRYS
100
AcDbPolyline
 90
        4
 70
     0
 43
0.0
 10
2731.036585875961
 20
595.0833656554821
 42
-0.0269616495147096
 10
2728.367374851237
 20
590.7878306857508
 42
-0.0258674098621065
 10
2724.491335432154
 20
585.8104236586694
 42
-0.079372571536355
 10
2717.035998269879
 20
577.0744404284758
  0
LWPOLYLINE
  5
15FC
330
1F
100
AcDbEntity
  8
STAVBA_OBRYS
100
AcDbPolyline
 90
        4
 70
     0
 43
0.0
 10
2742.335459686848
 20
595.090565619106
 42
-0.0061395084242039
 10
2740.890959747819
 20
590.4985893823793
 42
-0.0582629403736403
 10
2738.902297716435
 20
586.2015202394993
 42
-0.0424769481457602
 10
2732.188224192228
 20
577.0840958576188
  0
LWPOLYLINE
  5
15FD
330
1F
100
AcDbEntity
  8
STAVBA_OBRYS
100
AcDbPolyline
 90
        2
 70
     0
 43
0.0
 10
2651.726234520545
 20
589.247604030749
 42
0.0558582670487531
 10
2660.214811164456
 20
577.0382323525953
  0
LWPOLYLINE
  5
15FE
330
1F
100
AcDbEntity
  8
STAVBA_OBRYS
100
AcDbPolyline
 90
        4
 70
     0
 43
0.0
 10
2661.378822816914
 20
595.038977748454
 42
0.0256269988680247
 10
2663.906443705211
 20
590.9498203894961
 42
0.0258674098621065
 10
2667.757417974717
 20
585.9529954508823
 42
0.0807730785506472
 10
2675.322658490728
 20
577.0478595024358
  0
LWPOLYLINE
  5
15FF
330
1F
100
AcDbEntity
  8
STAVBA_OBRYS
100
AcDbPolyline
 90
        2
 70
     0
 43
0.0
 10
2666.239872486196
 20
595.0420753475043
 10
2657.044246358204
 20
587.7992457718435
  0
LWPOLYLINE
  5
1600
330
1F
100
AcDbEntity
  8
STAVBA_OBRYS
100
AcDbPolyline
 90
        6
 70
     0
 43
0.0
 10
2674.687762794987
 20
595.0474585833887
 42
0.0124742646996712
 10
2677.149879847045
 20
592.8637914952321
 42
0.0157521173632038
 10
2681.019239780024
 20
589.8040343295686
 42
0.0073640874174249
 10
2686.557182516961
 20
585.8265265337374
 42
0.0194185739168057
 10
2688.735773603955
 20
584.432283648566
 42
0.0567960585128809
 10
2696.012784467002
 20
581.2087839727298
  0
POLYLINE
  5
1601
330
1F
100
AcDbEntity
  8
STAVBA_OBRYS
100
AcDb2dPolyline
 66
     1
 10
0.0
 20
0.0
 30
0.0
  0
VERTEX
  5
1602
330
1601
100
AcDbEntity
  8
STAVBA_OBRYS
100
AcDbVertex
100
AcDb2dVertex
 10
2702.052388272536
 20
595.0648961007336
 30
0.0
 42
-0.0141362754529377
  0
VERTEX
  5
1603
330
1601
100
AcDbEntity
  8
STAVBA_OBRYS
100
AcDbVertex
100
AcDb2dVertex
 10
2699.455682074185
 20
593.6276055624839
 30
0.0
 42
-0.056967459841729
  0
VERTEX
  5
1604
330
1601
100
AcDbEntity
  8
STAVBA_OBRYS
100
AcDbVertex
100
AcDb2dVertex
 10
2696.887167336848
 20
592.6506856316182
 30
0.0
 42
-0.0373408083348504
  0
VERTEX
  5
1605
330
1601
100
AcDbEntity
  8
STAVBA_OBRYS
100
AcDbVertex
100
AcDb2dVertex
 10
2696.62037208932
 20
592.6035169634178
 30
0.0
 42
-0.0052305969362967
  0
VERTEX
  5
1606
330
1601
100
AcDbEntity
  8
STAVBA_OBRYS
100
AcDbVertex
100
AcDb2dVertex
 10
2696.205244117085
 20
592.5661040642444
 30
0.0
  0
SEQEND
  5
1607
330
1601
100
AcDbEntity
  8
STAVBA_OBRYS
  0
POLYLINE
  5
1608
330
1F
100
AcDbEntity
  8
STAVBA_OBRYS
100
AcDb2dPolyline
 66
     1
 10
0.0
 20
0.0
 30
0.0
  0
VERTEX
  5
1609
330
1608
100
AcDbEntity
  8
STAVBA_OBRYS
100
AcDbVertex
100
AcDb2dVertex
 10
2690.304855592683
 20
595.0574102389209
 30
0.0
 42
0.0137909154721682
  0
VERTEX
  5
160A
330
1608
100
AcDbEntity
  8
STAVBA_OBRYS
100
AcDbVertex
100
AcDb2dVertex
 10
2692.832043886996
 20
593.6442507019282
 30
0.0
 42
0.056967459841729
  0
VERTEX
  5
160B
330
1608
100
AcDbEntity
  8
STAVBA_OBRYS
100
AcDbVertex
100
AcDb2dVertex
 10
2695.395616233691
 20
592.6544338852818
 30
0.0
 42
0.0373408083348504
  0
VERTEX
  5
160C
330
1608
100
AcDbEntity
  8
STAVBA_OBRYS
100
AcDbVertex
100
AcDb2dVertex
 10
2695.662171044223
 20
592.6059249134842
 30
0.0
 42
0.0052305969362967
  0
VERTEX
  5
160D
330
1608
100
AcDbEntity
  8
STAVBA_OBRYS
100
AcDbVertex
100
AcDb2dVertex
 10
2696.077105737997
 20
592.5664260747662
 30
0.0
  0
SEQEND
  5
160E
330
1608
100
AcDbEntity
  8
STAVBA_OBRYS
  0
POLYLINE
  5
160F
330
1F
100
AcDbEntity
  8
STAVBA_OBRYS
100
AcDb2dPolyline
 66
     1
 10
0.0
 20
0.0
 30
0.0
  0
VERTEX
  5
1610
330
160F
100
AcDbEntity
  8
STAVBA_OBRYS
100
AcDbVertex
100
AcDb2dVertex
 10
2490.304865744179
 20
594.993687405572
 30
0.0
 42
0.0137909154721682
  0
VERTEX
  5
1611
330
160F
100
AcDbEntity
  8
STAVBA_OBRYS
100
AcDbVertex
100
AcDb2dVertex
 10
2492.832054038492
 20
593.5805278685793
 30
0.0
 42
0.056967459841729
  0
VERTEX
  5
1612
330
160F
100
AcDbEntity
  8
STAVBA_OBRYS
100
AcDbVertex
100
AcDb2dVertex
 10
2495.395626385187
 20
592.5907110519329
 30
0.0
 42
0.0373408083348504
  0
VERTEX
  5
1613
330
160F
100
AcDbEntity
  8
STAVBA_OBRYS
100
AcDbVertex
100
AcDb2dVertex
 10
2495.662181195719
 20
592.5422020801351
 30
0.0
 42
0.0052305969362967
  0
VERTEX
  5
1614
330
160F
100
AcDbEntity
  8
STAVBA_OBRYS
100
AcDbVertex
100
AcDb2dVertex
 10
2496.077115889493
 20
592.5027032414172
 30
0.0
  0
SEQEND
  5
1615
330
160F
100
AcDbEntity
  8
STAVBA_OBRYS
  0
POLYLINE
  5
1616
330
1F
100
AcDbEntity
  8
STAVBA_OBRYS
100
AcDb2dPolyline
 66
     1
 10
0.0
 20
0.0
 30
0.0
  0
VERTEX
  5
1617
330
1616
100
AcDbEntity
  8
STAVBA_OBRYS
100
AcDbVertex
100
AcDb2dVertex
 10
2502.052398424031
 20
595.0011732673847
 30
0.0
 42
-0.0141362754529377
  0
VERTEX
  5
1618
330
1616
100
AcDbEntity
  8
STAVBA_OBRYS
100
AcDbVertex
100
AcDb2dVertex
 10
2499.455692225681
 20
593.563882729135
 30
0.0
 42
-0.056967459841729
  0
VERTEX
  5
1619
330
1616
100
AcDbEntity
  8
STAVBA_OBRYS
100
AcDbVertex
100
AcDb2dVertex
 10
2496.887177488344
 20
592.5869627982693
 30
0.0
 42
-0.0373408083348504
  0
VERTEX
  5
161A
330
1616
100
AcDbEntity
  8
STAVBA_OBRYS
100
AcDbVertex
100
AcDb2dVertex
 10
2496.620382240817
 20
592.5397941300689
 30
0.0
 42
-0.0052305969362967
  0
VERTEX
  5
161B
330
1616
100
AcDbEntity
  8
STAVBA_OBRYS
100
AcDbVertex
100
AcDb2dVertex
 10
2496.205254268581
 20
592.5023812308954
 30
0.0
  0
SEQEND
  5
161C
330
1616
100
AcDbEntity
  8
STAVBA_OBRYS
  0
LWPOLYLINE
  5
161D
330
1F
100
AcDbEntity
  8
STAVBA_OBRYS
100
AcDbPolyline
 90
        6
 70
     0
 43
0.0
 10
2474.687772946483
 20
594.9837357500398
 42
0.0124742646996712
 10
2477.149889998541
 20
592.8000686618831
 42
0.0157521173632038
 10
2481.01924993152
 20
589.7403114962196
 42
0.0073640874174249
 10
2486.557192668457
 20
585.7628037003885
 42
0.0194185739168057
 10
2488.735783755451
 20
584.368560815217
 42
0.0567960585128809
 10
2496.012794618498
 20
581.1450611393809
  0
LWPOLYLINE
  5
161E
330
1F
100
AcDbEntity
  8
STAVBA_OBRYS
100
AcDbPolyline
 90
        4
 70
     0
 43
0.0
 10
2542.335469838344
 20
595.026842785757
 42
-0.0061395084242039
 10
2540.890969899315
 20
590.4348665490304
 42
-0.0582629403736403
 10
2538.902307867931
 20
586.1377974061504
 42
-0.0424769481457602
 10
2532.188234343724
 20
577.0203730242699
  0
LWPOLYLINE
  5
161F
330
1F
100
AcDbEntity
  8
STAVBA_OBRYS
100
AcDbPolyline
 90
        4
 70
     0
 43
0.0
 10
2531.036596027457
 20
595.0196428221331
 42
-0.0269616495147096
 10
2528.367385002733
 20
590.7241078524018
 42
-0.0258674098621065
 10
2524.49134558365
 20
585.7467008253204
 42
-0.079372571536355
 10
2517.036008421375
 20
577.0107175951268
  0
LWPOLYLINE
  5
1620
330
1F
100
AcDbEntity
  8
STAVBA_OBRYS
100
AcDbPolyline
 90
        2
 70
     0
 43
0.0
 10
2525.519773655214
 20
595.0161273460696
 10
2534.16603600853
 20
586.3658664290758
  0
LWPOLYLINE
  5
1621
330
1F
100
AcDbEntity
  8
STAVBA_OBRYS
100
AcDbPolyline
 90
        6
 70
     0
 43
0.0
 10
2517.752915237517
 20
595.0111780830718
 42
-0.0132290984651571
 10
2515.13373564908
 20
592.7046156208778
 42
-0.0157521173632038
 10
2511.249046402852
 20
589.6643443066748
 42
-0.0073640874174249
 10
2505.69118285914
 20
585.7147201659552
 42
-0.0194185739168057
 10
2503.505611894266
 20
584.3314443782981
 42
-0.0567960585128809
 10
2496.212491795624
 20
581.1445593022833
  0
HATCH
  5
1622
330
1F
100
AcDbEntity
  8
STAVBA_OBRYS
100
AcDbHatch
 10
0.0
 20
0.0
 30
0.0
210
0.0
220
0.0
230
1.0
  2
AR-CONC
 70
     0
 71
     0
 91
        1
 92
        1
 93
        4
 72
     1
 10
2827.189434286268
 20
537.0328256701903
 11
2476.270818358079
 21
537.0328256701903
 72
     1
 10
2476.270818358079
 20
537.0328256701903
 11
2476.270818358079
 21
577.0328256701902
 72
     1
 10
2476.270818358079
 20
577.0328256701902
 11
2827.189434286268
 21
577.0328256701902
 72
     1
 10
2827.189434286268
 20
577.0328256701902
 11
2827.189434286268
 21
537.0328256701903
 97
        0
 75
     0
 76
     1
 52
0.0
 41
0.25
 77
     0
 78
    13
 53
50.0
 43
-20859.73953296007
 44
-1945.03918679387
 45
45.546167249001
 46
-3.984771384725771
 79
     2
 49
4.7625
 49
-52.3875
 53
355.0
 43
-20859.73953296007
 44
-1945.03918679387
 45
-8.810706493916747
 46
47.76416072054499
 79
     2
 49
3.81
 49
-41.90999999999999
 53
100.451
 43
-20855.94403296007
 44
-1945.37124929387
 45
36.73562541648981
 46
43.77917195507296
 79
     2
 49
4.0475
 49
-44.5225
 53
46.1842
 43
-20859.73953296007
 44
-1932.339186793871
 45
67.76976022303248
 46
-10.51058198318178
 79
     2
 49
7.143749999999999
 49
-78.58125
 53
96.63559999999998
 43
-20854.09205796008
 44
-1933.215061793871
 45
59.35105861655928
 46
61.8563889725123
 79
     2
 49
6.071249999999993
 49
-66.7837499999999
 53
351.184
 43
-20859.73953296007
 44
-1932.339186793871
 45
59.35115145348348
 46
61.85627946514942
 79
     2
 49
5.714999999999999
 49
-62.865
 53
21.0
 43
-20853.38953296008
 44
-1935.51418679387
 45
37.90371995884582
 46
-25.56637962919062
 79
     2
 49
4.7625
 49
-52.3875
 53
326.0
 43
-20853.38953296008
 44
-1935.51418679387
 45
15.45050708691176
 46
46.04699153057981
 79
     2
 49
3.81
 49
-41.90999999999999
 53
71.45140000000001
 43
-20850.23090796007
 44
-1937.64471179387
 45
53.35412269253112
 46
20.48071442901436
 79
     2
 49
4.0475
 49
-44.5225
 53
37.5
 43
-20859.73953296007
 44
-1945.03918679387
 45
0.7721508126479542
 46
21.13875971828827
 79
     6
 49
0.0
 49
-41.402
 49
0.0
 49
-42.545
 49
0.0
 49
-42.06875
 53
7.499999999999999
 43
-20859.73953296007
 44
-1945.03918679387
 45
16.70491562757643
 46
25.04514370452987
 79
     6
 49
0.0
 49
-24.25699999999999
 49
0.0
 49
-40.4495
 49
0.0
 49
-16.03375
 53
327.4999999999999
 43
-20873.90003296007
 44
-1945.03918679387
 45
33.89764879171784
 46
-1.432185998168366
 79
     6
 49
0.0
 49
-15.875
 49
0.0
 49
-49.53
 49
0.0
 49
-65.7225
 53
317.5
 43
-20880.25003296007
 44
-1945.03918679387
 45
37.03229534650451
 46
6.356622758333253
 79
     6
 49
0.0
 49
-20.6375
 49
0.0
 49
-32.893
 49
0.0
 49
-46.6725
 98
        1
 10
-20859.73953296007
 20
-1945.03918679387
  0
LINE
  5
1623
330
1F
100
AcDbEntity
  8
NOSNÉ_KONSTRUKCE
100
AcDbLine
 10
2611.784149111695
 20
405.4061477659777
 30
0.0
 11
2611.784149111688
 21
120.1100912838805
 31
0.0
  0
LINE
  5
1624
330
1F
100
AcDbEntity
  8
NOSNÉ_KONSTRUKCE
  6
DASHED
100
AcDbLine
 10
2620.205923815941
 20
405.4061477659777
 30
0.0
 11
2620.205923815935
 21
118.558967921723
 31
0.0
  0
LINE
  5
1625
330
1F
100
AcDbEntity
  8
NOSNÉ_KONSTRUKCE
  6
DASHED
100
AcDbLine
 10
2654.856941060172
 20
405.4061477659777
 30
0.0
 11
2654.856941060192
 21
-68.31135968783496
 31
0.0
  0
LINE
  5
1626
330
1F
100
AcDbEntity
  8
NOSNÉ_KONSTRUKCE
100
AcDbLine
 10
2662.702564019256
 20
405.4061477659777
 30
0.0
 11
2662.702564019268
 21
110.7319322021196
 31
0.0
  0
LINE
  5
1A4E
330
1F
100
AcDbEntity
  8
SPOJOVACÍ
  6
CONTINUOUS
100
AcDbLine
 10
2602.743547625173
 20
186.4537913983219
 30
0.0
 11
2605.271765438043
 21
186.4537913983219
 31
0.0
  0
LINE
  5
1A4F
330
1F
100
AcDbEntity
  8
SPOJOVACÍ
  6
CONTINUOUS
100
AcDbLine
 10
2601.837556399947
 20
183.7544212355858
 30
0.0
 11
2604.358332806656
 21
183.7544212355858
 31
0.0
  0
LINE
  5
1A50
330
1F
100
AcDbEntity
  8
SPOJOVACÍ
  6
CONTINUOUS
100
AcDbLine
 10
2601.024582754446
 20
183.0819041371576
 30
0.0
 11
2602.383569592286
 21
187.1263084967502
 31
0.0
  0
LINE
  5
1A51
330
1F
100
AcDbEntity
  8
SPOJOVACÍ
  6
CONTINUOUS
100
AcDbLine
 10
2601.6208254396
 20
183.0819041371576
 30
0.0
 11
2602.979812277164
 21
187.1263084967502
 31
0.0
  0
LINE
  5
1A52
330
1F
100
AcDbEntity
  8
SPOJOVACÍ
  6
CONTINUOUS
100
AcDbLine
 10
2602.602160904313
 20
187.5039598676955
 30
0.0
 11
2602.383569592286
 21
187.1263084967502
 31
0.0
  0
LINE
  5
1A53
330
1F
100
AcDbEntity
  8
SPOJOVACÍ
  6
CONTINUOUS
100
AcDbLine
 10
2602.602160904313
 20
187.5039598676955
 30
0.0
 11
2602.979812277164
 21
187.1263084967502
 31
0.0
  0
LINE
  5
1A54
330
1F
100
AcDbEntity
  8
SPOJOVACÍ
  6
CONTINUOUS
100
AcDbLine
 10
2601.402234127574
 20
182.7042527618466
 30
0.0
 11
2601.024582754446
 21
183.0819041371576
 31
0.0
  0
LINE
  5
1A55
330
1F
100
AcDbEntity
  8
SPOJOVACÍ
  6
CONTINUOUS
100
AcDbLine
 10
2601.402234127574
 20
182.7042527618466
 30
0.0
 11
2601.6208254396
 21
183.0819041371576
 31
0.0
  0
LINE
  5
1A56
330
1F
100
AcDbEntity
  8
SPOJOVACÍ
  6
CONTINUOUS
100
AcDbLine
 10
2601.402234127574
 20
182.7042527618466
 30
0.0
 11
2602.602160904313
 21
187.5039598676955
 31
0.0
  0
LINE
  5
1A57
102
{ACAD_REACTORS
330
50BD
102
}
330
1F
100
AcDbEntity
  8
SPOJOVACÍ
  6
CONTINUOUS
100
AcDbLine
 10
2597.903842959782
 20
183.0819041371576
 30
0.0
 11
2599.263759973048
 21
187.1263084967502
 31
0.0
  0
LINE
  5
1A58
102
{ACAD_REACTORS
330
50BD
102
}
330
1F
100
AcDbEntity
  8
SPOJOVACÍ
  6
CONTINUOUS
100
AcDbLine
 10
2598.50008564466
 20
183.0819041371576
 30
0.0
 11
2599.860002658202
 21
187.1263084967502
 31
0.0
  0
LINE
  5
1A59
330
1F
100
AcDbEntity
  8
SPOJOVACÍ
  6
CONTINUOUS
100
AcDbLine
 10
2599.482351285074
 20
187.5039598676955
 30
0.0
 11
2599.263759973048
 21
187.1263084967502
 31
0.0
  0
LINE
  5
1A5A
330
1F
100
AcDbEntity
  8
SPOJOVACÍ
  6
CONTINUOUS
100
AcDbLine
 10
2599.482351285074
 20
187.5039598676955
 30
0.0
 11
2599.860002658202
 21
187.1263084967502
 31
0.0
  0
LINE
  5
1A5B
102
{ACAD_REACTORS
330
50BD
102
}
330
1F
100
AcDbEntity
  8
SPOJOVACÍ
  6
CONTINUOUS
100
AcDbLine
 10
2598.282424508612
 20
182.7042527618466
 30
0.0
 11
2597.903842959782
 21
183.0819041371576
 31
0.0
  0
LINE
  5
1A5C
330
1F
100
AcDbEntity
  8
SPOJOVACÍ
  6
CONTINUOUS
100
AcDbLine
 10
2598.282424508612
 20
182.7042527618466
 30
0.0
 11
2598.50008564466
 21
183.0819041371576
 31
0.0
  0
LINE
  5
1A5D
330
1F
100
AcDbEntity
  8
SPOJOVACÍ
  6
CONTINUOUS
100
AcDbLine
 10
2598.282424508612
 20
182.7042527618466
 30
0.0
 11
2599.482351285074
 21
187.5039598676955
 31
0.0
  0
LINE
  5
1A5E
330
1F
100
AcDbEntity
  8
SPOJOVACÍ
  6
CONTINUOUS
100
AcDbLine
 10
2599.62838888499
 20
186.4537913983219
 30
0.0
 11
2602.147304940019
 21
186.4537913983219
 31
0.0
  0
LINE
  5
1A5F
102
{ACAD_REACTORS
330
50BD
102
}
330
1F
100
AcDbEntity
  8
SPOJOVACÍ
  6
CONTINUOUS
100
AcDbLine
 10
2598.714956253603
 20
183.7544212355858
 30
0.0
 11
2601.233872308632
 21
183.7544212355858
 31
0.0
  0
LINE
  5
1A60
102
{ACAD_REACTORS
330
50BD
102
}
330
1F
100
AcDbEntity
  8
SPOJOVACÍ
  6
CONTINUOUS
100
AcDbLine
 10
2594.081750614746
 20
183.7544212355858
 30
0.0
 11
2598.119643744427
 21
183.7544212355858
 31
0.0
  0
LINE
  5
1A61
102
{ACAD_REACTORS
330
50BD
102
}
330
1F
100
AcDbEntity
  8
SPOJOVACÍ
  6
CONTINUOUS
100
AcDbLine
 10
2594.081750614746
 20
186.4537913983219
 30
0.0
 11
2599.024704793675
 21
186.4537913983219
 31
0.0
  0
LINE
  5
1A62
102
{ACAD_REACTORS
330
50BD
102
}
330
1F
100
AcDbEntity
  8
SPOJOVACÍ
  6
CONTINUOUS
100
AcDbLine
 10
2588.68208012039
 20
180.0039524261371
 30
0.0
 11
2589.426220756864
 21
181.353637509688
 31
0.0
  0
LINE
  5
1A63
102
{ACAD_REACTORS
330
50BD
102
}
330
1F
100
AcDbEntity
  8
SPOJOVACÍ
  6
CONTINUOUS
100
AcDbLine
 10
2589.426220756864
 20
181.353637509688
 30
0.0
 11
2590.494992746276
 21
182.4642674100466
 31
0.0
  0
LINE
  5
1A64
102
{ACAD_REACTORS
330
50BD
102
}
330
1F
100
AcDbEntity
  8
SPOJOVACÍ
  6
CONTINUOUS
100
AcDbLine
 10
2590.494992746276
 20
182.4642674100466
 30
0.0
 11
2591.813982024574
 21
183.2604978893648
 31
0.0
  0
LINE
  5
1A65
102
{ACAD_REACTORS
330
50BD
102
}
330
1F
100
AcDbEntity
  8
SPOJOVACÍ
  6
CONTINUOUS
100
AcDbLine
 10
2591.813982024574
 20
183.2604978893648
 30
0.0
 11
2593.294821891624
 21
183.6883787536642
 31
0.0
  0
LINE
  5
1A66
102
{ACAD_REACTORS
330
50BD
102
}
330
1F
100
AcDbEntity
  8
SPOJOVACÍ
  6
CONTINUOUS
100
AcDbLine
 10
2593.294821891624
 20
183.6883787536642
 30
0.0
 11
2594.081750614746
 21
183.7544212355858
 31
0.0
  0
LINE
  5
1A67
102
{ACAD_REACTORS
330
50BD
102
}
330
1F
100
AcDbEntity
  8
SPOJOVACÍ
  6
CONTINUOUS
100
AcDbLine
 10
2589.936887268715
 20
188.2518212083375
 30
0.0
 11
2589.018803758273
 21
189.4889550172372
 31
0.0
  0
LINE
  5
1A68
102
{ACAD_REACTORS
330
50BD
102
}
330
1F
100
AcDbEntity
  8
SPOJOVACÍ
  6
CONTINUOUS
100
AcDbLine
 10
2589.018803758273
 20
189.4889550172372
 30
0.0
 11
2588.68208012039
 21
190.204260203405
 31
0.0
  0
LINE
  5
1A69
330
1F
100
AcDbEntity
  8
SPOJOVACÍ
  6
CONTINUOUS
100
AcDbLine
 10
2588.68208012039
 20
180.0039524261371
 30
0.0
 11
2588.68208012039
 21
190.204260203405
 31
0.0
  0
LINE
  5
1A6A
102
{ACAD_REACTORS
330
50BD
102
}
330
1F
100
AcDbEntity
  8
SPOJOVACÍ
  6
CONTINUOUS
100
AcDbLine
 10
2587.482153343659
 20
180.0039524261371
 30
0.0
 11
2588.68208012039
 21
180.0039524261371
 31
0.0
  0
LINE
  5
1A6B
330
1F
100
AcDbEntity
  8
SPOJOVACÍ
  6
CONTINUOUS
100
AcDbLine
 10
2587.482153343659
 20
180.0039524261371
 30
0.0
 11
2587.482153343659
 21
190.204260203405
 31
0.0
  0
LINE
  5
1A6C
102
{ACAD_REACTORS
330
50BD
102
}
330
1F
100
AcDbEntity
  8
SPOJOVACÍ
  6
CONTINUOUS
100
AcDbLine
 10
2587.482153343659
 20
190.204260203405
 30
0.0
 11
2588.68208012039
 21
190.204260203405
 31
0.0
  0
LINE
  5
1A6D
102
{ACAD_REACTORS
330
50BD
102
}
330
1F
100
AcDbEntity
  8
SPOJOVACÍ
  6
CONTINUOUS
100
AcDbLine
 10
2594.081750614746
 20
186.4537913983219
 30
0.0
 11
2592.558122661317
 21
186.6807542892054
 31
0.0
  0
LINE
  5
1A6E
102
{ACAD_REACTORS
330
50BD
102
}
330
1F
100
AcDbEntity
  8
SPOJOVACÍ
  6
CONTINUOUS
100
AcDbLine
 10
2592.558122661317
 20
186.6807542892054
 30
0.0
 11
2591.144255451614
 21
187.293740138353
 31
0.0
  0
LINE
  5
1A6F
102
{ACAD_REACTORS
330
50BD
102
}
330
1F
100
AcDbEntity
  8
SPOJOVACÍ
  6
CONTINUOUS
100
AcDbLine
 10
2591.144255451614
 20
187.293740138353
 30
0.0
 11
2589.936887268715
 21
188.2518212083375
 31
0.0
  0
LINE
  5
1A70
330
1F
100
AcDbEntity
  8
SPOJOVACÍ
  6
CONTINUOUS
100
AcDbLine
 10
2670.243845831937
 20
183.7544212355858
 30
0.0
 11
2667.715628019068
 21
183.7544212355858
 31
0.0
  0
LINE
  5
1A71
330
1F
100
AcDbEntity
  8
SPOJOVACÍ
  6
CONTINUOUS
100
AcDbLine
 10
2669.33041320055
 20
186.4537913983219
 30
0.0
 11
2666.809636793841
 21
186.4537913983219
 31
0.0
  0
LINE
  5
1A72
330
1F
100
AcDbEntity
  8
SPOJOVACÍ
  6
CONTINUOUS
100
AcDbLine
 10
2669.474590448793
 20
187.5039598676955
 30
0.0
 11
2669.096008899964
 21
187.1263084967502
 31
0.0
  0
LINE
  5
1A73
330
1F
100
AcDbEntity
  8
SPOJOVACÍ
  6
CONTINUOUS
100
AcDbLine
 10
2670.455925913229
 20
183.0819041371576
 30
0.0
 11
2669.096008899964
 21
187.1263084967502
 31
0.0
  0
LINE
  5
1A74
330
1F
100
AcDbEntity
  8
SPOJOVACÍ
  6
CONTINUOUS
100
AcDbLine
 10
2610.384011611615
 20
183.0819041371576
 30
0.0
 11
2611.743928625157
 21
187.1263084967502
 31
0.0
  0
LINE
  5
1A75
330
1F
100
AcDbEntity
  8
SPOJOVACÍ
  6
CONTINUOUS
100
AcDbLine
 10
2610.980254296769
 20
183.0819041371576
 30
0.0
 11
2612.340171310312
 21
187.1263084967502
 31
0.0
  0
LINE
  5
1A76
330
1F
100
AcDbEntity
  8
SPOJOVACÍ
  6
CONTINUOUS
100
AcDbLine
 10
2611.962519937184
 20
187.5039598676955
 30
0.0
 11
2611.743928625157
 21
187.1263084967502
 31
0.0
  0
LINE
  5
1A77
330
1F
100
AcDbEntity
  8
SPOJOVACÍ
  6
CONTINUOUS
100
AcDbLine
 10
2611.962519937184
 20
187.5039598676955
 30
0.0
 11
2612.340171310312
 21
187.1263084967502
 31
0.0
  0
LINE
  5
1A78
330
1F
100
AcDbEntity
  8
SPOJOVACÍ
  6
CONTINUOUS
100
AcDbLine
 10
2610.762593160721
 20
182.7042527618466
 30
0.0
 11
2610.384011611615
 21
183.0819041371576
 31
0.0
  0
LINE
  5
1A79
330
1F
100
AcDbEntity
  8
SPOJOVACÍ
  6
CONTINUOUS
100
AcDbLine
 10
2610.762593160721
 20
182.7042527618466
 30
0.0
 11
2610.980254296769
 21
183.0819041371576
 31
0.0
  0
LINE
  5
1A7A
330
1F
100
AcDbEntity
  8
SPOJOVACÍ
  6
CONTINUOUS
100
AcDbLine
 10
2610.762593160721
 20
182.7042527618466
 30
0.0
 11
2611.962519937184
 21
187.5039598676955
 31
0.0
  0
LINE
  5
1A7B
330
1F
100
AcDbEntity
  8
SPOJOVACÍ
  6
CONTINUOUS
100
AcDbLine
 10
2607.264201992653
 20
183.0819041371576
 30
0.0
 11
2608.624119006195
 21
187.1263084967502
 31
0.0
  0
LINE
  5
1A7C
330
1F
100
AcDbEntity
  8
SPOJOVACÍ
  6
CONTINUOUS
100
AcDbLine
 10
2607.8604446778
 20
183.0819041371576
 30
0.0
 11
2609.220361691074
 21
187.1263084967502
 31
0.0
  0
LINE
  5
1A7D
330
1F
100
AcDbEntity
  8
SPOJOVACÍ
  6
CONTINUOUS
100
AcDbLine
 10
2608.841780142244
 20
187.5039598676955
 30
0.0
 11
2608.624119006195
 21
187.1263084967502
 31
0.0
  0
LINE
  5
1A7E
330
1F
100
AcDbEntity
  8
SPOJOVACÍ
  6
CONTINUOUS
100
AcDbLine
 10
2608.841780142244
 20
187.5039598676955
 30
0.0
 11
2609.220361691074
 21
187.1263084967502
 31
0.0
  0
LINE
  5
1A7F
330
1F
100
AcDbEntity
  8
SPOJOVACÍ
  6
CONTINUOUS
100
AcDbLine
 10
2607.641853365781
 20
182.7042527618466
 30
0.0
 11
2607.264201992653
 21
183.0819041371576
 31
0.0
  0
LINE
  5
1A80
330
1F
100
AcDbEntity
  8
SPOJOVACÍ
  6
CONTINUOUS
100
AcDbLine
 10
2607.641853365781
 20
182.7042527618466
 30
0.0
 11
2607.8604446778
 21
183.0819041371576
 31
0.0
  0
LINE
  5
1A81
330
1F
100
AcDbEntity
  8
SPOJOVACÍ
  6
CONTINUOUS
100
AcDbLine
 10
2607.641853365781
 20
182.7042527618466
 30
0.0
 11
2608.841780142244
 21
187.5039598676955
 31
0.0
  0
LINE
  5
1A82
330
1F
100
AcDbEntity
  8
SPOJOVACÍ
  6
CONTINUOUS
100
AcDbLine
 10
2604.144392373684
 20
183.0819041371576
 30
0.0
 11
2605.504309386957
 21
187.1263084967502
 31
0.0
  0
LINE
  5
1A83
330
1F
100
AcDbEntity
  8
SPOJOVACÍ
  6
CONTINUOUS
100
AcDbLine
 10
2604.740635058838
 20
183.0819041371576
 30
0.0
 11
2606.100552072105
 21
187.1263084967502
 31
0.0
  0
LINE
  5
1A84
330
1F
100
AcDbEntity
  8
SPOJOVACÍ
  6
CONTINUOUS
100
AcDbLine
 10
2605.721970523275
 20
187.5039598676955
 30
0.0
 11
2605.504309386957
 21
187.1263084967502
 31
0.0
  0
LINE
  5
1A85
330
1F
100
AcDbEntity
  8
SPOJOVACÍ
  6
CONTINUOUS
100
AcDbLine
 10
2605.721970523275
 20
187.5039598676955
 30
0.0
 11
2606.100552072105
 21
187.1263084967502
 31
0.0
  0
LINE
  5
1A86
330
1F
100
AcDbEntity
  8
SPOJOVACÍ
  6
CONTINUOUS
100
AcDbLine
 10
2604.522043746812
 20
182.7042527618466
 30
0.0
 11
2604.144392373684
 21
183.0819041371576
 31
0.0
  0
LINE
  5
1A87
330
1F
100
AcDbEntity
  8
SPOJOVACÍ
  6
CONTINUOUS
100
AcDbLine
 10
2604.522043746812
 20
182.7042527618466
 30
0.0
 11
2604.740635058838
 21
183.0819041371576
 31
0.0
  0
LINE
  5
1A88
330
1F
100
AcDbEntity
  8
SPOJOVACÍ
  6
CONTINUOUS
100
AcDbLine
 10
2604.522043746812
 20
182.7042527618466
 30
0.0
 11
2605.721970523275
 21
187.5039598676955
 31
0.0
  0
LINE
  5
1A89
330
1F
100
AcDbEntity
  8
SPOJOVACÍ
  6
CONTINUOUS
100
AcDbLine
 10
2619.868084025652
 20
184.0874241728449
 30
0.0
 11
2620.178762741427
 21
186.2417113143017
 31
0.0
  0
LINE
  5
1A8A
330
1F
100
AcDbEntity
  8
SPOJOVACÍ
  6
CONTINUOUS
100
AcDbLine
 10
2619.490432652524
 20
184.4650755437903
 30
0.0
 11
2619.961101605109
 21
185.8640599433563
 31
0.0
  0
LINE
  5
1A8B
330
1F
100
AcDbEntity
  8
SPOJOVACÍ
  6
CONTINUOUS
100
AcDbLine
 10
2620.086675337672
 20
184.4650755437903
 30
0.0
 11
2620.557344290256
 21
185.8640599433563
 31
0.0
  0
LINE
  5
1A8C
330
1F
100
AcDbEntity
  8
SPOJOVACÍ
  6
CONTINUOUS
100
AcDbLine
 10
2620.178762741427
 20
186.2417113143017
 30
0.0
 11
2619.961101605109
 21
185.8640599433563
 31
0.0
  0
LINE
  5
1A8D
330
1F
100
AcDbEntity
  8
SPOJOVACÍ
  6
CONTINUOUS
100
AcDbLine
 10
2620.178762741427
 20
186.2417113143017
 30
0.0
 11
2620.557344290256
 21
185.8640599433563
 31
0.0
  0
LINE
  5
1A8E
330
1F
100
AcDbEntity
  8
SPOJOVACÍ
  6
CONTINUOUS
100
AcDbLine
 10
2619.868084025652
 20
184.0874241728449
 30
0.0
 11
2619.490432652524
 21
184.4650755437903
 31
0.0
  0
LINE
  5
1A8F
330
1F
100
AcDbEntity
  8
SPOJOVACÍ
  6
CONTINUOUS
100
AcDbLine
 10
2619.868084025652
 20
184.0874241728449
 30
0.0
 11
2620.086675337672
 21
184.4650755437903
 31
0.0
  0
LINE
  5
1A90
330
1F
100
AcDbEntity
  8
SPOJOVACÍ
  6
CONTINUOUS
100
AcDbLine
 10
2616.854314447333
 20
183.5228074623735
 30
0.0
 11
2617.487764164103
 21
186.6388963788047
 31
0.0
  0
LINE
  5
1A91
330
1F
100
AcDbEntity
  8
SPOJOVACÍ
  6
CONTINUOUS
100
AcDbLine
 10
2616.475732898226
 20
183.9004588376844
 30
0.0
 11
2617.270103028054
 21
186.2612450078593
 31
0.0
  0
LINE
  5
1A92
330
1F
100
AcDbEntity
  8
SPOJOVACÍ
  6
CONTINUOUS
100
AcDbLine
 10
2617.071975583381
 20
183.9004588376844
 30
0.0
 11
2617.866345712933
 21
186.2612450078593
 31
0.0
  0
LINE
  5
1A93
330
1F
100
AcDbEntity
  8
SPOJOVACÍ
  6
CONTINUOUS
100
AcDbLine
 10
2617.487764164103
 20
186.6388963788047
 30
0.0
 11
2617.270103028054
 21
186.2612450078593
 31
0.0
  0
LINE
  5
1A94
330
1F
100
AcDbEntity
  8
SPOJOVACÍ
  6
CONTINUOUS
100
AcDbLine
 10
2617.487764164103
 20
186.6388963788047
 30
0.0
 11
2617.866345712933
 21
186.2612450078593
 31
0.0
  0
LINE
  5
1A95
330
1F
100
AcDbEntity
  8
SPOJOVACÍ
  6
CONTINUOUS
100
AcDbLine
 10
2616.854314447333
 20
183.5228074623735
 30
0.0
 11
2616.475732898226
 21
183.9004588376844
 31
0.0
  0
LINE
  5
1A96
330
1F
100
AcDbEntity
  8
SPOJOVACÍ
  6
CONTINUOUS
100
AcDbLine
 10
2616.854314447333
 20
183.5228074623735
 30
0.0
 11
2617.071975583381
 21
183.9004588376844
 31
0.0
  0
LINE
  5
1A97
330
1F
100
AcDbEntity
  8
SPOJOVACÍ
  6
CONTINUOUS
100
AcDbLine
 10
2613.839614693035
 20
182.9581907562676
 30
0.0
 11
2614.81257857534
 21
187.0835204090105
 31
0.0
  0
LINE
  5
1A98
330
1F
100
AcDbEntity
  8
SPOJOVACÍ
  6
CONTINUOUS
100
AcDbLine
 10
2613.461963319907
 20
183.3367723045519
 30
0.0
 11
2614.594917439291
 21
186.7058690380652
 31
0.0
  0
LINE
  5
1A99
330
1F
100
AcDbEntity
  8
SPOJOVACÍ
  6
CONTINUOUS
100
AcDbLine
 10
2614.058206005061
 20
183.3367723045519
 30
0.0
 11
2615.191160124446
 21
186.7058690380652
 31
0.0
  0
LINE
  5
1A9A
330
1F
100
AcDbEntity
  8
SPOJOVACÍ
  6
CONTINUOUS
100
AcDbLine
 10
2614.81257857534
 20
187.0835204090105
 30
0.0
 11
2614.594917439291
 21
186.7058690380652
 31
0.0
  0
LINE
  5
1A9B
330
1F
100
AcDbEntity
  8
SPOJOVACÍ
  6
CONTINUOUS
100
AcDbLine
 10
2614.81257857534
 20
187.0835204090105
 30
0.0
 11
2615.191160124446
 21
186.7058690380652
 31
0.0
  0
LINE
  5
1A9C
330
1F
100
AcDbEntity
  8
SPOJOVACÍ
  6
CONTINUOUS
100
AcDbLine
 10
2613.839614693035
 20
182.9581907562676
 30
0.0
 11
2613.461963319907
 21
183.3367723045519
 31
0.0
  0
LINE
  5
1A9D
330
1F
100
AcDbEntity
  8
SPOJOVACÍ
  6
CONTINUOUS
100
AcDbLine
 10
2613.839614693035
 20
182.9581907562676
 30
0.0
 11
2614.058206005061
 21
183.3367723045519
 31
0.0
  0
LINE
  5
1A9E
330
1F
100
AcDbEntity
  8
SPOJOVACÍ
  6
CONTINUOUS
100
AcDbLine
 10
2614.418184037942
 20
186.2082249868542
 30
0.0
 11
2612.447141526656
 21
186.4537913983219
 31
0.0
  0
LINE
  5
1A9F
330
1F
100
AcDbEntity
  8
SPOJOVACÍ
  6
CONTINUOUS
100
AcDbLine
 10
2617.124995603841
 20
185.8696409942929
 30
0.0
 11
2614.988381800987
 21
186.1366014496304
 31
0.0
  0
LINE
  5
1AA0
330
1F
100
AcDbEntity
  8
SPOJOVACÍ
  6
CONTINUOUS
100
AcDbLine
 10
2619.842039103274
 20
185.5301268331238
 30
0.0
 11
2617.697053718289
 21
185.7980174614347
 31
0.0
  0
LINE
  5
1AA1
330
1F
100
AcDbEntity
  8
SPOJOVACÍ
  6
CONTINUOUS
100
AcDbLine
 10
2620.158298873804
 20
184.7180833608724
 30
0.0
 11
2623.247412691609
 21
185.1041063147711
 31
0.0
  0
LINE
  5
1AA2
330
1F
100
AcDbEntity
  8
SPOJOVACÍ
  6
CONTINUOUS
100
AcDbLine
 10
2617.217083007595
 20
184.3506639231925
 30
0.0
 11
2619.537871617951
 21
184.6408787683465
 31
0.0
  0
LINE
  5
1AA3
330
1F
100
AcDbEntity
  8
SPOJOVACÍ
  6
CONTINUOUS
100
AcDbLine
 10
2614.264705031866
 20
183.9813841308348
 30
0.0
 11
2616.586423817931
 21
184.2715989803543
 31
0.0
  0
LINE
  5
1AA4
330
1F
100
AcDbEntity
  8
SPOJOVACÍ
  6
CONTINUOUS
100
AcDbLine
 10
2623.247412691609
 20
185.1041063147711
 30
0.0
 11
2620.411306690341
 21
185.4585032959
 31
0.0
  0
LINE
  5
1AA5
330
1F
100
AcDbEntity
  8
SPOJOVACÍ
  6
CONTINUOUS
100
AcDbLine
 10
2612.447141526656
 20
183.7544212355858
 30
0.0
 11
2613.644277776013
 21
183.9041795383088
 31
0.0
  0
LINE
  5
1AA6
330
1F
100
AcDbEntity
  8
SPOJOVACÍ
  6
CONTINUOUS
100
AcDbLine
 10
2612.110417888772
 20
186.4537913983219
 30
0.0
 11
2612.447141526656
 21
186.4537913983219
 31
0.0
  0
LINE
  5
1AA7
330
1F
100
AcDbEntity
  8
SPOJOVACÍ
  6
CONTINUOUS
100
AcDbLine
 10
2608.987817742159
 20
186.4537913983219
 30
0.0
 11
2611.506733797188
 21
186.4537913983219
 31
0.0
  0
LINE
  5
1AA8
330
1F
100
AcDbEntity
  8
SPOJOVACÍ
  6
CONTINUOUS
100
AcDbLine
 10
2611.199775784767
 20
183.7544212355858
 30
0.0
 11
2612.447141526656
 21
183.7544212355858
 31
0.0
  0
LINE
  5
1AA9
330
1F
100
AcDbEntity
  8
SPOJOVACÍ
  6
CONTINUOUS
100
AcDbLine
 10
2608.085547220285
 20
183.7544212355858
 30
0.0
 11
2610.603533099613
 21
183.7544212355858
 31
0.0
  0
LINE
  5
1AAA
330
1F
100
AcDbEntity
  8
SPOJOVACÍ
  6
CONTINUOUS
100
AcDbLine
 10
2605.866147771517
 20
186.4537913983219
 30
0.0
 11
2608.386924178226
 21
186.4537913983219
 31
0.0
  0
LINE
  5
1AAB
330
1F
100
AcDbEntity
  8
SPOJOVACÍ
  6
CONTINUOUS
100
AcDbLine
 10
2604.952715140131
 20
183.7544212355858
 30
0.0
 11
2607.480932952999
 21
183.7544212355858
 31
0.0
  0
LINE
  5
1AAC
330
1F
100
AcDbEntity
  8
SPOJOVACÍ
  6
CONTINUOUS
100
AcDbLine
 10
2667.111013751782
 20
183.7544212355858
 30
0.0
 11
2664.593027872455
 21
183.7544212355858
 31
0.0
  0
LINE
  5
1AAD
330
1F
100
AcDbEntity
  8
SPOJOVACÍ
  6
CONTINUOUS
100
AcDbLine
 10
2663.9967851873
 20
183.7544212355858
 30
0.0
 11
2662.749419445412
 21
183.7544212355858
 31
0.0
  0
LINE
  5
1AAE
330
1F
100
AcDbEntity
  8
SPOJOVACÍ
  6
CONTINUOUS
100
AcDbLine
 10
2666.208743229908
 20
186.4537913983219
 30
0.0
 11
2663.689827174879
 21
186.4537913983219
 31
0.0
  0
LINE
  5
1AAF
330
1F
100
AcDbEntity
  8
SPOJOVACÍ
  6
CONTINUOUS
100
AcDbLine
 10
2663.086143083296
 20
186.4537913983219
 30
0.0
 11
2662.749419445412
 21
186.4537913983219
 31
0.0
  0
LINE
  5
1AB0
330
1F
100
AcDbEntity
  8
SPOJOVACÍ
  6
CONTINUOUS
100
AcDbLine
 10
2662.749419445412
 20
183.7544212355858
 30
0.0
 11
2661.552283196055
 21
183.9041795383088
 31
0.0
  0
LINE
  5
1AB1
330
1F
100
AcDbEntity
  8
SPOJOVACÍ
  6
CONTINUOUS
100
AcDbLine
 10
2651.949148280459
 20
185.1041063147711
 30
0.0
 11
2654.785254281727
 21
185.4585032959
 31
0.0
  0
LINE
  5
1AB2
330
1F
100
AcDbEntity
  8
SPOJOVACÍ
  6
CONTINUOUS
100
AcDbLine
 10
2660.931855940201
 20
183.9813841308348
 30
0.0
 11
2658.610137154137
 21
184.2715989803543
 31
0.0
  0
LINE
  5
1AB3
330
1F
100
AcDbEntity
  8
SPOJOVACÍ
  6
CONTINUOUS
100
AcDbLine
 10
2657.979477964472
 20
184.3506639231925
 30
0.0
 11
2655.658689354117
 21
184.6408787683465
 31
0.0
  0
LINE
  5
1AB4
330
1F
100
AcDbEntity
  8
SPOJOVACÍ
  6
CONTINUOUS
100
AcDbLine
 10
2655.038262098264
 20
184.7180833608724
 30
0.0
 11
2651.949148280459
 21
185.1041063147711
 31
0.0
  0
LINE
  5
1AB5
330
1F
100
AcDbEntity
  8
SPOJOVACÍ
  6
CONTINUOUS
100
AcDbLine
 10
2655.354521868794
 20
185.5301268331238
 30
0.0
 11
2657.499507253778
 21
185.7980174614347
 31
0.0
  0
LINE
  5
1AB6
330
1F
100
AcDbEntity
  8
SPOJOVACÍ
  6
CONTINUOUS
100
AcDbLine
 10
2658.071565368227
 20
185.8696409942929
 30
0.0
 11
2660.20817917108
 21
186.1366014496304
 31
0.0
  0
LINE
  5
1AB7
330
1F
100
AcDbEntity
  8
SPOJOVACÍ
  6
CONTINUOUS
100
AcDbLine
 10
2660.778376934126
 20
186.2082249868542
 30
0.0
 11
2662.749419445412
 21
186.4537913983219
 31
0.0
  0
LINE
  5
1AB8
330
1F
100
AcDbEntity
  8
SPOJOVACÍ
  6
CONTINUOUS
100
AcDbLine
 10
2661.356946279033
 20
182.9581907562676
 30
0.0
 11
2661.138354967006
 21
183.3367723045519
 31
0.0
  0
LINE
  5
1AB9
330
1F
100
AcDbEntity
  8
SPOJOVACÍ
  6
CONTINUOUS
100
AcDbLine
 10
2661.356946279033
 20
182.9581907562676
 30
0.0
 11
2661.734597652161
 21
183.3367723045519
 31
0.0
  0
LINE
  5
1ABA
330
1F
100
AcDbEntity
  8
SPOJOVACÍ
  6
CONTINUOUS
100
AcDbLine
 10
2660.383982396728
 20
187.0835204090105
 30
0.0
 11
2660.005400847621
 21
186.7058690380652
 31
0.0
  0
LINE
  5
1ABB
330
1F
100
AcDbEntity
  8
SPOJOVACÍ
  6
CONTINUOUS
100
AcDbLine
 10
2660.383982396728
 20
187.0835204090105
 30
0.0
 11
2660.601643532777
 21
186.7058690380652
 31
0.0
  0
LINE
  5
1ABC
330
1F
100
AcDbEntity
  8
SPOJOVACÍ
  6
CONTINUOUS
100
AcDbLine
 10
2661.138354967006
 20
183.3367723045519
 30
0.0
 11
2660.005400847621
 21
186.7058690380652
 31
0.0
  0
LINE
  5
1ABD
330
1F
100
AcDbEntity
  8
SPOJOVACÍ
  6
CONTINUOUS
100
AcDbLine
 10
2661.734597652161
 20
183.3367723045519
 30
0.0
 11
2660.601643532777
 21
186.7058690380652
 31
0.0
  0
LINE
  5
1ABE
330
1F
100
AcDbEntity
  8
SPOJOVACÍ
  6
CONTINUOUS
100
AcDbLine
 10
2661.356946279033
 20
182.9581907562676
 30
0.0
 11
2660.383982396728
 21
187.0835204090105
 31
0.0
  0
LINE
  5
1ABF
330
1F
100
AcDbEntity
  8
SPOJOVACÍ
  6
CONTINUOUS
100
AcDbLine
 10
2658.342246524735
 20
183.5228074623735
 30
0.0
 11
2658.124585388686
 21
183.9004588376844
 31
0.0
  0
LINE
  5
1AC0
330
1F
100
AcDbEntity
  8
SPOJOVACÍ
  6
CONTINUOUS
100
AcDbLine
 10
2658.342246524735
 20
183.5228074623735
 30
0.0
 11
2658.720828073841
 21
183.9004588376844
 31
0.0
  0
LINE
  5
1AC1
330
1F
100
AcDbEntity
  8
SPOJOVACÍ
  6
CONTINUOUS
100
AcDbLine
 10
2657.708796807964
 20
186.6388963788047
 30
0.0
 11
2657.330215259134
 21
186.2612450078593
 31
0.0
  0
LINE
  5
1AC2
330
1F
100
AcDbEntity
  8
SPOJOVACÍ
  6
CONTINUOUS
100
AcDbLine
 10
2657.708796807964
 20
186.6388963788047
 30
0.0
 11
2657.926457944013
 21
186.2612450078593
 31
0.0
  0
LINE
  5
1AC3
330
1F
100
AcDbEntity
  8
SPOJOVACÍ
  6
CONTINUOUS
100
AcDbLine
 10
2658.124585388686
 20
183.9004588376844
 30
0.0
 11
2657.330215259134
 21
186.2612450078593
 31
0.0
  0
LINE
  5
1AC4
330
1F
100
AcDbEntity
  8
SPOJOVACÍ
  6
CONTINUOUS
100
AcDbLine
 10
2658.720828073841
 20
183.9004588376844
 30
0.0
 11
2657.926457944013
 21
186.2612450078593
 31
0.0
  0
LINE
  5
1AC5
330
1F
100
AcDbEntity
  8
SPOJOVACÍ
  6
CONTINUOUS
100
AcDbLine
 10
2658.342246524735
 20
183.5228074623735
 30
0.0
 11
2657.708796807964
 21
186.6388963788047
 31
0.0
  0
LINE
  5
1AC6
330
1F
100
AcDbEntity
  8
SPOJOVACÍ
  6
CONTINUOUS
100
AcDbLine
 10
2655.328476946415
 20
184.0874241728449
 30
0.0
 11
2655.109885634396
 21
184.4650755437903
 31
0.0
  0
LINE
  5
1AC7
330
1F
100
AcDbEntity
  8
SPOJOVACÍ
  6
CONTINUOUS
100
AcDbLine
 10
2655.328476946415
 20
184.0874241728449
 30
0.0
 11
2655.706128319543
 21
184.4650755437903
 31
0.0
  0
LINE
  5
1AC8
330
1F
100
AcDbEntity
  8
SPOJOVACÍ
  6
CONTINUOUS
100
AcDbLine
 10
2655.017798230641
 20
186.2417113143017
 30
0.0
 11
2654.639216681811
 21
185.8640599433563
 31
0.0
  0
LINE
  5
1AC9
330
1F
100
AcDbEntity
  8
SPOJOVACÍ
  6
CONTINUOUS
100
AcDbLine
 10
2655.017798230641
 20
186.2417113143017
 30
0.0
 11
2655.235459366958
 21
185.8640599433563
 31
0.0
  0
LINE
  5
1ACA
330
1F
100
AcDbEntity
  8
SPOJOVACÍ
  6
CONTINUOUS
100
AcDbLine
 10
2655.109885634396
 20
184.4650755437903
 30
0.0
 11
2654.639216681811
 21
185.8640599433563
 31
0.0
  0
LINE
  5
1ACB
330
1F
100
AcDbEntity
  8
SPOJOVACÍ
  6
CONTINUOUS
100
AcDbLine
 10
2655.706128319543
 20
184.4650755437903
 30
0.0
 11
2655.235459366958
 21
185.8640599433563
 31
0.0
  0
LINE
  5
1ACC
330
1F
100
AcDbEntity
  8
SPOJOVACÍ
  6
CONTINUOUS
100
AcDbLine
 10
2655.328476946415
 20
184.0874241728449
 30
0.0
 11
2655.017798230641
 21
186.2417113143017
 31
0.0
  0
LINE
  5
1ACD
330
1F
100
AcDbEntity
  8
SPOJOVACÍ
  6
CONTINUOUS
100
AcDbLine
 10
2667.554707606286
 20
182.7042527618466
 30
0.0
 11
2666.354780829824
 21
187.5039598676955
 31
0.0
  0
LINE
  5
1ACE
330
1F
100
AcDbEntity
  8
SPOJOVACÍ
  6
CONTINUOUS
100
AcDbLine
 10
2667.554707606286
 20
182.7042527618466
 30
0.0
 11
2667.336116294267
 21
183.0819041371576
 31
0.0
  0
LINE
  5
1ACF
330
1F
100
AcDbEntity
  8
SPOJOVACÍ
  6
CONTINUOUS
100
AcDbLine
 10
2667.554707606286
 20
182.7042527618466
 30
0.0
 11
2667.932358979415
 21
183.0819041371576
 31
0.0
  0
LINE
  5
1AD0
330
1F
100
AcDbEntity
  8
SPOJOVACÍ
  6
CONTINUOUS
100
AcDbLine
 10
2666.354780829824
 20
187.5039598676955
 30
0.0
 11
2665.976199280994
 21
187.1263084967502
 31
0.0
  0
LINE
  5
1AD1
330
1F
100
AcDbEntity
  8
SPOJOVACÍ
  6
CONTINUOUS
100
AcDbLine
 10
2666.354780829824
 20
187.5039598676955
 30
0.0
 11
2666.572441965872
 21
187.1263084967502
 31
0.0
  0
LINE
  5
1AD2
330
1F
100
AcDbEntity
  8
SPOJOVACÍ
  6
CONTINUOUS
100
AcDbLine
 10
2667.336116294267
 20
183.0819041371576
 30
0.0
 11
2665.976199280994
 21
187.1263084967502
 31
0.0
  0
LINE
  5
1AD3
330
1F
100
AcDbEntity
  8
SPOJOVACÍ
  6
CONTINUOUS
100
AcDbLine
 10
2667.932358979415
 20
183.0819041371576
 30
0.0
 11
2666.572441965872
 21
187.1263084967502
 31
0.0
  0
LINE
  5
1AD4
330
1F
100
AcDbEntity
  8
SPOJOVACÍ
  6
CONTINUOUS
100
AcDbLine
 10
2664.433967811346
 20
182.7042527618466
 30
0.0
 11
2663.234041034884
 21
187.5039598676955
 31
0.0
  0
LINE
  5
1AD5
330
1F
100
AcDbEntity
  8
SPOJOVACÍ
  6
CONTINUOUS
100
AcDbLine
 10
2664.433967811346
 20
182.7042527618466
 30
0.0
 11
2664.216306675298
 21
183.0819041371576
 31
0.0
  0
LINE
  5
1AD6
330
1F
100
AcDbEntity
  8
SPOJOVACÍ
  6
CONTINUOUS
100
AcDbLine
 10
2664.433967811346
 20
182.7042527618466
 30
0.0
 11
2664.812549360453
 21
183.0819041371576
 31
0.0
  0
LINE
  5
1AD7
330
1F
100
AcDbEntity
  8
SPOJOVACÍ
  6
CONTINUOUS
100
AcDbLine
 10
2663.234041034884
 20
187.5039598676955
 30
0.0
 11
2662.856389661756
 21
187.1263084967502
 31
0.0
  0
LINE
  5
1AD8
330
1F
100
AcDbEntity
  8
SPOJOVACÍ
  6
CONTINUOUS
100
AcDbLine
 10
2663.234041034884
 20
187.5039598676955
 30
0.0
 11
2663.452632346911
 21
187.1263084967502
 31
0.0
  0
LINE
  5
1AD9
330
1F
100
AcDbEntity
  8
SPOJOVACÍ
  6
CONTINUOUS
100
AcDbLine
 10
2664.216306675298
 20
183.0819041371576
 30
0.0
 11
2662.856389661756
 21
187.1263084967502
 31
0.0
  0
LINE
  5
1ADA
330
1F
100
AcDbEntity
  8
SPOJOVACÍ
  6
CONTINUOUS
100
AcDbLine
 10
2664.812549360453
 20
183.0819041371576
 30
0.0
 11
2663.452632346911
 21
187.1263084967502
 31
0.0
  0
LINE
  5
1ADB
330
1F
100
AcDbEntity
  8
SPOJOVACÍ
  6
CONTINUOUS
100
AcDbLine
 10
2681.114810357321
 20
186.4537913983219
 30
0.0
 11
2676.171856178393
 21
186.4537913983219
 31
0.0
  0
LINE
  5
1ADC
330
1F
100
AcDbEntity
  8
SPOJOVACÍ
  6
CONTINUOUS
100
AcDbLine
 10
2681.114810357321
 20
183.7544212355858
 30
0.0
 11
2677.076917227641
 21
183.7544212355858
 31
0.0
  0
LINE
  5
1ADD
330
1F
100
AcDbEntity
  8
SPOJOVACÍ
  6
CONTINUOUS
100
AcDbLine
 10
2676.481604718464
 20
183.7544212355858
 30
0.0
 11
2673.962688663436
 21
183.7544212355858
 31
0.0
  0
LINE
  5
1ADE
330
1F
100
AcDbEntity
  8
SPOJOVACÍ
  6
CONTINUOUS
100
AcDbLine
 10
2673.359004572121
 20
183.7544212355858
 30
0.0
 11
2670.838228165412
 21
183.7544212355858
 31
0.0
  0
LINE
  5
1ADF
330
1F
100
AcDbEntity
  8
SPOJOVACÍ
  6
CONTINUOUS
100
AcDbLine
 10
2675.568172087078
 20
186.4537913983219
 30
0.0
 11
2673.049256032049
 21
186.4537913983219
 31
0.0
  0
LINE
  5
1AE0
330
1F
100
AcDbEntity
  8
SPOJOVACÍ
  6
CONTINUOUS
100
AcDbLine
 10
2672.453013346894
 20
186.4537913983219
 30
0.0
 11
2669.924795534025
 21
186.4537913983219
 31
0.0
  0
LINE
  5
1AE1
330
1F
100
AcDbEntity
  8
SPOJOVACÍ
  6
CONTINUOUS
100
AcDbLine
 10
2676.914136463456
 20
182.7042527618466
 30
0.0
 11
2675.714209686994
 21
187.5039598676955
 31
0.0
  0
LINE
  5
1AE2
330
1F
100
AcDbEntity
  8
SPOJOVACÍ
  6
CONTINUOUS
100
AcDbLine
 10
2676.914136463456
 20
182.7042527618466
 30
0.0
 11
2676.696475327407
 21
183.0819041371576
 31
0.0
  0
LINE
  5
1AE3
330
1F
100
AcDbEntity
  8
SPOJOVACÍ
  6
CONTINUOUS
100
AcDbLine
 10
2676.914136463456
 20
182.7042527618466
 30
0.0
 11
2677.292718012286
 21
183.0819041371576
 31
0.0
  0
LINE
  5
1AE4
330
1F
100
AcDbEntity
  8
SPOJOVACÍ
  6
CONTINUOUS
100
AcDbLine
 10
2675.714209686994
 20
187.5039598676955
 30
0.0
 11
2675.336558313865
 21
187.1263084967502
 31
0.0
  0
LINE
  5
1AE5
330
1F
100
AcDbEntity
  8
SPOJOVACÍ
  6
CONTINUOUS
100
AcDbLine
 10
2675.714209686994
 20
187.5039598676955
 30
0.0
 11
2675.93280099902
 21
187.1263084967502
 31
0.0
  0
LINE
  5
1AE6
330
1F
100
AcDbEntity
  8
SPOJOVACÍ
  6
CONTINUOUS
100
AcDbLine
 10
2676.696475327407
 20
183.0819041371576
 30
0.0
 11
2675.336558313865
 21
187.1263084967502
 31
0.0
  0
LINE
  5
1AE7
330
1F
100
AcDbEntity
  8
SPOJOVACÍ
  6
CONTINUOUS
100
AcDbLine
 10
2677.292718012286
 20
183.0819041371576
 30
0.0
 11
2675.93280099902
 21
187.1263084967502
 31
0.0
  0
LINE
  5
1AE8
330
1F
100
AcDbEntity
  8
SPOJOVACÍ
  6
CONTINUOUS
100
AcDbLine
 10
2673.794326844494
 20
182.7042527618466
 30
0.0
 11
2672.594400067755
 21
187.5039598676955
 31
0.0
  0
LINE
  5
1AE9
330
1F
100
AcDbEntity
  8
SPOJOVACÍ
  6
CONTINUOUS
100
AcDbLine
 10
2673.794326844494
 20
182.7042527618466
 30
0.0
 11
2673.575735532467
 21
183.0819041371576
 31
0.0
  0
LINE
  5
1AEA
330
1F
100
AcDbEntity
  8
SPOJOVACÍ
  6
CONTINUOUS
100
AcDbLine
 10
2673.794326844494
 20
182.7042527618466
 30
0.0
 11
2674.171978217622
 21
183.0819041371576
 31
0.0
  0
LINE
  5
1AEB
330
1F
100
AcDbEntity
  8
SPOJOVACÍ
  6
CONTINUOUS
100
AcDbLine
 10
2672.594400067755
 20
187.5039598676955
 30
0.0
 11
2672.216748694903
 21
187.1263084967502
 31
0.0
  0
LINE
  5
1AEC
330
1F
100
AcDbEntity
  8
SPOJOVACÍ
  6
CONTINUOUS
100
AcDbLine
 10
2672.594400067755
 20
187.5039598676955
 30
0.0
 11
2672.812991379782
 21
187.1263084967502
 31
0.0
  0
LINE
  5
1AED
330
1F
100
AcDbEntity
  8
SPOJOVACÍ
  6
CONTINUOUS
100
AcDbLine
 10
2673.575735532467
 20
183.0819041371576
 30
0.0
 11
2672.216748694903
 21
187.1263084967502
 31
0.0
  0
LINE
  5
1AEE
330
1F
100
AcDbEntity
  8
SPOJOVACÍ
  6
CONTINUOUS
100
AcDbLine
 10
2674.171978217622
 20
183.0819041371576
 30
0.0
 11
2672.812991379782
 21
187.1263084967502
 31
0.0
  0
LINE
  5
1AEF
330
1F
100
AcDbEntity
  8
SPOJOVACÍ
  6
CONTINUOUS
100
AcDbLine
 10
2670.674517225256
 20
182.7042527618466
 30
0.0
 11
2669.474590448793
 21
187.5039598676955
 31
0.0
  0
LINE
  5
1AF0
330
1F
100
AcDbEntity
  8
SPOJOVACÍ
  6
CONTINUOUS
100
AcDbLine
 10
2670.674517225256
 20
182.7042527618466
 30
0.0
 11
2670.455925913229
 21
183.0819041371576
 31
0.0
  0
LINE
  5
1AF1
330
1F
100
AcDbEntity
  8
SPOJOVACÍ
  6
CONTINUOUS
100
AcDbLine
 10
2670.674517225256
 20
182.7042527618466
 30
0.0
 11
2671.052168598384
 21
183.0819041371576
 31
0.0
  0
LINE
  5
1AF2
330
1F
100
AcDbEntity
  8
SPOJOVACÍ
  6
CONTINUOUS
100
AcDbLine
 10
2669.474590448793
 20
187.5039598676955
 30
0.0
 11
2669.692251585111
 21
187.1263084967502
 31
0.0
  0
LINE
  5
1AF3
330
1F
100
AcDbEntity
  8
SPOJOVACÍ
  6
CONTINUOUS
100
AcDbLine
 10
2671.052168598384
 20
183.0819041371576
 30
0.0
 11
2669.692251585111
 21
187.1263084967502
 31
0.0
  0
LINE
  5
1AF4
330
1F
100
AcDbEntity
  8
SPOJOVACÍ
  6
CONTINUOUS
100
AcDbLine
 10
2684.052305520454
 20
187.293740138353
 30
0.0
 11
2685.259673703352
 21
188.2518212083375
 31
0.0
  0
LINE
  5
1AF5
330
1F
100
AcDbEntity
  8
SPOJOVACÍ
  6
CONTINUOUS
100
AcDbLine
 10
2682.63843831075
 20
186.6807542892054
 30
0.0
 11
2684.052305520454
 21
187.293740138353
 31
0.0
  0
LINE
  5
1AF6
330
1F
100
AcDbEntity
  8
SPOJOVACÍ
  6
CONTINUOUS
100
AcDbLine
 10
2681.114810357321
 20
186.4537913983219
 30
0.0
 11
2682.63843831075
 21
186.6807542892054
 31
0.0
  0
LINE
  5
1AF7
330
1F
100
AcDbEntity
  8
SPOJOVACÍ
  6
CONTINUOUS
100
AcDbLine
 10
2687.714407628409
 20
190.204260203405
 30
0.0
 11
2686.514480851678
 21
190.204260203405
 31
0.0
  0
LINE
  5
1AF8
330
1F
100
AcDbEntity
  8
SPOJOVACÍ
  6
CONTINUOUS
100
AcDbLine
 10
2687.714407628409
 20
180.0039524261371
 30
0.0
 11
2687.714407628409
 21
190.204260203405
 31
0.0
  0
LINE
  5
1AF9
330
1F
100
AcDbEntity
  8
SPOJOVACÍ
  6
CONTINUOUS
100
AcDbLine
 10
2687.714407628409
 20
180.0039524261371
 30
0.0
 11
2686.514480851678
 21
180.0039524261371
 31
0.0
  0
LINE
  5
1AFA
330
1F
100
AcDbEntity
  8
SPOJOVACÍ
  6
CONTINUOUS
100
AcDbLine
 10
2686.514480851678
 20
180.0039524261371
 30
0.0
 11
2686.514480851678
 21
190.204260203405
 31
0.0
  0
LINE
  5
1AFB
330
1F
100
AcDbEntity
  8
SPOJOVACÍ
  6
CONTINUOUS
100
AcDbLine
 10
2686.177757213794
 20
189.4889550172372
 30
0.0
 11
2686.514480851678
 21
190.204260203405
 31
0.0
  0
LINE
  5
1AFC
330
1F
100
AcDbEntity
  8
SPOJOVACÍ
  6
CONTINUOUS
100
AcDbLine
 10
2685.259673703352
 20
188.2518212083375
 30
0.0
 11
2686.177757213794
 21
189.4889550172372
 31
0.0
  0
LINE
  5
1AFD
330
1F
100
AcDbEntity
  8
SPOJOVACÍ
  6
CONTINUOUS
100
AcDbLine
 10
2681.901739080444
 20
183.6883787536642
 30
0.0
 11
2681.114810357321
 21
183.7544212355858
 31
0.0
  0
LINE
  5
1AFE
330
1F
100
AcDbEntity
  8
SPOJOVACÍ
  6
CONTINUOUS
100
AcDbLine
 10
2683.382578947494
 20
183.2604978893648
 30
0.0
 11
2681.901739080444
 21
183.6883787536642
 31
0.0
  0
LINE
  5
1AFF
330
1F
100
AcDbEntity
  8
SPOJOVACÍ
  6
CONTINUOUS
100
AcDbLine
 10
2684.701568225791
 20
182.4642674100466
 30
0.0
 11
2683.382578947494
 21
183.2604978893648
 31
0.0
  0
LINE
  5
1B00
330
1F
100
AcDbEntity
  8
SPOJOVACÍ
  6
CONTINUOUS
100
AcDbLine
 10
2685.770340215203
 20
181.353637509688
 30
0.0
 11
2684.701568225791
 21
182.4642674100466
 31
0.0
  0
LINE
  5
1B01
330
1F
100
AcDbEntity
  8
SPOJOVACÍ
  6
CONTINUOUS
100
AcDbLine
 10
2686.514480851678
 20
180.0039524261371
 30
0.0
 11
2685.770340215203
 21
181.353637509688
 31
0.0
  0
LINE
  5
1B02
102
{ACAD_REACTORS
330
50BD
102
}
330
1F
100
AcDbEntity
  8
STAVBA_OBRYS
100
AcDbLine
 10
2700.275807325768
 20
-81.61574903000541
 30
0.0
 11
2557.942456784232
 21
-55.40077736520903
 31
0.0
  0
LINE
  5
1B03
102
{ACAD_REACTORS
330
50BD
102
}
330
1F
100
AcDbEntity
  8
STAVBA_OBRYS
100
AcDbLine
 10
2700.275807325768
 20
-76.67661131487216
 30
0.0
 11
2557.942456784232
 21
-50.46163965007576
 31
0.0
  0
LINE
  5
1B08
330
1F
100
AcDbEntity
  8
IZOLACE
  6
IZOLACE
 48
2.2
100
AcDbLine
 10
2637.032570663969
 20
-62.85639822862345
 30
0.0
 11
2637.032570663968
 21
110.520696597661
 31
0.0
  0
LINE
  5
1B0C
102
{ACAD_REACTORS
330
50BD
102
}
330
1F
100
AcDbEntity
  8
CETRIS
100
AcDbLine
 10
2599.482153343661
 20
-58.11242538740635
 30
0.0
 11
2599.482153343662
 21
117.4367364597719
 31
0.0
  0
LINE
  5
1B0D
102
{ACAD_REACTORS
330
50BD
102
}
330
1F
100
AcDbEntity
  8
CETRIS
100
AcDbLine
 10
2587.482153343662
 20
-55.90226410910691
 30
0.0
 11
2587.482153343662
 21
119.6468977380718
 31
0.0
  0
LINE
  5
1B0F
330
1F
100
AcDbEntity
  8
CETRIS
100
AcDbLine
 10
2675.714407628417
 20
-72.15289010221159
 30
0.0
 11
2675.714407628421
 21
103.3962717449662
 31
0.0
  0
LINE
  5
1B10
330
1F
100
AcDbEntity
  8
CETRIS
100
AcDbLine
 10
2687.714407628409
 20
-74.36305138050989
 30
0.0
 11
2687.714407628409
 21
101.1861104666688
 31
0.0
  0
LINE
  5
1B13
330
1F
100
AcDbEntity
  8
POPIS
100
AcDbLine
 10
2755.594992313938
 20
-330.9865885448289
 30
0.0
 11
2675.71440762841
 21
-382.1730108031351
 31
0.0
  0
LWPOLYLINE
  5
1B4F
330
1F
100
AcDbEntity
  8
IZOLACE
100
AcDbPolyline
 90
        4
 70
     1
 43
0.0
 10
2661.981138894876
 20
-418.6167198241694
 10
2661.981138894876
 20
-416.6167198241657
 10
2674.482215901851
 20
-416.6167198241657
 10
2674.482215901851
 20
-418.6167198241694
  0
LWPOLYLINE
  5
1B50
330
1F
100
AcDbEntity
  8
IZOLACE
100
AcDbPolyline
 90
        4
 70
     1
 43
0.0
 10
2621.089114951671
 20
-418.6167198241694
 10
2621.089114951671
 20
-416.6167198241657
 10
2633.590191958649
 20
-416.6167198241657
 10
2633.590191958649
 20
-418.6167198241694
  0
HATCH
  5
1B67
330
1F
100
AcDbEntity
  8
IZOLACE
100
AcDbHatch
 10
0.0
 20
0.0
 30
0.0
210
0.0
220
0.0
230
1.0
  2
SOLID
 70
     1
 71
     0
 91
        4
 92
        7
 72
     0
 73
     1
 93
        4
 10
2674.482215901851
 20
-416.6167198241657
 10
2661.981138894876
 20
-416.6167198241657
 10
2661.981138894876
 20
-418.6167198241694
 10
2674.482215901851
 20
-418.6167198241694
 97
        0
 92
        7
 72
     0
 73
     1
 93
        4
 10
2654.324427980279
 20
-416.6167198241657
 10
2641.823350973301
 20
-416.6167198241657
 10
2641.823350973301
 20
-418.6167198241694
 10
2654.324427980279
 20
-418.6167198241693
 97
        0
 92
        7
 72
     0
 73
     1
 93
        4
 10
2633.590191958649
 20
-416.6167198241657
 10
2621.089114951671
 20
-416.6167198241657
 10
2621.089114951671
 20
-418.6167198241694
 10
2633.590191958649
 20
-418.6167198241693
 97
        0
 92
        7
 72
     1
 73
     1
 93
        7
 10
2612.445941045786
 20
-417.0956454862865
 42
0.0
 10
2612.445941045786
 20
-416.6167198241658
 42
0.0
 10
2599.94486403881
 20
-416.6167198241658
 42
0.0
 10
2599.94486403881
 20
-418.6167198241694
 42
0.0
 10
2612.209553051531
 20
-418.6167198241695
 42
0.0
 10
2612.445941045786
 20
-418.4581124520882
 42
0.0
 10
2612.445941045786
 20
-418.3824399100993
 42
-0.2771233679601331
 97
        0
 75
     0
 76
     1
 47
0.1334780420591298
 98
        4
 10
2669.261440330374
 20
-417.9187089327124
 10
2653.499353998066
 20
-417.9187089327124
 10
2626.51679636186
 20
-417.9187089327124
 10
2608.21674530295
 20
-417.9187089327124
  0
HATCH
  5
1D11
330
1F
100
AcDbEntity
  8
NOSNÉ_KONSTRUKCE
100
AcDbHatch
 10
0.0
 20
0.0
 30
0.0
210
0.0
220
0.0
230
1.0
  2
SOLID
 70
     1
 71
     0
 91
        1
 92
        7
 72
     1
 73
     1
 93
       60
 10
2654.390890045844
 20
406.9178748303835
 42
0.0
 10
2619.997896011389
 20
406.9178748303834
 42
-0.3073346934841183
 10
2618.256585795077
 20
405.7532327103631
 42
0.0
 10
2614.438074017896
 20
405.7532327103631
 42
-0.307334693483106
 10
2612.69676380159
 20
406.9178748303836
 42
0.0
 10
2602.197829701566
 20
406.9178748303833
 42
0.4142135623730951
 10
2600.197829701567
 20
404.9178748303836
 42
0.0
 10
2600.197829701567
 20
396.7190214688781
 42
-0.7595816512230912
 10
2600.197829701567
 20
393.1275793011219
 42
0.0
 10
2600.197829701571
 20
383.9517098965619
 42
-0.7595816493590427
 10
2600.197829701567
 20
380.3602676958445
 42
0.0
 10
2600.197829701567
 20
371.1844003250656
 42
-0.7767342353201953
 10
2600.119872518739
 20
367.5729417408376
 42
0.0
 10
2600.11987251874
 20
361.0048325043622
 42
0.4142135623730868
 10
2602.119872518739
 20
359.0048325043624
 42
0.0
 10
2604.945198310435
 20
359.0048325043623
 42
0.0
 10
2604.945198310435
 20
360.0048325043623
 42
0.0
 10
2602.119872518739
 20
360.0048325043623
 42
-0.4142135623730951
 10
2601.11987251874
 20
361.0048325043623
 42
0.0
 10
2601.11987251874
 20
366.9025285514618
 42
0.5694936494219963
 10
2601.197829701567
 20
371.8284739349598
 42
0.0
 10
2601.197829701567
 20
379.7161921119128
 42
0.5590616644338513
 10
2601.19782970157
 20
384.5957854804925
 42
0.0
 10
2601.197829701567
 20
392.4835037165991
 42
0.5590616643157284
 10
2601.197829701567
 20
397.363097053401
 42
0.0
 10
2601.197829701567
 20
404.9178748303835
 42
-0.4142135623731451
 10
2602.197829701566
 20
405.9178748303835
 42
0.0
 10
2612.130833892391
 20
405.9178748303836
 42
0.2364174637114482
 10
2614.412683549405
 20
404.7624157439332
 42
0.0
 10
2618.281976263572
 20
404.7624157439332
 42
0.2364174637115772
 10
2620.563825920588
 20
405.9178748303835
 42
0.0
 10
2653.828599796473
 20
405.9178748303835
 42
0.2353201211467568
 10
2656.104015312297
 20
404.7732442580235
 42
0.0
 10
2659.97330739214
 20
404.7754598280083
 42
0.2364174637122881
 10
2662.254495055334
 20
405.9322253198023
 42
0.0
 10
2672.187497617769
 20
405.9379129913147
 42
-0.4142135623730951
 10
2673.188070057185
 20
404.938485758606
 42
0.0
 10
2673.192395948277
 20
397.3837092201333
 42
0.5590616643157161
 10
2673.195190019787
 20
392.5041166832788
 42
0.0
 10
2673.199706553699
 20
384.6163997402636
 42
0.5590616644338511
 10
2673.20250062523
 20
379.7368071716313
 42
0.0
 10
2673.207017159112
 20
371.8490902877697
 42
0.5694936494220229
 10
2673.287794942006
 20
366.9231903503622
 42
0.0
 10
2673.291171982542
 20
361.0254952701152
 42
-0.4142135623730951
 10
2672.291744749833
 20
360.0249228306987
 42
0.0
 10
2669.466419421314
 20
360.0233050396749
 42
0.0
 10
2669.466992024668
 20
359.0233052036122
 42
0.0
 10
2672.292317353187
 20
359.0249229946361
 42
0.4142135623730618
 10
2674.291171818604
 20
361.0260678734687
 42
0.0
 10
2674.287410897228
 20
367.5941760331861
 42
-0.7767342353201953
 10
2674.207385793884
 20
371.205589386817
 42
0.0
 10
2674.202131661453
 20
380.3814552533288
 42
-0.759581649359043
 10
2674.200075189601
 20
383.9728968652747
 42
0.0
 10
2674.19482105601
 20
393.1487647655674
 42
-0.7595816512230912
 10
2674.19276458418
 20
396.7402063445522
 42
0.0
 10
2674.188069893248
 20
404.9390583619596
 42
0.4142135623731117
 10
2672.186925014415
 20
406.9379128273773
 42
0.0
 10
2661.687992635558
 20
406.931901102501
 42
-0.3073346934834261
 10
2659.947349582701
 20
405.7662620933389
 42
0.0
 10
2656.128838431515
 20
405.7640756006889
 42
-0.3057747226774016
 97
        0
 75
     0
 76
     1
 47
0.1180065091547201
 98
        1
 10
2645.029510769415
 20
406.5172109528036
  0
HATCH
  5
1D12
330
1F
100
AcDbEntity
  8
NOSNÉ_KONSTRUKCE
100
AcDbHatch
 10
0.0
 20
0.0
 30
0.0
210
0.0
220
0.0
230
1.0
  2
SOLID
 70
     1
 71
     0
 91
        1
 92
        7
 72
     1
 73
     1
 93
       60
 10
2654.822027836123
 20
-415.4900579436664
 42
0.0
 10
2620.429033801669
 20
-415.4900579436663
 42
0.3073346934841183
 10
2618.687723585356
 20
-414.325415823646
 42
0.0
 10
2614.869211808175
 20
-414.325415823646
 42
0.307334693483106
 10
2613.12790159187
 20
-415.4900579436665
 42
0.0
 10
2602.628967491846
 20
-415.4900579436662
 42
-0.4142135623730951
 10
2600.628967491847
 20
-413.4900579436664
 42
0.0
 10
2600.628967491847
 20
-405.2912045821609
 42
0.7595816512230912
 10
2600.628967491847
 20
-401.6997624144048
 42
0.0
 10
2600.628967491851
 20
-392.5238930098447
 42
0.7595816493590427
 10
2600.628967491847
 20
-388.9324508091274
 42
0.0
 10
2600.628967491847
 20
-379.7565834383485
 42
0.7767342353201953
 10
2600.551010309019
 20
-376.1451248541204
 42
0.0
 10
2600.55101030902
 20
-369.577015617645
 42
-0.4142135623730868
 10
2602.551010309019
 20
-367.5770156176452
 42
0.0
 10
2605.376336100714
 20
-367.5770156176451
 42
0.0
 10
2605.376336100714
 20
-368.5770156176451
 42
0.0
 10
2602.55101030902
 20
-368.5770156176451
 42
0.4142135623730951
 10
2601.55101030902
 20
-369.5770156176451
 42
0.0
 10
2601.55101030902
 20
-375.4747116647446
 42
-0.5694936494219963
 10
2601.628967491847
 20
-380.4006570482426
 42
0.0
 10
2601.628967491847
 20
-388.2883752251956
 42
-0.5590616644338513
 10
2601.62896749185
 20
-393.1679685937753
 42
0.0
 10
2601.628967491847
 20
-401.0556868298819
 42
-0.5590616643157284
 10
2601.628967491847
 20
-405.9352801666838
 42
0.0
 10
2601.628967491847
 20
-413.4900579436664
 42
0.4142135623731451
 10
2602.628967491846
 20
-414.4900579436663
 42
0.0
 10
2612.561971682671
 20
-414.4900579436664
 42
-0.2364174637114482
 10
2614.843821339684
 20
-413.334598857216
 42
0.0
 10
2618.713114053852
 20
-413.334598857216
 42
-0.2364174637115772
 10
2620.994963710868
 20
-414.4900579436663
 42
0.0
 10
2654.259737586752
 20
-414.4900579436663
 42
-0.2353201211467568
 10
2656.535153102577
 20
-413.3454273713063
 42
0.0
 10
2660.40444518242
 20
-413.3476429412912
 42
-0.2364174637122881
 10
2662.685632845614
 20
-414.5044084330852
 42
0.0
 10
2672.618635408048
 20
-414.5100961045976
 42
0.4142135623730951
 10
2673.619207847465
 20
-413.5106688718889
 42
0.0
 10
2673.623533738556
 20
-405.9558923334162
 42
-0.5590616643157161
 10
2673.626327810067
 20
-401.0762997965616
 42
0.0
 10
2673.630844343978
 20
-393.1885828535465
 42
-0.5590616644338511
 10
2673.63363841551
 20
-388.3089902849142
 42
0.0
 10
2673.638154949391
 20
-380.4212734010525
 42
-0.5694936494220229
 10
2673.718932732286
 20
-375.495373463645
 42
0.0
 10
2673.722309772822
 20
-369.597678383398
 42
0.4142135623730951
 10
2672.722882540113
 20
-368.5971059439816
 42
0.0
 10
2669.897557211594
 20
-368.5954881529577
 42
0.0
 10
2669.898129814948
 20
-367.595488316895
 42
0.0
 10
2672.723455143466
 20
-367.597106107919
 42
-0.4142135623730618
 10
2674.722309608884
 20
-369.5982509867516
 42
0.0
 10
2674.718548687508
 20
-376.166359146469
 42
0.7767342353201953
 10
2674.638523584163
 20
-379.7777725000998
 42
0.0
 10
2674.633269451733
 20
-388.9536383666117
 42
0.759581649359043
 10
2674.63121297988
 20
-392.5450799785576
 42
0.0
 10
2674.62595884629
 20
-401.7209478788502
 42
0.7595816512230912
 10
2674.623902374459
 20
-405.312389457835
 42
0.0
 10
2674.619207683528
 20
-413.5112414752425
 42
-0.4142135623731117
 10
2672.618062804695
 20
-415.5100959406602
 42
0.0
 10
2662.119130425839
 20
-415.5040842157838
 42
0.3073346934834261
 10
2660.37848737298
 20
-414.3384452066218
 42
0.0
 10
2656.559976221794
 20
-414.3362587139717
 42
0.3057747226774016
 97
        0
 75
     0
 76
     1
 47
0.1180065091547201
 98
        1
 10
2645.460648559695
 20
-415.0893940660865
  0
HATCH
  5
1D15
330
1F
100
AcDbEntity
  8
IZOLACE
100
AcDbHatch
 10
0.0
 20
0.0
 30
0.0
210
0.0
220
0.0
230
1.0
  2
SOLID
 70
     1
 71
     0
 91
        4
 92
        7
 72
     0
 73
     1
 93
        4
 10
2674.482215901851
 20
407.7370161905098
 10
2661.981138894876
 20
407.7370161905098
 10
2661.981138894876
 20
409.7370161905135
 10
2674.482215901851
 20
409.7370161905135
 97
        0
 92
        7
 72
     0
 73
     1
 93
        4
 10
2654.324427980279
 20
407.7370161905098
 10
2641.823350973301
 20
407.7370161905098
 10
2641.823350973301
 20
409.7370161905135
 10
2654.324427980279
 20
409.7370161905134
 97
        0
 92
        7
 72
     0
 73
     1
 93
        4
 10
2633.590191958649
 20
407.7370161905098
 10
2621.089114951671
 20
407.7370161905098
 10
2621.089114951671
 20
409.7370161905135
 10
2633.590191958649
 20
409.7370161905134
 97
        0
 92
        7
 72
     1
 73
     1
 93
        7
 10
2612.445941045786
 20
408.2159418526306
 42
0.0
 10
2612.445941045786
 20
407.7370161905099
 42
0.0
 10
2599.94486403881
 20
407.7370161905099
 42
0.0
 10
2599.94486403881
 20
409.7370161905135
 42
0.0
 10
2612.209553051531
 20
409.7370161905135
 42
0.0
 10
2612.445941045786
 20
409.5784088184323
 42
0.0
 10
2612.445941045786
 20
409.5027362764434
 42
0.2771233679601331
 97
        0
 75
     0
 76
     1
 47
0.1334780420591298
 98
        4
 10
2669.261440330374
 20
409.0390052990565
 10
2653.499353998066
 20
409.0390052990565
 10
2626.51679636186
 20
409.0390052990565
 10
2608.21674530295
 20
409.0390052990565
  0
LINE
  5
1D16
330
1F
100
AcDbEntity
  8
IZOLACE
100
AcDbLine
 10
2661.981138894876
 20
407.7370161905098
 30
0.0
 11
2599.94486403881
 21
407.7370161905098
 31
0.0
  0
LINE
  5
1D17
330
1F
100
AcDbEntity
  8
IZOLACE
100
AcDbLine
 10
2661.981138894876
 20
409.7370161905135
 30
0.0
 11
2599.94486403881
 21
409.7370161905135
 31
0.0
  0
LINE
  5
1D18
330
1F
100
AcDbEntity
  8
SPOJOVACÍ
  6
CONTINUOUS
100
AcDbLine
 10
2635.108383527931
 20
429.1684167596115
 30
0.0
 11
2635.556254450661
 21
429.6162876849314
 31
0.0
  0
LINE
  5
1D19
330
1F
100
AcDbEntity
  8
SPOJOVACÍ
  6
CONTINUOUS
100
AcDbLine
 10
2640.352665245864
 20
428.0035111016888
 30
0.0
 11
2635.556254450661
 21
429.6162876849314
 31
0.0
  0
INSERT
  5
1D1A
330
1F
100
AcDbEntity
  8
POPIS
100
AcDbBlockReference
  2
E_PUNKT
 10
2638.590356935827
 20
429.5840273013093
 30
0.0
 41
-1.0
 50
270.0
  0
LINE
  5
1D1B
330
1F
100
AcDbEntity
  8
SPOJOVACÍ
  6
DASHED
100
AcDbLine
 10
2639.665397350851
 20
446.7533460170755
 30
0.0
 11
2639.665397350851
 21
405.9651606448362
 31
0.0
  0
LINE
  5
1D1C
330
1F
100
AcDbEntity
  8
SPOJOVACÍ
  6
DASHED
100
AcDbLine
 10
2636.24352235085
 20
446.7533460170755
 30
0.0
 11
2636.24352235085
 21
405.9651606448398
 31
0.0
  0
LINE
  5
1D1D
330
1F
100
AcDbEntity
  8
SPOJOVACÍ
  6
CIKCAK
 48
0.25
100
AcDbLine
 10
2641.479926274325
 20
407.1530316199325
 30
0.0
 11
2641.479926274325
 21
454.6174174352684
 31
0.0
  0
LINE
  5
1D1E
330
1F
100
AcDbEntity
  8
SPOJOVACÍ
  6
CIKCAK
 48
0.25
100
AcDbLine
 10
2634.428993427377
 20
407.1530316199325
 30
0.0
 11
2634.428993427377
 21
454.6174174352647
 31
0.0
  0
LINE
  5
1D1F
330
1F
100
AcDbEntity
  8
SPOJOVACÍ
  6
DASHDOT2
100
AcDbLine
 10
2637.954459850851
 20
391.4440629755238
 30
0.0
 11
2637.954459850851
 21
459.8498181844927
 31
0.0
  0
LINE
  5
1D20
330
1F
100
AcDbEntity
  8
SPOJOVACÍ
 48
0.25
100
AcDbLine
 10
2634.428993427377
 20
454.6174174352647
 30
0.0
 11
2637.954459850851
 21
460.2668577759843
 31
0.0
  0
LINE
  5
1D21
330
1F
100
AcDbEntity
  8
SPOJOVACÍ
 48
0.25
100
AcDbLine
 10
2641.479926274325
 20
454.6174174352684
 30
0.0
 11
2637.954459850851
 21
460.2668577759843
 31
0.0
  0
LINE
  5
1D22
330
1F
100
AcDbEntity
  8
SPOJOVACÍ
  6
CONTINUOUS
100
AcDbLine
 10
2639.195721311596
 20
454.7206755436393
 30
0.0
 11
2636.761160573605
 21
455.539869739737
 31
0.0
  0
LINE
  5
1D23
330
1F
100
AcDbEntity
  8
SPOJOVACÍ
  6
CONTINUOUS
100
AcDbLine
 10
2636.371707597314
 20
455.1494575175068
 30
0.0
 11
2636.761160573605
 21
455.539869739737
 31
0.0
  0
LINE
  5
1D24
330
1F
100
AcDbEntity
  8
SPOJOVACÍ
  6
CONTINUOUS
100
AcDbLine
 10
2639.002913309712
 20
457.6041623747308
 30
0.0
 11
2638.613460333425
 21
457.829584665252
 31
0.0
  0
LINE
  5
1D25
330
1F
100
AcDbEntity
  8
SPOJOVACÍ
  6
CONTINUOUS
100
AcDbLine
 10
2639.002913309712
 20
457.6041623747308
 30
0.0
 11
2638.613460333425
 21
457.2147093961951
 31
0.0
  0
LINE
  5
1D26
330
1F
100
AcDbEntity
  8
SPOJOVACÍ
  6
CONTINUOUS
100
AcDbLine
 10
2636.781304695086
 20
457.924549800374
 30
0.0
 11
2637.17075767137
 21
458.3149620226079
 31
0.0
  0
LINE
  5
1D27
330
1F
100
AcDbEntity
  8
SPOJOVACÍ
  6
CONTINUOUS
100
AcDbLine
 10
2636.781304695086
 20
457.924549800374
 30
0.0
 11
2637.17075767137
 21
457.7000867535437
 31
0.0
  0
LINE
  5
1D28
330
1F
100
AcDbEntity
  8
SPOJOVACÍ
  6
CONTINUOUS
100
AcDbLine
 10
2638.613460333425
 20
457.829584665252
 30
0.0
 11
2637.17075767137
 21
458.3149620226079
 31
0.0
  0
LINE
  5
1D29
330
1F
100
AcDbEntity
  8
SPOJOVACÍ
  6
CONTINUOUS
100
AcDbLine
 10
2638.613460333425
 20
457.2147093961951
 30
0.0
 11
2637.17075767137
 21
457.7000867535437
 31
0.0
  0
LINE
  5
1D2A
330
1F
100
AcDbEntity
  8
SPOJOVACÍ
  6
CONTINUOUS
100
AcDbLine
 10
2639.002913309712
 20
457.6041623747308
 30
0.0
 11
2636.781304695086
 21
457.924549800374
 31
0.0
  0
LINE
  5
1D2B
330
1F
100
AcDbEntity
  8
SPOJOVACÍ
  6
CONTINUOUS
100
AcDbLine
 10
2640.80053617377
 20
437.9333483409038
 30
0.0
 11
2640.352665245864
 21
438.1914808444391
 31
0.0
  0
LINE
  5
1D2C
330
1F
100
AcDbEntity
  8
SPOJOVACÍ
  6
CONTINUOUS
100
AcDbLine
 10
2640.80053617377
 20
437.9333483409038
 30
0.0
 11
2640.352665245864
 21
437.4843742850146
 31
0.0
  0
LINE
  5
1D2D
330
1F
100
AcDbEntity
  8
SPOJOVACÍ
  6
CONTINUOUS
100
AcDbLine
 10
2640.80053617377
 20
434.5373584266537
 30
0.0
 11
2640.352665245864
 21
434.7954909301891
 31
0.0
  0
LINE
  5
1D2E
330
1F
100
AcDbEntity
  8
SPOJOVACÍ
  6
CONTINUOUS
100
AcDbLine
 10
2640.80053617377
 20
434.5373584266537
 30
0.0
 11
2640.352665245864
 21
434.0883843707644
 31
0.0
  0
LINE
  5
1D2F
330
1F
100
AcDbEntity
  8
SPOJOVACÍ
  6
CONTINUOUS
100
AcDbLine
 10
2640.80053617377
 20
431.1413685124036
 30
0.0
 11
2640.352665245864
 21
431.399501015939
 31
0.0
  0
LINE
  5
1D30
330
1F
100
AcDbEntity
  8
SPOJOVACÍ
  6
CONTINUOUS
100
AcDbLine
 10
2640.80053617377
 20
431.1413685124036
 30
0.0
 11
2640.352665245864
 21
430.6923944565144
 31
0.0
  0
LINE
  5
1D31
330
1F
100
AcDbEntity
  8
SPOJOVACÍ
  6
CONTINUOUS
100
AcDbLine
 10
2635.108383527931
 20
435.9603965881117
 30
0.0
 11
2635.556254450661
 21
436.4082675134316
 31
0.0
  0
LINE
  5
1D32
330
1F
100
AcDbEntity
  8
SPOJOVACÍ
  6
CONTINUOUS
100
AcDbLine
 10
2635.108383527931
 20
435.9603965881117
 30
0.0
 11
2635.556254450661
 21
435.7011609540107
 31
0.0
  0
LINE
  5
1D33
330
1F
100
AcDbEntity
  8
SPOJOVACÍ
  6
CONTINUOUS
100
AcDbLine
 10
2635.108383527931
 20
432.5644066738616
 30
0.0
 11
2635.556254450661
 21
433.0122775991815
 31
0.0
  0
LINE
  5
1D34
330
1F
100
AcDbEntity
  8
SPOJOVACÍ
  6
CONTINUOUS
100
AcDbLine
 10
2635.108383527931
 20
432.5644066738616
 30
0.0
 11
2635.556254450661
 21
432.3051710397606
 31
0.0
  0
LINE
  5
1D35
330
1F
100
AcDbEntity
  8
SPOJOVACÍ
  6
CONTINUOUS
100
AcDbLine
 10
2640.352665245864
 20
437.4843742850146
 30
0.0
 11
2635.556254450661
 21
439.0971508682607
 31
0.0
  0
LINE
  5
1D36
330
1F
100
AcDbEntity
  8
SPOJOVACÍ
  6
CONTINUOUS
100
AcDbLine
 10
2640.80053617377
 20
434.5373584266537
 30
0.0
 11
2635.108383527931
 21
435.9603965881117
 31
0.0
  0
LINE
  5
1D37
330
1F
100
AcDbEntity
  8
SPOJOVACÍ
  6
CONTINUOUS
100
AcDbLine
 10
2640.352665245864
 20
434.7954909301891
 30
0.0
 11
2635.556254450661
 21
436.4082675134316
 31
0.0
  0
LINE
  5
1D38
330
1F
100
AcDbEntity
  8
SPOJOVACÍ
  6
CONTINUOUS
100
AcDbLine
 10
2640.352665245864
 20
434.0883843707644
 30
0.0
 11
2635.556254450661
 21
435.7011609540107
 31
0.0
  0
LINE
  5
1D39
330
1F
100
AcDbEntity
  8
SPOJOVACÍ
  6
CONTINUOUS
100
AcDbLine
 10
2640.80053617377
 20
431.1413685124036
 30
0.0
 11
2635.108383527931
 21
432.5644066738616
 31
0.0
  0
LINE
  5
1D3A
330
1F
100
AcDbEntity
  8
SPOJOVACÍ
  6
CONTINUOUS
100
AcDbLine
 10
2640.352665245864
 20
431.399501015939
 30
0.0
 11
2635.556254450661
 21
433.0122775991815
 31
0.0
  0
LINE
  5
1D3B
330
1F
100
AcDbEntity
  8
SPOJOVACÍ
  6
CONTINUOUS
100
AcDbLine
 10
2640.352665245864
 20
430.6923944565144
 30
0.0
 11
2635.556254450661
 21
432.3051710397606
 31
0.0
  0
LINE
  5
1D3C
330
1F
100
AcDbEntity
  8
SPOJOVACÍ
  6
CONTINUOUS
100
AcDbLine
 10
2640.167435270555
 20
451.3873033754691
 30
0.0
 11
2639.777023048889
 21
451.6127256659976
 31
0.0
  0
LINE
  5
1D3D
330
1F
100
AcDbEntity
  8
SPOJOVACÍ
  6
CONTINUOUS
100
AcDbLine
 10
2640.167435270555
 20
451.3873033754691
 30
0.0
 11
2639.777023048889
 21
450.9978503969298
 31
0.0
  0
LINE
  5
1D3E
330
1F
100
AcDbEntity
  8
SPOJOVACÍ
  6
CONTINUOUS
100
AcDbLine
 10
2639.585174292387
 20
454.4962124970891
 30
0.0
 11
2639.195721311596
 21
454.7206755436393
 31
0.0
  0
LINE
  5
1D3F
330
1F
100
AcDbEntity
  8
SPOJOVACÍ
  6
CONTINUOUS
100
AcDbLine
 10
2639.585174292387
 20
454.4962124970891
 30
0.0
 11
2639.195721311596
 21
454.1058002745751
 31
0.0
  0
LINE
  5
1D40
330
1F
100
AcDbEntity
  8
SPOJOVACÍ
  6
CONTINUOUS
100
AcDbLine
 10
2639.195721311596
 20
454.1058002745751
 30
0.0
 11
2636.761160573605
 21
454.9249944709601
 31
0.0
  0
LINE
  5
1D41
330
1F
100
AcDbEntity
  8
SPOJOVACÍ
  6
CONTINUOUS
100
AcDbLine
 10
2640.80053617377
 20
448.1213180836541
 30
0.0
 11
2640.352665245864
 21
448.3794505871895
 31
0.0
  0
LINE
  5
1D42
330
1F
100
AcDbEntity
  8
SPOJOVACÍ
  6
CONTINUOUS
100
AcDbLine
 10
2640.80053617377
 20
448.1213180836541
 30
0.0
 11
2640.352665245864
 21
447.6723440277648
 31
0.0
  0
LINE
  5
1D43
330
1F
100
AcDbEntity
  8
SPOJOVACÍ
  6
CONTINUOUS
100
AcDbLine
 10
2640.80053617377
 20
444.725328169404
 30
0.0
 11
2640.352665245864
 21
444.2763541135148
 31
0.0
  0
LINE
  5
1D44
330
1F
100
AcDbEntity
  8
SPOJOVACÍ
  6
CONTINUOUS
100
AcDbLine
 10
2640.80053617377
 20
444.725328169404
 30
0.0
 11
2640.352665245864
 21
444.9834606729393
 31
0.0
  0
LINE
  5
1D45
330
1F
100
AcDbEntity
  8
SPOJOVACÍ
  6
CONTINUOUS
100
AcDbLine
 10
2640.80053617377
 20
441.329338255154
 30
0.0
 11
2640.352665245864
 21
441.5874707586892
 31
0.0
  0
LINE
  5
1D46
330
1F
100
AcDbEntity
  8
SPOJOVACÍ
  6
CONTINUOUS
100
AcDbLine
 10
2640.80053617377
 20
441.329338255154
 30
0.0
 11
2640.352665245864
 21
440.8803641992647
 31
0.0
  0
LINE
  5
1D47
330
1F
100
AcDbEntity
  8
SPOJOVACÍ
  6
CONTINUOUS
100
AcDbLine
 10
2635.913189066166
 20
452.3906723790981
 30
0.0
 11
2636.302642042454
 21
452.781084601612
 31
0.0
  0
LINE
  5
1D48
330
1F
100
AcDbEntity
  8
SPOJOVACÍ
  6
CONTINUOUS
100
AcDbLine
 10
2635.913189066166
 20
452.3906723790981
 30
0.0
 11
2636.302642042454
 21
452.1662093325478
 31
0.0
  0
LINE
  5
1D49
330
1F
100
AcDbEntity
  8
SPOJOVACÍ
  6
CONTINUOUS
100
AcDbLine
 10
2635.108383527931
 20
449.5443562451121
 30
0.0
 11
2635.556254450661
 21
449.992227170432
 31
0.0
  0
LINE
  5
1D4A
330
1F
100
AcDbEntity
  8
SPOJOVACÍ
  6
CONTINUOUS
100
AcDbLine
 10
2635.108383527931
 20
449.5443562451121
 30
0.0
 11
2635.556254450661
 21
449.285120611011
 31
0.0
  0
LINE
  5
1D4B
330
1F
100
AcDbEntity
  8
SPOJOVACÍ
  6
CONTINUOUS
100
AcDbLine
 10
2635.108383527931
 20
446.1483663308619
 30
0.0
 11
2635.556254450661
 21
445.8891306967609
 31
0.0
  0
LINE
  5
1D4C
330
1F
100
AcDbEntity
  8
SPOJOVACÍ
  6
CONTINUOUS
100
AcDbLine
 10
2635.108383527931
 20
446.1483663308619
 30
0.0
 11
2635.556254450661
 21
446.5962372561818
 31
0.0
  0
LINE
  5
1D4D
330
1F
100
AcDbEntity
  8
SPOJOVACÍ
  6
CONTINUOUS
100
AcDbLine
 10
2635.108383527931
 20
442.7523764166119
 30
0.0
 11
2635.556254450661
 21
443.2002473419317
 31
0.0
  0
LINE
  5
1D4E
330
1F
100
AcDbEntity
  8
SPOJOVACÍ
  6
CONTINUOUS
100
AcDbLine
 10
2635.108383527931
 20
442.7523764166119
 30
0.0
 11
2635.556254450661
 21
442.4931407825108
 31
0.0
  0
LINE
  5
1D4F
330
1F
100
AcDbEntity
  8
SPOJOVACÍ
  6
CONTINUOUS
100
AcDbLine
 10
2635.108383527931
 20
439.3563865023618
 30
0.0
 11
2635.556254450661
 21
439.8042574276817
 31
0.0
  0
LINE
  5
1D50
330
1F
100
AcDbEntity
  8
SPOJOVACÍ
  6
CONTINUOUS
100
AcDbLine
 10
2639.777023048889
 20
451.6127256659976
 30
0.0
 11
2636.302642042454
 21
452.781084601612
 31
0.0
  0
LINE
  5
1D51
330
1F
100
AcDbEntity
  8
SPOJOVACÍ
  6
CONTINUOUS
100
AcDbLine
 10
2639.777023048889
 20
450.9978503969298
 30
0.0
 11
2636.302642042454
 21
452.1662093325478
 31
0.0
  0
LINE
  5
1D52
330
1F
100
AcDbEntity
  8
SPOJOVACÍ
  6
CONTINUOUS
100
AcDbLine
 10
2640.167435270555
 20
451.3873033754691
 30
0.0
 11
2635.913189066166
 21
452.3906723790981
 31
0.0
  0
LINE
  5
1D53
330
1F
100
AcDbEntity
  8
SPOJOVACÍ
  6
CONTINUOUS
100
AcDbLine
 10
2636.371707597314
 20
455.1494575175068
 30
0.0
 11
2636.761160573605
 21
454.9249944709601
 31
0.0
  0
LINE
  5
1D54
330
1F
100
AcDbEntity
  8
SPOJOVACÍ
  6
CONTINUOUS
100
AcDbLine
 10
2639.585174292387
 20
454.4962124970891
 30
0.0
 11
2636.371707597314
 21
455.1494575175068
 31
0.0
  0
LINE
  5
1D55
330
1F
100
AcDbEntity
  8
SPOJOVACÍ
  6
CONTINUOUS
100
AcDbLine
 10
2640.80053617377
 20
448.1213180836541
 30
0.0
 11
2635.108383527931
 21
449.5443562451121
 31
0.0
  0
LINE
  5
1D56
330
1F
100
AcDbEntity
  8
SPOJOVACÍ
  6
CONTINUOUS
100
AcDbLine
 10
2640.352665245864
 20
448.3794505871895
 30
0.0
 11
2635.556254450661
 21
449.992227170432
 31
0.0
  0
LINE
  5
1D57
330
1F
100
AcDbEntity
  8
SPOJOVACÍ
  6
CONTINUOUS
100
AcDbLine
 10
2640.352665245864
 20
447.6723440277648
 30
0.0
 11
2635.556254450661
 21
449.285120611011
 31
0.0
  0
LINE
  5
1D58
330
1F
100
AcDbEntity
  8
SPOJOVACÍ
  6
CONTINUOUS
100
AcDbLine
 10
2640.352665245864
 20
444.2763541135148
 30
0.0
 11
2635.556254450661
 21
445.8891306967609
 31
0.0
  0
LINE
  5
1D59
330
1F
100
AcDbEntity
  8
SPOJOVACÍ
  6
CONTINUOUS
100
AcDbLine
 10
2640.352665245864
 20
444.9834606729393
 30
0.0
 11
2635.556254450661
 21
446.5962372561818
 31
0.0
  0
LINE
  5
1D5A
330
1F
100
AcDbEntity
  8
SPOJOVACÍ
  6
CONTINUOUS
100
AcDbLine
 10
2640.80053617377
 20
444.725328169404
 30
0.0
 11
2635.108383527931
 21
446.1483663308619
 31
0.0
  0
LINE
  5
1D5B
330
1F
100
AcDbEntity
  8
SPOJOVACÍ
  6
CONTINUOUS
100
AcDbLine
 10
2640.80053617377
 20
441.329338255154
 30
0.0
 11
2635.108383527931
 21
442.7523764166119
 31
0.0
  0
LINE
  5
1D5C
330
1F
100
AcDbEntity
  8
SPOJOVACÍ
  6
CONTINUOUS
100
AcDbLine
 10
2640.352665245864
 20
441.5874707586892
 30
0.0
 11
2635.556254450661
 21
443.2002473419317
 31
0.0
  0
LINE
  5
1D5D
330
1F
100
AcDbEntity
  8
SPOJOVACÍ
  6
CONTINUOUS
100
AcDbLine
 10
2640.352665245864
 20
440.8803641992647
 30
0.0
 11
2635.556254450661
 21
442.4931407825108
 31
0.0
  0
LINE
  5
1D5E
330
1F
100
AcDbEntity
  8
SPOJOVACÍ
  6
DASHED
100
AcDbLine
 10
2637.954459850851
 20
459.3503071991783
 30
0.0
 11
2639.665397350851
 21
446.6450470754846
 31
0.0
  0
LINE
  5
1D5F
330
1F
100
AcDbEntity
  8
SPOJOVACÍ
  6
DASHED
100
AcDbLine
 10
2637.954459850851
 20
459.3503071991783
 30
0.0
 11
2636.24352235085
 21
446.6450470754846
 31
0.0
  0
LINE
  5
1D60
330
1F
100
AcDbEntity
  8
SPOJOVACÍ
  6
CONTINUOUS
100
AcDbLine
 10
2640.80053617377
 20
437.9333483409038
 30
0.0
 11
2635.108383527931
 21
439.3563865023618
 31
0.0
  0
LINE
  5
1D61
330
1F
100
AcDbEntity
  8
SPOJOVACÍ
  6
CONTINUOUS
100
AcDbLine
 10
2635.108383527931
 20
439.3563865023618
 30
0.0
 11
2635.556254450661
 21
439.0971508682607
 31
0.0
  0
LINE
  5
1D62
330
1F
100
AcDbEntity
  8
SPOJOVACÍ
  6
CONTINUOUS
100
AcDbLine
 10
2640.352665245864
 20
438.1914808444391
 30
0.0
 11
2635.556254450661
 21
439.8042574276817
 31
0.0
  0
LINE
  5
1D63
330
1F
100
AcDbEntity
  8
SPOJOVACÍ
100
AcDbLine
 10
2631.204459850851
 20
402.7825263422612
 30
0.0
 11
2636.24352235085
 21
405.9651606448398
 31
0.0
  0
LINE
  5
1D64
330
1F
100
AcDbEntity
  8
SPOJOVACÍ
  6
DASHED
100
AcDbLine
 10
2644.704459850851
 20
402.7825263422612
 30
0.0
 11
2639.665397350851
 21
405.9651606448362
 31
0.0
  0
LINE
  5
1D65
330
1F
100
AcDbEntity
  8
SPOJOVACÍ
  6
CONTINUOUS
100
AcDbLine
 10
2640.800536171184
 20
410.7654290277726
 30
0.0
 11
2640.352665243277
 21
411.0235615313079
 31
0.0
  0
LINE
  5
1D66
330
1F
100
AcDbEntity
  8
SPOJOVACÍ
  6
CONTINUOUS
100
AcDbLine
 10
2640.800536171184
 20
410.7654290277726
 30
0.0
 11
2640.352665243277
 21
410.3164549718833
 31
0.0
  0
LINE
  5
1D67
330
1F
100
AcDbEntity
  8
SPOJOVACÍ
  6
CONTINUOUS
100
AcDbLine
 10
2640.800536171184
 20
407.3694391135225
 30
0.0
 11
2640.352665243277
 21
407.6275716170577
 31
0.0
  0
LINE
  5
1D68
330
1F
100
AcDbEntity
  8
SPOJOVACÍ
  6
CONTINUOUS
100
AcDbLine
 10
2640.800536171184
 20
407.3694391135225
 30
0.0
 11
2640.352665243277
 21
406.9204650576332
 31
0.0
  0
LINE
  5
1D69
330
1F
100
AcDbEntity
  8
SPOJOVACÍ
  6
CONTINUOUS
100
AcDbLine
 10
2635.108383525341
 20
412.1884671892305
 30
0.0
 11
2635.55625444807
 21
412.6363381145504
 31
0.0
  0
LINE
  5
1D6A
330
1F
100
AcDbEntity
  8
SPOJOVACÍ
  6
CONTINUOUS
100
AcDbLine
 10
2635.108383525341
 20
412.1884671892305
 30
0.0
 11
2635.55625444807
 21
411.9292315551295
 31
0.0
  0
LINE
  5
1D6B
330
1F
100
AcDbEntity
  8
SPOJOVACÍ
  6
CONTINUOUS
100
AcDbLine
 10
2635.108383525341
 20
408.7924772749804
 30
0.0
 11
2635.55625444807
 21
409.2403482003003
 31
0.0
  0
LINE
  5
1D6C
330
1F
100
AcDbEntity
  8
SPOJOVACÍ
  6
CONTINUOUS
100
AcDbLine
 10
2635.108383525341
 20
408.7924772749804
 30
0.0
 11
2635.55625444807
 21
408.5332416408793
 31
0.0
  0
LINE
  5
1D6D
330
1F
100
AcDbEntity
  8
SPOJOVACÍ
  6
CONTINUOUS
100
AcDbLine
 10
2640.800536171184
 20
410.7654290277726
 30
0.0
 11
2635.108383525341
 21
412.1884671892305
 31
0.0
  0
LINE
  5
1D6E
330
1F
100
AcDbEntity
  8
SPOJOVACÍ
  6
CONTINUOUS
100
AcDbLine
 10
2640.352665243277
 20
411.0235615313079
 30
0.0
 11
2635.55625444807
 21
412.6363381145504
 31
0.0
  0
LINE
  5
1D6F
330
1F
100
AcDbEntity
  8
SPOJOVACÍ
  6
CONTINUOUS
100
AcDbLine
 10
2640.352665243277
 20
410.3164549718833
 30
0.0
 11
2635.55625444807
 21
411.9292315551295
 31
0.0
  0
LINE
  5
1D70
330
1F
100
AcDbEntity
  8
SPOJOVACÍ
  6
CONTINUOUS
100
AcDbLine
 10
2640.800536171184
 20
407.3694391135225
 30
0.0
 11
2635.108383525341
 21
408.7924772749804
 31
0.0
  0
LINE
  5
1D71
330
1F
100
AcDbEntity
  8
SPOJOVACÍ
  6
CONTINUOUS
100
AcDbLine
 10
2640.352665243277
 20
407.6275716170577
 30
0.0
 11
2635.55625444807
 21
409.2403482003003
 31
0.0
  0
LINE
  5
1D72
330
1F
100
AcDbEntity
  8
SPOJOVACÍ
  6
CONTINUOUS
100
AcDbLine
 10
2640.352665243277
 20
406.9204650576332
 30
0.0
 11
2635.55625444807
 21
408.5332416408793
 31
0.0
  0
LINE
  5
1D73
330
1F
100
AcDbEntity
  8
SPOJOVACÍ
  6
CONTINUOUS
100
AcDbLine
 10
2640.80053617377
 20
427.7453785981536
 30
0.0
 11
2640.352665245864
 21
428.0035111016888
 31
0.0
  0
LINE
  5
1D74
330
1F
100
AcDbEntity
  8
SPOJOVACÍ
  6
CONTINUOUS
100
AcDbLine
 10
2640.80053617377
 20
427.7453785981536
 30
0.0
 11
2640.352665245864
 21
427.2964045422643
 31
0.0
  0
LINE
  5
1D75
330
1F
100
AcDbEntity
  8
SPOJOVACÍ
  6
CONTINUOUS
100
AcDbLine
 10
2640.80053617377
 20
424.3493886839035
 30
0.0
 11
2640.352665245864
 21
424.6075211874388
 31
0.0
  0
LINE
  5
1D76
330
1F
100
AcDbEntity
  8
SPOJOVACÍ
  6
CONTINUOUS
100
AcDbLine
 10
2640.80053617377
 20
424.3493886839035
 30
0.0
 11
2640.352665245864
 21
423.9004146280142
 31
0.0
  0
LINE
  5
1D77
330
1F
100
AcDbEntity
  8
SPOJOVACÍ
  6
CONTINUOUS
100
AcDbLine
 10
2640.80053617377
 20
420.9533987696533
 30
0.0
 11
2640.352665245864
 21
420.5044247137641
 31
0.0
  0
LINE
  5
1D78
330
1F
100
AcDbEntity
  8
SPOJOVACÍ
  6
CONTINUOUS
100
AcDbLine
 10
2640.80053617377
 20
420.9533987696533
 30
0.0
 11
2640.352665245864
 21
421.2115312731887
 31
0.0
  0
LINE
  5
1D79
330
1F
100
AcDbEntity
  8
SPOJOVACÍ
  6
CONTINUOUS
100
AcDbLine
 10
2635.108383527931
 20
429.1684167596115
 30
0.0
 11
2635.556254450661
 21
428.9091811255104
 31
0.0
  0
LINE
  5
1D7A
330
1F
100
AcDbEntity
  8
SPOJOVACÍ
  6
CONTINUOUS
100
AcDbLine
 10
2635.108383527931
 20
425.7724268453614
 30
0.0
 11
2635.556254450661
 21
426.2202977706813
 31
0.0
  0
LINE
  5
1D7B
330
1F
100
AcDbEntity
  8
SPOJOVACÍ
  6
CONTINUOUS
100
AcDbLine
 10
2635.108383527931
 20
425.7724268453614
 30
0.0
 11
2635.556254450661
 21
425.5131912112603
 31
0.0
  0
LINE
  5
1D7C
330
1F
100
AcDbEntity
  8
SPOJOVACÍ
  6
CONTINUOUS
100
AcDbLine
 10
2635.108383527931
 20
418.9804470168613
 30
0.0
 11
2635.556254450661
 21
418.7212113827602
 31
0.0
  0
LINE
  5
1D7D
330
1F
100
AcDbEntity
  8
SPOJOVACÍ
  6
CONTINUOUS
100
AcDbLine
 10
2635.108383527931
 20
418.9804470168613
 30
0.0
 11
2635.556254450661
 21
419.4283179421811
 31
0.0
  0
LINE
  5
1D7E
330
1F
100
AcDbEntity
  8
SPOJOVACÍ
  6
CONTINUOUS
100
AcDbLine
 10
2635.108383527931
 20
422.3764369311113
 30
0.0
 11
2635.556254450661
 21
422.1172012970103
 31
0.0
  0
LINE
  5
1D7F
330
1F
100
AcDbEntity
  8
SPOJOVACÍ
  6
CONTINUOUS
100
AcDbLine
 10
2635.108383527931
 20
422.3764369311113
 30
0.0
 11
2635.556254450661
 21
422.8243078564312
 31
0.0
  0
LINE
  5
1D80
330
1F
100
AcDbEntity
  8
SPOJOVACÍ
  6
CONTINUOUS
100
AcDbLine
 10
2640.80053617377
 20
427.7453785981536
 30
0.0
 11
2635.108383527931
 21
429.1684167596115
 31
0.0
  0
LINE
  5
1D81
330
1F
100
AcDbEntity
  8
SPOJOVACÍ
  6
CONTINUOUS
100
AcDbLine
 10
2640.352665245864
 20
427.2964045422643
 30
0.0
 11
2635.556254450661
 21
428.9091811255104
 31
0.0
  0
LINE
  5
1D82
330
1F
100
AcDbEntity
  8
SPOJOVACÍ
  6
CONTINUOUS
100
AcDbLine
 10
2640.80053617377
 20
424.3493886839035
 30
0.0
 11
2635.108383527931
 21
425.7724268453614
 31
0.0
  0
LINE
  5
1D83
330
1F
100
AcDbEntity
  8
SPOJOVACÍ
  6
CONTINUOUS
100
AcDbLine
 10
2640.352665245864
 20
424.6075211874388
 30
0.0
 11
2635.556254450661
 21
426.2202977706813
 31
0.0
  0
LINE
  5
1D84
330
1F
100
AcDbEntity
  8
SPOJOVACÍ
  6
CONTINUOUS
100
AcDbLine
 10
2640.352665245864
 20
423.9004146280142
 30
0.0
 11
2635.556254450661
 21
425.5131912112603
 31
0.0
  0
LINE
  5
1D85
330
1F
100
AcDbEntity
  8
SPOJOVACÍ
  6
CONTINUOUS
100
AcDbLine
 10
2640.352665245864
 20
417.108434799514
 30
0.0
 11
2635.556254450661
 21
418.7212113827602
 31
0.0
  0
LINE
  5
1D86
330
1F
100
AcDbEntity
  8
SPOJOVACÍ
  6
CONTINUOUS
100
AcDbLine
 10
2640.352665245864
 20
417.8155413589386
 30
0.0
 11
2635.556254450661
 21
419.4283179421811
 31
0.0
  0
LINE
  5
1D87
330
1F
100
AcDbEntity
  8
SPOJOVACÍ
  6
CONTINUOUS
100
AcDbLine
 10
2640.80053617377
 20
417.5574088554033
 30
0.0
 11
2635.108383527931
 21
418.9804470168613
 31
0.0
  0
LINE
  5
1D88
330
1F
100
AcDbEntity
  8
SPOJOVACÍ
  6
CONTINUOUS
100
AcDbLine
 10
2640.352665245864
 20
420.5044247137641
 30
0.0
 11
2635.556254450661
 21
422.1172012970103
 31
0.0
  0
LINE
  5
1D89
330
1F
100
AcDbEntity
  8
SPOJOVACÍ
  6
CONTINUOUS
100
AcDbLine
 10
2640.352665245864
 20
421.2115312731887
 30
0.0
 11
2635.556254450661
 21
422.8243078564312
 31
0.0
  0
LINE
  5
1D8A
330
1F
100
AcDbEntity
  8
SPOJOVACÍ
  6
CONTINUOUS
100
AcDbLine
 10
2640.80053617377
 20
420.9533987696533
 30
0.0
 11
2635.108383527931
 21
422.3764369311113
 31
0.0
  0
LINE
  5
1D8B
330
1F
100
AcDbEntity
  8
SPOJOVACÍ
  6
CONTINUOUS
100
AcDbLine
 10
2640.800536171184
 20
414.1614189420226
 30
0.0
 11
2640.352665243277
 21
413.7124448861333
 31
0.0
  0
LINE
  5
1D8C
330
1F
100
AcDbEntity
  8
SPOJOVACÍ
  6
CONTINUOUS
100
AcDbLine
 10
2640.800536171184
 20
414.1614189420226
 30
0.0
 11
2640.352665243277
 21
414.419551445558
 31
0.0
  0
LINE
  5
1D8D
330
1F
100
AcDbEntity
  8
SPOJOVACÍ
  6
CONTINUOUS
100
AcDbLine
 10
2640.80053617377
 20
417.5574088554033
 30
0.0
 11
2640.352665245864
 21
417.108434799514
 31
0.0
  0
LINE
  5
1D8E
330
1F
100
AcDbEntity
  8
SPOJOVACÍ
  6
CONTINUOUS
100
AcDbLine
 10
2640.80053617377
 20
417.5574088554033
 30
0.0
 11
2640.352665245864
 21
417.8155413589386
 31
0.0
  0
LINE
  5
1D8F
330
1F
100
AcDbEntity
  8
SPOJOVACÍ
  6
CONTINUOUS
100
AcDbLine
 10
2635.108383525341
 20
415.5844571034806
 30
0.0
 11
2635.55625444807
 21
415.3252214693796
 31
0.0
  0
LINE
  5
1D90
330
1F
100
AcDbEntity
  8
SPOJOVACÍ
  6
CONTINUOUS
100
AcDbLine
 10
2635.108383525341
 20
415.5844571034806
 30
0.0
 11
2635.55625444807
 21
416.0323280288005
 31
0.0
  0
LINE
  5
1D91
330
1F
100
AcDbEntity
  8
SPOJOVACÍ
  6
CONTINUOUS
100
AcDbLine
 10
2640.352665243277
 20
413.7124448861333
 30
0.0
 11
2635.55625444807
 21
415.3252214693796
 31
0.0
  0
LINE
  5
1D92
330
1F
100
AcDbEntity
  8
SPOJOVACÍ
  6
CONTINUOUS
100
AcDbLine
 10
2640.352665243277
 20
414.419551445558
 30
0.0
 11
2635.55625444807
 21
416.0323280288005
 31
0.0
  0
LINE
  5
1D93
330
1F
100
AcDbEntity
  8
SPOJOVACÍ
  6
CONTINUOUS
100
AcDbLine
 10
2640.800536171184
 20
414.1614189420226
 30
0.0
 11
2635.108383525341
 21
415.5844571034806
 31
0.0
  0
LINE
  5
1D94
330
1F
100
AcDbEntity
  8
SPOJOVACÍ
100
AcDbLine
 10
2644.704459850851
 20
401.9056157201277
 30
0.0
 11
2644.704459850851
 21
402.7825263422612
 31
0.0
  0
LINE
  5
1D95
330
1F
100
AcDbEntity
  8
SPOJOVACÍ
100
AcDbLine
 10
2644.704459850851
 20
402.7825263422612
 30
0.0
 11
2644.704459850851
 21
401.9056157201277
 31
0.0
  0
LINE
  5
1D96
330
1F
100
AcDbEntity
  8
SPOJOVACÍ
100
AcDbLine
 10
2644.704459850851
 20
401.3409379757916
 30
0.0
 11
2644.704459850851
 21
402.7825263422612
 31
0.0
  0
LINE
  5
1D97
330
1F
100
AcDbEntity
  8
SPOJOVACÍ
100
AcDbLine
 10
2631.204459850851
 20
402.7825263422612
 30
0.0
 11
2631.204459850851
 21
401.9056157201277
 31
0.0
  0
LINE
  5
1D98
330
1F
100
AcDbEntity
  8
SPOJOVACÍ
100
AcDbLine
 10
2631.204459850851
 20
401.3409379757916
 30
0.0
 11
2631.204459850851
 21
402.7825263422612
 31
0.0
  0
LINE
  5
1D99
330
1F
100
AcDbEntity
  8
SPOJOVACÍ
100
AcDbLine
 10
2644.704459850851
 20
401.3409379757916
 30
0.0
 11
2631.204459850851
 21
401.3409379757916
 31
0.0
  0
LINE
  5
1D9A
330
1F
100
AcDbEntity
  8
SPOJOVACÍ
100
AcDbLine
 10
2644.704459850851
 20
402.7825263422612
 30
0.0
 11
2631.204459850851
 21
402.7825263422612
 31
0.0
  0
HATCH
  5
1DA1
330
1F
100
AcDbEntity
  8
IZOLACE
100
AcDbHatch
 10
0.0
 20
0.0
 30
0.0
210
0.0
220
0.0
230
1.0
  2
AR-SAND
 70
     0
 71
     1
 91
        2
 92
        1
 93
        4
 72
     1
 10
2687.714407628409
 20
392.9818924745739
 11
2687.714407628409
 21
398.1999374557633
 72
     1
 10
2687.714407628409
 20
398.1999374557633
 11
2675.714407628409
 21
398.1999374557633
 72
     1
 10
2675.714407628409
 20
398.1999374557633
 11
2675.714407628409
 21
392.9818924745739
 72
     1
 10
2675.714407628409
 20
392.9818924745739
 11
2687.714407628409
 21
392.9818924745739
 97
        1
330
158D
 92
        1
 93
        4
 72
     1
 10
2587.482153343659
 20
392.9818924745739
 11
2587.482153343659
 21
398.1999374557633
 72
     1
 10
2587.482153343659
 20
398.1999374557633
 11
2599.482153343659
 21
398.1999374557633
 72
     1
 10
2599.482153343659
 20
398.1999374557633
 11
2599.482153343659
 21
392.9818924745739
 72
     1
 10
2599.482153343659
 20
392.9818924745739
 11
2587.482153343659
 21
392.9818924745739
 97
        1
330
158C
 75
     0
 76
     1
 52
90.0
 41
0.05
 77
     0
 78
     4
 53
127.5
 43
3214.635668510846
 44
0.0
 45
-2.447066186646711
 46
-0.0800015647992021
 79
     6
 49
0.0
 49
-1.9304
 49
0.0
 49
-2.159
 49
0.0
 49
-2.06375
 53
97.5
 43
3214.635668510846
 44
0.0
 45
-3.584125502841771
 46
2.247616415690013
 79
     6
 49
0.0
 49
-1.0414
 49
0.0
 49
-1.7399
 49
0.0
 49
-0.6667500000000001
 53
57.5
 43
3214.635668510846
 44
-1.5621
 45
-0.0071859233927282
 46
3.95496185120729
 79
     6
 49
0.0
 49
-0.635
 49
0.0
 49
-2.286
 49
0.0
 49
-2.9845
 53
47.5
 43
3214.635668510846
 44
-1.5621
 45
-1.11464661628608
 46
3.817782262361486
 79
     6
 49
0.0
 49
-0.3175
 49
0.0
 49
-1.498599999999999
 49
0.0
 49
-1.7145
 98
        1
 10
3214.635668510846
 20
0.0
  0
HATCH
  5
1DA2
330
1F
100
AcDbEntity
  8
IZOLACE
100
AcDbHatch
 10
0.0
 20
0.0
 30
0.0
210
0.0
220
0.0
230
1.0
  2
AR-SAND
 70
     0
 71
     1
 91
        2
 92
        1
 93
        4
 72
     1
 10
2687.714407628413
 20
-419.4456607452068
 11
2687.714407628413
 21
-414.2276157640173
 72
     1
 10
2687.714407628413
 20
-414.2276157640173
 11
2675.714407628413
 21
-414.2276157640173
 72
     1
 10
2675.714407628413
 20
-414.2276157640173
 11
2675.714407628413
 21
-419.4456607452068
 72
     1
 10
2675.714407628413
 20
-419.4456607452068
 11
2687.714407628413
 21
-419.4456607452068
 97
        1
330
11F2
 92
        1
 93
        4
 72
     1
 10
2587.482153343662
 20
-419.4456607452068
 11
2587.482153343662
 21
-414.2276157640173
 72
     1
 10
2587.482153343662
 20
-414.2276157640173
 11
2599.482153343662
 21
-414.2276157640173
 72
     1
 10
2599.482153343662
 20
-414.2276157640173
 11
2599.482153343662
 21
-419.4456607452068
 72
     1
 10
2599.482153343662
 20
-419.4456607452068
 11
2587.482153343662
 21
-419.4456607452068
 97
        1
330
11F0
 75
     0
 76
     1
 52
90.0
 41
0.05
 77
     0
 78
     4
 53
127.5
 43
3214.635668510846
 44
0.0
 45
-2.447066186646711
 46
-0.0800015647992021
 79
     6
 49
0.0
 49
-1.9304
 49
0.0
 49
-2.159
 49
0.0
 49
-2.06375
 53
97.5
 43
3214.635668510846
 44
0.0
 45
-3.584125502841771
 46
2.247616415690013
 79
     6
 49
0.0
 49
-1.0414
 49
0.0
 49
-1.7399
 49
0.0
 49
-0.6667500000000001
 53
57.5
 43
3214.635668510846
 44
-1.5621
 45
-0.0071859233927282
 46
3.95496185120729
 79
     6
 49
0.0
 49
-0.635
 49
0.0
 49
-2.286
 49
0.0
 49
-2.9845
 53
47.5
 43
3214.635668510846
 44
-1.5621
 45
-1.11464661628608
 46
3.817782262361486
 79
     6
 49
0.0
 49
-0.3175
 49
0.0
 49
-1.498599999999999
 49
0.0
 49
-1.7145
 98
        1
 10
3214.635668510846
 20
0.0
  0
LINE
  5
1DC0
330
1F
100
AcDbEntity
  8
NOSNÉ_KONSTRUKCE
100
AcDbLine
 10
2673.712082917937
 20
103.7650601234408
 30
0.0
 11
2673.712082917935
 21
-71.78410172373742
 31
0.0
  0
LINE
  5
1DC1
330
1F
100
AcDbEntity
  8
NOSNÉ_KONSTRUKCE
100
AcDbLine
 10
2662.702564019268
 20
105.7927944869863
 30
0.0
 11
2662.702564019276
 21
-69.75636736019374
 31
0.0
  0
LINE
  5
1DC2
330
1F
100
AcDbEntity
  8
NOSNÉ_KONSTRUKCE
  6
DASHED
100
AcDbLine
 10
2620.205923815935
 20
113.6198302065897
 30
0.0
 11
2620.205923815931
 21
-61.92933164058832
 31
0.0
  0
LINE
  5
1DC3
330
1F
100
AcDbEntity
  8
NOSNÉ_KONSTRUKCE
100
AcDbLine
 10
2611.784149111688
 20
115.1709535687473
 30
0.0
 11
2611.784149111684
 21
-60.37820827843074
 31
0.0
  0
LINE
  5
1DC4
330
1F
100
AcDbEntity
  8
NOSNÉ_KONSTRUKCE
100
AcDbLine
 10
2601.181944961533
 20
117.1236686585225
 30
0.0
 11
2601.181944961529
 21
-58.42549318865554
 31
0.0
  0
LINE
  5
1DC6
330
1F
100
AcDbEntity
  8
NOSNÉ_KONSTRUKCE
100
AcDbLine
 10
2673.712082917935
 20
-76.72323943887068
 30
0.0
 11
2673.712082917931
 21
-414.4938052825912
 31
0.0
  0
LINE
  5
1DC7
330
1F
100
AcDbEntity
  8
NOSNÉ_KONSTRUKCE
100
AcDbLine
 10
2662.702564019276
 20
-74.69550507532699
 30
0.0
 11
2662.702564019291
 21
-414.4938052825912
 31
0.0
  0
LINE
  5
1DC8
330
1F
100
AcDbEntity
  8
NOSNÉ_KONSTRUKCE
  6
DASHED
100
AcDbLine
 10
2654.856941060193
 20
-73.25049740296822
 30
0.0
 11
2654.856941060208
 21
-414.4938052825912
 31
0.0
  0
LINE
  5
1DC9
330
1F
100
AcDbEntity
  8
NOSNÉ_KONSTRUKCE
  6
DASHED
100
AcDbLine
 10
2620.20592381593
 20
-66.86846935572157
 30
0.0
 11
2620.205923815923
 21
-414.4938052825912
 31
0.0
  0
LINE
  5
1DCA
330
1F
100
AcDbEntity
  8
NOSNÉ_KONSTRUKCE
100
AcDbLine
 10
2611.784149111684
 20
-65.31734599356401
 30
0.0
 11
2611.784149111677
 21
-414.4938052825912
 31
0.0
  0
LINE
  5
1DCB
330
1F
100
AcDbEntity
  8
NOSNÉ_KONSTRUKCE
100
AcDbLine
 10
2601.181944961529
 20
-63.36463090378879
 30
0.0
 11
2601.181944961521
 21
-414.4938052825912
 31
0.0
  0
LINE
  5
4FC8
330
1F
100
AcDbEntity
  8
STAVBA_OBRYS
100
AcDbLine
 10
2589.557976718785
 20
422.9638405968787
 30
0.0
 11
2589.557976718785
 21
410.6999374557633
 31
0.0
  0
HATCH
  5
4FDD
330
1F
100
AcDbEntity
  8
STAVBA_OBRYS
100
AcDbHatch
 10
0.0
 20
0.0
 30
0.0
210
0.0
220
0.0
230
1.0
  2
AR-CONC
 70
     0
 71
     0
 91
        2
 92
        7
 72
     0
 73
     1
 93
        4
 10
2827.177964175687
 20
410.6999374557632
 10
2675.373345364252
 20
410.6999374557632
 10
2680.633065818769
 20
398.1999374557633
 10
2827.177964175687
 20
398.1999374557633
 97
        0
 92
        7
 72
     0
 73
     1
 93
        4
 10
2598.741873798175
 20
410.6999374557633
 10
2476.170260955405
 20
410.6999374557633
 10
2476.270818358079
 20
398.1999374557633
 10
2593.482153343659
 20
398.1999374557633
 97
        0
 75
     0
 76
     1
 52
90.0
 41
0.1
 77
     0
 78
    13
 53
140.0
 43
0.0
 44
0.0
 45
1.593908553890309
 46
18.2184668996004
 79
     2
 49
1.905
 49
-20.955
 53
85.00000000000001
 43
0.0
 44
0.0
 45
-19.10566428821799
 46
-3.524282597566697
 79
     2
 49
1.524
 49
-16.764
 53
190.4509999999999
 43
0.1328250000000001
 44
1.5182
 45
-17.51166878202918
 46
14.69425016659592
 79
     2
 49
1.619
 49
-17.809
 53
136.1841999999999
 43
-5.08
 44
0.0000000000000003
 45
4.204232793272717
 46
27.10790408921299
 79
     2
 49
2.857499999999999
 49
-31.4325
 53
186.6355999999999
 43
-4.72965
 44
2.25899
 45
-24.74255558900492
 46
23.74042344662371
 79
     2
 49
2.4285
 49
-26.7135
 53
81.18400000000004
 43
-5.08
 44
0.0000000000000003
 45
-24.74251178605976
 46
23.74046058139339
 79
     2
 49
2.286
 49
-25.146
 53
111.0
 43
-3.81
 44
2.54
 45
10.22655185167625
 46
15.16148798353833
 79
     2
 49
1.905
 49
-20.955
 53
56.00000000000004
 43
-3.81
 44
2.54
 45
-18.41879661223192
 46
6.180202834764708
 79
     2
 49
1.524
 49
-16.764
 53
161.4514
 43
-2.957789999999999
 44
3.80345
 45
-8.192285771605742
 46
21.34164907701245
 79
     2
 49
1.619
 49
-17.809
 53
127.5
 43
0.0
 44
0.0
 45
-8.455503887315311
 46
0.3088603250591822
 79
     6
 49
0.0
 49
-16.5608
 49
0.0
 49
-17.018
 49
0.0
 49
-16.8275
 53
97.50000000000001
 43
0.0
 44
0.0
 45
-10.01805748181195
 46
6.681966251030575
 79
     6
 49
0.0
 49
-9.702799999999999
 49
0.0
 49
-16.1798
 49
0.0
 49
-6.4135
 53
57.5
 43
-0.0000000000000003
 44
-5.6642
 45
0.5728743992673473
 46
13.55905951668713
 79
     6
 49
0.0
 49
-6.35
 49
0.0
 49
-19.812
 49
0.0
 49
-26.289
 53
47.5
 43
-0.0000000000000005
 44
-8.2042
 45
-2.5426491033333
 46
14.8129181386018
 79
     6
 49
0.0
 49
-8.255
 49
0.0
 49
-13.1572
 49
0.0
 49
-18.669
 47
1.125655824055684
 98
        2
 10
2778.900384385433
 20
405.5240958593531
 10
2529.94600606136
 20
402.1471319464181
  0
HATCH
  5
5022
330
1F
100
AcDbEntity
  8
STAVBA_OBRYS
100
AcDbHatch
 10
0.0
 20
0.0
 30
0.0
210
0.0
220
0.0
230
1.0
  2
ANSI35
 70
     0
 71
     0
 91
        3
 92
        7
 72
     0
 73
     1
 93
        9
 10
2827.189434286268
 20
-419.4456607452068
 10
2641.479926274325
 20
-419.4456607452068
 10
2641.479926274325
 20
-466.0811056395048
 10
2637.954459850851
 20
-471.7305459802207
 10
2634.428993427377
 20
-466.0811056395017
 10
2634.428993427377
 20
-419.4456607452068
 10
2475.366327393949
 20
-419.4456607452067
 10
2475.366327393949
 20
-534.2434173210895
 10
2827.189434286268
 20
-534.2434173210894
 97
        0
 92
       24
 93
        4
 72
     1
 10
2485.786506058515
 20
-493.4332469338673
 11
2526.617935117178
 21
-493.4332469338673
 72
     1
 10
2526.617935117178
 20
-493.4332469338673
 11
2526.617935117178
 21
-455.1402728547405
 72
     1
 10
2526.617935117178
 20
-455.1402728547405
 11
2485.786506058515
 21
-455.1402728547405
 72
     1
 10
2485.786506058515
 20
-455.1402728547405
 11
2485.786506058515
 21
-493.4332469338673
 97
        0
 92
       24
 93
        4
 72
     1
 10
2741.588479463507
 20
-493.4332469338673
 11
2782.41990852217
 21
-493.4332469338673
 72
     1
 10
2782.41990852217
 20
-493.4332469338673
 11
2782.41990852217
 21
-455.1402728547405
 72
     1
 10
2782.41990852217
 20
-455.1402728547405
 11
2741.588479463507
 21
-455.1402728547405
 72
     1
 10
2741.588479463507
 20
-455.1402728547405
 11
2741.588479463507
 21
-493.4332469338673
 97
        0
 75
     0
 76
     1
 52
0.0
 41
2.5
 77
     0
 78
     2
 53
45.0
 43
0.0
 44
0.0
 45
-11.22532015133643
 46
11.22532015133644
 79
     0
 53
45.0
 43
11.225325
 44
0.0
 45
-11.22532015133643
 46
11.22532015133644
 79
     4
 49
19.84375
 49
-3.96875
 49
0.0
 49
-3.96875
 47
0.5005132225579171
 98
        1
 10
2737.110604762071
 20
-426.1325467926235
  0
HATCH
  5
503E
330
1F
100
AcDbEntity
  8
STAVBA_OBRYS
100
AcDbHatch
 10
0.0
 20
0.0
 30
0.0
210
0.0
220
0.0
230
1.0
  2
AR-SAND
 70
     0
 71
     0
 91
        4
 92
        7
 72
     0
 73
     1
 93
        5
 10
2690.643996542869
 20
-378.1103834916377
 10
2687.71440762841
 20
-378.1103834916377
 10
2687.714407628409
 20
-413.9429023229548
 10
2690.591204947482
 20
-412.0994886460857
 10
2690.643996542868
 20
-410.1080077430043
 97
        0
 92
        7
 72
     0
 73
     1
 93
        9
 10
2690.583643438378
 20
-412.3847348271729
 10
2690.591204947481
 20
-412.0994886460859
 10
2687.714407628409
 20
-413.9429023229552
 10
2687.714407628409
 20
-414.2276157640173
 10
2687.714407628413
 20
-418.8076292868705
 10
2827.189434286268
 20
-418.8076292868705
 10
2827.189434286268
 20
-417.3847348271977
 10
2794.297182035418
 20
-417.3847348271976
 10
2690.583643438378
 20
-417.3847348271976
 97
        0
 92
        7
 72
     0
 73
     1
 93
        5
 10
2695.68912106803
 20
-410.1080077429962
 10
2693.69907324361
 20
-410.1080077429962
 10
2690.591204947482
 20
-412.0994886460858
 10
2690.583643438378
 20
-412.3847348271976
 10
2695.68912106803
 20
-412.3847348271976
 97
        0
 92
       23
 72
     0
 73
     1
 93
        4
 10
2794.297182035418
 20
-412.3847348271977
 10
2790.583643438378
 20
-412.3847348271977
 10
2790.583643438378
 20
-417.3847348271977
 10
2794.297182035418
 20
-417.3847348271977
 97
        0
 75
     0
 76
     1
 52
90.0
 41
0.05
 77
     0
 78
     4
 53
127.5
 43
0.0
 44
0.0
 45
-2.447066186646711
 46
-0.0800015647992021
 79
     6
 49
0.0
 49
-1.9304
 49
0.0
 49
-2.159
 49
0.0
 49
-2.06375
 53
97.50000000000001
 43
0.0
 44
0.0
 45
-3.584125502841771
 46
2.247616415690013
 79
     6
 49
0.0
 49
-1.0414
 49
0.0
 49
-1.7399
 49
0.0
 49
-0.6667500000000001
 53
57.5
 43
-0.0000000000000001
 44
-1.5621
 45
-0.0071859233927282
 46
3.95496185120729
 79
     6
 49
0.0
 49
-0.635
 49
0.0
 49
-2.286
 49
0.0
 49
-2.9845
 53
47.5
 43
-0.0000000000000001
 44
-1.5621
 45
-1.11464661628608
 46
3.817782262361486
 79
     6
 49
0.0
 49
-0.3175
 49
0.0
 49
-1.498599999999999
 49
0.0
 49
-1.7145
 47
0.2756810879599685
 98
        4
 10
2689.848136111985
 20
-401.2247767246244
 10
2689.02047572915
 20
-417.2142837323317
 10
2694.262312594404
 20
-410.8736175228405
 10
2793.305207150886
 20
-413.6304261756395
  0
HATCH
  5
50BD
330
1F
100
AcDbEntity
  8
CETRIS
100
AcDbHatch
 10
0.0
 20
0.0
 30
0.0
210
0.0
220
0.0
230
1.0
  2
ANSI31
 70
     0
 71
     1
 91
        9
 92
        7
 72
     1
 73
     1
 93
        5
 10
2599.482153343659
 20
392.9818924745739
 42
0.0
 10
2587.482153343659
 20
392.9818924745739
 42
0.0
 10
2587.482153343659
 20
363.2667204035971
 42
0.0
 10
2599.288513305045
 20
367.8948520764491
 42
-0.250151705532585
 10
2599.482153343659
 20
369.0559158016978
 42
0.0
 97
        5
330
158C
330
145E
330
15BF
330
15BC
330
145D
 92
        7
 72
     1
 73
     1
 93
       15
 10
2599.482153343659
 20
367.5320265597794
 42
-0.0828171271056462
 10
2599.288513305045
 20
367.8948520764492
 42
0.0
 10
2587.482153343659
 20
363.2667204035973
 42
0.0
 10
2587.48215334366
 20
351.8435716881492
 42
0.0
 10
2588.68208012039
 20
351.8435716881493
 42
0.0
 10
2589.426220756863
 20
350.4938866045991
 42
0.0
 10
2590.494992746276
 20
349.3832567042392
 42
0.0
 10
2591.813982024574
 20
348.5870262249213
 42
0.0
 10
2593.294821891624
 20
348.1591453606222
 42
0.0
 10
2594.081750614746
 20
348.0931028787006
 42
0.0
 10
2598.129974514035
 20
348.0931028787006
 42
0.0
 10
2597.903842959782
 20
348.7656199771288
 42
0.0
 10
2598.350326095522
 20
349.2110061053929
 42
0.0
 10
2598.726217198959
 20
348.0931028787006
 42
0.0
 10
2599.482153343659
 20
348.0931028787006
 42
0.0
 97
       15
330
15BC
330
15BF
330
145E
330
1529
330
1521
330
1522
330
1523
330
1524
330
1525
330
151F
330
1506
330
150A
330
1507
330
151E
330
145D
 92
        7
 72
     0
 73
     1
 93
       11
 10
2599.482153343659
 20
344.0717119407755
 10
2599.037628418794
 20
345.3937327159645
 10
2594.081750614746
 20
345.3937327159644
 10
2592.558122661318
 20
345.166769825081
 10
2591.144255451613
 20
344.5537839759331
 10
2589.936887268717
 20
343.5957029059498
 10
2589.018803758275
 20
342.3585690970484
 10
2588.68208012039
 20
341.6432639108813
 10
2587.482153343659
 20
341.6432639108813
 10
2587.48215334366
 20
204.8720709282954
 10
2599.482153343659
 20
204.8720709282951
 97
       11
330
1506
330
1520
330
152C
330
152D
330
152E
330
1526
330
1527
330
152B
330
145E
330
15C9
330
145D
 92
        7
 72
     0
 73
     1
 93
       11
 10
2599.482153343659
 20
204.8720709282951
 10
2587.48215334366
 20
204.8720709282954
 10
2587.48215334366
 20
190.204260203405
 10
2588.68208012039
 20
190.204260203405
 10
2589.018803758274
 20
189.4889550172383
 10
2589.936887268715
 20
188.2518212083383
 10
2591.144255451613
 20
187.2937401383534
 10
2592.558122661317
 20
186.6807542892053
 10
2594.081750614746
 20
186.453791398322
 10
2599.037628418794
 20
186.453791398322
 10
2599.482153343659
 20
187.7758121735103
 97
       11
330
15C9
330
145E
330
1A6C
330
1A68
330
1A67
330
1A6F
330
1A6E
330
1A6D
330
1A61
330
1A57
330
145D
 92
        7
 72
     0
 73
     1
 93
       14
 10
2599.482153343659
 20
183.7544212355858
 10
2598.726217198959
 20
183.7544212355858
 10
2598.350326095522
 20
182.6365180088929
 10
2597.903842959782
 20
183.0819041371577
 10
2598.129974514035
 20
183.7544212355858
 10
2594.081750614747
 20
183.7544212355858
 10
2593.294821891624
 20
183.6883787536641
 10
2591.813982024573
 20
183.2604978893646
 10
2590.494992746277
 20
182.4642674100475
 10
2589.426220756865
 20
181.3536375096888
 10
2588.68208012039
 20
180.0039524261371
 10
2587.482153343661
 20
180.0039524261371
 10
2587.482153343661
 20
124.5860354532052
 10
2599.482153343659
 20
122.3758741749059
 97
       14
330
1A5F
330
1A58
330
1A5B
330
1A57
330
1A60
330
1A66
330
1A65
330
1A64
330
1A63
330
1A62
330
1A6A
330
145E
330
11F4
330
145D
 92
        7
 72
     0
 73
     1
 93
        4
 10
2599.482153343663
 20
117.4367364597721
 10
2587.482153343662
 20
119.6468977380719
 10
2587.482153343662
 20
-55.90226410910691
 10
2599.482153343661
 20
-58.11242538740643
 97
        4
330
11F3
330
1B0D
330
1B03
330
1B0C
 92
        7
 72
     0
 73
     1
 93
       11
 10
2599.48215334366
 20
-63.0515631025397
 10
2587.482153343661
 20
-60.84140182424027
 10
2587.482153343661
 20
-129.0159642565579
 10
2588.68208012039
 20
-129.0159642565579
 10
2589.018803758274
 20
-129.7312694427248
 10
2589.936887268716
 20
-130.9684032516253
 10
2591.144255451615
 20
-131.9264843216099
 10
2592.558122661318
 20
-132.5394701707575
 10
2594.081750614746
 20
-132.766433061641
 10
2599.037628418794
 20
-132.766433061641
 10
2599.48215334366
 20
-131.4444122864462
 97
       11
330
1B02
330
1212
330
135B
330
135F
330
1360
330
1358
330
1359
330
135A
330
1366
330
1380
330
1211
 92
        7
 72
     0
 73
     1
 93
       21
 10
2599.48215334366
 20
-135.4658032243771
 10
2598.726217198959
 20
-135.4658032243771
 10
2598.350326095522
 20
-136.5837064510698
 10
2597.903842959782
 20
-136.1383203228053
 10
2598.129974514035
 20
-135.4658032243771
 10
2594.081750614746
 20
-135.4658032243771
 10
2593.294821891624
 20
-135.5318457062988
 10
2591.813982024573
 20
-135.9597265705983
 10
2590.494992746277
 20
-136.755957049915
 10
2589.426220756864
 20
-137.866586950275
 10
2588.68208012039
 20
-139.2162720338258
 10
2587.482153343661
 20
-139.2162720338258
 10
2587.482153343662
 20
-355.5180286483311
 10
2588.68208012039
 20
-355.5180286483312
 10
2589.018803758274
 20
-356.2333338345006
 10
2589.936887268715
 20
-357.4704676433985
 10
2591.144255451615
 20
-358.4285487133829
 10
2592.558122661317
 20
-359.0415345625308
 10
2594.081750614746
 20
-359.2684974534142
 10
2599.037628418794
 20
-359.2684974534142
 10
2599.482153343659
 20
-357.9464766782244
 97
       21
330
1368
330
137F
330
137C
330
1380
330
1367
330
1361
330
1362
330
1363
330
1364
330
1365
330
135D
330
1212
330
12DD
330
12D9
330
12D8
330
12E0
330
12DF
330
12DE
330
12D2
330
12B8
330
1211
 92
        7
 72
     0
 73
     1
 93
       14
 10
2599.482153343659
 20
-361.9678676161504
 10
2598.726217198959
 20
-361.9678676161503
 10
2598.350326095523
 20
-363.0857708428429
 10
2597.903842959782
 20
-362.6403847145787
 10
2598.129974514035
 20
-361.9678676161504
 10
2594.081750614746
 20
-361.9678676161504
 10
2593.294821891625
 20
-362.033910098072
 10
2591.813982024575
 20
-362.4617909623714
 10
2590.494992746275
 20
-363.2580214416903
 10
2589.426220756865
 20
-364.3686513420472
 10
2588.68208012039
 20
-365.718336425599
 10
2587.482153343662
 20
-365.718336425599
 10
2587.482153343662
 20
-414.227615764021
 10
2599.482153343659
 20
-414.227615764021
 97
       14
330
12D0
330
12B9
330
12BC
330
12B8
330
12D1
330
12D7
330
12D6
330
12D5
330
12D4
330
12D3
330
12DB
330
1212
330
133E
330
1211
 75
     0
 76
     1
 52
0.0
 41
2.5
 77
     0
 78
     1
 53
45.0
 43
0.0
 44
0.0
 45
-5.61266007566822
 46
5.612660075668221
 79
     0
 47
1.500555670376365
 98
        9
 10
2594.018185649764
 20
374.8453518754268
 10
2594.018185649764
 20
356.8386845391305
 10
2594.018185649764
 20
305.8197965858344
 10
2594.018185649764
 20
199.280336847898
 10
2594.018185649764
 20
160.2658966183444
 10
2594.018185649764
 20
50.7253313234487
 10
2595.519855636474
 20
-96.32912992115416
 10
2594.018185649764
 20
-198.3669143263814
 10
2594.018185649764
 20
-378.4335961879842
  0
HATCH
  5
5172
330
1F
100
AcDbEntity
  8
CETRIS
100
AcDbHatch
 10
0.0
 20
0.0
 30
0.0
210
0.0
220
0.0
230
1.0
  2
ANSI31
 70
     0
 71
     0
 91
       14
 92
        7
 72
     0
 73
     1
 93
       14
 10
2687.71440762846
 20
392.9818924745739
 10
2675.714407628409
 20
392.9818924745738
 10
2675.714407628408
 20
348.0931028787006
 10
2676.470343773108
 20
348.0931028787006
 10
2676.846234876545
 20
349.2110061053928
 10
2677.292718012286
 20
348.7656199771289
 10
2677.066586458033
 20
348.0931028787006
 10
2681.114810357321
 20
348.0931028787005
 10
2681.901739080444
 20
348.1591453606222
 10
2683.382578947493
 20
348.5870262249214
 10
2684.70156822579
 20
349.3832567042397
 10
2685.770340215203
 20
350.4938866045981
 10
2686.514480851677
 20
351.8435716881492
 10
2687.714407628454
 20
351.8435716881493
 97
        0
 92
        7
 72
     0
 73
     1
 93
       11
 10
2687.714407628451
 20
341.6432639108813
 10
2686.514480851678
 20
341.6432639108813
 10
2686.177757213796
 20
342.3585690970485
 10
2685.259673703352
 20
343.5957029059492
 10
2684.052305520454
 20
344.553783975933
 10
2682.63843831075
 20
345.166769825081
 10
2681.11481035732
 20
345.3937327159644
 10
2676.158932553274
 20
345.3937327159645
 10
2675.714407628409
 20
344.0717119407749
 10
2675.714407628409
 20
240.7156514676933
 10
2687.714407628435
 20
240.7156514676933
 97
        0
 92
        7
 72
     0
 73
     1
 93
       11
 10
2687.714407628435
 20
240.7156514676933
 10
2675.714407628408
 20
240.7156514676933
 10
2675.714407628408
 20
187.775812173512
 10
2676.158932553274
 20
186.4537913983219
 10
2681.114810357321
 20
186.4537913983219
 10
2682.63843831075
 20
186.6807542892054
 10
2684.052305520453
 20
187.2937401383526
 10
2685.259673703352
 20
188.2518212083373
 10
2686.177757213795
 20
189.4889550172371
 10
2686.514480851678
 20
190.204260203405
 10
2687.714407628426
 20
190.204260203405
 97
        0
 92
        7
 72
     0
 73
     1
 93
       14
 10
2687.714407628424
 20
180.0039524261371
 10
2686.514480851677
 20
180.0039524261371
 10
2685.770340215203
 20
181.3536375096869
 10
2684.701568225791
 20
182.4642674100465
 10
2683.382578947493
 20
183.2604978893649
 10
2681.901739080444
 20
183.6883787536642
 10
2681.114810357321
 20
183.7544212355858
 10
2677.066586458033
 20
183.7544212355858
 10
2677.292718012286
 20
183.0819041371578
 10
2676.846234876546
 20
182.6365180088934
 10
2676.470343773108
 20
183.7544212355858
 10
2675.714407628409
 20
183.7544212355858
 10
2675.714407628408
 20
108.3354094601018
 10
2687.714407628412
 20
106.1252481818015
 97
        0
 92
        7
 72
     0
 73
     1
 93
       13
 10
2687.71440762841
 20
101.1861104666688
 10
2675.714407628421
 20
103.3962717449664
 10
2675.714407628419
 20
35.18916802486999
 10
2677.066586458032
 20
31.16777708697532
 10
2681.673174663783
 20
31.16777708697532
 10
2683.382578947493
 20
30.67385374075424
 10
2684.701568225791
 20
29.87762326143641
 10
2685.770340215203
 20
28.7669933610781
 10
2686.514480851678
 20
27.41730827752609
 10
2686.514480851678
 20
37.35605194113631
 10
2686.177757213792
 20
36.90231086862506
 10
2686.514480851677
 20
37.61761605479455
 10
2687.714407628409
 20
37.61761605479455
 97
        0
 92
        7
 72
     0
 73
     1
 93
       13
 10
2687.71440762841
 20
15.68222286805007
 10
2675.714407628419
 20
15.68222286805007
 10
2675.714407628418
 20
4.51900015548692
 10
2677.066586458032
 20
0.4976092175891154
 10
2681.673174663783
 20
0.4976092175891154
 10
2683.382578947494
 20
0.0036858713683121
 10
2684.701568225792
 20
-0.79254460795
 10
2685.770340215204
 20
-1.903174508308806
 10
2686.514480851678
 20
-3.252859591860318
 10
2686.514480851678
 20
6.685884071751339
 10
2686.177757213795
 20
6.232142999242685
 10
2686.514480851678
 20
6.947448185408347
 10
2687.714407628408
 20
6.947448185408348
 97
        0
 92
        7
 72
     0
 73
     1
 93
       14
 10
2687.71440762841
 20
27.41730827752667
 10
2686.514480851678
 20
27.41730827752666
 10
2685.770340215205
 20
28.76699336107691
 10
2684.701568225791
 20
29.87762326143609
 10
2683.382578947493
 20
30.67385374075429
 10
2681.901739080444
 20
31.10173460505368
 10
2681.114810357321
 20
31.16777708697532
 10
2677.066586458032
 20
31.16777708697532
 10
2677.292718012286
 20
30.49525998854698
 10
2676.846234876545
 20
30.04987386028302
 10
2676.470343773108
 20
31.16777708697532
 10
2675.714407628419
 20
31.16777708697532
 10
2675.714407628419
 20
20.68222286805371
 10
2687.714407628409
 20
20.68222286805371
 97
        0
 92
        7
 72
     0
 73
     1
 93
       14
 10
2687.714407628409
 20
-3.252859591859533
 10
2686.514480851678
 20
-3.252859591859532
 10
2685.770340215204
 20
-1.903174508309012
 10
2684.701568225791
 20
-0.7925446079503728
 10
2683.382578947494
 20
0.0036858713681645
 10
2681.901739080444
 20
0.4315667356674275
 10
2681.114810357321
 20
0.4976092175891155
 10
2677.066586458032
 20
0.4976092175891152
 10
2677.292718012286
 20
-0.174907880838896
 10
2676.846234876544
 20
-0.620294009103324
 10
2676.470343773108
 20
0.4976092175891154
 10
2675.714407628418
 20
0.4976092175891153
 10
2675.714407628417
 20
-72.15289010221167
 10
2687.71440762841
 20
-74.36305138050989
 97
        0
 92
        7
 72
     0
 73
     1
 93
       11
 10
2687.714407628408
 20
-79.30218909564317
 10
2675.714407628417
 20
-77.09202781734505
 10
2675.714407628416
 20
-131.4444122864713
 10
2676.158932553274
 20
-132.766433061641
 10
2681.114810357322
 20
-132.766433061641
 10
2682.63843831075
 20
-132.5394701707575
 10
2684.052305520453
 20
-131.9264843216102
 10
2685.259673703353
 20
-130.9684032516249
 10
2686.177757213793
 20
-129.7312694427255
 10
2686.514480851678
 20
-129.0159642565579
 10
2687.714407628409
 20
-129.0159642565579
 97
        0
 92
        7
 72
     0
 73
     1
 93
       14
 10
2687.714407628409
 20
-139.2162720338258
 10
2686.514480851678
 20
-139.2162720338258
 10
2685.770340215203
 20
-137.866586950275
 10
2684.701568225792
 20
-136.7559570499165
 10
2683.382578947493
 20
-135.9597265705981
 10
2681.901739080444
 20
-135.5318457062988
 10
2681.114810357321
 20
-135.4658032243771
 10
2677.066586458033
 20
-135.4658032243771
 10
2677.292718012286
 20
-136.1383203228053
 10
2676.846234876546
 20
-136.5837064510697
 10
2676.470343773108
 20
-135.4658032243771
 10
2675.714407628416
 20
-135.4658032243771
 10
2675.714407628414
 20
-193.1321277755326
 10
2687.714407628409
 20
-193.1321277755326
 97
        0
 92
        7
 72
     0
 73
     1
 93
        4
 10
2687.714407628409
 20
-193.1321277755325
 10
2675.714407628415
 20
-193.1321277755325
 10
2675.714407628413
 20
-245.1900438917784
 10
2687.71440762841
 20
-245.1900438917784
 97
        0
 92
        7
 72
     0
 73
     1
 93
       11
 10
2687.714407628409
 20
-245.1900438917785
 10
2675.714407628413
 20
-245.1900438917784
 10
2675.714407628411
 20
-357.9464766782301
 10
2676.158932553274
 20
-359.2684974534142
 10
2681.114810357322
 20
-359.2684974534142
 10
2682.638438310751
 20
-359.0415345625306
 10
2684.052305520455
 20
-358.4285487133829
 10
2685.259673703352
 20
-357.4704676433983
 10
2686.177757213795
 20
-356.2333338345002
 10
2686.514480851678
 20
-355.5180286483312
 10
2687.714407628409
 20
-355.5180286483312
 97
        0
 92
        7
 72
     0
 73
     1
 93
       14
 10
2687.714407628409
 20
-365.718336425599
 10
2686.514480851678
 20
-365.718336425599
 10
2685.770340215203
 20
-364.368651342048
 10
2684.701568225791
 20
-363.2580214416896
 10
2683.382578947494
 20
-362.4617909623714
 10
2681.901739080444
 20
-362.033910098072
 10
2681.114810357321
 20
-361.9678676161504
 10
2677.066586458033
 20
-361.9678676161504
 10
2677.292718012286
 20
-362.6403847145788
 10
2676.846234876546
 20
-363.0857708428429
 10
2676.470343773107
 20
-361.9678676161504
 10
2675.71440762841
 20
-361.9678676161504
 10
2675.71440762841
 20
-382.1730108031349
 10
2687.71440762841
 20
-374.4835695012499
 97
        0
 92
        7
 72
     0
 73
     1
 93
        5
 10
2687.714407628409
 20
-374.4835695012497
 10
2675.71440762841
 20
-382.173010803135
 10
2675.714407628409
 20
-414.227615764021
 10
2687.270089093601
 20
-414.2276157640175
 10
2687.714407628409
 20
-413.942902322955
 97
        0
 75
     0
 76
     1
 52
90.0
 41
2.5
 77
     0
 78
     1
 53
135.0
 43
0.0
 44
0.0
 45
-5.612660075668221
 46
-5.61266007566822
 79
     0
 47
1.500555670376365
 98
       14
 10
2678.111615958045
 20
368.843132262873
 10
2682.616611093599
 20
263.8042338020513
 10
2681.114941106891
 20
199.280336847898
 10
2681.114941106891
 20
137.7575539493391
 10
2681.114941106891
 20
65.73088460415238
 10
2681.114941106891
 20
10.21032131814717
 10
2681.114941106891
 20
23.71532182037117
 10
2682.616611093599
 20
-31.80523296700084
 10
2682.616611093599
 20
-111.334683201856
 10
2681.114941106891
 20
-163.8541324322668
 10
2681.114941106891
 20
-202.8685811604554
 10
2681.114941106891
 20
-298.9041459531272
 10
2681.114941106891
 20
-369.4302625198361
 10
2681.114941106891
 20
-393.439157967321
  0
TEXT
  5
79A0
330
1F
100
AcDbEntity
  8
POPIS
100
AcDbText
 10
2474.832477169584
 20
602.5450798086786
 30
0.0
 40
25.0
  1
Svislý řez
 41
0.7
  7
SIMPLEX7
100
AcDbText
  0
TEXT
  5
79A1
330
1F
100
AcDbEntity
  8
POPIS
100
AcDbText
 10
2474.832477169584
 20
641.9599678095673
 30
0.0
 40
35.0
  1
Požárně dělící stěna
 41
0.85
  7
SIMPLEX7
100
AcDbText
  0
INSERT
  5
8179
330
1F
100
AcDbEntity
  8
POPIS
100
AcDbBlockReference
  2
E_PUNKT
 10
2687.650473076606
 20
301.6215727613905
 30
0.0
 50
270.0
  0
TEXT
  5
9F9B
330
1F
100
AcDbEntity
  8
POPIS
100
AcDbText
 10
2895.466279672005
 20
42.01500719657929
 30
0.0
 40
25.0
  1
(v exteriéru vrut s viditelnou hlavou a těsnící podložkou)
 41
0.6
 51
10.0
  7
SIMPLEX7
100
AcDbText
  0
ENDSEC
  0
SECTION
  2
OBJECTS
  0
DICTIONARY
  5
C
330
0
100
AcDbDictionary
  3
ACAD_GROUP
350
D
  3
ACAD_LAYOUT
350
1A
  3
ACAD_MLINESTYLE
350
17
  3
ACAD_PLOTSETTINGS
350
19
  3
ACAD_PLOTSTYLENAME
350
E
  3
ACDBHEADERROUNDTRIPXREC
350
9FAD
  3
ACDBVARIABLEDICTIONARY
350
17BD
  0
DICTIONARY
  5
9FD0
330
1F
100
AcDbDictionary
280
     1
  3
ACAD_LAYOUTSELFREF
360
9FD1
  0
DICTIONARY
  5
9FCE
330
1B
100
AcDbDictionary
280
     1
  3
ACAD_LAYOUTSELFREF
360
9FCF
  0
DICTIONARY
  5
D
102
{ACAD_REACTORS
330
C
102
}
330
C
100
AcDbDictionary
  0
DICTIONARY
  5
1A
102
{ACAD_REACTORS
330
C
102
}
330
C
100
AcDbDictionary
  0
DICTIONARY
  5
17
102
{ACAD_REACTORS
330
C
102
}
330
C
100
AcDbDictionary
  3
STANDARD
350
18
  0
DICTIONARY
  5
19
102
{ACAD_REACTORS
330
C
102
}
330
C
100
AcDbDictionary
  0
ACDBDICTIONARYWDFLT
  5
E
102
{ACAD_REACTORS
330
C
102
}
330
C
100
AcDbDictionary
281
     1
  3
Normal
350
F
100
AcDbDictionaryWithDefault
340
F
  0
DICTIONARY
  5
9FAD
102
{ACAD_REACTORS
330
C
102
}
330
C
100
AcDbDictionary
  3
CEPSNTYPE
350
9FB7
  3
DIMSTYLEDATA
350
9FBB
  3
FINGERPRINTGUID
350
9FB8
  3
HYPERLINKBASE
350
9FB0
  3
INSUNITS
350
9FB6
  3
LAYOUTDICT
350
9FB2
  3
LWETCUNION
350
9FB5
  3
PLOTSETDICT
350
9FB3
  3
PLOTSTYLNAMDICT
350
9FB4
  3
PSVPSCALE
350
9FBA
  3
PUCSBASE
350
9FBE
  3
PUCSORGBACK
350
9FC4
  3
PUCSORGBOTTOM
350
9FC0
  3
PUCSORGFRONT
350
9FC3
  3
PUCSORGLEFT
350
9FC1
  3
PUCSORGRIGHT
350
9FC2
  3
PUCSORGTOP
350
9FBF
  3
PUCSORTHOREF
350
9FBC
  3
PUCSORTHOVIEW
350
9FBD
  3
STYLESHEET
350
9FB1
  3
TSTACKALIGN
350
9FAE
  3
TSTACKSIZE
350
9FAF
  3
UCSBASE
350
9FC7
  3
UCSORGBACK
350
9FCD
  3
UCSORGBOTTOM
350
9FC9
  3
UCSORGFRONT
350
9FCC
  3
UCSORGLEFT
350
9FCA
  3
UCSORGRIGHT
350
9FCB
  3
UCSORGTOP
350
9FC8
  3
UCSORTHOREF
350
9FC5
  3
UCSORTHOVIEW
350
9FC6
  3
VERSIONGUID
350
9FB9
  0
DICTIONARY
  5
17BD
102
{ACAD_REACTORS
330
C
102
}
330
C
100
AcDbDictionary
  3
DIMASSOC
350
9F87
  3
SORTENTS
350
17BE
  0
XRECORD
  5
9FD1
102
{ACAD_REACTORS
330
9FD0
102
}
330
9FD0
100
AcDbXrecord
340
1F
  0
XRECORD
  5
9FCF
102
{ACAD_REACTORS
330
9FCE
102
}
330
9FCE
100
AcDbXrecord
340
1B
  0
MLINESTYLE
  5
18
102
{ACAD_REACTORS
330
17
102
}
330
17
100
AcDbMlineStyle
  2
STANDARD
 70
     0
  3

 62
   256
 51
90.0
 52
90.0
 71
     2
 49
0.5
 62
   256
  6
BYLAYER
 49
-0.5
 62
   256
  6
BYLAYER
  0
ACDBPLACEHOLDER
  5
F
102
{ACAD_REACTORS
330
E
102
}
330
E
100
AcDbPlaceHolder
280
     0
  0
XRECORD
  5
9FB7
102
{ACAD_REACTORS
330
9FAD
102
}
330
9FAD
100
AcDbXrecord
 90
        0
  0
XRECORD
  5
9FBB
102
{ACAD_REACTORS
330
9FAD
102
}
330
9FAD
100
AcDbXrecord
1000
DSTYLE
1002
{
1070
   278
 70
    44
1002
}
  0
XRECORD
  5
9FB8
102
{ACAD_REACTORS
330
9FAD
102
}
330
9FAD
100
AcDbXrecord
  1
{D99C744E-04C5-44F1-9703-862C59725F9B}
  0
XRECORD
  5
9FB0
102
{ACAD_REACTORS
330
9FAD
102
}
330
9FAD
100
AcDbXrecord
  1

  0
XRECORD
  5
9FB6
102
{ACAD_REACTORS
330
9FAD
102
}
330
9FAD
100
AcDbXrecord
 90
        4
  0
XRECORD
  5
9FB2
102
{ACAD_REACTORS
330
9FAD
102
}
330
9FAD
100
AcDbXrecord
340
1A
  0
XRECORD
  5
9FB5
102
{ACAD_REACTORS
330
9FAD
102
}
330
9FAD
100
AcDbXrecord
 90
    10781
  0
XRECORD
  5
9FB3
102
{ACAD_REACTORS
330
9FAD
102
}
330
9FAD
100
AcDbXrecord
340
19
  0
XRECORD
  5
9FB4
102
{ACAD_REACTORS
330
9FAD
102
}
330
9FAD
100
AcDbXrecord
340
E
  0
XRECORD
  5
9FBA
102
{ACAD_REACTORS
330
9FAD
102
}
330
9FAD
100
AcDbXrecord
 40
0.0
  0
XRECORD
  5
9FBE
102
{ACAD_REACTORS
330
9FAD
102
}
330
9FAD
100
AcDbXrecord
340
0
  0
XRECORD
  5
9FC4
102
{ACAD_REACTORS
330
9FAD
102
}
330
9FAD
100
AcDbXrecord
 10
0.0
 20
0.0
 30
0.0
  0
XRECORD
  5
9FC0
102
{ACAD_REACTORS
330
9FAD
102
}
330
9FAD
100
AcDbXrecord
 10
0.0
 20
0.0
 30
0.0
  0
XRECORD
  5
9FC3
102
{ACAD_REACTORS
330
9FAD
102
}
330
9FAD
100
AcDbXrecord
 10
0.0
 20
0.0
 30
0.0
  0
XRECORD
  5
9FC1
102
{ACAD_REACTORS
330
9FAD
102
}
330
9FAD
100
AcDbXrecord
 10
0.0
 20
0.0
 30
0.0
  0
XRECORD
  5
9FC2
102
{ACAD_REACTORS
330
9FAD
102
}
330
9FAD
100
AcDbXrecord
 10
0.0
 20
0.0
 30
0.0
  0
XRECORD
  5
9FBF
102
{ACAD_REACTORS
330
9FAD
102
}
330
9FAD
100
AcDbXrecord
 10
0.0
 20
0.0
 30
0.0
  0
XRECORD
  5
9FBC
102
{ACAD_REACTORS
330
9FAD
102
}
330
9FAD
100
AcDbXrecord
340
0
  0
XRECORD
  5
9FBD
102
{ACAD_REACTORS
330
9FAD
102
}
330
9FAD
100
AcDbXrecord
 70
     0
  0
XRECORD
  5
9FB1
102
{ACAD_REACTORS
330
9FAD
102
}
330
9FAD
100
AcDbXrecord
  1

  0
XRECORD
  5
9FAE
102
{ACAD_REACTORS
330
9FAD
102
}
330
9FAD
100
AcDbXrecord
 90
        1
  0
XRECORD
  5
9FAF
102
{ACAD_REACTORS
330
9FAD
102
}
330
9FAD
100
AcDbXrecord
 90
       70
  0
XRECORD
  5
9FC7
102
{ACAD_REACTORS
330
9FAD
102
}
330
9FAD
100
AcDbXrecord
340
0
  0
XRECORD
  5
9FCD
102
{ACAD_REACTORS
330
9FAD
102
}
330
9FAD
100
AcDbXrecord
 10
0.0
 20
0.0
 30
0.0
  0
XRECORD
  5
9FC9
102
{ACAD_REACTORS
330
9FAD
102
}
330
9FAD
100
AcDbXrecord
 10
0.0
 20
0.0
 30
0.0
  0
XRECORD
  5
9FCC
102
{ACAD_REACTORS
330
9FAD
102
}
330
9FAD
100
AcDbXrecord
 10
0.0
 20
0.0
 30
0.0
  0
XRECORD
  5
9FCA
102
{ACAD_REACTORS
330
9FAD
102
}
330
9FAD
100
AcDbXrecord
 10
0.0
 20
0.0
 30
0.0
  0
XRECORD
  5
9FCB
102
{ACAD_REACTORS
330
9FAD
102
}
330
9FAD
100
AcDbXrecord
 10
0.0
 20
0.0
 30
0.0
  0
XRECORD
  5
9FC8
102
{ACAD_REACTORS
330
9FAD
102
}
330
9FAD
100
AcDbXrecord
 10
0.0
 20
0.0
 30
0.0
  0
XRECORD
  5
9FC5
102
{ACAD_REACTORS
330
9FAD
102
}
330
9FAD
100
AcDbXrecord
340
0
  0
XRECORD
  5
9FC6
102
{ACAD_REACTORS
330
9FAD
102
}
330
9FAD
100
AcDbXrecord
 70
     0
  0
XRECORD
  5
9FB9
102
{ACAD_REACTORS
330
9FAD
102
}
330
9FAD
100
AcDbXrecord
  1
{88D7DB63-F694-4EDE-A4B0-F5403A49F93D}
  0
DICTIONARYVAR
  5
9F87
102
{ACAD_REACTORS
330
17BD
102
}
330
17BD
100
DictionaryVariables
280
     0
  1
1
  0
DICTIONARYVAR
  5
17BE
102
{ACAD_REACTORS
330
17BD
102
}
330
17BD
100
DictionaryVariables
280
     0
  1
96
  0
ENDSEC
  0
EOF
