  0
SECTION
  2
HEADER
  9
$ACADVER
  1
AC1015
  9
$ACADMAINTVER
 70
    14
  9
$DWGCODEPAGE
  3
ANSI_1250
  9
$INSBASE
 10
0.0
 20
0.0
 30
0.0
  9
$EXTMIN
 10
6828.85970449707
 20
-1885.6704721035
 30
-0.0762881293658211
  9
$EXTMAX
 10
7934.116562131116
 20
-1327.885311672107
 30
2500.076454800198
  9
$LIMMIN
 10
0.0
 20
0.0
  9
$LIMMAX
 10
420.0
 20
297.0
  9
$ORTHOMODE
 70
     0
  9
$REGENMODE
 70
     1
  9
$FILLMODE
 70
     1
  9
$QTEXTMODE
 70
     0
  9
$MIRRTEXT
 70
     1
  9
$LTSCALE
 40
1.0
  9
$ATTMODE
 70
     1
  9
$TEXTSIZE
 40
2.5
  9
$TRACEWID
 40
1.0
  9
$TEXTSTYLE
  7
Standard
  9
$CLAYER
  8
SPOJOVACÍ
  9
$CELTYPE
  6
ByLayer
  9
$CECOLOR
 62
   256
  9
$CELTSCALE
 40
1.0
  9
$DISPSILH
 70
     0
  9
$DIMSCALE
 40
1.0
  9
$DIMASZ
 40
2.5
  9
$DIMEXO
 40
0.625
  9
$DIMDLI
 40
3.75
  9
$DIMRND
 40
0.0
  9
$DIMDLE
 40
0.0
  9
$DIMEXE
 40
1.25
  9
$DIMTP
 40
0.0
  9
$DIMTM
 40
0.0
  9
$DIMTXT
 40
2.5
  9
$DIMCEN
 40
2.5
  9
$DIMTSZ
 40
0.0
  9
$DIMTOL
 70
     0
  9
$DIMLIM
 70
     0
  9
$DIMTIH
 70
     0
  9
$DIMTOH
 70
     0
  9
$DIMSE1
 70
     0
  9
$DIMSE2
 70
     0
  9
$DIMTAD
 70
     1
  9
$DIMZIN
 70
     8
  9
$DIMBLK
  1

  9
$DIMASO
 70
     1
  9
$DIMSHO
 70
     1
  9
$DIMPOST
  1

  9
$DIMAPOST
  1

  9
$DIMALT
 70
     0
  9
$DIMALTD
 70
     3
  9
$DIMALTF
 40
0.03937007874016
  9
$DIMLFAC
 40
1.0
  9
$DIMTOFL
 70
     1
  9
$DIMTVP
 40
0.0
  9
$DIMTIX
 70
     0
  9
$DIMSOXD
 70
     0
  9
$DIMSAH
 70
     0
  9
$DIMBLK1
  1

  9
$DIMBLK2
  1

  9
$DIMSTYLE
  2
ISO-25
  9
$DIMCLRD
 70
     0
  9
$DIMCLRE
 70
     0
  9
$DIMCLRT
 70
     0
  9
$DIMTFAC
 40
1.0
  9
$DIMGAP
 40
0.625
  9
$DIMJUST
 70
     0
  9
$DIMSD1
 70
     0
  9
$DIMSD2
 70
     0
  9
$DIMTOLJ
 70
     0
  9
$DIMTZIN
 70
     8
  9
$DIMALTZ
 70
     0
  9
$DIMALTTZ
 70
     0
  9
$DIMUPT
 70
     0
  9
$DIMDEC
 70
     2
  9
$DIMTDEC
 70
     2
  9
$DIMALTU
 70
     2
  9
$DIMALTTD
 70
     3
  9
$DIMTXSTY
  7
Standard
  9
$DIMAUNIT
 70
     0
  9
$DIMADEC
 70
     0
  9
$DIMALTRND
 40
0.0
  9
$DIMAZIN
 70
     0
  9
$DIMDSEP
 70
    44
  9
$DIMATFIT
 70
     3
  9
$DIMFRAC
 70
     0
  9
$DIMLDRBLK
  1

  9
$DIMLUNIT
 70
     2
  9
$DIMLWD
 70
    -2
  9
$DIMLWE
 70
    -2
  9
$DIMTMOVE
 70
     0
  9
$LUNITS
 70
     2
  9
$LUPREC
 70
     4
  9
$SKETCHINC
 40
1.0
  9
$FILLETRAD
 40
0.0
  9
$AUNITS
 70
     0
  9
$AUPREC
 70
     0
  9
$MENU
  1
.
  9
$ELEVATION
 40
0.0
  9
$PELEVATION
 40
0.0
  9
$THICKNESS
 40
0.0
  9
$LIMCHECK
 70
     0
  9
$CHAMFERA
 40
3.0
  9
$CHAMFERB
 40
3.0
  9
$CHAMFERC
 40
20.0
  9
$CHAMFERD
 40
0.0
  9
$SKPOLY
 70
     0
  9
$TDCREATE
 40
2452332.512107639
  9
$TDUCREATE
 40
2452332.470440972
  9
$TDUPDATE
 40
2455601.272018553
  9
$TDUUPDATE
 40
2455601.230351887
  9
$TDINDWG
 40
0.3259588310
  9
$TDUSRTIMER
 40
0.3259449421
  9
$USRTIMER
 70
     1
  9
$ANGBASE
 50
0.0
  9
$ANGDIR
 70
     0
  9
$PDMODE
 70
     0
  9
$PDSIZE
 40
0.0
  9
$PLINEWID
 40
0.0
  9
$SPLFRAME
 70
     0
  9
$SPLINETYPE
 70
     6
  9
$SPLINESEGS
 70
     8
  9
$HANDSEED
  5
9B28
  9
$SURFTAB1
 70
     6
  9
$SURFTAB2
 70
     6
  9
$SURFTYPE
 70
     6
  9
$SURFU
 70
     6
  9
$SURFV
 70
     6
  9
$UCSBASE
  2

  9
$UCSNAME
  2

  9
$UCSORG
 10
0.0
 20
0.0
 30
0.0
  9
$UCSXDIR
 10
1.0
 20
0.0
 30
0.0
  9
$UCSYDIR
 10
0.0
 20
1.0
 30
0.0
  9
$UCSORTHOREF
  2

  9
$UCSORTHOVIEW
 70
     0
  9
$UCSORGTOP
 10
0.0
 20
0.0
 30
0.0
  9
$UCSORGBOTTOM
 10
0.0
 20
0.0
 30
0.0
  9
$UCSORGLEFT
 10
0.0
 20
0.0
 30
0.0
  9
$UCSORGRIGHT
 10
0.0
 20
0.0
 30
0.0
  9
$UCSORGFRONT
 10
0.0
 20
0.0
 30
0.0
  9
$UCSORGBACK
 10
0.0
 20
0.0
 30
0.0
  9
$PUCSBASE
  2

  9
$PUCSNAME
  2

  9
$PUCSORG
 10
0.0
 20
0.0
 30
0.0
  9
$PUCSXDIR
 10
1.0
 20
0.0
 30
0.0
  9
$PUCSYDIR
 10
0.0
 20
1.0
 30
0.0
  9
$PUCSORTHOREF
  2

  9
$PUCSORTHOVIEW
 70
     0
  9
$PUCSORGTOP
 10
0.0
 20
0.0
 30
0.0
  9
$PUCSORGBOTTOM
 10
0.0
 20
0.0
 30
0.0
  9
$PUCSORGLEFT
 10
0.0
 20
0.0
 30
0.0
  9
$PUCSORGRIGHT
 10
0.0
 20
0.0
 30
0.0
  9
$PUCSORGFRONT
 10
0.0
 20
0.0
 30
0.0
  9
$PUCSORGBACK
 10
0.0
 20
0.0
 30
0.0
  9
$USERI1
 70
     0
  9
$USERI2
 70
     0
  9
$USERI3
 70
     0
  9
$USERI4
 70
     0
  9
$USERI5
 70
     0
  9
$USERR1
 40
0.0
  9
$USERR2
 40
0.0
  9
$USERR3
 40
0.0
  9
$USERR4
 40
0.0
  9
$USERR5
 40
0.0
  9
$WORLDVIEW
 70
     1
  9
$SHADEDGE
 70
     3
  9
$SHADEDIF
 70
    70
  9
$TILEMODE
 70
     1
  9
$MAXACTVP
 70
    64
  9
$PINSBASE
 10
0.0
 20
0.0
 30
0.0
  9
$PLIMCHECK
 70
     0
  9
$PEXTMIN
 10
1.000000000000000E+20
 20
1.000000000000000E+20
 30
1.000000000000000E+20
  9
$PEXTMAX
 10
-1.000000000000000E+20
 20
-1.000000000000000E+20
 30
-1.000000000000000E+20
  9
$PLIMMIN
 10
0.0
 20
0.0
  9
$PLIMMAX
 10
420.0
 20
297.0
  9
$UNITMODE
 70
     0
  9
$VISRETAIN
 70
     1
  9
$PLINEGEN
 70
     0
  9
$PSLTSCALE
 70
     1
  9
$TREEDEPTH
 70
  3020
  9
$CMLSTYLE
  2
Standard
  9
$CMLJUST
 70
     0
  9
$CMLSCALE
 40
20.0
  9
$PROXYGRAPHICS
 70
     1
  9
$MEASUREMENT
 70
     1
  9
$CELWEIGHT
370
    -1
  9
$ENDCAPS
280
     0
  9
$JOINSTYLE
280
     0
  9
$LWDISPLAY
290
     0
  9
$INSUNITS
 70
     4
  9
$HYPERLINKBASE
  1

  9
$STYLESHEET
  1
monochrome.ctb
  9
$XEDIT
290
     1
  9
$CEPSNTYPE
380
     0
  9
$PSTYLEMODE
290
     1
  9
$FINGERPRINTGUID
  2
{D99C744E-04C5-44F1-9703-862C59725F9B}
  9
$VERSIONGUID
  2
{61A9A681-EAD8-41B1-81C6-78D55860DE10}
  9
$EXTNAMES
290
     1
  9
$PSVPSCALE
 40
0.0
  9
$OLESTARTUP
290
     0
  0
ENDSEC
  0
SECTION
  2
CLASSES
  0
CLASS
  1
ACDBDICTIONARYWDFLT
  2
AcDbDictionaryWithDefault
  3
AutoCAD 2000
 90
        0
280
     0
281
     0
  0
CLASS
  1
ACDBPLACEHOLDER
  2
AcDbPlaceHolder
  3
AutoCAD 2000
 90
        0
280
     0
281
     0
  0
CLASS
  1
LAYOUT
  2
AcDbLayout
  3
AutoCAD 2000
 90
        0
280
     0
281
     0
  0
CLASS
  1
DICTIONARYVAR
  2
AcDbDictionaryVar
  3
AutoCAD 2000
 90
        0
280
     0
281
     0
  0
ENDSEC
  0
SECTION
  2
TABLES
  0
TABLE
  2
VPORT
  5
8
330
0
100
AcDbSymbolTable
 70
     2
  0
VPORT
  5
9B27
330
8
100
AcDbSymbolTableRecord
100
AcDbViewportTableRecord
  2
*Active
 70
     0
 10
0.0
 20
0.0
 11
1.0
 21
1.0
 12
7248.833526238398
 22
-1671.499362785767
 13
0.0
 23
0.0
 14
10.0
 24
10.0
 15
10.0
 25
10.0
 16
0.0
 26
0.0
 36
1.0
 17
0.0
 27
0.0
 37
0.0
 40
786.3586685405935
 41
2.031862745098039
 42
50.0
 43
0.0
 44
0.0
 50
0.0
 51
0.0
 71
     0
 72
   100
 73
     1
 74
     3
 75
     0
 76
     0
 77
     0
 78
     0
281
     0
 65
     1
110
0.0
120
0.0
130
0.0
111
1.0
121
0.0
131
0.0
112
0.0
122
1.0
132
0.0
 79
     0
146
0.0
  0
ENDTAB
  0
TABLE
  2
LTYPE
  5
5
330
0
100
AcDbSymbolTable
 70
     5
  0
LTYPE
  5
14
330
5
100
AcDbSymbolTableRecord
100
AcDbLinetypeTableRecord
  2
ByBlock
 70
     0
  3

 72
    65
 73
     0
 40
0.0
  0
LTYPE
  5
15
330
5
100
AcDbSymbolTableRecord
100
AcDbLinetypeTableRecord
  2
ByLayer
 70
     0
  3

 72
    65
 73
     0
 40
0.0
  0
LTYPE
  5
16
330
5
100
AcDbSymbolTableRecord
100
AcDbLinetypeTableRecord
  2
Continuous
 70
     0
  3
Solid line
 72
    65
 73
     0
 40
0.0
  0
LTYPE
  5
3402
330
5
100
AcDbSymbolTableRecord
100
AcDbLinetypeTableRecord
  2
DASHED
 70
     0
  3
Dashed __ __ __ __ __ __ __ __ __ __ __ __ __ _
 72
    65
 73
     2
 40
19.04999999999999
 49
12.7
 74
     0
 49
-6.349999999999999
 74
     0
  0
LTYPE
  5
3403
330
5
100
AcDbSymbolTableRecord
100
AcDbLinetypeTableRecord
  2
DASHDOT2
 70
     0
  3
Dash dot (.5x) _._._._._._._._._._._._._._._.
 72
    65
 73
     4
 40
12.7
 49
6.349999999999999
 74
     0
 49
-3.174999999999999
 74
     0
 49
0.0
 74
     0
 49
-3.174999999999999
 74
     0
  0
LTYPE
  5
3404
330
5
100
AcDbSymbolTableRecord
100
AcDbLinetypeTableRecord
  2
CIKCAK
 70
     0
  3
Cik-cak /\/\/\/\/\/\/\/\/\/\/\/\/\/\/\/\/\/\/\/
 72
    65
 73
     4
 40
20.32254
 49
0.00254
 74
     0
 49
-5.08
 74
     4
 75
   131
340
340B
 46
5.08
 50
0.0
 44
-5.08
 45
0.0
 49
-10.16
 74
     4
 75
   131
340
340B
 46
5.08
 50
180.0
 44
5.08
 45
0.0
 49
-5.08
 74
     0
  0
LTYPE
  5
3757
330
5
100
AcDbSymbolTableRecord
100
AcDbLinetypeTableRecord
  2
IZOLACE
 70
     0
  3
Izolace SSSSSSSSSSSSSSSSSSSSSSSSSSSSSSSSSSSSSSS
 72
    65
 73
     4
 40
10.16253999999999
 49
0.00254
 74
     0
 49
-2.54
 74
     4
 75
   134
340
340B
 46
2.54
 50
0.0
 44
-2.54
 45
0.0
 49
-5.08
 74
     4
 75
   134
340
340B
 46
2.54
 50
180.0
 44
2.54
 45
0.0
 49
-2.54
 74
     0
  0
ENDTAB
  0
TABLE
  2
LAYER
  5
2
330
0
100
AcDbSymbolTable
 70
     8
  0
LAYER
  5
10
330
2
100
AcDbSymbolTableRecord
100
AcDbLayerTableRecord
  2
0
 70
     0
 62
     7
  6
Continuous
370
    -3
390
F
  0
LAYER
  5
3405
330
2
100
AcDbSymbolTableRecord
100
AcDbLayerTableRecord
  2
POPIS
 70
     0
 62
    30
  6
Continuous
370
    -3
390
F
  0
LAYER
  5
3406
330
2
100
AcDbSymbolTableRecord
100
AcDbLayerTableRecord
  2
SPOJOVACÍ
 70
     0
 62
   180
  6
Continuous
370
    -3
390
F
  0
LAYER
  5
3407
330
2
100
AcDbSymbolTableRecord
100
AcDbLayerTableRecord
  2
CETRIS
 70
     0
 62
     1
  6
Continuous
370
    -3
390
F
  0
LAYER
  5
3408
330
2
100
AcDbSymbolTableRecord
100
AcDbLayerTableRecord
  2
izolace
 70
     0
 62
    73
  6
Continuous
370
    -3
390
F
  0
LAYER
  5
3409
330
2
100
AcDbSymbolTableRecord
100
AcDbLayerTableRecord
  2
STAVBA OBRYS
 70
     0
 62
     6
  6
Continuous
370
    -3
390
F
  0
LAYER
  5
3758
330
2
100
AcDbSymbolTableRecord
100
AcDbLayerTableRecord
  2
NOSNÉ KONSTRUKCE
 70
     0
 62
    33
  6
Continuous
370
    -3
390
F
  0
LAYER
  5
56AA
330
2
100
AcDbSymbolTableRecord
100
AcDbLayerTableRecord
  2
Defpoints
 70
     0
 62
     7
  6
Continuous
290
     0
370
    -3
390
F
  0
ENDTAB
  0
TABLE
  2
STYLE
  5
3
330
0
100
AcDbSymbolTable
 70
     3
  0
STYLE
  5
11
330
3
100
AcDbSymbolTableRecord
100
AcDbTextStyleTableRecord
  2
Standard
 70
     0
 40
0.0
 41
1.0
 50
0.0
 71
     0
 42
2.5
  3
txt
  4

  0
STYLE
  5
340A
330
3
100
AcDbSymbolTableRecord
100
AcDbTextStyleTableRecord
  2
SIMPLEX7
 70
     0
 40
0.0
 41
0.85
 50
0.0
 71
     0
 42
102.0
  3
ARIAL.TTF
  4

1001
ACAD
1000
Arial CE
1071
    60962
  0
STYLE
  5
340B
330
3
100
AcDbSymbolTableRecord
100
AcDbTextStyleTableRecord
  2

 70
     1
 40
0.0
 41
1.0
 50
0.0
 71
     0
 42
2.5
  3
ltypeshp.shx
  4

  0
ENDTAB
  0
TABLE
  2
VIEW
  5
6
330
0
100
AcDbSymbolTable
 70
     0
  0
ENDTAB
  0
TABLE
  2
UCS
  5
7
330
0
100
AcDbSymbolTable
 70
     0
  0
ENDTAB
  0
TABLE
  2
APPID
  5
9
330
0
100
AcDbSymbolTable
 70
     1
  0
APPID
  5
12
330
9
100
AcDbSymbolTableRecord
100
AcDbRegAppTableRecord
  2
ACAD
 70
     0
  0
ENDTAB
  0
TABLE
  2
DIMSTYLE
  5
A
330
0
100
AcDbSymbolTable
 70
     1
100
AcDbDimStyleTable
 71
     1
340
27
  0
DIMSTYLE
105
27
330
A
100
AcDbSymbolTableRecord
100
AcDbDimStyleTableRecord
  2
ISO-25
 70
     0
 41
2.5
 42
0.625
 43
3.75
 44
1.25
 73
     0
 74
     0
 77
     1
 78
     8
140
2.5
141
2.5
143
0.03937007874016
147
0.625
171
     3
172
     1
271
     2
272
     2
274
     3
278
    44
283
     0
284
     8
340
11
  0
ENDTAB
  0
TABLE
  2
BLOCK_RECORD
  5
1
330
0
100
AcDbSymbolTable
 70
     3
  0
BLOCK_RECORD
  5
1F
330
1
100
AcDbSymbolTableRecord
100
AcDbBlockTableRecord
  2
*Model_Space
340
22
  0
BLOCK_RECORD
  5
1B
330
1
100
AcDbSymbolTableRecord
100
AcDbBlockTableRecord
  2
*Paper_Space
340
1E
  0
BLOCK_RECORD
  5
23
330
1
100
AcDbSymbolTableRecord
100
AcDbBlockTableRecord
  2
*Paper_Space0
340
26
  0
BLOCK_RECORD
  5
33FA
330
1
100
AcDbSymbolTableRecord
100
AcDbBlockTableRecord
  2
E_PUNKT
340
0
102
{BLKREFS
331
43B3
331
4478
331
4479
331
4D8B
331
4DA1
331
4DA7
331
4DF9
331
4DFC
331
4E0B
331
4E13
331
4E17
331
4B02
331
475B
331
4763
331
4769
331
476A
331
476B
331
476C
331
4FB8
331
59FB
331
594B
331
5864
331
5855
331
5910
331
57E8
331
5AED
331
5B49
331
5B4D
331
6E80
331
6E6D
331
6DAA
331
6D50
331
6FA1
331
707A
331
70B1
331
70B2
331
70BB
331
70BC
331
7646
331
7677
331
76B6
331
7779
331
7A28
331
7A2B
331
78FB
331
792A
331
794D
331
97D6
331
97D9
331
98CA
331
9958
331
9969
331
9AB5
331
9AB9
331
9ABC
331
9B15
102
}
  0
BLOCK_RECORD
  5
3730
330
1
100
AcDbSymbolTableRecord
100
AcDbBlockTableRecord
  2
SYM_KOMPON-2_K___-SPO
340
0
102
{BLKREFS
331
4DB5
331
6B31
102
}
  0
ENDTAB
  0
ENDSEC
  0
SECTION
  2
BLOCKS
  0
BLOCK
  5
20
330
1F
100
AcDbEntity
  8
0
100
AcDbBlockBegin
  2
*Model_Space
 70
     0
 10
0.0
 20
0.0
 30
0.0
  3
*Model_Space
  1

  0
ENDBLK
  5
21
330
1F
100
AcDbEntity
  8
0
100
AcDbBlockEnd
  0
BLOCK
  5
1C
330
1B
100
AcDbEntity
 67
     1
  8
0
100
AcDbBlockBegin
  2
*Paper_Space
 70
     0
 10
0.0
 20
0.0
 30
0.0
  3
*Paper_Space
  1

  0
ENDBLK
  5
1D
330
1B
100
AcDbEntity
 67
     1
  8
0
100
AcDbBlockEnd
  0
BLOCK
  5
24
330
23
100
AcDbEntity
  8
0
100
AcDbBlockBegin
  2
*Paper_Space0
 70
     0
 10
0.0
 20
0.0
 30
0.0
  3
*Paper_Space0
  1

  0
ENDBLK
  5
25
330
23
100
AcDbEntity
  8
0
100
AcDbBlockEnd
  0
BLOCK
  5
33FC
330
33FA
100
AcDbEntity
  8
0
100
AcDbBlockBegin
  2
E_PUNKT
 70
     0
 10
0.0
 20
0.0
 30
0.0
  3
E_PUNKT
  1

  0
LWPOLYLINE
  5
33FB
330
33FA
100
AcDbEntity
  8
POPIS
100
AcDbPolyline
 90
        2
 70
     1
 43
2.5
 10
1.27761037562675
 20
0.0290683308725193
 42
-1.0
 10
-1.222389624373249
 20
0.0290683308725193
 42
-1.0
  0
ENDBLK
  5
33FD
330
33FA
100
AcDbEntity
  8
0
100
AcDbBlockEnd
  0
BLOCK
  5
3755
330
3730
100
AcDbEntity
  8
0
  6
Continuous
 62
     7
100
AcDbBlockBegin
  2
SYM_KOMPON-2_K___-SPO
 70
     0
 10
0.0
 20
0.0
 30
0.0
  3
SYM_KOMPON-2_K___-SPO
  1

  0
ARC
  5
3731
330
3730
100
AcDbEntity
  8
0
  6
Continuous
 62
     5
100
AcDbCircle
 39
2.500000155029299
 10
-0.0508188465429459
 20
0.0106048761117461
 30
0.0
 40
0.011751466147934
100
AcDbArc
 50
244.4784797551157
 51
325.5219527481187
  0
LINE
  5
3732
330
3730
100
AcDbEntity
  8
0
  6
Continuous
 62
     5
100
AcDbLine
 39
2.500000155029299
 10
-0.0558819096713726
 20
0.0000000968933121
 30
0.0
 11
-0.0473700259934526
 21
-0.0147428987899281
 31
0.0
  0
LINE
  5
3733
330
3730
100
AcDbEntity
  8
0
  6
Continuous
 62
     5
100
AcDbLine
 39
2.500000155029299
 10
-0.0279409548356863
 20
-0.0234403331604447
 30
0.0
 11
-0.0356294633710414
 21
-0.0234403331604447
 31
0.0
  0
ARC
  5
3734
330
3730
100
AcDbEntity
  8
0
  6
Continuous
 62
     5
100
AcDbCircle
 39
2.500000155029299
 10
-0.0337367494132451
 20
-0.0086124589358392
 30
0.0
 40
0.014948212690269
100
AcDbArc
 50
204.2119054656276
 51
262.7260677832351
  0
LINE
  5
3735
330
3730
100
AcDbEntity
  8
0
  6
Continuous
 62
     5
100
AcDbLine
 39
2.500000155029299
 10
-0.0411315500964158
 20
0.0039524719855855
 30
0.0
 11
-0.0360044404887169
 21
0.0290662495386328
 31
0.0
  0
LINE
  5
3736
330
3730
100
AcDbEntity
  8
0
  6
Continuous
 62
     5
100
AcDbLine
 39
2.500000155029299
 10
-0.0360044404887169
 20
0.0290662495386328
 30
0.0
 11
-0.0330041390807532
 21
0.0290662495386328
 31
0.0
  0
LINE
  5
3737
330
3730
100
AcDbEntity
  8
0
  6
Continuous
 62
     5
100
AcDbLine
 39
2.500000155029299
 10
-0.0330041390807532
 20
0.0290662495386328
 30
0.0
 11
-0.0330041390807532
 21
0.0266284138071823
 31
0.0
  0
LINE
  5
3738
330
3730
100
AcDbEntity
  8
0
  6
Continuous
 62
     5
100
AcDbLine
 39
2.500000155029299
 10
-0.0330041390807532
 20
0.0266284138071823
 30
0.0
 11
-0.031691428488953
 21
0.0266284138071823
 31
0.0
  0
LINE
  5
3739
330
3730
100
AcDbEntity
  8
0
  6
Continuous
 62
     5
100
AcDbLine
 39
2.500000155029299
 10
-0.031691428488953
 20
0.0266284138071823
 30
0.0
 11
-0.031691428488953
 21
0.0290662495386328
 31
0.0
  0
LINE
  5
373A
330
3730
100
AcDbEntity
  8
0
  6
Continuous
 62
     5
100
AcDbLine
 39
2.500000155029299
 10
-0.031691428488953
 20
0.0290662495386328
 30
0.0
 11
-0.0279409548356863
 21
0.0290662495386328
 31
0.0
  0
CIRCLE
  5
373B
330
3730
100
AcDbEntity
  8
0
  6
Continuous
 62
     5
100
AcDbCircle
 39
2.500000155029299
 10
-0.0328383546238171
 20
0.0189341158964315
 30
0.0
 40
0.0013649867099716
  0
CIRCLE
  5
373C
330
3730
100
AcDbEntity
  8
0
  6
Continuous
 62
     5
100
AcDbCircle
 39
2.500000155029299
 10
-0.0329103463546783
 20
0.0132205110708283
 30
0.0
 40
0.0014585928407229
  0
CIRCLE
  5
373D
330
3730
100
AcDbEntity
  8
0
  6
Continuous
 62
     5
100
AcDbCircle
 39
2.500000155029299
 10
-0.0330509385504785
 20
0.0073604035573891
 30
0.0
 40
0.0015249057151225
  0
CIRCLE
  5
373E
330
3730
100
AcDbEntity
  8
0
  6
Continuous
 62
     5
100
AcDbCircle
 39
2.500000155029299
 10
-0.033113725416694
 20
0.0012600006300391
 30
0.0
 40
0.0016056164247336
  0
CIRCLE
  5
373F
330
3730
100
AcDbEntity
  8
0
  6
Continuous
 62
     5
100
AcDbCircle
 39
2.500000155029299
 10
-0.033426012561466
 20
-0.0052037522175391
 30
0.0
 40
0.0017900717687164
  0
CIRCLE
  5
3740
330
3730
100
AcDbEntity
  8
0
  6
Continuous
 62
     5
100
AcDbCircle
 39
2.500000155029299
 10
-0.0335356957907189
 20
-0.0113853517403961
 30
0.0
 40
0.0017680026136918
  0
CIRCLE
  5
3741
330
3730
100
AcDbEntity
  8
0
  6
Continuous
 62
     5
100
AcDbCircle
 39
2.500000155029299
 10
-0.0403631861317734
 20
-0.0080739259074051
 30
0.0
 40
0.0018960946260124
  0
ARC
  5
3742
330
3730
100
AcDbEntity
  8
0
  6
Continuous
 62
     5
100
AcDbCircle
 39
2.500000155029299
 10
-0.0050630631284268
 20
0.0106048761117461
 30
0.0
 40
0.011751466147934
100
AcDbArc
 50
214.4780759391286
 51
295.5215216113749
  0
LINE
  5
3743
330
3730
100
AcDbEntity
  8
0
  6
Continuous
 62
     5
100
AcDbLine
 39
2.500000155029299
 10
0.0
 20
0.0000000968933121
 30
0.0
 11
-0.0085118836779201
 21
-0.0147428987899281
 31
0.0
  0
LINE
  5
3744
330
3730
100
AcDbEntity
  8
0
  6
Continuous
 62
     5
100
AcDbLine
 39
2.500000155029299
 10
-0.0279409548356863
 20
-0.0234403331604447
 30
0.0
 11
-0.0202524463003312
 21
-0.0234403331604447
 31
0.0
  0
ARC
  5
3745
330
3730
100
AcDbEntity
  8
0
  6
Continuous
 62
     5
100
AcDbCircle
 39
2.500000155029299
 10
-0.0221451602581275
 20
-0.0086124589358392
 30
0.0
 40
0.014948212690269
100
AcDbArc
 50
277.2739609040121
 51
335.7881642027547
  0
LINE
  5
3746
330
3730
100
AcDbEntity
  8
0
  6
Continuous
 62
     5
100
AcDbLine
 39
2.500000155029299
 10
-0.0147503595749568
 20
0.0039524719855855
 30
0.0
 11
-0.0198774691826558
 21
0.0290662495386328
 31
0.0
  0
LINE
  5
3747
330
3730
100
AcDbEntity
  8
0
  6
Continuous
 62
     5
100
AcDbLine
 39
2.500000155029299
 10
-0.0198774691826558
 20
0.0290662495386328
 30
0.0
 11
-0.0228777705906195
 21
0.0290662495386328
 31
0.0
  0
LINE
  5
3748
330
3730
100
AcDbEntity
  8
0
  6
Continuous
 62
     5
100
AcDbLine
 39
2.500000155029299
 10
-0.0228777705906195
 20
0.0290662495386328
 30
0.0
 11
-0.0228777705906195
 21
0.0266284138071823
 31
0.0
  0
LINE
  5
3749
330
3730
100
AcDbEntity
  8
0
  6
Continuous
 62
     5
100
AcDbLine
 39
2.500000155029299
 10
-0.0228777705906195
 20
0.0266284138071823
 30
0.0
 11
-0.0241904811824196
 21
0.0266284138071823
 31
0.0
  0
LINE
  5
374A
330
3730
100
AcDbEntity
  8
0
  6
Continuous
 62
     5
100
AcDbLine
 39
2.500000155029299
 10
-0.0241904811824196
 20
0.0266284138071823
 30
0.0
 11
-0.0241904811824196
 21
0.0290662495386328
 31
0.0
  0
LINE
  5
374B
330
3730
100
AcDbEntity
  8
0
  6
Continuous
 62
     5
100
AcDbLine
 39
2.500000155029299
 10
-0.0241904811824196
 20
0.0290662495386328
 30
0.0
 11
-0.0279409548356863
 21
0.0290662495386328
 31
0.0
  0
CIRCLE
  5
374C
330
3730
100
AcDbEntity
  8
0
  6
Continuous
 62
     5
100
AcDbCircle
 39
2.500000155029299
 10
-0.0230435550475556
 20
0.0189341158964315
 30
0.0
 40
0.0013649867099716
  0
CIRCLE
  5
374D
330
3730
100
AcDbEntity
  8
0
  6
Continuous
 62
     5
100
AcDbCircle
 39
2.500000155029299
 10
-0.0229715633166944
 20
0.0132205110708283
 30
0.0
 40
0.0014585928407229
  0
CIRCLE
  5
374E
330
3730
100
AcDbEntity
  8
0
  6
Continuous
 62
     5
100
AcDbCircle
 39
2.500000155029299
 10
-0.0228309711208941
 20
0.0073604035573891
 30
0.0
 40
0.0015249057151225
  0
CIRCLE
  5
374F
330
3730
100
AcDbEntity
  8
0
  6
Continuous
 62
     5
100
AcDbCircle
 39
2.500000155029299
 10
-0.0227681842546787
 20
0.0012600006300391
 30
0.0
 40
0.0016056164247336
  0
CIRCLE
  5
3750
330
3730
100
AcDbEntity
  8
0
  6
Continuous
 62
     5
100
AcDbCircle
 39
2.500000155029299
 10
-0.0224558971099066
 20
-0.0052037522175391
 30
0.0
 40
0.0017900717687164
  0
CIRCLE
  5
3751
330
3730
100
AcDbEntity
  8
0
  6
Continuous
 62
     5
100
AcDbCircle
 39
2.500000155029299
 10
-0.0223462138806537
 20
-0.0113853517403961
 30
0.0
 40
0.0017680026136918
  0
CIRCLE
  5
3752
330
3730
100
AcDbEntity
  8
0
  6
Continuous
 62
     5
100
AcDbCircle
 39
2.500000155029299
 10
-0.0155187235395992
 20
-0.0080739259074051
 30
0.0
 40
0.0018960946260124
  0
CIRCLE
  5
3753
330
3730
100
AcDbEntity
  8
0
  6
Continuous
 62
     5
100
AcDbCircle
 39
2.500000155029299
 10
-0.0280347717850892
 20
-0.0082510468818523
 30
0.0
 40
0.0018752247149693
  0
CIRCLE
  5
3754
330
3730
100
AcDbEntity
  8
0
  6
Continuous
 62
     5
100
AcDbCircle
 39
2.500000155029299
 10
-0.0278472347795955
 20
0.0103139054956274
 30
0.0
 40
0.0016877361561316
  0
ENDBLK
  5
3756
330
3730
100
AcDbEntity
  8
0
100
AcDbBlockEnd
  0
ENDSEC
  0
SECTION
  2
ENTITIES
  0
TEXT
  5
43AE
330
1F
100
AcDbEntity
  8
POPIS
100
AcDbText
 10
6842.624790751269
 20
-1391.322660608606
 30
0.0
 40
50.0
  1
Protipožární podhled 
 41
0.85
  7
SIMPLEX7
100
AcDbText
  0
LINE
  5
6B8A
330
1F
100
AcDbEntity
  8
0
  6
Continuous
 62
     5
100
AcDbLine
 39
2500.000155029299
 10
7159.748117503316
 20
-1695.027395587556
 30
0.0
 11
7168.225745834249
 21
-1709.790084047151
 31
0.0
  0
LINE
  5
6B8B
330
1F
100
AcDbEntity
  8
NOSNÉ KONSTRUKCE
100
AcDbLine
 39
2500.000155029299
 10
7218.665369240094
 20
-1722.85001160989
 30
0.0
 11
7206.251225889092
 21
-1722.849952219427
 31
0.0
  0
LINE
  5
6B8C
330
1F
100
AcDbEntity
  8
NOSNÉ KONSTRUKCE
100
AcDbLine
 39
2500.000155029299
 10
7218.665395142356
 20
-1717.43576986199
 30
0.0
 11
7218.665369240094
 21
-1722.85001160989
 31
0.0
  0
LINE
  5
6B8D
330
1F
100
AcDbEntity
  8
NOSNÉ KONSTRUKCE
100
AcDbLine
 39
2500.000155029299
 10
7217.66537402421
 20
-1721.850006825806
 30
0.0
 11
7206.66543714072
 21
-1721.849954201042
 31
0.0
  0
LINE
  5
6B8E
330
1F
100
AcDbEntity
  8
NOSNÉ KONSTRUKCE
100
AcDbLine
 39
2500.000155029299
 10
7217.665393160699
 20
-1717.849985735132
 30
0.0
 11
7217.66537402421
 21
-1721.850006825806
 31
0.0
  0
LINE
  5
6B8F
330
1F
100
AcDbEntity
  8
NOSNÉ KONSTRUKCE
100
AcDbLine
 39
2500.000155029299
 10
7218.665395142356
 20
-1717.43576986199
 30
0.0
 11
7217.07962287453
 21
-1715.850020833711
 31
0.0
  0
LINE
  5
6B90
330
1F
100
AcDbEntity
  8
NOSNÉ KONSTRUKCE
100
AcDbLine
 39
2500.000155029299
 10
7217.07962287453
 20
-1715.850020833711
 30
0.0
 11
7218.665410315042
 21
-1714.264286978488
 31
0.0
  0
LINE
  5
6B91
330
1F
100
AcDbEntity
  8
NOSNÉ KONSTRUKCE
100
AcDbLine
 39
2500.000155029299
 10
7217.665393160699
 20
-1717.849985735132
 30
0.0
 11
7215.665392183378
 21
-1715.850014067897
 31
0.0
  0
LINE
  5
6B92
330
1F
100
AcDbEntity
  8
NOSNÉ KONSTRUKCE
100
AcDbLine
 39
2500.000155029299
 10
7215.665392183378
 20
-1715.850014067897
 30
0.0
 11
7217.665412296729
 21
-1713.850061537151
 31
0.0
  0
LINE
  5
6B93
330
1F
100
AcDbEntity
  8
0
  6
Continuous
 62
     5
100
AcDbLine
 39
2500.000155029299
 10
7215.629786721116
 20
-1695.157098365349
 30
0.0
 11
7207.083720947571
 21
-1709.880274397263
 31
0.0
  0
LINE
  5
6B94
330
1F
100
AcDbEntity
  8
0
  6
Continuous
 62
     5
100
AcDbLine
 39
2500.000155029299
 10
7187.634546511027
 20
-1718.532576168622
 30
0.0
 11
7179.946071058466
 21
-1718.514731021239
 31
0.0
  0
LINE
  5
6B95
330
1F
100
AcDbEntity
  8
0
  6
Continuous
 62
     5
100
AcDbLine
 39
2500.000155029299
 10
7187.634546511027
 20
-1718.532576168622
 30
0.0
 11
7195.323021963601
 21
-1718.550421316005
 31
0.0
  0
LINE
  5
6B96
330
1F
100
AcDbEntity
  8
0
  6
Continuous
 62
     5
100
AcDbLine
 39
2500.000155029299
 10
7174.50758713293
 20
-1691.109273314931
 30
0.0
 11
7179.795922577489
 21
-1664.084507588199
 31
0.0
  0
LINE
  5
6B97
330
1F
100
AcDbEntity
  8
0
  6
Continuous
 62
     5
100
AcDbLine
 39
2500.000155029299
 10
7200.888664139092
 20
-1691.170504466697
 30
0.0
 11
7195.710782117952
 21
-1664.042614704152
 31
0.0
  0
LINE
  5
6BD2
330
1F
100
AcDbEntity
  8
SPOJOVACÍ
  6
Continuous
100
AcDbLine
 39
2500.000155029299
 10
7188.342055795786
 20
-1660.893133741905
 30
0.0
 11
7189.232783896571
 21
-1660.002393523923
 31
0.0
  0
LINE
  5
6BD3
330
1F
100
AcDbEntity
  8
SPOJOVACÍ
  6
Continuous
100
AcDbLine
 39
2500.000155029299
 10
7189.232783896571
 20
-1657.686449578745
 30
0.0
 11
7186.466818968895
 21
-1657.686449578745
 31
0.0
  0
LINE
  5
6BD4
330
1F
100
AcDbEntity
  8
SPOJOVACÍ
  6
Continuous
100
AcDbLine
 39
2500.000155029299
 10
7189.232783896571
 20
-1660.002393523923
 30
0.0
 11
7189.232783896571
 21
-1657.686449578745
 31
0.0
  0
LINE
  5
6BD5
330
1F
100
AcDbEntity
  8
SPOJOVACÍ
  6
Continuous
100
AcDbLine
 39
2500.000155029299
 10
7186.466818968895
 20
-1657.686449578745
 30
0.0
 11
7186.466818968895
 21
-1659.974294463195
 31
0.0
  0
LINE
  5
6BD6
330
1F
100
AcDbEntity
  8
SPOJOVACÍ
  6
Continuous
100
AcDbLine
 39
2500.000155029299
 10
7189.85367624073
 20
-1657.101698440369
 30
0.0
 11
7185.853678088008
 21
-1657.101698440369
 31
0.0
  0
LINE
  5
6BD7
330
1F
100
AcDbEntity
  8
SPOJOVACÍ
  6
Continuous
100
AcDbLine
 39
2500.000155029299
 10
7189.85367624073
 20
-1660.10170916847
 30
0.0
 11
7189.85367624073
 21
-1657.101698440369
 31
0.0
  0
LINE
  5
6BD8
330
1F
100
AcDbEntity
  8
SPOJOVACÍ
  6
Continuous
100
AcDbLine
 39
2500.000155029299
 10
7185.853678088008
 20
-1658.601703804874
 30
0.0
 11
7185.853678088008
 21
-1657.101698440369
 31
0.0
  0
LINE
  5
6BD9
330
1F
100
AcDbEntity
  8
SPOJOVACÍ
  6
Continuous
100
AcDbLine
 39
2500.000155029299
 10
7185.853678088008
 20
-1660.10170916847
 30
0.0
 11
7185.853678088008
 21
-1658.601703804874
 31
0.0
  0
LINE
  5
6BDA
330
1F
100
AcDbEntity
  8
SPOJOVACÍ
  6
Continuous
100
AcDbLine
 39
2500.000155029299
 10
7188.766545392994
 20
-1656.479352697301
 30
0.0
 11
7187.854488644646
 21
-1656.479352697301
 31
0.0
  0
LINE
  5
6BDB
330
1F
100
AcDbEntity
  8
SPOJOVACÍ
  6
Continuous
100
AcDbLine
 39
2500.000155029299
 10
7190.192536380621
 20
-1656.861403027091
 30
0.0
 11
7188.766545392994
 21
-1656.479352697301
 31
0.0
  0
LINE
  5
6BDC
330
1F
100
AcDbEntity
  8
SPOJOVACÍ
  6
Continuous
100
AcDbLine
 39
2500.000155029299
 10
7186.942431903574
 20
-1656.479352697301
 30
0.0
 11
7187.854488644646
 21
-1656.479352697301
 31
0.0
  0
LINE
  5
6BDD
330
1F
100
AcDbEntity
  8
SPOJOVACÍ
  6
Continuous
100
AcDbLine
 39
2500.000155029299
 10
7185.516453030416
 20
-1656.861403027091
 30
0.0
 11
7186.942431903574
 21
-1656.479352697301
 31
0.0
  0
LINE
  5
6BDE
330
1F
100
AcDbEntity
  8
SPOJOVACÍ
  6
Continuous
100
AcDbLine
 39
2500.000155029299
 10
7188.617329690444
 20
-1662.937098159586
 30
0.0
 11
7191.055129088184
 21
-1662.937098159586
 31
0.0
  0
LINE
  5
6BDF
330
1F
100
AcDbEntity
  8
SPOJOVACÍ
  6
Continuous
100
AcDbLine
 39
2500.000155029299
 10
7188.353670879862
 20
-1661.601714532975
 30
0.0
 11
7189.85367624073
 21
-1660.10170916847
 31
0.0
  0
LINE
  5
6BE0
330
1F
100
AcDbEntity
  8
SPOJOVACÍ
  6
Continuous
100
AcDbLine
 39
2500.000155029299
 10
7187.353671341682
 20
-1661.601714532975
 30
0.0
 11
7185.853678088008
 21
-1660.10170916847
 31
0.0
  0
LINE
  5
6BE1
330
1F
100
AcDbEntity
  8
SPOJOVACÍ
  6
Continuous
100
AcDbLine
 39
2500.000155029299
 10
7188.617329690444
 20
-1661.811973019707
 30
0.0
 11
7188.617329690444
 21
-1662.937098159586
 31
0.0
  0
LINE
  5
6BE2
330
1F
100
AcDbEntity
  8
SPOJOVACÍ
  6
Continuous
100
AcDbLine
 39
2500.000155029299
 10
7190.192536380621
 20
-1661.811973019707
 30
0.0
 11
7190.192536380621
 21
-1656.861403027091
 31
0.0
  0
LINE
  5
6BE3
330
1F
100
AcDbEntity
  8
SPOJOVACÍ
  6
Continuous
100
AcDbLine
 39
2500.000155029299
 10
7188.617329690444
 20
-1661.811973019707
 30
0.0
 11
7190.192536380621
 21
-1661.811973019707
 31
0.0
  0
LINE
  5
6BE4
330
1F
100
AcDbEntity
  8
SPOJOVACÍ
  6
Continuous
100
AcDbLine
 39
2500.000155029299
 10
7187.091647598847
 20
-1661.811973019707
 30
0.0
 11
7187.091647598847
 21
-1662.937098159586
 31
0.0
  0
LINE
  5
6BE5
330
1F
100
AcDbEntity
  8
SPOJOVACÍ
  6
Continuous
100
AcDbLine
 39
2500.000155029299
 10
7185.516453030416
 20
-1661.811973019707
 30
0.0
 11
7185.516453030416
 21
-1656.861403027091
 31
0.0
  0
LINE
  5
6BE6
330
1F
100
AcDbEntity
  8
SPOJOVACÍ
  6
Continuous
100
AcDbLine
 39
2500.000155029299
 10
7187.091647598847
 20
-1661.811973019707
 30
0.0
 11
7185.516453030416
 21
-1661.811973019707
 31
0.0
  0
LINE
  5
6BE7
330
1F
100
AcDbEntity
  8
SPOJOVACÍ
  6
Continuous
100
AcDbLine
 39
2500.000155029299
 10
7191.055129088184
 20
-1662.937098159586
 30
0.0
 11
7199.320927977808
 21
-1632.088786825574
 31
0.0
  0
LINE
  5
6BE8
330
1F
100
AcDbEntity
  8
SPOJOVACÍ
  6
Continuous
100
AcDbLine
 39
2500.000155029299
 10
7187.091647598847
 20
-1662.937098159586
 30
0.0
 11
7184.653836093914
 21
-1662.937098159586
 31
0.0
  0
LINE
  5
6BE9
330
1F
100
AcDbEntity
  8
SPOJOVACÍ
  6
Continuous
100
AcDbLine
 39
2500.000155029299
 10
7184.653836093914
 20
-1662.937098159586
 30
0.0
 11
7176.388061425953
 21
-1632.088786825574
 31
0.0
  0
LINE
  5
6BEA
330
1F
100
AcDbEntity
  8
SPOJOVACÍ
  6
Continuous
100
AcDbLine
 39
2500.000155029299
 10
7187.385658248516
 20
-1660.893133741905
 30
0.0
 11
7188.342055795786
 21
-1660.893133741905
 31
0.0
  0
LINE
  5
6BEB
330
1F
100
AcDbEntity
  8
SPOJOVACÍ
  6
Continuous
100
AcDbLine
 39
2500.000155029299
 10
7186.466818968895
 20
-1659.974294463195
 30
0.0
 11
7187.385658248516
 21
-1660.893133741905
 31
0.0
  0
ARC
  5
6BEC
330
1F
100
AcDbEntity
  8
SPOJOVACÍ
  6
Continuous
100
AcDbCircle
 39
2500.000155029299
 10
7189.714620615966
 20
-1577.684064143381
 30
0.0
 40
12.35896601914339
100
AcDbArc
 50
39.04205296599621
 51
63.57368118090316
  0
ARC
  5
6BED
330
1F
100
AcDbEntity
  8
SPOJOVACÍ
  6
Continuous
100
AcDbCircle
 39
2500.000155029299
 10
7187.901131031306
 20
-1537.847444715721
 30
0.0
 40
1.856153575276108
100
AcDbArc
 50
7.24529573806531
 51
91.43990382530169
  0
ARC
  5
6BEE
330
1F
100
AcDbEntity
  8
SPOJOVACÍ
  6
Continuous
100
AcDbCircle
 39
2500.000155029299
 10
7187.959315097671
 20
-1609.664573828508
 30
0.0
 40
1.791938668176291
100
AcDbArc
 50
266.1076944413313
 51
354.3243413836902
  0
ARC
  5
6BEF
330
1F
100
AcDbEntity
  8
SPOJOVACÍ
  6
Continuous
100
AcDbCircle
 39
2500.000155029299
 10
7187.932221308713
 20
-1574.126529297741
 30
0.0
 40
1.833202918205448
100
AcDbArc
 50
9.07753826540085
 51
92.54429578148736
  0
LINE
  5
6BF0
330
1F
100
AcDbEntity
  8
SPOJOVACÍ
  6
Continuous
100
AcDbLine
 39
2500.000155029299
 10
7189.742466946611
 20
-1632.344585169034
 30
0.0
 11
7187.854488644646
 21
-1632.344585169034
 31
0.0
  0
LINE
  5
6BF1
330
1F
100
AcDbEntity
  8
SPOJOVACÍ
  6
Continuous
100
AcDbLine
 39
2500.000155029299
 10
7189.742466946611
 20
-1619.968111740076
 30
0.0
 11
7189.742466946611
 21
-1632.344585169034
 31
0.0
  0
LINE
  5
6BF2
330
1F
100
AcDbEntity
  8
SPOJOVACÍ
  6
Continuous
100
AcDbLine
 39
2500.000155029299
 10
7189.742466946611
 20
-1573.837302761189
 30
0.0
 11
7189.742466946611
 21
-1609.841791696039
 31
0.0
  0
ARC
  5
6BF3
330
1F
100
AcDbEntity
  8
SPOJOVACÍ
  6
Continuous
100
AcDbCircle
 39
2500.000155029299
 10
7188.408342927417
 20
-1612.070628553323
 30
0.0
 40
7.915946660942908
100
AcDbArc
 50
266.0802097601067
 51
3.91991022407127
  0
ARC
  5
6BF4
330
1F
100
AcDbEntity
  8
SPOJOVACÍ
  6
Continuous
100
AcDbCircle
 39
2500.000155029299
 10
7187.425408725815
 20
-1570.903663951453
 30
0.0
 40
8.891364063669307
100
AcDbArc
 50
2.848339148043316
 51
87.15146528105737
  0
LINE
  5
6BF5
330
1F
100
AcDbEntity
  8
SPOJOVACÍ
  6
Continuous
100
AcDbLine
 39
2500.000155029299
 10
7196.305777669024
 20
-1580.588150492571
 30
0.0
 11
7196.305777669024
 21
-1570.461830448534
 31
0.0
  0
LINE
  5
6BF6
330
1F
100
AcDbEntity
  8
SPOJOVACÍ
  6
Continuous
100
AcDbLine
 39
2500.000155029299
 10
7196.305777669024
 20
-1601.028182244176
 30
0.0
 11
7196.305777669024
 21
-1611.529479405857
 31
0.0
  0
LINE
  5
6BF7
330
1F
100
AcDbEntity
  8
SPOJOVACÍ
  6
Continuous
100
AcDbLine
 39
2500.000155029299
 10
7196.305777669024
 20
-1601.028182244176
 30
0.0
 11
7189.742466946611
 21
-1601.028182244176
 31
0.0
  0
LINE
  5
6BF8
330
1F
100
AcDbEntity
  8
SPOJOVACÍ
  6
Continuous
100
AcDbLine
 39
2500.000155029299
 10
7196.305777669024
 20
-1580.588150492571
 30
0.0
 11
7196.305777669024
 21
-1601.028182244176
 31
0.0
  0
LINE
  5
6BF9
330
1F
100
AcDbEntity
  8
SPOJOVACÍ
  6
Continuous
100
AcDbLine
 39
2500.000155029299
 10
7189.742466946611
 20
-1580.588150492571
 30
0.0
 11
7196.305777669024
 21
-1580.588150492571
 31
0.0
  0
ARC
  5
6BFA
330
1F
100
AcDbEntity
  8
SPOJOVACÍ
  6
Continuous
100
AcDbCircle
 39
2500.000155029299
 10
7187.74966219162
 20
-1609.664573828508
 30
0.0
 40
1.791938668176291
100
AcDbArc
 50
185.6756873035466
 51
273.8921703213237
  0
ARC
  5
6BFB
330
1F
100
AcDbEntity
  8
SPOJOVACÍ
  6
Continuous
100
AcDbCircle
 39
2500.000155029299
 10
7187.776743873385
 20
-1574.126529297741
 30
0.0
 40
1.833202918205448
100
AcDbArc
 50
87.45568190668869
 51
170.9224377151385
  0
LINE
  5
6BFC
330
1F
100
AcDbEntity
  8
SPOJOVACÍ
  6
Continuous
100
AcDbLine
 39
2500.000155029299
 10
7185.966510349956
 20
-1632.344585169034
 30
0.0
 11
7187.854488644646
 21
-1632.344585169034
 31
0.0
  0
LINE
  5
6BFD
330
1F
100
AcDbEntity
  8
SPOJOVACÍ
  6
Continuous
100
AcDbLine
 39
2500.000155029299
 10
7185.966510349956
 20
-1619.968111740076
 30
0.0
 11
7185.966510349956
 21
-1632.344585169034
 31
0.0
  0
LINE
  5
6BFE
330
1F
100
AcDbEntity
  8
SPOJOVACÍ
  6
Continuous
100
AcDbLine
 39
2500.000155029299
 10
7185.966510349956
 20
-1573.837302761189
 30
0.0
 11
7185.966510349956
 21
-1609.841791696039
 31
0.0
  0
ARC
  5
6BFF
330
1F
100
AcDbEntity
  8
SPOJOVACÍ
  6
Continuous
100
AcDbCircle
 39
2500.000155029299
 10
7187.300610140212
 20
-1612.070628553323
 30
0.0
 40
7.915946660942908
100
AcDbArc
 50
176.0801048027694
 51
273.9197916062925
  0
ARC
  5
6C00
330
1F
100
AcDbEntity
  8
SPOJOVACÍ
  6
Continuous
100
AcDbCircle
 39
2500.000155029299
 10
7185.987063846098
 20
-1577.684064143381
 30
0.0
 40
12.35896601914339
100
AcDbArc
 50
116.37436881397
 51
140.9579470340037
  0
ARC
  5
6C01
330
1F
100
AcDbEntity
  8
SPOJOVACÍ
  6
Continuous
100
AcDbCircle
 39
2500.000155029299
 10
7188.283568570753
 20
-1570.903663951453
 30
0.0
 40
8.891364063669307
100
AcDbArc
 50
92.84852606754681
 51
177.1516658609006
  0
LINE
  5
6C02
330
1F
100
AcDbEntity
  8
SPOJOVACÍ
  6
Continuous
100
AcDbLine
 39
2500.000155029299
 10
7179.403187513074
 20
-1580.588150492571
 30
0.0
 11
7179.403187513074
 21
-1570.461830448534
 31
0.0
  0
LINE
  5
6C03
330
1F
100
AcDbEntity
  8
SPOJOVACÍ
  6
Continuous
100
AcDbLine
 39
2500.000155029299
 10
7179.403187513074
 20
-1601.028182244176
 30
0.0
 11
7179.403187513074
 21
-1611.529479405857
 31
0.0
  0
LINE
  5
6C04
330
1F
100
AcDbEntity
  8
SPOJOVACÍ
  6
Continuous
100
AcDbLine
 39
2500.000155029299
 10
7179.403187513074
 20
-1601.028182244176
 30
0.0
 11
7185.966498235487
 21
-1601.028182244176
 31
0.0
  0
LINE
  5
6C05
330
1F
100
AcDbEntity
  8
SPOJOVACÍ
  6
Continuous
100
AcDbLine
 39
2500.000155029299
 10
7179.403187513074
 20
-1580.588150492571
 30
0.0
 11
7179.403187513074
 21
-1601.028182244176
 31
0.0
  0
LINE
  5
6C06
330
1F
100
AcDbEntity
  8
SPOJOVACÍ
  6
Continuous
100
AcDbLine
 39
2500.000155029299
 10
7185.966498235487
 20
-1580.588150492571
 30
0.0
 11
7179.403187513074
 21
-1580.588150492571
 31
0.0
  0
LINE
  5
6C07
330
1F
100
AcDbEntity
  8
SPOJOVACÍ
  6
Continuous
100
AcDbLine
 39
2500.000155029299
 10
7176.388061425953
 20
-1632.088786825574
 30
0.0
 11
7176.388049318759
 21
-1569.899267878595
 31
0.0
  0
LINE
  5
6C08
330
1F
100
AcDbEntity
  8
SPOJOVACÍ
  6
Continuous
100
AcDbLine
 39
2500.000155029299
 10
7199.320927977808
 20
-1632.088786825574
 30
0.0
 11
7199.320903756145
 21
-1569.899267878595
 31
0.0
  0
LINE
  5
6C09
330
1F
100
AcDbEntity
  8
SPOJOVACÍ
  6
Continuous
100
AcDbLine
 39
2500.000155029299
 10
7189.742466946611
 20
-1562.366491119559
 30
0.0
 11
7189.742463791763
 21
-1537.613351229541
 31
0.0
  0
LINE
  5
6C0A
330
1F
100
AcDbEntity
  8
SPOJOVACÍ
  6
Continuous
100
AcDbLine
 39
2500.000155029299
 10
7185.966510349956
 20
-1562.366491119559
 30
0.0
 11
7185.966510349956
 21
-1537.613350473788
 31
0.0
  0
ARC
  5
6C0B
330
1F
100
AcDbEntity
  8
SPOJOVACÍ
  6
Continuous
100
AcDbCircle
 39
2500.000155029299
 10
7187.807846627677
 20
-1537.847444715721
 30
0.0
 40
1.856153575276108
100
AcDbArc
 50
88.5600961746983
 51
172.7547042619347
  0
LINE
  5
6C0C
330
1F
100
AcDbEntity
  8
NOSNÉ KONSTRUKCE
100
AcDbLine
 10
6828.916652336342
 20
-1693.084451077995
 30
0.0
 11
7062.854487859574
 21
-1693.084451077995
 31
0.0
  0
LINE
  5
6C0D
330
1F
100
AcDbEntity
  8
izolace
100
AcDbLine
 10
6828.916652336342
 20
-1662.728706535317
 30
0.0
 11
7385.433815677501
 21
-1662.728706535317
 31
0.0
  0
LINE
  5
6C0E
330
1F
100
AcDbEntity
  8
NOSNÉ KONSTRUKCE
100
AcDbLine
 10
6828.916652336342
 20
-1664.084507588187
 30
0.0
 11
7034.897940668717
 21
-1664.084507588187
 31
0.0
  0
LINE
  5
6C0F
330
1F
100
AcDbEntity
  8
NOSNÉ KONSTRUKCE
  6
DASHED
100
AcDbLine
 10
7385.433815677501
 20
-1669.498768472446
 30
0.0
 11
7122.804921647494
 21
-1669.498768472446
 31
0.0
  0
LINE
  5
6C10
330
1F
100
AcDbEntity
  8
NOSNÉ KONSTRUKCE
  6
DASHED
100
AcDbLine
 10
7385.433815677501
 20
-1672.670251355931
 30
0.0
 11
7121.359413321666
 21
-1672.670251355931
 31
0.0
  0
LINE
  5
6C11
330
1F
100
AcDbEntity
  8
NOSNÉ KONSTRUKCE
  6
DASHED
100
AcDbLine
 10
7385.433815677501
 20
-1679.584482276379
 30
0.0
 11
7118.208023662827
 21
-1679.584482276379
 31
0.0
  0
LINE
  5
6C12
330
1F
100
AcDbEntity
  8
NOSNÉ KONSTRUKCE
  6
DASHED
100
AcDbLine
 10
7385.433815677501
 20
-1677.584495526162
 30
0.0
 11
7119.119583839941
 21
-1677.584495526162
 31
0.0
  0
LINE
  5
6C13
330
1F
100
AcDbEntity
  8
NOSNÉ KONSTRUKCE
  6
DASHED
100
AcDbLine
 10
7385.433815677501
 20
-1684.498726446595
 30
0.0
 11
7115.968194181107
 21
-1684.498726446595
 31
0.0
  0
LINE
  5
6C14
330
1F
100
AcDbEntity
  8
izolace
  6
IZOLACE
 48
1.5
100
AcDbLine
 10
7119.567357063759
 20
-1676.602069420655
 30
0.0
 11
7385.433815677501
 21
-1676.602069420654
 31
0.0
  0
LINE
  5
6C19
330
1F
100
AcDbEntity
  8
CETRIS
100
AcDbLine
 10
6828.916652336342
 20
-1724.646696790603
 30
0.0
 11
7192.735441415861
 21
-1724.646696790602
 31
0.0
  0
LINE
  5
6C1A
330
1F
100
AcDbEntity
  8
CETRIS
100
AcDbLine
 10
6828.916652336342
 20
-1736.646696790604
 30
0.0
 11
7072.854487859574
 21
-1736.646696790604
 31
0.0
  0
LINE
  5
6C1E
330
1F
100
AcDbEntity
  8
izolace
  6
IZOLACE
 48
1.5
100
AcDbLine
 10
6828.916652336342
 20
-1646.602069420654
 30
0.0
 11
7385.433815677501
 21
-1646.602069420654
 31
0.0
  0
LINE
  5
6C1F
330
1F
100
AcDbEntity
  8
izolace
100
AcDbLine
 10
6828.916652336342
 20
-1630.61933306703
 30
0.0
 11
7385.433815677501
 21
-1630.61933306703
 31
0.0
  0
LINE
  5
6C20
330
1F
100
AcDbEntity
  8
STAVBA OBRYS
100
AcDbLine
 10
7385.433815677501
 20
-1585.980108319995
 30
0.0
 11
6828.916652336342
 21
-1585.980108319995
 31
0.0
  0
ELLIPSE
  5
6D40
330
1F
100
AcDbEntity
  8
0
  6
Continuous
 62
     5
100
AcDbEllipse
 10
7182.750266762012
 20
-1681.860355650246
 30
0.0
 11
-1.033687712746777
 21
1.029065566366512
 31
0.0
210
0.0
220
0.0
230
1.0
 40
0.9999999999968133
 41
3.922429033934233
 42
10.20561434111382
  0
ELLIPSE
  5
6D41
330
1F
100
AcDbEntity
  8
0
  6
Continuous
 62
     5
100
AcDbEllipse
 10
7192.689007034525
 20
-1681.883423719599
 30
0.0
 11
1.029065566365614
 21
1.033687712745874
 31
0.0
210
0.0
220
0.0
230
1.0
 40
0.9999999999988942
 41
5.493225360726983
 42
11.77641066790656
  0
LINE
  5
6D42
330
1F
100
AcDbEntity
  8
POPIS
100
AcDbLine
 10
7344.029942215623
 20
-1646.602069420654
 30
0.0
 11
7344.029942215623
 21
-1846.646698265196
 31
0.0
  0
LINE
  5
6D43
330
1F
100
AcDbEntity
  8
POPIS
100
AcDbLine
 10
7260.177450943882
 20
-1798.177301247444
 30
0.0
 11
7200.058120687171
 21
-1619.83481255721
 31
0.0
  0
LINE
  5
6D44
330
1F
100
AcDbEntity
  8
CETRIS
100
AcDbLine
 10
7192.735441415861
 20
-1736.646696790604
 30
0.0
 11
7385.433815677501
 21
-1736.646696790604
 31
0.0
  0
LINE
  5
6D45
330
1F
100
AcDbEntity
  8
CETRIS
100
AcDbLine
 10
7192.735441415861
 20
-1724.646696790602
 30
0.0
 11
7385.433815677501
 21
-1724.646696790602
 31
0.0
  0
HATCH
  5
6D47
330
1F
100
AcDbEntity
  8
NOSNÉ KONSTRUKCE
100
AcDbHatch
 10
0.0
 20
0.0
 30
0.0
210
0.0
220
0.0
230
1.0
  2
SOLID
 70
     1
 71
     0
 91
        1
 92
        7
 72
     0
 73
     1
 93
       68
 10
7218.665466903599
 20
-1702.435811887825
 10
7217.079694635787
 20
-1700.850062859552
 10
7218.6654820763
 20
-1699.264329004348
 10
7218.665507978541
 20
-1693.850087256428
 10
7214.665516383719
 20
-1693.85006812008
 10
7214.665511599632
 20
-1694.850068120071
 10
7217.66550319446
 20
-1694.85008247232
 10
7217.665484057978
 20
-1698.850103562998
 10
7215.66546394462
 20
-1700.850056093739
 10
7217.665464921949
 20
-1702.850027760972
 10
7217.66544578546
 20
-1706.850048851644
 10
7215.665428064006
 20
-1708.350035080825
 10
7217.665431433211
 20
-1709.850040446487
 10
7217.665412296722
 20
-1713.850061537156
 10
7215.665392183371
 20
-1715.850014067894
 10
7217.665393160699
 20
-1717.849985735132
 10
7217.66537402421
 20
-1721.850006825806
 10
7206.665437140727
 20
-1721.849954201041
 10
7204.665436163391
 20
-1719.84998253381
 10
7200.665463519055
 20
-1719.849963397552
 10
7198.665443405712
 20
-1721.849915928296
 10
7187.665506522221
 20
-1721.849863303536
 10
7176.665569638723
 20
-1721.849810678771
 10
7174.665568661402
 20
-1719.84983901154
 10
7170.665596017075
 20
-1719.84981987528
 10
7168.665575903723
 20
-1721.849772406027
 10
7157.665639020226
 20
-1721.849719781264
 10
7157.665658156722
 20
-1717.849698690591
 10
7159.665678270059
 20
-1715.849746159844
 10
7157.665677292738
 20
-1713.84977449261
 10
7157.665696429218
 20
-1709.849753401936
 10
7159.665714150694
 20
-1708.349767172767
 10
7157.665710781474
 20
-1706.849761807098
 10
7157.665729917963
 20
-1702.849740716428
 10
7159.665750031315
 20
-1700.849788185691
 10
7157.665749053994
 20
-1698.849816518443
 10
7157.665768190468
 20
-1694.84979542778
 10
7160.665501443581
 20
-1694.849809778792
 10
7160.665496660723
 20
-1693.850068120081
 10
7156.665505065895
 20
-1693.850087256428
 10
7156.665530968137
 20
-1699.264329004337
 10
7158.251318408655
 20
-1700.850062859558
 10
7156.665546140835
 20
-1702.435811887826
 10
7156.665569651064
 20
-1707.350056058058
 10
7157.998909701084
 20
-1708.350043054356
 10
7156.665579219174
 20
-1709.350042808273
 10
7156.6656027294
 20
-1714.264286978492
 10
7158.251390169913
 20
-1715.850020833711
 10
7156.665617902085
 20
-1717.43576986199
 10
7156.665619882339
 20
-1717.849693906677
 10
7156.665658156736
 20
-1717.849693906494
 10
7156.665639020239
 20
-1721.849714997165
 10
7156.665643804349
 20
-1722.85001160989
 10
7169.079787155343
 20
-1722.849952219426
 10
7171.079788132679
 20
-1720.849980552193
 10
7174.251347841948
 20
-1720.849965379145
 10
7176.251258738389
 20
-1722.849808696681
 10
7199.079645089149
 20
-1722.84991790989
 10
7201.079665202517
 20
-1720.849965379144
 10
7204.251224911771
 20
-1720.849980552193
 10
7206.251225889092
 20
-1722.849952219427
 10
7218.665369240094
 20
-1722.85001160989
 10
7218.665395142356
 20
-1717.435769861997
 10
7217.07962287453
 20
-1715.850020833708
 10
7218.66541031505
 20
-1714.264286978485
 10
7218.665433825269
 20
-1709.350042808273
 10
7217.332103343359
 20
-1708.350043054361
 10
7218.66544339338
 20
-1707.350056058062
 97
        0
 75
     0
 76
     1
 47
0.131671459398827
 98
        1
 10
7217.985091221321
 20
-1704.566893640424
  0
ELLIPSE
  5
6D48
330
1F
100
AcDbEntity
  8
0
  6
Continuous
 62
     5
100
AcDbEllipse
 10
7181.87319259785
 20
-1703.691313617751
 30
0.0
 11
-10.59362376809057
 21
10.54625425876028
 31
0.0
210
0.0
220
0.0
230
1.0
 40
0.9999999999996093
 41
1.20341384889878
 42
2.224678640387655
  0
ELLIPSE
  5
6D49
330
1F
100
AcDbEntity
  8
0
  6
Continuous
 62
     5
100
AcDbEllipse
 10
7175.248034335628
 20
-1703.137402844318
 30
0.0
 11
1.337731569581761
 21
1.343740118827014
 31
0.0
210
0.0
220
0.0
230
0.9999999999999998
 40
0.9999999999993672
 41
5.493225360727321
 42
11.7764106679069
  0
TEXT
  5
6D4A
330
1F
100
AcDbEntity
  8
POPIS
100
AcDbText
 10
7172.342605587225
 20
-1878.258632252238
 30
0.0
 40
25.0
  1
07
 41
0.85
  7
SIMPLEX7
100
AcDbText
  0
LINE
  5
6D4C
330
1F
100
AcDbEntity
  8
POPIS
100
AcDbLine
 10
6909.454069728856
 20
-1736.976877169963
 30
0.0
 11
6909.454069728856
 21
-1846.646698265196
 31
0.0
  0
TEXT
  5
6D4D
330
1F
100
AcDbEntity
  8
POPIS
100
AcDbText
 10
6886.839450654711
 20
-1878.258632252238
 30
0.0
 40
25.0
  1
01
 41
0.85
  7
SIMPLEX7
100
AcDbText
  0
INSERT
  5
6D50
330
1F
100
AcDbEntity
  8
POPIS
100
AcDbBlockReference
  2
E_PUNKT
 10
6909.426459353231
 20
-1737.005945500836
 30
0.0
  0
LINE
  5
6D51
330
1F
100
AcDbEntity
  8
SPOJOVACÍ
  6
Continuous
100
AcDbLine
 10
7106.723131999337
 20
-1719.176134994132
 30
0.0
 11
7106.723131999337
 21
-1716.647917181262
 31
0.0
  0
LINE
  5
6D52
330
1F
100
AcDbEntity
  8
SPOJOVACÍ
  6
Continuous
100
AcDbLine
 10
7109.422502162073
 20
-1718.262702362745
 30
0.0
 11
7109.422502162073
 21
-1715.741925956035
 31
0.0
  0
LINE
  5
6D53
330
1F
100
AcDbEntity
  8
SPOJOVACÍ
  6
Continuous
100
AcDbLine
 10
7106.723131999337
 20
-1716.043302913977
 30
0.0
 11
7106.723131999337
 21
-1713.52531703465
 31
0.0
  0
LINE
  5
6D54
330
1F
100
AcDbEntity
  8
SPOJOVACÍ
  6
Continuous
100
AcDbLine
 10
7106.723131999337
 20
-1712.929074349495
 30
0.0
 11
7106.723131999337
 21
-1711.681708607606
 31
0.0
  0
LINE
  5
6D55
330
1F
100
AcDbEntity
  8
SPOJOVACÍ
  6
Continuous
100
AcDbLine
 10
7109.422502162073
 20
-1715.141032392103
 30
0.0
 11
7109.422502162073
 21
-1712.622116337074
 31
0.0
  0
LINE
  5
6D56
330
1F
100
AcDbEntity
  8
SPOJOVACÍ
  6
Continuous
100
AcDbLine
 10
7109.422502162073
 20
-1712.01843224549
 30
0.0
 11
7109.422502162073
 21
-1711.681708607606
 31
0.0
  0
LINE
  5
6D57
330
1F
100
AcDbEntity
  8
SPOJOVACÍ
  6
Continuous
100
AcDbLine
 10
7106.723131999337
 20
-1711.681708607606
 30
0.0
 11
7106.87289030206
 21
-1710.484572358249
 31
0.0
  0
LINE
  5
6D58
330
1F
100
AcDbEntity
  8
SPOJOVACÍ
  6
Continuous
100
AcDbLine
 10
7108.072817078522
 20
-1700.881437442653
 30
0.0
 11
7108.427214059651
 21
-1703.717543443922
 31
0.0
  0
LINE
  5
6D59
330
1F
100
AcDbEntity
  8
SPOJOVACÍ
  6
Continuous
100
AcDbLine
 10
7106.950094894585
 20
-1709.864145102396
 30
0.0
 11
7107.240309744105
 21
-1707.542426316331
 31
0.0
  0
LINE
  5
6D5A
330
1F
100
AcDbEntity
  8
SPOJOVACÍ
  6
Continuous
100
AcDbLine
 10
7107.319374686944
 20
-1706.911767126667
 30
0.0
 11
7107.609589532097
 21
-1704.590978516312
 31
0.0
  0
LINE
  5
6D5B
330
1F
100
AcDbEntity
  8
SPOJOVACÍ
  6
Continuous
100
AcDbLine
 10
7107.686794124624
 20
-1703.970551260458
 30
0.0
 11
7108.072817078522
 21
-1700.881437442653
 31
0.0
  0
LINE
  5
6D5C
330
1F
100
AcDbEntity
  8
SPOJOVACÍ
  6
Continuous
100
AcDbLine
 10
7108.498837596875
 20
-1704.286811030988
 30
0.0
 11
7108.766728225186
 21
-1706.431796415973
 31
0.0
  0
LINE
  5
6D5D
330
1F
100
AcDbEntity
  8
SPOJOVACÍ
  6
Continuous
100
AcDbLine
 10
7108.838351758044
 20
-1707.003854530421
 30
0.0
 11
7109.105312213381
 21
-1709.140468333275
 31
0.0
  0
LINE
  5
6D5E
330
1F
100
AcDbEntity
  8
SPOJOVACÍ
  6
Continuous
100
AcDbLine
 10
7109.176935750605
 20
-1709.71066609632
 30
0.0
 11
7109.422502162073
 21
-1711.681708607606
 31
0.0
  0
LINE
  5
6D5F
330
1F
100
AcDbEntity
  8
SPOJOVACÍ
  6
Continuous
100
AcDbLine
 10
7105.926901520018
 20
-1710.289235441227
 30
0.0
 11
7106.305483068303
 21
-1710.0706441292
 31
0.0
  0
LINE
  5
6D60
330
1F
100
AcDbEntity
  8
SPOJOVACÍ
  6
Continuous
100
AcDbLine
 10
7105.926901520018
 20
-1710.289235441227
 30
0.0
 11
7106.305483068303
 21
-1710.666886814355
 31
0.0
  0
LINE
  5
6D61
330
1F
100
AcDbEntity
  8
SPOJOVACÍ
  6
Continuous
100
AcDbLine
 10
7110.052231172762
 20
-1709.316271558923
 30
0.0
 11
7109.674579801816
 21
-1708.937690009816
 31
0.0
  0
LINE
  5
6D62
330
1F
100
AcDbEntity
  8
SPOJOVACÍ
  6
Continuous
100
AcDbLine
 10
7110.052231172762
 20
-1709.316271558923
 30
0.0
 11
7109.674579801816
 21
-1709.533932694971
 31
0.0
  0
LINE
  5
6D63
330
1F
100
AcDbEntity
  8
SPOJOVACÍ
  6
Continuous
100
AcDbLine
 10
7106.305483068303
 20
-1710.0706441292
 30
0.0
 11
7109.674579801816
 21
-1708.937690009816
 31
0.0
  0
LINE
  5
6D64
330
1F
100
AcDbEntity
  8
SPOJOVACÍ
  6
Continuous
100
AcDbLine
 10
7106.305483068303
 20
-1710.666886814355
 30
0.0
 11
7109.674579801816
 21
-1709.533932694971
 31
0.0
  0
LINE
  5
6D65
330
1F
100
AcDbEntity
  8
SPOJOVACÍ
  6
Continuous
100
AcDbLine
 10
7105.926901520018
 20
-1710.289235441227
 30
0.0
 11
7110.052231172762
 21
-1709.316271558923
 31
0.0
  0
LINE
  5
6D66
330
1F
100
AcDbEntity
  8
SPOJOVACÍ
  6
Continuous
100
AcDbLine
 10
7106.491518226125
 20
-1707.274535686929
 30
0.0
 11
7106.869169601435
 21
-1707.056874550881
 31
0.0
  0
LINE
  5
6D67
330
1F
100
AcDbEntity
  8
SPOJOVACÍ
  6
Continuous
100
AcDbLine
 10
7106.491518226125
 20
-1707.274535686929
 30
0.0
 11
7106.869169601435
 21
-1707.653117236036
 31
0.0
  0
LINE
  5
6D68
330
1F
100
AcDbEntity
  8
SPOJOVACÍ
  6
Continuous
100
AcDbLine
 10
7109.607607142556
 20
-1706.641085970159
 30
0.0
 11
7109.22995577161
 21
-1706.262504421329
 31
0.0
  0
LINE
  5
6D69
330
1F
100
AcDbEntity
  8
SPOJOVACÍ
  6
Continuous
100
AcDbLine
 10
7109.607607142556
 20
-1706.641085970159
 30
0.0
 11
7109.22995577161
 21
-1706.858747106207
 31
0.0
  0
LINE
  5
6D6A
330
1F
100
AcDbEntity
  8
SPOJOVACÍ
  6
Continuous
100
AcDbLine
 10
7106.869169601435
 20
-1707.056874550881
 30
0.0
 11
7109.22995577161
 21
-1706.262504421329
 31
0.0
  0
LINE
  5
6D6B
330
1F
100
AcDbEntity
  8
SPOJOVACÍ
  6
Continuous
100
AcDbLine
 10
7106.869169601435
 20
-1707.653117236036
 30
0.0
 11
7109.22995577161
 21
-1706.858747106207
 31
0.0
  0
LINE
  5
6D6C
330
1F
100
AcDbEntity
  8
SPOJOVACÍ
  6
Continuous
100
AcDbLine
 10
7106.491518226125
 20
-1707.274535686929
 30
0.0
 11
7109.607607142556
 21
-1706.641085970159
 31
0.0
  0
LINE
  5
6D6D
330
1F
100
AcDbEntity
  8
SPOJOVACÍ
  6
Continuous
100
AcDbLine
 10
7107.056134936596
 20
-1704.260766108609
 30
0.0
 11
7107.433786307542
 21
-1704.04217479659
 31
0.0
  0
LINE
  5
6D6E
330
1F
100
AcDbEntity
  8
SPOJOVACÍ
  6
Continuous
100
AcDbLine
 10
7107.056134936596
 20
-1704.260766108609
 30
0.0
 11
7107.433786307542
 21
-1704.638417481738
 31
0.0
  0
LINE
  5
6D6F
330
1F
100
AcDbEntity
  8
SPOJOVACÍ
  6
Continuous
100
AcDbLine
 10
7109.210422078053
 20
-1703.950087392836
 30
0.0
 11
7108.832770707107
 21
-1703.571505844006
 31
0.0
  0
LINE
  5
6D70
330
1F
100
AcDbEntity
  8
SPOJOVACÍ
  6
Continuous
100
AcDbLine
 10
7109.210422078053
 20
-1703.950087392836
 30
0.0
 11
7108.832770707107
 21
-1704.167748529153
 31
0.0
  0
LINE
  5
6D71
330
1F
100
AcDbEntity
  8
SPOJOVACÍ
  6
Continuous
100
AcDbLine
 10
7107.433786307542
 20
-1704.04217479659
 30
0.0
 11
7108.832770707107
 21
-1703.571505844006
 31
0.0
  0
LINE
  5
6D72
330
1F
100
AcDbEntity
  8
SPOJOVACÍ
  6
Continuous
100
AcDbLine
 10
7107.433786307542
 20
-1704.638417481738
 30
0.0
 11
7108.832770707107
 21
-1704.167748529153
 31
0.0
  0
LINE
  5
6D73
330
1F
100
AcDbEntity
  8
SPOJOVACÍ
  6
Continuous
100
AcDbLine
 10
7107.056134936596
 20
-1704.260766108609
 30
0.0
 11
7109.210422078053
 21
-1703.950087392836
 31
0.0
  0
LINE
  5
6D74
330
1F
100
AcDbEntity
  8
SPOJOVACÍ
  6
Continuous
100
AcDbLine
 10
7105.672963525598
 20
-1719.60680638745
 30
0.0
 11
7110.472670631446
 21
-1718.406879610988
 31
0.0
  0
LINE
  5
6D75
330
1F
100
AcDbEntity
  8
SPOJOVACÍ
  6
Continuous
100
AcDbLine
 10
7105.672963525598
 20
-1719.60680638745
 30
0.0
 11
7106.050614900908
 21
-1719.388215075423
 31
0.0
  0
LINE
  5
6D76
330
1F
100
AcDbEntity
  8
SPOJOVACÍ
  6
Continuous
100
AcDbLine
 10
7105.672963525598
 20
-1719.60680638745
 30
0.0
 11
7106.050614900908
 21
-1719.984457760578
 31
0.0
  0
LINE
  5
6D77
330
1F
100
AcDbEntity
  8
SPOJOVACÍ
  6
Continuous
100
AcDbLine
 10
7110.472670631446
 20
-1718.406879610988
 30
0.0
 11
7110.095019260501
 21
-1718.028298062158
 31
0.0
  0
LINE
  5
6D78
330
1F
100
AcDbEntity
  8
SPOJOVACÍ
  6
Continuous
100
AcDbLine
 10
7110.472670631446
 20
-1718.406879610988
 30
0.0
 11
7110.095019260501
 21
-1718.624540747305
 31
0.0
  0
LINE
  5
6D79
330
1F
100
AcDbEntity
  8
SPOJOVACÍ
  6
Continuous
100
AcDbLine
 10
7106.050614900908
 20
-1719.388215075423
 30
0.0
 11
7110.095019260501
 21
-1718.028298062158
 31
0.0
  0
LINE
  5
6D7A
330
1F
100
AcDbEntity
  8
SPOJOVACÍ
  6
Continuous
100
AcDbLine
 10
7106.050614900908
 20
-1719.984457760578
 30
0.0
 11
7110.095019260501
 21
-1718.624540747305
 31
0.0
  0
LINE
  5
6D7B
330
1F
100
AcDbEntity
  8
SPOJOVACÍ
  6
Continuous
100
AcDbLine
 10
7105.672963525598
 20
-1716.486996768481
 30
0.0
 11
7110.472670631446
 21
-1715.287069992019
 31
0.0
  0
LINE
  5
6D7C
330
1F
100
AcDbEntity
  8
SPOJOVACÍ
  6
Continuous
100
AcDbLine
 10
7105.672963525598
 20
-1716.486996768481
 30
0.0
 11
7106.050614900908
 21
-1716.268405456462
 31
0.0
  0
LINE
  5
6D7D
330
1F
100
AcDbEntity
  8
SPOJOVACÍ
  6
Continuous
100
AcDbLine
 10
7105.672963525598
 20
-1716.486996768481
 30
0.0
 11
7106.050614900908
 21
-1716.864648141609
 31
0.0
  0
LINE
  5
6D7E
330
1F
100
AcDbEntity
  8
SPOJOVACÍ
  6
Continuous
100
AcDbLine
 10
7110.472670631446
 20
-1715.287069992019
 30
0.0
 11
7110.095019260501
 21
-1714.908488443189
 31
0.0
  0
LINE
  5
6D7F
330
1F
100
AcDbEntity
  8
SPOJOVACÍ
  6
Continuous
100
AcDbLine
 10
7110.472670631446
 20
-1715.287069992019
 30
0.0
 11
7110.095019260501
 21
-1715.504731128067
 31
0.0
  0
LINE
  5
6D80
330
1F
100
AcDbEntity
  8
SPOJOVACÍ
  6
Continuous
100
AcDbLine
 10
7106.050614900908
 20
-1716.268405456462
 30
0.0
 11
7110.095019260501
 21
-1714.908488443189
 31
0.0
  0
LINE
  5
6D81
330
1F
100
AcDbEntity
  8
SPOJOVACÍ
  6
Continuous
100
AcDbLine
 10
7106.050614900908
 20
-1716.864648141609
 30
0.0
 11
7110.095019260501
 21
-1715.504731128067
 31
0.0
  0
LINE
  5
6D82
330
1F
100
AcDbEntity
  8
SPOJOVACÍ
  6
Continuous
100
AcDbLine
 10
7105.672963525598
 20
-1713.366256973541
 30
0.0
 11
7110.472670631446
 21
-1712.166330197078
 31
0.0
  0
LINE
  5
6D83
330
1F
100
AcDbEntity
  8
SPOJOVACÍ
  6
Continuous
100
AcDbLine
 10
7105.672963525598
 20
-1713.366256973541
 30
0.0
 11
7106.050614900908
 21
-1713.148595837492
 31
0.0
  0
LINE
  5
6D84
330
1F
100
AcDbEntity
  8
SPOJOVACÍ
  6
Continuous
100
AcDbLine
 10
7105.672963525598
 20
-1713.366256973541
 30
0.0
 11
7106.050614900908
 21
-1713.744838522647
 31
0.0
  0
LINE
  5
6D85
330
1F
100
AcDbEntity
  8
SPOJOVACÍ
  6
Continuous
100
AcDbLine
 10
7110.472670631446
 20
-1712.166330197078
 30
0.0
 11
7110.095019260501
 21
-1711.78867882395
 31
0.0
  0
LINE
  5
6D86
330
1F
100
AcDbEntity
  8
SPOJOVACÍ
  6
Continuous
100
AcDbLine
 10
7110.472670631446
 20
-1712.166330197078
 30
0.0
 11
7110.095019260501
 21
-1712.384921509105
 31
0.0
  0
LINE
  5
6D87
330
1F
100
AcDbEntity
  8
SPOJOVACÍ
  6
Continuous
100
AcDbLine
 10
7106.050614900908
 20
-1713.148595837492
 30
0.0
 11
7110.095019260501
 21
-1711.78867882395
 31
0.0
  0
LINE
  5
6D88
330
1F
100
AcDbEntity
  8
SPOJOVACÍ
  6
Continuous
100
AcDbLine
 10
7106.050614900908
 20
-1713.744838522647
 30
0.0
 11
7110.095019260501
 21
-1712.384921509105
 31
0.0
  0
ELLIPSE
  5
6D89
330
1F
100
AcDbEntity
  8
0
  6
Continuous
 62
     5
100
AcDbEllipse
 10
7164.835772702753
 20
-1684.434413448252
 30
0.0
 11
-8.328126825200973
 21
8.290887511252666
 31
0.0
210
0.0
220
0.0
230
0.9999999999999998
 40
0.9999999999998793
 41
1.906198148749068
 42
3.32067358973028
  0
LINE
  5
6D8A
330
1F
100
AcDbEntity
  8
SPOJOVACÍ
  6
Continuous
100
AcDbLine
 10
7110.262450902104
 20
-1732.984594682648
 30
0.0
 11
7111.220531972088
 21
-1734.191962865547
 31
0.0
  0
LINE
  5
6D8B
330
1F
100
AcDbEntity
  8
SPOJOVACÍ
  6
Continuous
100
AcDbLine
 10
7109.649465052957
 20
-1731.570727472945
 30
0.0
 11
7110.262450902104
 21
-1732.984594682648
 31
0.0
  0
LINE
  5
6D8C
330
1F
100
AcDbEntity
  8
SPOJOVACÍ
  6
Continuous
100
AcDbLine
 10
7109.422502162073
 20
-1730.047099519516
 30
0.0
 11
7109.649465052957
 21
-1731.570727472945
 31
0.0
  0
LINE
  5
6D8D
330
1F
100
AcDbEntity
  8
SPOJOVACÍ
  6
Continuous
100
AcDbLine
 10
7113.172970967156
 20
-1736.646696790604
 30
0.0
 11
7113.172970967156
 21
-1735.446770013872
 31
0.0
  0
LINE
  5
6D8E
330
1F
100
AcDbEntity
  8
SPOJOVACÍ
  6
Continuous
100
AcDbLine
 10
7102.972663189888
 20
-1736.646696790604
 30
0.0
 11
7113.172970967156
 21
-1736.646696790604
 31
0.0
  0
LINE
  5
6D8F
330
1F
100
AcDbEntity
  8
SPOJOVACÍ
  6
Continuous
100
AcDbLine
 10
7102.972663189888
 20
-1736.646696790604
 30
0.0
 11
7102.972663189888
 21
-1735.446770013872
 31
0.0
  0
LINE
  5
6D90
330
1F
100
AcDbEntity
  8
SPOJOVACÍ
  6
Continuous
100
AcDbLine
 10
7102.972663189888
 20
-1735.446770013872
 30
0.0
 11
7113.172970967156
 21
-1735.446770013872
 31
0.0
  0
LINE
  5
6D91
330
1F
100
AcDbEntity
  8
SPOJOVACÍ
  6
Continuous
100
AcDbLine
 10
7112.457665780988
 20
-1735.110046375989
 30
0.0
 11
7113.172970967156
 21
-1735.446770013872
 31
0.0
  0
LINE
  5
6D92
330
1F
100
AcDbEntity
  8
SPOJOVACÍ
  6
Continuous
100
AcDbLine
 10
7111.220531972088
 20
-1734.191962865547
 30
0.0
 11
7112.457665780988
 21
-1735.110046375989
 31
0.0
  0
LINE
  5
6D93
330
1F
100
AcDbEntity
  8
SPOJOVACÍ
  6
Continuous
100
AcDbLine
 10
7106.657089517415
 20
-1730.834028242638
 30
0.0
 11
7106.723131999337
 21
-1730.047099519516
 31
0.0
  0
LINE
  5
6D94
330
1F
100
AcDbEntity
  8
SPOJOVACÍ
  6
Continuous
100
AcDbLine
 10
7106.229208653116
 20
-1732.314868109688
 30
0.0
 11
7106.657089517415
 21
-1730.834028242638
 31
0.0
  0
LINE
  5
6D95
330
1F
100
AcDbEntity
  8
SPOJOVACÍ
  6
Continuous
100
AcDbLine
 10
7105.432978173798
 20
-1733.633857387986
 30
0.0
 11
7106.229208653116
 21
-1732.314868109688
 31
0.0
  0
LINE
  5
6D96
330
1F
100
AcDbEntity
  8
SPOJOVACÍ
  6
Continuous
100
AcDbLine
 10
7104.322348273439
 20
-1734.702629377398
 30
0.0
 11
7105.432978173798
 21
-1733.633857387986
 31
0.0
  0
LINE
  5
6D97
330
1F
100
AcDbEntity
  8
SPOJOVACÍ
  6
Continuous
100
AcDbLine
 10
7102.972663189888
 20
-1735.446770013872
 30
0.0
 11
7104.322348273439
 21
-1734.702629377398
 31
0.0
  0
LINE
  5
6D98
330
1F
100
AcDbEntity
  8
SPOJOVACÍ
  6
Continuous
100
AcDbLine
 10
7109.422502162073
 20
-1730.047099519516
 30
0.0
 11
7109.422502162073
 21
-1725.104145340587
 31
0.0
  0
LINE
  5
6D99
330
1F
100
AcDbEntity
  8
SPOJOVACÍ
  6
Continuous
100
AcDbLine
 10
7106.723131999337
 20
-1730.047099519516
 30
0.0
 11
7106.723131999337
 21
-1726.009206389836
 31
0.0
  0
LINE
  5
6D9A
330
1F
100
AcDbEntity
  8
SPOJOVACÍ
  6
Continuous
100
AcDbLine
 10
7106.723131999337
 20
-1725.413893880659
 30
0.0
 11
7106.723131999337
 21
-1722.89497782563
 31
0.0
  0
LINE
  5
6D9B
330
1F
100
AcDbEntity
  8
SPOJOVACÍ
  6
Continuous
100
AcDbLine
 10
7109.422502162073
 20
-1724.500461249272
 30
0.0
 11
7109.422502162073
 21
-1721.981545194243
 31
0.0
  0
LINE
  5
6D9C
330
1F
100
AcDbEntity
  8
SPOJOVACÍ
  6
Continuous
100
AcDbLine
 10
7105.672963525598
 20
-1725.84642562565
 30
0.0
 11
7110.472670631446
 21
-1724.646498849188
 31
0.0
  0
LINE
  5
6D9D
330
1F
100
AcDbEntity
  8
SPOJOVACÍ
  6
Continuous
100
AcDbLine
 10
7105.672963525598
 20
-1725.84642562565
 30
0.0
 11
7106.050614900908
 21
-1725.628764489602
 31
0.0
  0
LINE
  5
6D9E
330
1F
100
AcDbEntity
  8
SPOJOVACÍ
  6
Continuous
100
AcDbLine
 10
7105.672963525598
 20
-1725.84642562565
 30
0.0
 11
7106.050614900908
 21
-1726.22500717448
 31
0.0
  0
LINE
  5
6D9F
330
1F
100
AcDbEntity
  8
SPOJOVACÍ
  6
Continuous
100
AcDbLine
 10
7110.472670631446
 20
-1724.646498849188
 30
0.0
 11
7110.095019260501
 21
-1724.26884747606
 31
0.0
  0
LINE
  5
6DA0
330
1F
100
AcDbEntity
  8
SPOJOVACÍ
  6
Continuous
100
AcDbLine
 10
7110.472670631446
 20
-1724.646498849188
 30
0.0
 11
7110.095019260501
 21
-1724.865090161215
 31
0.0
  0
LINE
  5
6DA1
330
1F
100
AcDbEntity
  8
SPOJOVACÍ
  6
Continuous
100
AcDbLine
 10
7106.050614900908
 20
-1725.628764489602
 30
0.0
 11
7110.095019260501
 21
-1724.26884747606
 31
0.0
  0
LINE
  5
6DA2
330
1F
100
AcDbEntity
  8
SPOJOVACÍ
  6
Continuous
100
AcDbLine
 10
7106.050614900908
 20
-1726.22500717448
 30
0.0
 11
7110.095019260501
 21
-1724.865090161215
 31
0.0
  0
LINE
  5
6DA3
330
1F
100
AcDbEntity
  8
SPOJOVACÍ
  6
Continuous
100
AcDbLine
 10
7105.672963525598
 20
-1722.726616006688
 30
0.0
 11
7110.472670631446
 21
-1721.52668922995
 31
0.0
  0
LINE
  5
6DA4
330
1F
100
AcDbEntity
  8
SPOJOVACÍ
  6
Continuous
100
AcDbLine
 10
7105.672963525598
 20
-1722.726616006688
 30
0.0
 11
7106.050614900908
 21
-1722.508024694662
 31
0.0
  0
LINE
  5
6DA5
330
1F
100
AcDbEntity
  8
SPOJOVACÍ
  6
Continuous
100
AcDbLine
 10
7105.672963525598
 20
-1722.726616006688
 30
0.0
 11
7106.050614900908
 21
-1723.104267379817
 31
0.0
  0
LINE
  5
6DA6
330
1F
100
AcDbEntity
  8
SPOJOVACÍ
  6
Continuous
100
AcDbLine
 10
7110.472670631446
 20
-1721.52668922995
 30
0.0
 11
7110.095019260501
 21
-1721.149037857098
 31
0.0
  0
LINE
  5
6DA7
330
1F
100
AcDbEntity
  8
SPOJOVACÍ
  6
Continuous
100
AcDbLine
 10
7110.472670631446
 20
-1721.52668922995
 30
0.0
 11
7110.095019260501
 21
-1721.745280541976
 31
0.0
  0
LINE
  5
6DA8
330
1F
100
AcDbEntity
  8
SPOJOVACÍ
  6
Continuous
100
AcDbLine
 10
7106.050614900908
 20
-1722.508024694662
 30
0.0
 11
7110.095019260501
 21
-1721.149037857098
 31
0.0
  0
LINE
  5
6DA9
330
1F
100
AcDbEntity
  8
SPOJOVACÍ
  6
Continuous
100
AcDbLine
 10
7106.050614900908
 20
-1723.104267379817
 30
0.0
 11
7110.095019260501
 21
-1721.745280541976
 31
0.0
  0
INSERT
  5
6DAA
330
1F
100
AcDbEntity
  8
POPIS
100
AcDbBlockReference
  2
E_PUNKT
 10
7189.057909291261
 20
-1718.225810748318
 30
0.0
  0
LINE
  5
6DAD
330
1F
100
AcDbEntity
  8
SPOJOVACÍ
  6
Continuous
100
AcDbLine
 10
7106.723131999337
 20
-1722.291293734315
 30
0.0
 11
7106.723131999337
 21
-1719.770517327606
 31
0.0
  0
LINE
  5
6DAE
330
1F
100
AcDbEntity
  8
SPOJOVACÍ
  6
Continuous
100
AcDbLine
 10
7109.422502162073
 20
-1721.385302509088
 30
0.0
 11
7109.422502162073
 21
-1718.857084696219
 31
0.0
  0
LINE
  5
6DAF
330
1F
100
AcDbEntity
  8
POPIS
100
AcDbLine
 10
7260.177450943882
 20
-1798.177301247444
 30
0.0
 11
7260.177450943882
 21
-1846.646698265196
 31
0.0
  0
LINE
  5
6DB0
330
1F
100
AcDbEntity
  8
POPIS
100
AcDbLine
 10
7188.709987138557
 20
-1718.535072293714
 30
0.0
 11
7188.709987138557
 21
-1846.646698265196
 31
0.0
  0
TEXT
  5
6DB1
330
1F
100
AcDbEntity
  8
POPIS
100
AcDbText
 10
7243.810069392551
 20
-1878.258632252238
 30
0.0
 40
25.0
  1
08
 41
0.85
  7
SIMPLEX7
100
AcDbText
  0
TEXT
  5
6DB2
330
1F
100
AcDbEntity
  8
POPIS
100
AcDbText
 10
7327.662560664291
 20
-1878.258632252238
 30
0.0
 40
25.0
  1
09
 41
0.85
  7
SIMPLEX7
100
AcDbText
  0
LINE
  5
6DB3
330
1F
100
AcDbEntity
  8
SPOJOVACÍ
  6
Continuous
100
AcDbLine
 10
7205.196351039397
 20
-1713.744838522647
 30
0.0
 11
7209.24075539899
 21
-1712.384921509105
 31
0.0
  0
LINE
  5
6DB4
330
1F
100
AcDbEntity
  8
SPOJOVACÍ
  6
Continuous
100
AcDbLine
 10
7205.196351039397
 20
-1713.148595837492
 30
0.0
 11
7209.24075539899
 21
-1711.78867882395
 31
0.0
  0
LINE
  5
6DB5
330
1F
100
AcDbEntity
  8
SPOJOVACÍ
  6
Continuous
100
AcDbLine
 10
7209.618406769935
 20
-1712.166330197078
 30
0.0
 11
7209.24075539899
 21
-1712.384921509105
 31
0.0
  0
LINE
  5
6DB6
330
1F
100
AcDbEntity
  8
SPOJOVACÍ
  6
Continuous
100
AcDbLine
 10
7209.618406769935
 20
-1712.166330197078
 30
0.0
 11
7209.24075539899
 21
-1711.78867882395
 31
0.0
  0
LINE
  5
6DB7
330
1F
100
AcDbEntity
  8
SPOJOVACÍ
  6
Continuous
100
AcDbLine
 10
7204.818699664087
 20
-1713.366256973541
 30
0.0
 11
7205.196351039397
 21
-1713.744838522647
 31
0.0
  0
LINE
  5
6DB8
330
1F
100
AcDbEntity
  8
SPOJOVACÍ
  6
Continuous
100
AcDbLine
 10
7204.818699664087
 20
-1713.366256973541
 30
0.0
 11
7205.196351039397
 21
-1713.148595837492
 31
0.0
  0
LINE
  5
6DB9
330
1F
100
AcDbEntity
  8
SPOJOVACÍ
  6
Continuous
100
AcDbLine
 10
7204.818699664087
 20
-1713.366256973541
 30
0.0
 11
7209.618406769935
 21
-1712.166330197078
 31
0.0
  0
LINE
  5
6DBA
330
1F
100
AcDbEntity
  8
SPOJOVACÍ
  6
Continuous
100
AcDbLine
 10
7205.196351039397
 20
-1716.864648141609
 30
0.0
 11
7209.24075539899
 21
-1715.504731128067
 31
0.0
  0
LINE
  5
6DBB
330
1F
100
AcDbEntity
  8
SPOJOVACÍ
  6
Continuous
100
AcDbLine
 10
7205.196351039397
 20
-1716.268405456462
 30
0.0
 11
7209.24075539899
 21
-1714.908488443189
 31
0.0
  0
LINE
  5
6DBC
330
1F
100
AcDbEntity
  8
SPOJOVACÍ
  6
Continuous
100
AcDbLine
 10
7209.618406769935
 20
-1715.287069992019
 30
0.0
 11
7209.24075539899
 21
-1715.504731128067
 31
0.0
  0
LINE
  5
6DBD
330
1F
100
AcDbEntity
  8
SPOJOVACÍ
  6
Continuous
100
AcDbLine
 10
7209.618406769935
 20
-1715.287069992019
 30
0.0
 11
7209.24075539899
 21
-1714.908488443189
 31
0.0
  0
LINE
  5
6DBE
330
1F
100
AcDbEntity
  8
SPOJOVACÍ
  6
Continuous
100
AcDbLine
 10
7204.818699664087
 20
-1716.486996768481
 30
0.0
 11
7205.196351039397
 21
-1716.864648141609
 31
0.0
  0
LINE
  5
6DBF
330
1F
100
AcDbEntity
  8
SPOJOVACÍ
  6
Continuous
100
AcDbLine
 10
7204.818699664087
 20
-1716.486996768481
 30
0.0
 11
7205.196351039397
 21
-1716.268405456462
 31
0.0
  0
LINE
  5
6DC0
330
1F
100
AcDbEntity
  8
SPOJOVACÍ
  6
Continuous
100
AcDbLine
 10
7204.818699664087
 20
-1716.486996768481
 30
0.0
 11
7209.618406769935
 21
-1715.287069992019
 31
0.0
  0
LINE
  5
6DC1
330
1F
100
AcDbEntity
  8
SPOJOVACÍ
  6
Continuous
100
AcDbLine
 10
7205.196351039397
 20
-1719.984457760578
 30
0.0
 11
7209.24075539899
 21
-1718.624540747305
 31
0.0
  0
LINE
  5
6DC2
330
1F
100
AcDbEntity
  8
SPOJOVACÍ
  6
Continuous
100
AcDbLine
 10
7205.196351039397
 20
-1719.388215075423
 30
0.0
 11
7209.24075539899
 21
-1718.028298062158
 31
0.0
  0
LINE
  5
6DC3
330
1F
100
AcDbEntity
  8
SPOJOVACÍ
  6
Continuous
100
AcDbLine
 10
7209.618406769935
 20
-1718.406879610988
 30
0.0
 11
7209.24075539899
 21
-1718.624540747305
 31
0.0
  0
LINE
  5
6DC4
330
1F
100
AcDbEntity
  8
SPOJOVACÍ
  6
Continuous
100
AcDbLine
 10
7209.618406769935
 20
-1718.406879610988
 30
0.0
 11
7209.24075539899
 21
-1718.028298062158
 31
0.0
  0
LINE
  5
6DC5
330
1F
100
AcDbEntity
  8
SPOJOVACÍ
  6
Continuous
100
AcDbLine
 10
7204.818699664087
 20
-1719.60680638745
 30
0.0
 11
7205.196351039397
 21
-1719.984457760578
 31
0.0
  0
LINE
  5
6DC6
330
1F
100
AcDbEntity
  8
SPOJOVACÍ
  6
Continuous
100
AcDbLine
 10
7204.818699664087
 20
-1719.60680638745
 30
0.0
 11
7205.196351039397
 21
-1719.388215075423
 31
0.0
  0
LINE
  5
6DC7
330
1F
100
AcDbEntity
  8
SPOJOVACÍ
  6
Continuous
100
AcDbLine
 10
7204.818699664087
 20
-1719.60680638745
 30
0.0
 11
7209.618406769935
 21
-1718.406879610988
 31
0.0
  0
LINE
  5
6DC8
330
1F
100
AcDbEntity
  8
SPOJOVACÍ
  6
Continuous
100
AcDbLine
 10
7206.201871075085
 20
-1704.260766108609
 30
0.0
 11
7208.356158216542
 21
-1703.950087392836
 31
0.0
  0
LINE
  5
6DC9
330
1F
100
AcDbEntity
  8
SPOJOVACÍ
  6
Continuous
100
AcDbLine
 10
7206.57952244603
 20
-1704.638417481738
 30
0.0
 11
7207.978506845596
 21
-1704.167748529153
 31
0.0
  0
LINE
  5
6DCA
330
1F
100
AcDbEntity
  8
SPOJOVACÍ
  6
Continuous
100
AcDbLine
 10
7206.57952244603
 20
-1704.04217479659
 30
0.0
 11
7207.978506845596
 21
-1703.571505844006
 31
0.0
  0
LINE
  5
6DCB
330
1F
100
AcDbEntity
  8
SPOJOVACÍ
  6
Continuous
100
AcDbLine
 10
7208.356158216542
 20
-1703.950087392836
 30
0.0
 11
7207.978506845596
 21
-1704.167748529153
 31
0.0
  0
LINE
  5
6DCC
330
1F
100
AcDbEntity
  8
SPOJOVACÍ
  6
Continuous
100
AcDbLine
 10
7208.356158216542
 20
-1703.950087392836
 30
0.0
 11
7207.978506845596
 21
-1703.571505844006
 31
0.0
  0
LINE
  5
6DCD
330
1F
100
AcDbEntity
  8
SPOJOVACÍ
  6
Continuous
100
AcDbLine
 10
7206.201871075085
 20
-1704.260766108609
 30
0.0
 11
7206.57952244603
 21
-1704.638417481738
 31
0.0
  0
LINE
  5
6DCE
330
1F
100
AcDbEntity
  8
SPOJOVACÍ
  6
Continuous
100
AcDbLine
 10
7206.201871075085
 20
-1704.260766108609
 30
0.0
 11
7206.57952244603
 21
-1704.04217479659
 31
0.0
  0
LINE
  5
6DCF
330
1F
100
AcDbEntity
  8
SPOJOVACÍ
  6
Continuous
100
AcDbLine
 10
7205.637254364614
 20
-1707.274535686929
 30
0.0
 11
7208.753343281045
 21
-1706.641085970159
 31
0.0
  0
LINE
  5
6DD0
330
1F
100
AcDbEntity
  8
SPOJOVACÍ
  6
Continuous
100
AcDbLine
 10
7206.014905739924
 20
-1707.653117236036
 30
0.0
 11
7208.375691910099
 21
-1706.858747106207
 31
0.0
  0
LINE
  5
6DD1
330
1F
100
AcDbEntity
  8
SPOJOVACÍ
  6
Continuous
100
AcDbLine
 10
7206.014905739924
 20
-1707.056874550881
 30
0.0
 11
7208.375691910099
 21
-1706.262504421329
 31
0.0
  0
LINE
  5
6DD2
330
1F
100
AcDbEntity
  8
SPOJOVACÍ
  6
Continuous
100
AcDbLine
 10
7208.753343281045
 20
-1706.641085970159
 30
0.0
 11
7208.375691910099
 21
-1706.858747106207
 31
0.0
  0
LINE
  5
6DD3
330
1F
100
AcDbEntity
  8
SPOJOVACÍ
  6
Continuous
100
AcDbLine
 10
7208.753343281045
 20
-1706.641085970159
 30
0.0
 11
7208.375691910099
 21
-1706.262504421329
 31
0.0
  0
LINE
  5
6DD4
330
1F
100
AcDbEntity
  8
SPOJOVACÍ
  6
Continuous
100
AcDbLine
 10
7205.637254364614
 20
-1707.274535686929
 30
0.0
 11
7206.014905739924
 21
-1707.653117236036
 31
0.0
  0
LINE
  5
6DD5
330
1F
100
AcDbEntity
  8
SPOJOVACÍ
  6
Continuous
100
AcDbLine
 10
7205.637254364614
 20
-1707.274535686929
 30
0.0
 11
7206.014905739924
 21
-1707.056874550881
 31
0.0
  0
LINE
  5
6DD6
330
1F
100
AcDbEntity
  8
SPOJOVACÍ
  6
Continuous
100
AcDbLine
 10
7205.072637658507
 20
-1710.289235441227
 30
0.0
 11
7209.197967311251
 21
-1709.316271558923
 31
0.0
  0
LINE
  5
6DD7
330
1F
100
AcDbEntity
  8
SPOJOVACÍ
  6
Continuous
100
AcDbLine
 10
7205.451219206792
 20
-1710.666886814355
 30
0.0
 11
7208.820315940305
 21
-1709.533932694971
 31
0.0
  0
LINE
  5
6DD8
330
1F
100
AcDbEntity
  8
SPOJOVACÍ
  6
Continuous
100
AcDbLine
 10
7205.451219206792
 20
-1710.0706441292
 30
0.0
 11
7208.820315940305
 21
-1708.937690009816
 31
0.0
  0
LINE
  5
6DD9
330
1F
100
AcDbEntity
  8
SPOJOVACÍ
  6
Continuous
100
AcDbLine
 10
7209.197967311251
 20
-1709.316271558923
 30
0.0
 11
7208.820315940305
 21
-1709.533932694971
 31
0.0
  0
LINE
  5
6DDA
330
1F
100
AcDbEntity
  8
SPOJOVACÍ
  6
Continuous
100
AcDbLine
 10
7209.197967311251
 20
-1709.316271558923
 30
0.0
 11
7208.820315940305
 21
-1708.937690009816
 31
0.0
  0
LINE
  5
6DDB
330
1F
100
AcDbEntity
  8
SPOJOVACÍ
  6
Continuous
100
AcDbLine
 10
7205.072637658507
 20
-1710.289235441227
 30
0.0
 11
7205.451219206792
 21
-1710.666886814355
 31
0.0
  0
LINE
  5
6DDC
330
1F
100
AcDbEntity
  8
SPOJOVACÍ
  6
Continuous
100
AcDbLine
 10
7205.072637658507
 20
-1710.289235441227
 30
0.0
 11
7205.451219206792
 21
-1710.0706441292
 31
0.0
  0
LINE
  5
6DDD
330
1F
100
AcDbEntity
  8
SPOJOVACÍ
  6
Continuous
100
AcDbLine
 10
7208.322671889094
 20
-1709.71066609632
 30
0.0
 11
7208.568238300562
 21
-1711.681708607606
 31
0.0
  0
LINE
  5
6DDE
330
1F
100
AcDbEntity
  8
SPOJOVACÍ
  6
Continuous
100
AcDbLine
 10
7207.984087896533
 20
-1707.003854530421
 30
0.0
 11
7208.25104835187
 21
-1709.140468333275
 31
0.0
  0
LINE
  5
6DDF
330
1F
100
AcDbEntity
  8
SPOJOVACÍ
  6
Continuous
100
AcDbLine
 10
7207.644573735364
 20
-1704.286811030988
 30
0.0
 11
7207.912464363674
 21
-1706.431796415973
 31
0.0
  0
LINE
  5
6DE0
330
1F
100
AcDbEntity
  8
SPOJOVACÍ
  6
Continuous
100
AcDbLine
 10
7206.832530263112
 20
-1703.970551260458
 30
0.0
 11
7207.21855321701
 21
-1700.881437442653
 31
0.0
  0
LINE
  5
6DE1
330
1F
100
AcDbEntity
  8
SPOJOVACÍ
  6
Continuous
100
AcDbLine
 10
7206.465110825432
 20
-1706.911767126667
 30
0.0
 11
7206.755325670586
 21
-1704.590978516312
 31
0.0
  0
LINE
  5
6DE2
330
1F
100
AcDbEntity
  8
SPOJOVACÍ
  6
Continuous
100
AcDbLine
 10
7206.095831033074
 20
-1709.864145102396
 30
0.0
 11
7206.386045882594
 21
-1707.542426316331
 31
0.0
  0
LINE
  5
6DE3
330
1F
100
AcDbEntity
  8
SPOJOVACÍ
  6
Continuous
100
AcDbLine
 10
7207.21855321701
 20
-1700.881437442653
 30
0.0
 11
7207.57295019814
 21
-1703.717543443922
 31
0.0
  0
LINE
  5
6DE4
330
1F
100
AcDbEntity
  8
SPOJOVACÍ
  6
Continuous
100
AcDbLine
 10
7205.868868137826
 20
-1711.681708607606
 30
0.0
 11
7206.018626440549
 21
-1710.484572358249
 31
0.0
  0
LINE
  5
6DE5
330
1F
100
AcDbEntity
  8
SPOJOVACÍ
  6
Continuous
100
AcDbLine
 10
7208.568238300562
 20
-1712.01843224549
 30
0.0
 11
7208.568238300562
 21
-1711.681708607606
 31
0.0
  0
LINE
  5
6DE6
330
1F
100
AcDbEntity
  8
SPOJOVACÍ
  6
Continuous
100
AcDbLine
 10
7208.568238300562
 20
-1715.141032392103
 30
0.0
 11
7208.568238300562
 21
-1712.622116337074
 31
0.0
  0
LINE
  5
6DE7
330
1F
100
AcDbEntity
  8
SPOJOVACÍ
  6
Continuous
100
AcDbLine
 10
7205.868868137826
 20
-1712.929074349495
 30
0.0
 11
7205.868868137826
 21
-1711.681708607606
 31
0.0
  0
LINE
  5
6DE8
330
1F
100
AcDbEntity
  8
SPOJOVACÍ
  6
Continuous
100
AcDbLine
 10
7205.868868137826
 20
-1716.043302913977
 30
0.0
 11
7205.868868137826
 21
-1713.52531703465
 31
0.0
  0
LINE
  5
6DE9
330
1F
100
AcDbEntity
  8
SPOJOVACÍ
  6
Continuous
100
AcDbLine
 10
7208.568238300562
 20
-1718.262702362745
 30
0.0
 11
7208.568238300562
 21
-1715.741925956035
 31
0.0
  0
LINE
  5
6DEA
330
1F
100
AcDbEntity
  8
SPOJOVACÍ
  6
Continuous
100
AcDbLine
 10
7205.868868137826
 20
-1719.176134994132
 30
0.0
 11
7205.868868137826
 21
-1716.647917181262
 31
0.0
  0
ELLIPSE
  5
6DEB
330
1F
100
AcDbEntity
  8
0
  6
Continuous
 62
     5
100
AcDbEllipse
 10
7210.591359235287
 20
-1684.540613330179
 30
0.0
 11
8.290887511251945
 21
8.328126825200246
 31
0.0
210
0.0
220
0.0
230
1.0
 40
0.9999999999998006
 41
2.953388652026887
 42
4.367863616170676
  0
ELLIPSE
  5
6DEC
330
1F
100
AcDbEntity
  8
0
  6
Continuous
 62
     5
100
AcDbEllipse
 10
7193.464731875661
 20
-1703.718217875699
 30
0.0
 11
10.54625425876375
 21
10.59362376809405
 31
0.0
210
0.0
220
0.0
230
0.9999999999999998
 40
0.9999999999991391
 41
4.049383601369564
 42
5.070649108113864
  0
ELLIPSE
  5
6DED
330
1F
100
AcDbEntity
  8
0
  6
Continuous
 62
     5
100
AcDbEllipse
 10
7182.519128045139
 20
-1693.820342580323
 30
0.0
 11
1.132793559214039
 21
1.137881609791608
 31
0.0
210
0.0
220
0.0
230
1.0
 40
0.9999999999981909
 41
5.493225360726338
 42
11.77641066790592
  0
ELLIPSE
  5
6DEE
330
1F
100
AcDbEntity
  8
0
  6
Continuous
 62
     5
100
AcDbEllipse
 10
7182.191839773651
 20
-1700.283342791785
 30
0.0
 11
-1.268602957997952
 21
1.262930385423086
 31
0.0
210
0.0
220
0.0
230
0.9999999999999998
 40
0.9999999999980069
 41
3.922429033933645
 42
10.20561434111323
  0
ELLIPSE
  5
6DEF
330
1F
100
AcDbEntity
  8
0
  6
Continuous
 62
     5
100
AcDbEllipse
 10
7182.067809428116
 20
-1706.464661139427
 30
0.0
 11
-1.252962805555153
 21
1.247360168100062
 31
0.0
210
0.0
220
0.0
230
0.9999999999999998
 40
0.9999999999974434
 41
3.92242903393398
 42
10.20561434111356
  0
ELLIPSE
  5
6DF0
330
1F
100
AcDbEntity
  8
0
  6
Continuous
 62
     5
100
AcDbEllipse
 10
7192.864624691456
 20
-1693.844354741582
 30
0.0
 11
1.132793559214581
 21
1.137881609792152
 31
0.0
210
0.0
220
0.0
230
0.9999999999999998
 40
0.9999999999972118
 41
5.493225360726132
 42
11.77641066790571
  0
ELLIPSE
  5
6DF1
330
1F
100
AcDbEntity
  8
0
  6
Continuous
 62
     5
100
AcDbEllipse
 10
7193.161908022033
 20
-1700.308804599644
 30
0.0
 11
-1.268602957997431
 21
1.262930385422567
 31
0.0
210
0.0
220
0.0
230
1.0
 40
0.9999999999988279
 41
3.922429033933234
 42
10.20561434111282
  0
ELLIPSE
  5
6DF2
330
1F
100
AcDbEntity
  8
0
  6
Continuous
 62
     5
100
AcDbEllipse
 10
7193.257243191102
 20
-1706.490632100233
 30
0.0
 11
1.247360168101651
 21
1.25296280555675
 31
0.0
210
0.0
220
0.0
230
1.0
 40
0.9999999999987551
 41
5.493225360726738
 42
11.77641066790632
  0
ELLIPSE
  5
6DF3
330
1F
100
AcDbEntity
  8
0
  6
Continuous
 62
     5
100
AcDbEllipse
 10
7200.092390024881
 20
-1703.195067226762
 30
0.0
 11
-1.343740118828259
 21
1.337731569583
 31
0.0
210
0.0
220
0.0
230
1.0
 40
0.9999999999972772
 41
3.922429033933861
 42
10.20561434111344
  0
ELLIPSE
  5
6DF4
330
1F
100
AcDbEntity
  8
0
  6
Continuous
 62
     5
100
AcDbEllipse
 10
7187.575984534007
 20
-1703.343137497262
 30
0.0
 11
1.323007442173111
 21
1.328949856592335
 31
0.0
210
0.0
220
0.0
230
1.0
 40
0.9999999999993949
 41
5.493225360727258
 42
11.77641066790684
  0
ELLIPSE
  5
6DF5
330
1F
100
AcDbEntity
  8
0
  6
Continuous
 62
     5
100
AcDbEllipse
 10
7182.596073770858
 20
-1687.720111631624
 30
0.0
 11
1.075850586658019
 21
1.080682872430037
 31
0.0
210
0.0
220
0.0
230
1.0
 40
0.9999999999991253
 41
5.493225360727124
 42
11.7764106679067
  0
ELLIPSE
  5
6DF6
330
1F
100
AcDbEntity
  8
0
  6
Continuous
 62
     5
100
AcDbEllipse
 10
7192.815997225078
 20
-1687.743832334305
 30
0.0
 11
1.075850586657832
 21
1.08068287242985
 31
0.0
210
0.0
220
0.0
230
0.9999999999999998
 40
0.9999999999991741
 41
5.493225360727149
 42
11.77641066790673
  0
LINE
  5
6DFA
330
1F
100
AcDbEntity
  8
SPOJOVACÍ
  6
Continuous
100
AcDbLine
 10
7205.196351039397
 20
-1723.104267379817
 30
0.0
 11
7209.24075539899
 21
-1721.745280541976
 31
0.0
  0
LINE
  5
6DFB
330
1F
100
AcDbEntity
  8
SPOJOVACÍ
  6
Continuous
100
AcDbLine
 10
7205.196351039397
 20
-1722.508024694662
 30
0.0
 11
7209.24075539899
 21
-1721.149037857098
 31
0.0
  0
LINE
  5
6DFC
330
1F
100
AcDbEntity
  8
SPOJOVACÍ
  6
Continuous
100
AcDbLine
 10
7209.618406769935
 20
-1721.52668922995
 30
0.0
 11
7209.24075539899
 21
-1721.745280541976
 31
0.0
  0
LINE
  5
6DFD
330
1F
100
AcDbEntity
  8
SPOJOVACÍ
  6
Continuous
100
AcDbLine
 10
7209.618406769935
 20
-1721.52668922995
 30
0.0
 11
7209.24075539899
 21
-1721.149037857098
 31
0.0
  0
LINE
  5
6DFE
330
1F
100
AcDbEntity
  8
SPOJOVACÍ
  6
Continuous
100
AcDbLine
 10
7204.818699664087
 20
-1722.726616006688
 30
0.0
 11
7205.196351039397
 21
-1723.104267379817
 31
0.0
  0
LINE
  5
6DFF
330
1F
100
AcDbEntity
  8
SPOJOVACÍ
  6
Continuous
100
AcDbLine
 10
7204.818699664087
 20
-1722.726616006688
 30
0.0
 11
7205.196351039397
 21
-1722.508024694662
 31
0.0
  0
LINE
  5
6E00
330
1F
100
AcDbEntity
  8
SPOJOVACÍ
  6
Continuous
100
AcDbLine
 10
7204.818699664087
 20
-1722.726616006688
 30
0.0
 11
7209.618406769935
 21
-1721.52668922995
 31
0.0
  0
LINE
  5
6E01
330
1F
100
AcDbEntity
  8
SPOJOVACÍ
  6
Continuous
100
AcDbLine
 10
7205.196351039397
 20
-1726.22500717448
 30
0.0
 11
7209.24075539899
 21
-1724.865090161215
 31
0.0
  0
LINE
  5
6E02
330
1F
100
AcDbEntity
  8
SPOJOVACÍ
  6
Continuous
100
AcDbLine
 10
7205.196351039397
 20
-1725.628764489602
 30
0.0
 11
7209.24075539899
 21
-1724.26884747606
 31
0.0
  0
LINE
  5
6E03
330
1F
100
AcDbEntity
  8
SPOJOVACÍ
  6
Continuous
100
AcDbLine
 10
7209.618406769935
 20
-1724.646498849188
 30
0.0
 11
7209.24075539899
 21
-1724.865090161215
 31
0.0
  0
LINE
  5
6E04
330
1F
100
AcDbEntity
  8
SPOJOVACÍ
  6
Continuous
100
AcDbLine
 10
7209.618406769935
 20
-1724.646498849188
 30
0.0
 11
7209.24075539899
 21
-1724.26884747606
 31
0.0
  0
LINE
  5
6E05
330
1F
100
AcDbEntity
  8
SPOJOVACÍ
  6
Continuous
100
AcDbLine
 10
7204.818699664087
 20
-1725.84642562565
 30
0.0
 11
7205.196351039397
 21
-1726.22500717448
 31
0.0
  0
LINE
  5
6E06
330
1F
100
AcDbEntity
  8
SPOJOVACÍ
  6
Continuous
100
AcDbLine
 10
7204.818699664087
 20
-1725.84642562565
 30
0.0
 11
7205.196351039397
 21
-1725.628764489602
 31
0.0
  0
LINE
  5
6E07
330
1F
100
AcDbEntity
  8
SPOJOVACÍ
  6
Continuous
100
AcDbLine
 10
7204.818699664087
 20
-1725.84642562565
 30
0.0
 11
7209.618406769935
 21
-1724.646498849188
 31
0.0
  0
LINE
  5
6E08
330
1F
100
AcDbEntity
  8
SPOJOVACÍ
  6
Continuous
100
AcDbLine
 10
7208.568238300562
 20
-1724.500461249272
 30
0.0
 11
7208.568238300562
 21
-1721.981545194243
 31
0.0
  0
LINE
  5
6E09
330
1F
100
AcDbEntity
  8
SPOJOVACÍ
  6
Continuous
100
AcDbLine
 10
7205.868868137826
 20
-1725.413893880659
 30
0.0
 11
7205.868868137826
 21
-1722.89497782563
 31
0.0
  0
LINE
  5
6E0A
330
1F
100
AcDbEntity
  8
SPOJOVACÍ
  6
Continuous
100
AcDbLine
 10
7205.868868137826
 20
-1730.047099519516
 30
0.0
 11
7205.868868137826
 21
-1726.009206389836
 31
0.0
  0
LINE
  5
6E0B
330
1F
100
AcDbEntity
  8
SPOJOVACÍ
  6
Continuous
100
AcDbLine
 10
7208.568238300562
 20
-1730.047099519516
 30
0.0
 11
7208.568238300562
 21
-1725.104145340587
 31
0.0
  0
LINE
  5
6E0C
330
1F
100
AcDbEntity
  8
SPOJOVACÍ
  6
Continuous
100
AcDbLine
 10
7202.118399328377
 20
-1735.446770013872
 30
0.0
 11
7203.468084411928
 21
-1734.702629377398
 31
0.0
  0
LINE
  5
6E0D
330
1F
100
AcDbEntity
  8
SPOJOVACÍ
  6
Continuous
100
AcDbLine
 10
7203.468084411928
 20
-1734.702629377398
 30
0.0
 11
7204.578714312287
 21
-1733.633857387986
 31
0.0
  0
LINE
  5
6E0E
330
1F
100
AcDbEntity
  8
SPOJOVACÍ
  6
Continuous
100
AcDbLine
 10
7204.578714312287
 20
-1733.633857387986
 30
0.0
 11
7205.374944791604
 21
-1732.314868109688
 31
0.0
  0
LINE
  5
6E0F
330
1F
100
AcDbEntity
  8
SPOJOVACÍ
  6
Continuous
100
AcDbLine
 10
7205.374944791604
 20
-1732.314868109688
 30
0.0
 11
7205.802825655904
 21
-1730.834028242638
 31
0.0
  0
LINE
  5
6E10
330
1F
100
AcDbEntity
  8
SPOJOVACÍ
  6
Continuous
100
AcDbLine
 10
7205.802825655904
 20
-1730.834028242638
 30
0.0
 11
7205.868868137826
 21
-1730.047099519516
 31
0.0
  0
LINE
  5
6E11
330
1F
100
AcDbEntity
  8
SPOJOVACÍ
  6
Continuous
100
AcDbLine
 10
7210.366268110577
 20
-1734.191962865547
 30
0.0
 11
7211.603401919477
 21
-1735.110046375989
 31
0.0
  0
LINE
  5
6E12
330
1F
100
AcDbEntity
  8
SPOJOVACÍ
  6
Continuous
100
AcDbLine
 10
7211.603401919477
 20
-1735.110046375989
 30
0.0
 11
7212.318707105644
 21
-1735.446770013872
 31
0.0
  0
LINE
  5
6E13
330
1F
100
AcDbEntity
  8
SPOJOVACÍ
  6
Continuous
100
AcDbLine
 10
7202.118399328377
 20
-1735.446770013872
 30
0.0
 11
7212.318707105644
 21
-1735.446770013872
 31
0.0
  0
LINE
  5
6E14
330
1F
100
AcDbEntity
  8
SPOJOVACÍ
  6
Continuous
100
AcDbLine
 10
7202.118399328377
 20
-1736.646696790604
 30
0.0
 11
7202.118399328377
 21
-1735.446770013872
 31
0.0
  0
LINE
  5
6E15
330
1F
100
AcDbEntity
  8
SPOJOVACÍ
  6
Continuous
100
AcDbLine
 10
7202.118399328377
 20
-1736.646696790604
 30
0.0
 11
7212.318707105644
 21
-1736.646696790604
 31
0.0
  0
LINE
  5
6E16
330
1F
100
AcDbEntity
  8
SPOJOVACÍ
  6
Continuous
100
AcDbLine
 10
7212.318707105644
 20
-1736.646696790604
 30
0.0
 11
7212.318707105644
 21
-1735.446770013872
 31
0.0
  0
LINE
  5
6E17
330
1F
100
AcDbEntity
  8
SPOJOVACÍ
  6
Continuous
100
AcDbLine
 10
7208.568238300562
 20
-1730.047099519516
 30
0.0
 11
7208.795201191446
 21
-1731.570727472945
 31
0.0
  0
LINE
  5
6E18
330
1F
100
AcDbEntity
  8
SPOJOVACÍ
  6
Continuous
100
AcDbLine
 10
7208.795201191446
 20
-1731.570727472945
 30
0.0
 11
7209.408187040593
 21
-1732.984594682648
 31
0.0
  0
LINE
  5
6E19
330
1F
100
AcDbEntity
  8
SPOJOVACÍ
  6
Continuous
100
AcDbLine
 10
7209.408187040593
 20
-1732.984594682648
 30
0.0
 11
7210.366268110577
 21
-1734.191962865547
 31
0.0
  0
LINE
  5
6E1F
330
1F
100
AcDbEntity
  8
SPOJOVACÍ
  6
Continuous
100
AcDbLine
 10
7208.568238300562
 20
-1721.385302509088
 30
0.0
 11
7208.568238300562
 21
-1718.857084696219
 31
0.0
  0
LINE
  5
6E20
330
1F
100
AcDbEntity
  8
SPOJOVACÍ
  6
Continuous
100
AcDbLine
 10
7205.868868137826
 20
-1722.291293734315
 30
0.0
 11
7205.868868137826
 21
-1719.770517327606
 31
0.0
  0
ELLIPSE
  5
6E21
330
1F
100
AcDbEntity
  8
0
  6
Continuous
 62
     5
100
AcDbEllipse
 10
7187.806610274542
 20
-1684.778700279021
 30
0.0
 11
-1.196078904435772
 21
1.19073062399239
 31
0.0
210
0.0
220
0.0
230
1.0
 40
0.9999999999976683
 41
3.922429033933691
 42
10.20561434111327
  0
INSERT
  5
6E6D
330
1F
100
AcDbEntity
  8
POPIS
100
AcDbBlockReference
  2
E_PUNKT
 10
7200.030510311545
 20
-1619.863880888082
 30
0.0
  0
ELLIPSE
  5
6E6E
330
1F
100
AcDbEntity
  8
0
  6
Continuous
 62
     5
100
AcDbEllipse
 10
7182.835519548381
 20
-1676.146942503576
 30
0.0
 11
0.9630246238454439
 21
0.9673501410182019
 31
0.0
210
0.0
220
0.0
230
1.0
 40
0.9999999999979166
 41
5.493225360726194
 42
11.77641066790578
  0
ELLIPSE
  5
6E6F
330
1F
100
AcDbEntity
  8
0
  6
Continuous
 62
     5
100
AcDbEllipse
 10
7192.630276978729
 20
-1676.169676385086
 30
0.0
 11
-0.9673501410155818
 21
0.9630246238428355
 31
0.0
210
0.0
220
0.0
230
0.9999999999999998
 40
0.9999999999983106
 41
3.922429033933493
 42
10.20561434111308
  0
LINE
  5
6E70
330
1F
100
AcDbEntity
  8
SPOJOVACÍ
100
AcDbLine
 10
7182.699609386523
 20
-1664.084507588186
 30
0.0
 11
7179.795922577489
 21
-1664.084507588187
 31
0.0
  0
LINE
  5
6E71
330
1F
100
AcDbEntity
  8
SPOJOVACÍ
100
AcDbLine
 10
7182.699609386523
 20
-1664.084507588187
 30
0.0
 11
7182.699609386507
 21
-1666.470685285225
 31
0.0
  0
LINE
  5
6E72
330
1F
100
AcDbEntity
  8
SPOJOVACÍ
100
AcDbLine
 10
7184.012314329868
 20
-1664.084507588187
 30
0.0
 11
7184.012314329861
 21
-1666.470685285226
 31
0.0
  0
LINE
  5
6E73
330
1F
100
AcDbEntity
  8
SPOJOVACÍ
100
AcDbLine
 10
7184.012314329861
 20
-1666.470685285226
 30
0.0
 11
7182.699609386507
 21
-1666.470685285225
 31
0.0
  0
LINE
  5
6E74
330
1F
100
AcDbEntity
  8
SPOJOVACÍ
100
AcDbLine
 10
7191.50238643209
 20
-1664.084507588188
 30
0.0
 11
7184.012314329868
 21
-1664.084507588187
 31
0.0
  0
LINE
  5
6E75
330
1F
100
AcDbEntity
  8
SPOJOVACÍ
100
AcDbLine
 10
7195.71877818447
 20
-1664.084507588187
 30
0.0
 11
7195.71877818447
 21
-1663.084507588187
 31
0.0
  0
LINE
  5
6E76
330
1F
100
AcDbEntity
  8
SPOJOVACÍ
100
AcDbLine
 10
7179.795922577489
 20
-1663.084507588187
 30
0.0
 11
7195.71877818447
 21
-1663.084507588187
 31
0.0
  0
LINE
  5
6E77
330
1F
100
AcDbEntity
  8
SPOJOVACÍ
100
AcDbLine
 10
7179.795922577489
 20
-1664.084507588187
 30
0.0
 11
7179.795922577489
 21
-1663.084507588187
 31
0.0
  0
LINE
  5
6E78
330
1F
100
AcDbEntity
  8
SPOJOVACÍ
100
AcDbLine
 10
7195.71877818447
 20
-1664.084507588187
 30
0.0
 11
7192.815091375435
 21
-1664.084507588188
 31
0.0
  0
LINE
  5
6E79
330
1F
100
AcDbEntity
  8
SPOJOVACÍ
100
AcDbLine
 10
7191.502386432104
 20
-1666.470685285226
 30
0.0
 11
7192.815091375457
 21
-1666.470685285225
 31
0.0
  0
LINE
  5
6E7A
330
1F
100
AcDbEntity
  8
SPOJOVACÍ
100
AcDbLine
 10
7191.502386432097
 20
-1664.084507588187
 30
0.0
 11
7191.502386432104
 21
-1666.470685285226
 31
0.0
  0
LINE
  5
6E7B
330
1F
100
AcDbEntity
  8
SPOJOVACÍ
100
AcDbLine
 10
7192.815091375442
 20
-1664.084507588187
 30
0.0
 11
7192.815091375457
 21
-1666.470685285225
 31
0.0
  0
HATCH
  5
6E7C
330
1F
100
AcDbEntity
  8
SPOJOVACÍ
100
AcDbHatch
 10
0.0
 20
0.0
 30
0.0
210
0.0
220
0.0
230
1.0
  2
SOLID
 70
     1
 71
     0
 91
        1
 92
        7
 72
     0
 73
     1
 93
        5
 10
7195.71877818447
 20
-1664.084507588187
 10
7195.71877818447
 20
-1663.084507588187
 10
7179.795922577489
 20
-1663.084507588187
 10
7179.795922577489
 20
-1664.084507588187
 10
7182.699609386523
 20
-1664.084507588186
 97
        0
 75
     0
 76
     1
 47
0.1352714281630532
 98
        1
 10
7188.775800602248
 20
-1663.739422246157
  0
ELLIPSE
  5
6E7D
330
1F
100
AcDbEntity
  8
0
  6
Continuous
 62
     5
100
AcDbEllipse
 10
7182.835519548381
 20
-1676.146942503576
 30
0.0
 11
2.3740657228247
 21
2.384729066003123
 31
0.0
210
0.0
220
0.0
230
1.0
 40
1.0
 41
5.493225360726194
 42
11.77641066790578
  0
ELLIPSE
  5
6E7E
330
1F
100
AcDbEntity
  8
0
  6
Continuous
 62
     5
100
AcDbEllipse
 10
7192.630276978729
 20
-1676.169676385086
 30
0.0
 11
-2.384729066000502
 21
2.374065722822092
 31
0.0
210
0.0
220
0.0
230
0.9999999999999998
 40
1.0
 41
3.922429033933493
 42
10.20561434111308
  0
ARC
  5
6E7F
330
1F
100
AcDbEntity
  8
SPOJOVACÍ
100
AcDbCircle
 10
7187.854488829493
 20
-1537.809001078601
 30
0.0
 40
3.772098134126344
100
AcDbArc
 50
300.0337920944151
 51
239.9661539344486
  0
INSERT
  5
6E80
330
1F
100
AcDbEntity
  8
POPIS
100
AcDbBlockReference
  2
E_PUNKT
 10
7344.060733751604
 20
-1643.81990084911
 30
0.0
  0
TEXT
  5
6F1C
330
1F
100
AcDbEntity
  8
POPIS
100
AcDbText
 10
7424.803800652153
 20
-1581.853296346971
 30
0.0
 40
25.0
  1
02
 41
0.85
  7
SIMPLEX7
100
AcDbText
  0
TEXT
  5
6F1D
330
1F
100
AcDbEntity
  8
POPIS
100
AcDbText
 10
7479.147503811894
 20
-1581.853296346971
 30
0.0
 40
25.0
  1
Vrut 4,2x25 (35,45) mm
 41
0.7
  7
SIMPLEX7
100
AcDbText
  0
TEXT
  5
6F1E
330
1F
100
AcDbEntity
  8
POPIS
100
AcDbText
 10
7479.147503811894
 20
-1859.120031110627
 30
0.0
 40
25.0
  1
Minerální plsť
 41
0.7
  7
SIMPLEX7
100
AcDbText
  0
TEXT
  5
6F1F
330
1F
100
AcDbEntity
  8
POPIS
100
AcDbText
 10
7479.147503811894
 20
-1719.780610534215
 30
0.0
 40
25.0
  1
Spojka CD
 41
0.7
  7
SIMPLEX7
100
AcDbText
  0
TEXT
  5
6F20
330
1F
100
AcDbEntity
  8
POPIS
100
AcDbText
 10
7479.147503811894
 20
-1788.002299873286
 30
0.0
 40
25.0
  1
Křížová spojka
 41
0.7
  7
SIMPLEX7
100
AcDbText
  0
TEXT
  5
6F22
330
1F
100
AcDbEntity
  8
POPIS
100
AcDbText
 10
7479.147503811894
 20
-1650.491177776766
 30
0.0
 40
25.0
  1
CD profil montážní
 41
0.7
  7
SIMPLEX7
100
AcDbText
  0
TEXT
  5
6F23
330
1F
100
AcDbEntity
  8
POPIS
100
AcDbText
 10
7424.803800652153
 20
-1754.120031110627
 30
0.0
 40
25.0
  1
06
 41
0.85
  7
SIMPLEX7
100
AcDbText
  0
TEXT
  5
6F24
330
1F
100
AcDbEntity
  8
POPIS
100
AcDbText
 10
7479.147503811894
 20
-1824.120031110627
 30
0.0
 40
25.0
  1
Závěs
 41
0.7
  7
SIMPLEX7
100
AcDbText
  0
TEXT
  5
6F25
330
1F
100
AcDbEntity
  8
POPIS
100
AcDbText
 10
7424.803800652153
 20
-1824.120031110627
 30
0.0
 40
25.0
  1
08
 41
0.85
  7
SIMPLEX7
100
AcDbText
  0
TEXT
  5
6F26
330
1F
100
AcDbEntity
  8
POPIS
100
AcDbText
 10
7424.803800652153
 20
-1859.120031110627
 30
0.0
 40
25.0
  1
09
 41
0.85
  7
SIMPLEX7
100
AcDbText
  0
TEXT
  5
6F27
330
1F
100
AcDbEntity
  8
POPIS
100
AcDbText
 10
7424.803800652153
 20
-1789.120031110627
 30
0.0
 40
25.0
  1
07
 41
0.85
  7
SIMPLEX7
100
AcDbText
  0
TEXT
  5
6F28
330
1F
100
AcDbEntity
  8
POPIS
100
AcDbText
 10
7479.147503811894
 20
-1685.895338994928
 30
0.0
 40
25.0
  1
CD profil nosný
 41
0.7
  7
SIMPLEX7
100
AcDbText
  0
TEXT
  5
6F29
330
1F
100
AcDbEntity
  8
POPIS
100
AcDbText
 10
7424.803800652153
 20
-1685.895338994928
 30
0.0
 40
25.0
  1
04
 41
0.85
  7
SIMPLEX7
100
AcDbText
  0
TEXT
  5
6F2A
330
1F
100
AcDbEntity
  8
POPIS
100
AcDbText
 10
7424.803800652153
 20
-1719.780610534215
 30
0.0
 40
25.0
  1
05
 41
0.85
  7
SIMPLEX7
100
AcDbText
  0
TEXT
  5
6F2B
330
1F
100
AcDbEntity
  8
POPIS
100
AcDbText
 10
7424.803800652153
 20
-1650.491177776766
 30
0.0
 40
25.0
  1
03
 41
0.85
  7
SIMPLEX7
100
AcDbText
  0
TEXT
  5
6F49
330
1F
100
AcDbEntity
  8
POPIS
100
AcDbText
 10
7479.147503811894
 20
-1545.258284731343
 30
0.0
 40
25.0
  1
Deska CETRIS   
 41
0.7
  7
SIMPLEX7
100
AcDbText
  0
TEXT
  5
6F4A
330
1F
100
AcDbEntity
  8
POPIS
100
AcDbText
 10
7424.803800652153
 20
-1545.258284731343
 30
0.0
 40
25.0
  1
01
 41
0.85
  7
SIMPLEX7
100
AcDbText
  0
TEXT
  5
6F4B
330
1F
100
AcDbEntity
  8
POPIS
100
AcDbText
 10
7646.77368905094
 20
-1520.282974623063
 30
0.0
 40
12.0
  1
R
 41
0.85
  7
SIMPLEX7
100
AcDbText
  0
CIRCLE
  5
6F4C
330
1F
100
AcDbEntity
  8
POPIS
100
AcDbCircle
 10
7651.532718106121
 20
-1514.737628878075
 30
0.0
 40
11.13656048292026
  0
TEXT
  5
6F4E
330
1F
100
AcDbEntity
  8
POPIS
100
AcDbText
 10
6844.439118668883
 20
-1434.1656388423
 30
0.0
 40
25.0
  1
Dilatační spára v podhledu
 41
0.85
  7
SIMPLEX7
100
AcDbText
  0
ARC
  5
6F4F
330
1F
100
AcDbEntity
  8
SPOJOVACÍ
  6
Continuous
100
AcDbCircle
 39
2500.000155029299
 10
6967.807846627677
 20
-1537.847444715721
 30
0.0
 40
1.856153575276108
100
AcDbArc
 50
88.5600961746983
 51
172.7547042619347
  0
LINE
  5
6F50
330
1F
100
AcDbEntity
  8
SPOJOVACÍ
  6
Continuous
100
AcDbLine
 39
2500.000155029299
 10
6965.966510349956
 20
-1562.366491119559
 30
0.0
 11
6965.966510349956
 21
-1537.613350473788
 31
0.0
  0
LINE
  5
6F51
330
1F
100
AcDbEntity
  8
SPOJOVACÍ
  6
Continuous
100
AcDbLine
 39
2500.000155029299
 10
6969.742466946612
 20
-1562.366491119559
 30
0.0
 11
6969.742463791764
 21
-1537.613351229541
 31
0.0
  0
LINE
  5
6F52
330
1F
100
AcDbEntity
  8
SPOJOVACÍ
  6
Continuous
100
AcDbLine
 39
2500.000155029299
 10
6979.320927977808
 20
-1632.088786825574
 30
0.0
 11
6979.320903756145
 21
-1569.899267878595
 31
0.0
  0
LINE
  5
6F53
330
1F
100
AcDbEntity
  8
SPOJOVACÍ
  6
Continuous
100
AcDbLine
 39
2500.000155029299
 10
6956.388061425953
 20
-1632.088786825574
 30
0.0
 11
6956.38804931876
 21
-1569.899267878595
 31
0.0
  0
LINE
  5
6F54
330
1F
100
AcDbEntity
  8
SPOJOVACÍ
  6
Continuous
100
AcDbLine
 39
2500.000155029299
 10
6965.966498235487
 20
-1580.588150492571
 30
0.0
 11
6959.403187513074
 21
-1580.588150492571
 31
0.0
  0
LINE
  5
6F55
330
1F
100
AcDbEntity
  8
SPOJOVACÍ
  6
Continuous
100
AcDbLine
 39
2500.000155029299
 10
6959.403187513074
 20
-1580.588150492571
 30
0.0
 11
6959.403187513074
 21
-1601.028182244176
 31
0.0
  0
LINE
  5
6F56
330
1F
100
AcDbEntity
  8
SPOJOVACÍ
  6
Continuous
100
AcDbLine
 39
2500.000155029299
 10
6959.403187513074
 20
-1601.028182244176
 30
0.0
 11
6965.966498235487
 21
-1601.028182244176
 31
0.0
  0
LINE
  5
6F57
330
1F
100
AcDbEntity
  8
SPOJOVACÍ
  6
Continuous
100
AcDbLine
 39
2500.000155029299
 10
6959.403187513074
 20
-1601.028182244176
 30
0.0
 11
6959.403187513074
 21
-1611.529479405857
 31
0.0
  0
LINE
  5
6F58
330
1F
100
AcDbEntity
  8
SPOJOVACÍ
  6
Continuous
100
AcDbLine
 39
2500.000155029299
 10
6959.403187513074
 20
-1580.588150492571
 30
0.0
 11
6959.403187513074
 21
-1570.461830448534
 31
0.0
  0
ARC
  5
6F59
330
1F
100
AcDbEntity
  8
SPOJOVACÍ
  6
Continuous
100
AcDbCircle
 39
2500.000155029299
 10
6968.283568570753
 20
-1570.903663951453
 30
0.0
 40
8.891364063669307
100
AcDbArc
 50
92.84852606754681
 51
177.1516658609006
  0
ARC
  5
6F5A
330
1F
100
AcDbEntity
  8
SPOJOVACÍ
  6
Continuous
100
AcDbCircle
 39
2500.000155029299
 10
6965.987063846099
 20
-1577.684064143381
 30
0.0
 40
12.35896601914339
100
AcDbArc
 50
116.37436881397
 51
140.9579470340037
  0
ARC
  5
6F5B
330
1F
100
AcDbEntity
  8
SPOJOVACÍ
  6
Continuous
100
AcDbCircle
 39
2500.000155029299
 10
6967.300610140212
 20
-1612.070628553323
 30
0.0
 40
7.915946660942908
100
AcDbArc
 50
176.0801048027694
 51
273.9197916062925
  0
LINE
  5
6F5C
330
1F
100
AcDbEntity
  8
SPOJOVACÍ
  6
Continuous
100
AcDbLine
 39
2500.000155029299
 10
6965.966510349956
 20
-1573.837302761189
 30
0.0
 11
6965.966510349956
 21
-1609.841791696039
 31
0.0
  0
LINE
  5
6F5D
330
1F
100
AcDbEntity
  8
SPOJOVACÍ
  6
Continuous
100
AcDbLine
 39
2500.000155029299
 10
6965.966510349956
 20
-1619.968111740076
 30
0.0
 11
6965.966510349956
 21
-1632.344585169034
 31
0.0
  0
LINE
  5
6F5E
330
1F
100
AcDbEntity
  8
SPOJOVACÍ
  6
Continuous
100
AcDbLine
 39
2500.000155029299
 10
6965.966510349956
 20
-1632.344585169034
 30
0.0
 11
6967.854488644646
 21
-1632.344585169034
 31
0.0
  0
ARC
  5
6F5F
330
1F
100
AcDbEntity
  8
SPOJOVACÍ
  6
Continuous
100
AcDbCircle
 39
2500.000155029299
 10
6967.776743873385
 20
-1574.126529297741
 30
0.0
 40
1.833202918205448
100
AcDbArc
 50
87.45568190668869
 51
170.9224377151385
  0
ARC
  5
6F60
330
1F
100
AcDbEntity
  8
SPOJOVACÍ
  6
Continuous
100
AcDbCircle
 39
2500.000155029299
 10
6967.749662191621
 20
-1609.664573828508
 30
0.0
 40
1.791938668176291
100
AcDbArc
 50
185.6756873035466
 51
273.8921703213237
  0
LINE
  5
6F61
330
1F
100
AcDbEntity
  8
SPOJOVACÍ
  6
Continuous
100
AcDbLine
 39
2500.000155029299
 10
6969.742466946612
 20
-1580.588150492571
 30
0.0
 11
6976.305777669025
 21
-1580.588150492571
 31
0.0
  0
LINE
  5
6F62
330
1F
100
AcDbEntity
  8
SPOJOVACÍ
  6
Continuous
100
AcDbLine
 39
2500.000155029299
 10
6976.305777669025
 20
-1580.588150492571
 30
0.0
 11
6976.305777669025
 21
-1601.028182244176
 31
0.0
  0
LINE
  5
6F63
330
1F
100
AcDbEntity
  8
SPOJOVACÍ
  6
Continuous
100
AcDbLine
 39
2500.000155029299
 10
6976.305777669025
 20
-1601.028182244176
 30
0.0
 11
6969.742466946612
 21
-1601.028182244176
 31
0.0
  0
LINE
  5
6F64
330
1F
100
AcDbEntity
  8
SPOJOVACÍ
  6
Continuous
100
AcDbLine
 39
2500.000155029299
 10
6976.305777669025
 20
-1601.028182244176
 30
0.0
 11
6976.305777669025
 21
-1611.529479405857
 31
0.0
  0
LINE
  5
6F65
330
1F
100
AcDbEntity
  8
SPOJOVACÍ
  6
Continuous
100
AcDbLine
 39
2500.000155029299
 10
6976.305777669025
 20
-1580.588150492571
 30
0.0
 11
6976.305777669025
 21
-1570.461830448534
 31
0.0
  0
ARC
  5
6F66
330
1F
100
AcDbEntity
  8
SPOJOVACÍ
  6
Continuous
100
AcDbCircle
 39
2500.000155029299
 10
6967.425408725815
 20
-1570.903663951453
 30
0.0
 40
8.891364063669307
100
AcDbArc
 50
2.848339148043316
 51
87.15146528105737
  0
ARC
  5
6F67
330
1F
100
AcDbEntity
  8
SPOJOVACÍ
  6
Continuous
100
AcDbCircle
 39
2500.000155029299
 10
6968.408342927417
 20
-1612.070628553323
 30
0.0
 40
7.915946660942908
100
AcDbArc
 50
266.0802097601067
 51
3.91991022407127
  0
LINE
  5
6F68
330
1F
100
AcDbEntity
  8
SPOJOVACÍ
  6
Continuous
100
AcDbLine
 39
2500.000155029299
 10
6969.742466946612
 20
-1573.837302761189
 30
0.0
 11
6969.742466946612
 21
-1609.841791696039
 31
0.0
  0
LINE
  5
6F69
330
1F
100
AcDbEntity
  8
SPOJOVACÍ
  6
Continuous
100
AcDbLine
 39
2500.000155029299
 10
6969.742466946612
 20
-1619.968111740076
 30
0.0
 11
6969.742466946612
 21
-1632.344585169034
 31
0.0
  0
LINE
  5
6F6A
330
1F
100
AcDbEntity
  8
SPOJOVACÍ
  6
Continuous
100
AcDbLine
 39
2500.000155029299
 10
6969.742466946612
 20
-1632.344585169034
 30
0.0
 11
6967.854488644646
 21
-1632.344585169034
 31
0.0
  0
ARC
  5
6F6B
330
1F
100
AcDbEntity
  8
SPOJOVACÍ
  6
Continuous
100
AcDbCircle
 39
2500.000155029299
 10
6967.932221308713
 20
-1574.126529297741
 30
0.0
 40
1.833202918205448
100
AcDbArc
 50
9.07753826540085
 51
92.54429578148736
  0
ARC
  5
6F6C
330
1F
100
AcDbEntity
  8
SPOJOVACÍ
  6
Continuous
100
AcDbCircle
 39
2500.000155029299
 10
6967.959315097671
 20
-1609.664573828508
 30
0.0
 40
1.791938668176291
100
AcDbArc
 50
266.1076944413313
 51
354.3243413836902
  0
ARC
  5
6F6D
330
1F
100
AcDbEntity
  8
SPOJOVACÍ
  6
Continuous
100
AcDbCircle
 39
2500.000155029299
 10
6967.901131031306
 20
-1537.847444715721
 30
0.0
 40
1.856153575276108
100
AcDbArc
 50
7.24529573806531
 51
91.43990382530169
  0
ARC
  5
6F6E
330
1F
100
AcDbEntity
  8
SPOJOVACÍ
  6
Continuous
100
AcDbCircle
 39
2500.000155029299
 10
6969.714620615966
 20
-1577.684064143381
 30
0.0
 40
12.35896601914339
100
AcDbArc
 50
39.04205296599621
 51
63.57368118090316
  0
LINE
  5
6F6F
330
1F
100
AcDbEntity
  8
SPOJOVACÍ
  6
Continuous
100
AcDbLine
 39
2500.000155029299
 10
6966.466818968895
 20
-1659.974294463195
 30
0.0
 11
6967.385658248516
 21
-1660.893133741905
 31
0.0
  0
LINE
  5
6F70
330
1F
100
AcDbEntity
  8
SPOJOVACÍ
  6
Continuous
100
AcDbLine
 39
2500.000155029299
 10
6967.385658248516
 20
-1660.893133741905
 30
0.0
 11
6968.342055795786
 21
-1660.893133741905
 31
0.0
  0
LINE
  5
6F71
330
1F
100
AcDbEntity
  8
SPOJOVACÍ
  6
Continuous
100
AcDbLine
 39
2500.000155029299
 10
6964.653836093915
 20
-1662.937098159586
 30
0.0
 11
6956.388061425953
 21
-1632.088786825574
 31
0.0
  0
LINE
  5
6F72
330
1F
100
AcDbEntity
  8
SPOJOVACÍ
  6
Continuous
100
AcDbLine
 39
2500.000155029299
 10
6967.091647598848
 20
-1662.937098159586
 30
0.0
 11
6964.653836093915
 21
-1662.937098159586
 31
0.0
  0
LINE
  5
6F73
330
1F
100
AcDbEntity
  8
SPOJOVACÍ
  6
Continuous
100
AcDbLine
 39
2500.000155029299
 10
6971.055129088184
 20
-1662.937098159586
 30
0.0
 11
6979.320927977808
 21
-1632.088786825574
 31
0.0
  0
LINE
  5
6F74
330
1F
100
AcDbEntity
  8
SPOJOVACÍ
  6
Continuous
100
AcDbLine
 39
2500.000155029299
 10
6967.091647598848
 20
-1661.811973019707
 30
0.0
 11
6965.516453030416
 21
-1661.811973019707
 31
0.0
  0
LINE
  5
6F75
330
1F
100
AcDbEntity
  8
SPOJOVACÍ
  6
Continuous
100
AcDbLine
 39
2500.000155029299
 10
6965.516453030416
 20
-1661.811973019707
 30
0.0
 11
6965.516453030416
 21
-1656.861403027091
 31
0.0
  0
LINE
  5
6F76
330
1F
100
AcDbEntity
  8
SPOJOVACÍ
  6
Continuous
100
AcDbLine
 39
2500.000155029299
 10
6967.091647598848
 20
-1661.811973019707
 30
0.0
 11
6967.091647598848
 21
-1662.937098159586
 31
0.0
  0
LINE
  5
6F77
330
1F
100
AcDbEntity
  8
SPOJOVACÍ
  6
Continuous
100
AcDbLine
 39
2500.000155029299
 10
6968.617329690444
 20
-1661.811973019707
 30
0.0
 11
6970.192536380621
 21
-1661.811973019707
 31
0.0
  0
LINE
  5
6F78
330
1F
100
AcDbEntity
  8
SPOJOVACÍ
  6
Continuous
100
AcDbLine
 39
2500.000155029299
 10
6970.192536380621
 20
-1661.811973019707
 30
0.0
 11
6970.192536380621
 21
-1656.861403027091
 31
0.0
  0
LINE
  5
6F79
330
1F
100
AcDbEntity
  8
SPOJOVACÍ
  6
Continuous
100
AcDbLine
 39
2500.000155029299
 10
6968.617329690444
 20
-1661.811973019707
 30
0.0
 11
6968.617329690444
 21
-1662.937098159586
 31
0.0
  0
LINE
  5
6F7A
330
1F
100
AcDbEntity
  8
SPOJOVACÍ
  6
Continuous
100
AcDbLine
 39
2500.000155029299
 10
6967.353671341682
 20
-1661.601714532975
 30
0.0
 11
6965.853678088008
 21
-1660.10170916847
 31
0.0
  0
LINE
  5
6F7B
330
1F
100
AcDbEntity
  8
SPOJOVACÍ
  6
Continuous
100
AcDbLine
 39
2500.000155029299
 10
6968.353670879863
 20
-1661.601714532975
 30
0.0
 11
6969.85367624073
 21
-1660.10170916847
 31
0.0
  0
LINE
  5
6F7C
330
1F
100
AcDbEntity
  8
SPOJOVACÍ
  6
Continuous
100
AcDbLine
 39
2500.000155029299
 10
6968.617329690444
 20
-1662.937098159586
 30
0.0
 11
6971.055129088184
 21
-1662.937098159586
 31
0.0
  0
LINE
  5
6F7D
330
1F
100
AcDbEntity
  8
SPOJOVACÍ
  6
Continuous
100
AcDbLine
 39
2500.000155029299
 10
6965.516453030416
 20
-1656.861403027091
 30
0.0
 11
6966.942431903574
 21
-1656.479352697301
 31
0.0
  0
LINE
  5
6F7E
330
1F
100
AcDbEntity
  8
SPOJOVACÍ
  6
Continuous
100
AcDbLine
 39
2500.000155029299
 10
6966.942431903574
 20
-1656.479352697301
 30
0.0
 11
6967.854488644646
 21
-1656.479352697301
 31
0.0
  0
LINE
  5
6F7F
330
1F
100
AcDbEntity
  8
SPOJOVACÍ
  6
Continuous
100
AcDbLine
 39
2500.000155029299
 10
6970.192536380621
 20
-1656.861403027091
 30
0.0
 11
6968.766545392994
 21
-1656.479352697301
 31
0.0
  0
LINE
  5
6F80
330
1F
100
AcDbEntity
  8
SPOJOVACÍ
  6
Continuous
100
AcDbLine
 39
2500.000155029299
 10
6968.766545392994
 20
-1656.479352697301
 30
0.0
 11
6967.854488644646
 21
-1656.479352697301
 31
0.0
  0
LINE
  5
6F81
330
1F
100
AcDbEntity
  8
SPOJOVACÍ
  6
Continuous
100
AcDbLine
 39
2500.000155029299
 10
6965.853678088008
 20
-1660.10170916847
 30
0.0
 11
6965.853678088008
 21
-1658.601703804874
 31
0.0
  0
LINE
  5
6F82
330
1F
100
AcDbEntity
  8
SPOJOVACÍ
  6
Continuous
100
AcDbLine
 39
2500.000155029299
 10
6965.853678088008
 20
-1658.601703804874
 30
0.0
 11
6965.853678088008
 21
-1657.101698440369
 31
0.0
  0
LINE
  5
6F83
330
1F
100
AcDbEntity
  8
SPOJOVACÍ
  6
Continuous
100
AcDbLine
 39
2500.000155029299
 10
6969.85367624073
 20
-1660.10170916847
 30
0.0
 11
6969.85367624073
 21
-1657.101698440369
 31
0.0
  0
LINE
  5
6F84
330
1F
100
AcDbEntity
  8
SPOJOVACÍ
  6
Continuous
100
AcDbLine
 39
2500.000155029299
 10
6969.85367624073
 20
-1657.101698440369
 30
0.0
 11
6965.853678088008
 21
-1657.101698440369
 31
0.0
  0
LINE
  5
6F85
330
1F
100
AcDbEntity
  8
SPOJOVACÍ
  6
Continuous
100
AcDbLine
 39
2500.000155029299
 10
6966.466818968895
 20
-1657.686449578745
 30
0.0
 11
6966.466818968895
 21
-1659.974294463195
 31
0.0
  0
LINE
  5
6F86
330
1F
100
AcDbEntity
  8
SPOJOVACÍ
  6
Continuous
100
AcDbLine
 39
2500.000155029299
 10
6969.232783896571
 20
-1660.002393523923
 30
0.0
 11
6969.232783896571
 21
-1657.686449578745
 31
0.0
  0
LINE
  5
6F87
330
1F
100
AcDbEntity
  8
SPOJOVACÍ
  6
Continuous
100
AcDbLine
 39
2500.000155029299
 10
6969.232783896571
 20
-1657.686449578745
 30
0.0
 11
6966.466818968895
 21
-1657.686449578745
 31
0.0
  0
LINE
  5
6F88
330
1F
100
AcDbEntity
  8
SPOJOVACÍ
  6
Continuous
100
AcDbLine
 39
2500.000155029299
 10
6968.342055795786
 20
-1660.893133741905
 30
0.0
 11
6969.232783896571
 21
-1660.002393523923
 31
0.0
  0
LINE
  5
6F89
330
1F
100
AcDbEntity
  8
0
  6
Continuous
 62
     5
100
AcDbLine
 39
2500.000155029299
 10
6980.888664139091
 20
-1691.170504466697
 30
0.0
 11
6975.710782117952
 21
-1664.042614704152
 31
0.0
  0
LINE
  5
6F8A
330
1F
100
AcDbEntity
  8
0
  6
Continuous
 62
     5
100
AcDbLine
 39
2500.000155029299
 10
6954.507587132932
 20
-1691.109273314931
 30
0.0
 11
6959.79592257749
 21
-1664.084507588199
 31
0.0
  0
LINE
  5
6F8B
330
1F
100
AcDbEntity
  8
0
  6
Continuous
 62
     5
100
AcDbLine
 39
2500.000155029299
 10
6967.634546511027
 20
-1718.532576168622
 30
0.0
 11
6975.323021963602
 21
-1718.550421316005
 31
0.0
  0
LINE
  5
6F8C
330
1F
100
AcDbEntity
  8
0
  6
Continuous
 62
     5
100
AcDbLine
 39
2500.000155029299
 10
6967.634546511027
 20
-1718.532576168622
 30
0.0
 11
6959.946071058467
 21
-1718.514731021239
 31
0.0
  0
LINE
  5
6F8D
330
1F
100
AcDbEntity
  8
0
  6
Continuous
 62
     5
100
AcDbLine
 39
2500.000155029299
 10
6995.629786721117
 20
-1695.157098365349
 30
0.0
 11
6987.083720947571
 21
-1709.880274397263
 31
0.0
  0
LINE
  5
6F90
330
1F
100
AcDbEntity
  8
NOSNÉ KONSTRUKCE
100
AcDbLine
 39
2500.000155029299
 10
6997.07962287453
 20
-1715.850020833711
 30
0.0
 11
6998.665410315043
 21
-1714.264286978488
 31
0.0
  0
LINE
  5
6F91
330
1F
100
AcDbEntity
  8
NOSNÉ KONSTRUKCE
100
AcDbLine
 39
2500.000155029299
 10
6998.665395142357
 20
-1717.43576986199
 30
0.0
 11
6997.07962287453
 21
-1715.850020833711
 31
0.0
  0
LINE
  5
6F94
330
1F
100
AcDbEntity
  8
NOSNÉ KONSTRUKCE
100
AcDbLine
 39
2500.000155029299
 10
6998.665395142357
 20
-1717.43576986199
 30
0.0
 11
6998.665369240093
 21
-1722.85001160989
 31
0.0
  0
LINE
  5
6F95
330
1F
100
AcDbEntity
  8
NOSNÉ KONSTRUKCE
100
AcDbLine
 39
2500.000155029299
 10
6998.665369240093
 20
-1722.85001160989
 30
0.0
 11
6986.251225889091
 21
-1722.849952219427
 31
0.0
  0
LINE
  5
6F96
330
1F
100
AcDbEntity
  8
0
  6
Continuous
 62
     5
100
AcDbLine
 39
2500.000155029299
 10
6939.748117503317
 20
-1695.027395587556
 30
0.0
 11
6948.225745834249
 21
-1709.790084047151
 31
0.0
  0
LINE
  5
6F9F
330
1F
100
AcDbEntity
  8
SPOJOVACÍ
  6
Continuous
100
AcDbLine
 10
6949.912872161949
 20
-1730.047099519516
 30
0.0
 11
6949.912872161949
 21
-1726.009206389836
 31
0.0
  0
LINE
  5
6FA0
330
1F
100
AcDbEntity
  8
SPOJOVACÍ
  6
Continuous
100
AcDbLine
 10
6952.612242324684
 20
-1730.047099519516
 30
0.0
 11
6952.612242324684
 21
-1725.104145340587
 31
0.0
  0
INSERT
  5
6FA1
330
1F
100
AcDbEntity
  8
POPIS
100
AcDbBlockReference
  2
E_PUNKT
 10
6950.143935690509
 20
-1736.675765121476
 30
0.0
  0
LINE
  5
6FA2
330
1F
100
AcDbEntity
  8
SPOJOVACÍ
  6
Continuous
100
AcDbLine
 10
6947.512088436051
 20
-1734.702629377398
 30
0.0
 11
6948.622718336409
 21
-1733.633857387986
 31
0.0
  0
LINE
  5
6FA3
330
1F
100
AcDbEntity
  8
SPOJOVACÍ
  6
Continuous
100
AcDbLine
 10
6946.1624033525
 20
-1735.446770013872
 30
0.0
 11
6956.362711129767
 21
-1735.446770013872
 31
0.0
  0
LINE
  5
6FA4
330
1F
100
AcDbEntity
  8
SPOJOVACÍ
  6
Continuous
100
AcDbLine
 10
6946.1624033525
 20
-1736.646696790604
 30
0.0
 11
6956.362711129767
 21
-1736.646696790604
 31
0.0
  0
LINE
  5
6FA5
330
1F
100
AcDbEntity
  8
SPOJOVACÍ
  6
Continuous
100
AcDbLine
 10
6946.1624033525
 20
-1735.446770013872
 30
0.0
 11
6947.512088436051
 21
-1734.702629377398
 31
0.0
  0
LINE
  5
6FA6
330
1F
100
AcDbEntity
  8
SPOJOVACÍ
  6
Continuous
100
AcDbLine
 10
6946.1624033525
 20
-1736.646696790604
 30
0.0
 11
6946.1624033525
 21
-1735.446770013872
 31
0.0
  0
LINE
  5
6FB7
330
1F
100
AcDbEntity
  8
SPOJOVACÍ
  6
Continuous
100
AcDbLine
 10
6948.622718336409
 20
-1733.633857387986
 30
0.0
 11
6949.418948815727
 21
-1732.314868109688
 31
0.0
  0
LINE
  5
6FB8
330
1F
100
AcDbEntity
  8
SPOJOVACÍ
  6
Continuous
100
AcDbLine
 10
6949.418948815727
 20
-1732.314868109688
 30
0.0
 11
6949.846829680026
 21
-1730.834028242638
 31
0.0
  0
LINE
  5
6FB9
330
1F
100
AcDbEntity
  8
SPOJOVACÍ
  6
Continuous
100
AcDbLine
 10
6949.846829680026
 20
-1730.834028242638
 30
0.0
 11
6949.912872161949
 21
-1730.047099519516
 31
0.0
  0
LINE
  5
6FBA
330
1F
100
AcDbEntity
  8
SPOJOVACÍ
  6
Continuous
100
AcDbLine
 10
6954.4102721347
 20
-1734.191962865547
 30
0.0
 11
6955.6474059436
 21
-1735.110046375989
 31
0.0
  0
LINE
  5
6FBB
330
1F
100
AcDbEntity
  8
SPOJOVACÍ
  6
Continuous
100
AcDbLine
 10
6955.6474059436
 20
-1735.110046375989
 30
0.0
 11
6956.362711129767
 21
-1735.446770013872
 31
0.0
  0
LINE
  5
6FBC
330
1F
100
AcDbEntity
  8
SPOJOVACÍ
  6
Continuous
100
AcDbLine
 10
6956.362711129767
 20
-1736.646696790604
 30
0.0
 11
6956.362711129767
 21
-1735.446770013872
 31
0.0
  0
LINE
  5
6FBD
330
1F
100
AcDbEntity
  8
SPOJOVACÍ
  6
Continuous
100
AcDbLine
 10
6952.612242324684
 20
-1730.047099519516
 30
0.0
 11
6952.839205215568
 21
-1731.570727472945
 31
0.0
  0
LINE
  5
6FBE
330
1F
100
AcDbEntity
  8
SPOJOVACÍ
  6
Continuous
100
AcDbLine
 10
6952.839205215568
 20
-1731.570727472945
 30
0.0
 11
6953.452191064716
 21
-1732.984594682648
 31
0.0
  0
LINE
  5
6FBF
330
1F
100
AcDbEntity
  8
SPOJOVACÍ
  6
Continuous
100
AcDbLine
 10
6953.452191064716
 20
-1732.984594682648
 30
0.0
 11
6954.4102721347
 21
-1734.191962865547
 31
0.0
  0
HATCH
  5
6FC0
330
1F
100
AcDbEntity
  8
NOSNÉ KONSTRUKCE
100
AcDbHatch
 10
0.0
 20
0.0
 30
0.0
210
0.0
220
0.0
230
1.0
  2
SOLID
 70
     1
 71
     0
 91
        1
 92
        7
 72
     0
 73
     1
 93
       68
 10
6998.665466903599
 20
-1702.435811887825
 10
6997.079694635786
 20
-1700.850062859552
 10
6998.665482076299
 20
-1699.264329004348
 10
6998.66550797854
 20
-1693.850087256428
 10
6994.665516383719
 20
-1693.85006812008
 10
6994.665511599632
 20
-1694.850068120071
 10
6997.66550319446
 20
-1694.85008247232
 10
6997.665484057979
 20
-1698.850103562998
 10
6995.66546394462
 20
-1700.850056093739
 10
6997.665464921948
 20
-1702.850027760972
 10
6997.665445785459
 20
-1706.850048851644
 10
6995.665428064007
 20
-1708.350035080825
 10
6997.665431433211
 20
-1709.850040446487
 10
6997.665412296722
 20
-1713.850061537156
 10
6995.66539218337
 20
-1715.850014067894
 10
6997.665393160699
 20
-1717.849985735132
 10
6997.66537402421
 20
-1721.850006825806
 10
6986.665437140726
 20
-1721.849954201041
 10
6984.665436163391
 20
-1719.84998253381
 10
6980.665463519057
 20
-1719.849963397552
 10
6978.665443405713
 20
-1721.849915928296
 10
6967.665506522222
 20
-1721.849863303536
 10
6956.665569638722
 20
-1721.849810678771
 10
6954.665568661401
 20
-1719.84983901154
 10
6950.665596017074
 20
-1719.84981987528
 10
6948.665575903723
 20
-1721.849772406027
 10
6937.665639020226
 20
-1721.849719781264
 10
6937.665658156721
 20
-1717.849698690591
 10
6939.665678270059
 20
-1715.849746159844
 10
6937.665677292738
 20
-1713.84977449261
 10
6937.66569642922
 20
-1709.849753401936
 10
6939.665714150693
 20
-1708.349767172767
 10
6937.665710781475
 20
-1706.849761807098
 10
6937.665729917964
 20
-1702.849740716428
 10
6939.665750031315
 20
-1700.849788185691
 10
6937.665749053994
 20
-1698.849816518443
 10
6937.665768190469
 20
-1694.84979542778
 10
6940.665501443581
 20
-1694.849809778792
 10
6940.665496660724
 20
-1693.850068120081
 10
6936.665505065895
 20
-1693.850087256428
 10
6936.665530968136
 20
-1699.264329004337
 10
6938.251318408656
 20
-1700.850062859558
 10
6936.665546140837
 20
-1702.435811887826
 10
6936.665569651063
 20
-1707.350056058058
 10
6937.998909701083
 20
-1708.350043054356
 10
6936.665579219173
 20
-1709.350042808273
 10
6936.6656027294
 20
-1714.264286978492
 10
6938.251390169913
 20
-1715.850020833711
 10
6936.665617902086
 20
-1717.43576986199
 10
6936.665619882339
 20
-1717.849693906677
 10
6936.665658156735
 20
-1717.849693906494
 10
6936.665639020239
 20
-1721.849714997165
 10
6936.665643804349
 20
-1722.85001160989
 10
6949.079787155344
 20
-1722.849952219426
 10
6951.07978813268
 20
-1720.849980552193
 10
6954.25134784195
 20
-1720.849965379145
 10
6956.251258738389
 20
-1722.849808696681
 10
6979.079645089149
 20
-1722.84991790989
 10
6981.079665202516
 20
-1720.849965379144
 10
6984.25122491177
 20
-1720.849980552193
 10
6986.251225889091
 20
-1722.849952219427
 10
6998.665369240093
 20
-1722.85001160989
 10
6998.665395142357
 20
-1717.435769861997
 10
6997.07962287453
 20
-1715.850020833708
 10
6998.66541031505
 20
-1714.264286978485
 10
6998.665433825269
 20
-1709.350042808273
 10
6997.332103343359
 20
-1708.350043054361
 10
6998.665443393379
 20
-1707.350056058062
 97
        0
 75
     0
 76
     1
 47
0.131671459398827
 98
        1
 10
6997.985091221322
 20
-1704.566893640424
  0
LINE
  5
6FC1
330
1F
100
AcDbEntity
  8
SPOJOVACÍ
  6
Continuous
100
AcDbLine
 10
6946.015193302969
 20
-1723.104267379817
 30
0.0
 11
6950.059597662562
 21
-1721.745280541976
 31
0.0
  0
LINE
  5
6FC2
330
1F
100
AcDbEntity
  8
SPOJOVACÍ
  6
Continuous
100
AcDbLine
 10
6945.637541927658
 20
-1722.726616006688
 30
0.0
 11
6950.437249033507
 21
-1721.52668922995
 31
0.0
  0
ELLIPSE
  5
6FC3
330
1F
100
AcDbEntity
  8
0
  6
Continuous
 62
     5
100
AcDbEllipse
 10
6944.835772702752
 20
-1684.434413448252
 30
0.0
 11
-8.328126825200973
 21
8.290887511252666
 31
0.0
210
0.0
220
0.0
230
0.9999999999999998
 40
0.9999999999998793
 41
1.906198148749068
 42
3.32067358973028
  0
ELLIPSE
  5
6FC4
330
1F
100
AcDbEntity
  8
0
  6
Continuous
 62
     5
100
AcDbEllipse
 10
6961.873192597849
 20
-1703.691313617751
 30
0.0
 11
-10.59362376809057
 21
10.54625425876028
 31
0.0
210
0.0
220
0.0
230
1.0
 40
0.9999999999996093
 41
1.20341384889878
 42
2.224678640387655
  0
ELLIPSE
  5
6FC5
330
1F
100
AcDbEntity
  8
0
  6
Continuous
 62
     5
100
AcDbEllipse
 10
6972.630276978728
 20
-1676.169676385086
 30
0.0
 11
-2.384729066000502
 21
2.374065722822092
 31
0.0
210
0.0
220
0.0
230
0.9999999999999998
 40
1.0
 41
3.922429033933493
 42
10.20561434111308
  0
ELLIPSE
  5
6FC6
330
1F
100
AcDbEntity
  8
0
  6
Continuous
 62
     5
100
AcDbEllipse
 10
6962.835519548381
 20
-1676.146942503576
 30
0.0
 11
2.3740657228247
 21
2.384729066003123
 31
0.0
210
0.0
220
0.0
230
1.0
 40
1.0
 41
5.493225360726194
 42
11.77641066790578
  0
HATCH
  5
6FC7
330
1F
100
AcDbEntity
  8
SPOJOVACÍ
100
AcDbHatch
 10
0.0
 20
0.0
 30
0.0
210
0.0
220
0.0
230
1.0
  2
SOLID
 70
     1
 71
     0
 91
        1
 92
        7
 72
     0
 73
     1
 93
        5
 10
6975.718778184469
 20
-1664.084507588187
 10
6975.718778184469
 20
-1663.084507588187
 10
6959.79592257749
 20
-1663.084507588187
 10
6959.79592257749
 20
-1664.084507588187
 10
6962.699609386523
 20
-1664.084507588186
 97
        0
 75
     0
 76
     1
 47
0.1352714281630532
 98
        1
 10
6968.775800602248
 20
-1663.739422246157
  0
LINE
  5
6FC8
330
1F
100
AcDbEntity
  8
SPOJOVACÍ
100
AcDbLine
 10
6972.815091375443
 20
-1664.084507588187
 30
0.0
 11
6972.815091375458
 21
-1666.470685285225
 31
0.0
  0
LINE
  5
6FC9
330
1F
100
AcDbEntity
  8
SPOJOVACÍ
100
AcDbLine
 10
6971.502386432097
 20
-1664.084507588187
 30
0.0
 11
6971.502386432104
 21
-1666.470685285226
 31
0.0
  0
LINE
  5
6FCA
330
1F
100
AcDbEntity
  8
SPOJOVACÍ
100
AcDbLine
 10
6971.502386432104
 20
-1666.470685285226
 30
0.0
 11
6972.815091375458
 21
-1666.470685285225
 31
0.0
  0
LINE
  5
6FCB
330
1F
100
AcDbEntity
  8
SPOJOVACÍ
100
AcDbLine
 10
6975.718778184469
 20
-1664.084507588187
 30
0.0
 11
6972.815091375434
 21
-1664.084507588188
 31
0.0
  0
LINE
  5
6FCC
330
1F
100
AcDbEntity
  8
SPOJOVACÍ
100
AcDbLine
 10
6959.79592257749
 20
-1664.084507588187
 30
0.0
 11
6959.79592257749
 21
-1663.084507588187
 31
0.0
  0
LINE
  5
6FCD
330
1F
100
AcDbEntity
  8
SPOJOVACÍ
100
AcDbLine
 10
6959.79592257749
 20
-1663.084507588187
 30
0.0
 11
6975.718778184469
 21
-1663.084507588187
 31
0.0
  0
LINE
  5
6FCE
330
1F
100
AcDbEntity
  8
SPOJOVACÍ
100
AcDbLine
 10
6975.718778184469
 20
-1664.084507588187
 30
0.0
 11
6975.718778184469
 21
-1663.084507588187
 31
0.0
  0
LINE
  5
6FCF
330
1F
100
AcDbEntity
  8
SPOJOVACÍ
100
AcDbLine
 10
6971.502386432089
 20
-1664.084507588188
 30
0.0
 11
6964.01231432987
 21
-1664.084507588187
 31
0.0
  0
LINE
  5
6FD0
330
1F
100
AcDbEntity
  8
SPOJOVACÍ
100
AcDbLine
 10
6964.012314329862
 20
-1666.470685285226
 30
0.0
 11
6962.699609386509
 21
-1666.470685285225
 31
0.0
  0
LINE
  5
6FD1
330
1F
100
AcDbEntity
  8
SPOJOVACÍ
100
AcDbLine
 10
6964.01231432987
 20
-1664.084507588187
 30
0.0
 11
6964.012314329862
 21
-1666.470685285226
 31
0.0
  0
LINE
  5
6FD2
330
1F
100
AcDbEntity
  8
SPOJOVACÍ
100
AcDbLine
 10
6962.699609386523
 20
-1664.084507588187
 30
0.0
 11
6962.699609386509
 21
-1666.470685285225
 31
0.0
  0
LINE
  5
6FD3
330
1F
100
AcDbEntity
  8
SPOJOVACÍ
100
AcDbLine
 10
6962.699609386523
 20
-1664.084507588186
 30
0.0
 11
6959.79592257749
 21
-1664.084507588187
 31
0.0
  0
ELLIPSE
  5
6FD4
330
1F
100
AcDbEntity
  8
0
  6
Continuous
 62
     5
100
AcDbEllipse
 10
6972.630276978728
 20
-1676.169676385086
 30
0.0
 11
-0.9673501410155818
 21
0.9630246238428355
 31
0.0
210
0.0
220
0.0
230
0.9999999999999998
 40
0.9999999999983106
 41
3.922429033933493
 42
10.20561434111308
  0
ELLIPSE
  5
6FD5
330
1F
100
AcDbEntity
  8
0
  6
Continuous
 62
     5
100
AcDbEllipse
 10
6962.835519548381
 20
-1676.146942503576
 30
0.0
 11
0.9630246238454439
 21
0.9673501410182019
 31
0.0
210
0.0
220
0.0
230
1.0
 40
0.9999999999979166
 41
5.493225360726194
 42
11.77641066790578
  0
ELLIPSE
  5
6FD6
330
1F
100
AcDbEntity
  8
0
  6
Continuous
 62
     5
100
AcDbEllipse
 10
6967.806610274543
 20
-1684.778700279021
 30
0.0
 11
-1.196078904435772
 21
1.19073062399239
 31
0.0
210
0.0
220
0.0
230
1.0
 40
0.9999999999976683
 41
3.922429033933691
 42
10.20561434111327
  0
ELLIPSE
  5
6FE9
330
1F
100
AcDbEntity
  8
0
  6
Continuous
 62
     5
100
AcDbEllipse
 10
6972.81599722508
 20
-1687.743832334305
 30
0.0
 11
1.075850586657832
 21
1.08068287242985
 31
0.0
210
0.0
220
0.0
230
0.9999999999999998
 40
0.9999999999991741
 41
5.493225360727149
 42
11.77641066790673
  0
ELLIPSE
  5
6FEA
330
1F
100
AcDbEntity
  8
0
  6
Continuous
 62
     5
100
AcDbEllipse
 10
6962.596073770858
 20
-1687.720111631624
 30
0.0
 11
1.075850586658019
 21
1.080682872430037
 31
0.0
210
0.0
220
0.0
230
1.0
 40
0.9999999999991253
 41
5.493225360727124
 42
11.7764106679067
  0
ELLIPSE
  5
6FEB
330
1F
100
AcDbEntity
  8
0
  6
Continuous
 62
     5
100
AcDbEllipse
 10
6967.575984534007
 20
-1703.343137497262
 30
0.0
 11
1.323007442173111
 21
1.328949856592335
 31
0.0
210
0.0
220
0.0
230
1.0
 40
0.9999999999993949
 41
5.493225360727258
 42
11.77641066790684
  0
ELLIPSE
  5
6FEC
330
1F
100
AcDbEntity
  8
0
  6
Continuous
 62
     5
100
AcDbEllipse
 10
6980.09239002488
 20
-1703.195067226762
 30
0.0
 11
-1.343740118828259
 21
1.337731569583
 31
0.0
210
0.0
220
0.0
230
1.0
 40
0.9999999999972772
 41
3.922429033933861
 42
10.20561434111344
  0
ELLIPSE
  5
6FED
330
1F
100
AcDbEntity
  8
0
  6
Continuous
 62
     5
100
AcDbEllipse
 10
6973.257243191103
 20
-1706.490632100233
 30
0.0
 11
1.247360168101651
 21
1.25296280555675
 31
0.0
210
0.0
220
0.0
230
1.0
 40
0.9999999999987551
 41
5.493225360726738
 42
11.77641066790632
  0
ELLIPSE
  5
6FEE
330
1F
100
AcDbEntity
  8
0
  6
Continuous
 62
     5
100
AcDbEllipse
 10
6973.161908022032
 20
-1700.308804599644
 30
0.0
 11
-1.26860295799743
 21
1.262930385422567
 31
0.0
210
0.0
220
0.0
230
1.0
 40
0.9999999999988279
 41
3.922429033933234
 42
10.20561434111282
  0
ELLIPSE
  5
6FEF
330
1F
100
AcDbEntity
  8
0
  6
Continuous
 62
     5
100
AcDbEllipse
 10
6972.864624691457
 20
-1693.844354741582
 30
0.0
 11
1.132793559214581
 21
1.137881609792152
 31
0.0
210
0.0
220
0.0
230
0.9999999999999998
 40
0.9999999999972118
 41
5.493225360726132
 42
11.77641066790571
  0
ELLIPSE
  5
6FF0
330
1F
100
AcDbEntity
  8
0
  6
Continuous
 62
     5
100
AcDbEllipse
 10
6962.067809428116
 20
-1706.464661139427
 30
0.0
 11
-1.252962805555153
 21
1.247360168100062
 31
0.0
210
0.0
220
0.0
230
0.9999999999999998
 40
0.9999999999974434
 41
3.92242903393398
 42
10.20561434111356
  0
ELLIPSE
  5
6FF1
330
1F
100
AcDbEntity
  8
0
  6
Continuous
 62
     5
100
AcDbEllipse
 10
6962.191839773651
 20
-1700.283342791785
 30
0.0
 11
-1.268602957997952
 21
1.262930385423086
 31
0.0
210
0.0
220
0.0
230
0.9999999999999998
 40
0.9999999999980069
 41
3.922429033933645
 42
10.20561434111323
  0
ELLIPSE
  5
6FF2
330
1F
100
AcDbEntity
  8
0
  6
Continuous
 62
     5
100
AcDbEllipse
 10
6962.519128045139
 20
-1693.820342580323
 30
0.0
 11
1.132793559214039
 21
1.137881609791608
 31
0.0
210
0.0
220
0.0
230
1.0
 40
0.9999999999981909
 41
5.493225360726338
 42
11.77641066790592
  0
ELLIPSE
  5
6FF3
330
1F
100
AcDbEntity
  8
0
  6
Continuous
 62
     5
100
AcDbEllipse
 10
6973.464731875662
 20
-1703.718217875699
 30
0.0
 11
10.54625425876375
 21
10.59362376809405
 31
0.0
210
0.0
220
0.0
230
0.9999999999999998
 40
0.9999999999991391
 41
4.049383601369564
 42
5.070649108113864
  0
ELLIPSE
  5
6FF4
330
1F
100
AcDbEntity
  8
0
  6
Continuous
 62
     5
100
AcDbEllipse
 10
6990.591359235287
 20
-1684.540613330179
 30
0.0
 11
8.290887511251945
 21
8.328126825200246
 31
0.0
210
0.0
220
0.0
230
1.0
 40
0.9999999999998006
 41
2.953388652026887
 42
4.367863616170676
  0
LINE
  5
702D
330
1F
100
AcDbEntity
  8
SPOJOVACÍ
  6
Continuous
100
AcDbLine
 10
6952.612242324684
 20
-1721.385302509088
 30
0.0
 11
6952.612242324684
 21
-1718.857084696219
 31
0.0
  0
LINE
  5
702E
330
1F
100
AcDbEntity
  8
SPOJOVACÍ
  6
Continuous
100
AcDbLine
 10
6949.912872161949
 20
-1722.291293734315
 30
0.0
 11
6949.912872161949
 21
-1719.770517327606
 31
0.0
  0
LINE
  5
702F
330
1F
100
AcDbEntity
  8
SPOJOVACÍ
  6
Continuous
100
AcDbLine
 10
6949.24035506352
 20
-1723.104267379817
 30
0.0
 11
6953.284759423112
 21
-1721.745280541976
 31
0.0
  0
LINE
  5
7030
330
1F
100
AcDbEntity
  8
SPOJOVACÍ
  6
Continuous
100
AcDbLine
 10
6949.24035506352
 20
-1722.508024694662
 30
0.0
 11
6953.284759423112
 21
-1721.149037857098
 31
0.0
  0
LINE
  5
7031
330
1F
100
AcDbEntity
  8
SPOJOVACÍ
  6
Continuous
100
AcDbLine
 10
6953.662410794058
 20
-1721.52668922995
 30
0.0
 11
6953.284759423112
 21
-1721.745280541976
 31
0.0
  0
LINE
  5
7032
330
1F
100
AcDbEntity
  8
SPOJOVACÍ
  6
Continuous
100
AcDbLine
 10
6953.662410794058
 20
-1721.52668922995
 30
0.0
 11
6953.284759423112
 21
-1721.149037857098
 31
0.0
  0
LINE
  5
7033
330
1F
100
AcDbEntity
  8
SPOJOVACÍ
  6
Continuous
100
AcDbLine
 10
6948.86270368821
 20
-1722.726616006688
 30
0.0
 11
6949.24035506352
 21
-1723.104267379817
 31
0.0
  0
LINE
  5
7034
330
1F
100
AcDbEntity
  8
SPOJOVACÍ
  6
Continuous
100
AcDbLine
 10
6948.86270368821
 20
-1722.726616006688
 30
0.0
 11
6949.24035506352
 21
-1722.508024694662
 31
0.0
  0
LINE
  5
7035
330
1F
100
AcDbEntity
  8
SPOJOVACÍ
  6
Continuous
100
AcDbLine
 10
6948.86270368821
 20
-1722.726616006688
 30
0.0
 11
6953.662410794058
 21
-1721.52668922995
 31
0.0
  0
LINE
  5
7036
330
1F
100
AcDbEntity
  8
SPOJOVACÍ
  6
Continuous
100
AcDbLine
 10
6949.24035506352
 20
-1726.22500717448
 30
0.0
 11
6953.284759423112
 21
-1724.865090161215
 31
0.0
  0
LINE
  5
7037
330
1F
100
AcDbEntity
  8
SPOJOVACÍ
  6
Continuous
100
AcDbLine
 10
6949.24035506352
 20
-1725.628764489602
 30
0.0
 11
6953.284759423112
 21
-1724.26884747606
 31
0.0
  0
LINE
  5
7038
330
1F
100
AcDbEntity
  8
SPOJOVACÍ
  6
Continuous
100
AcDbLine
 10
6953.662410794058
 20
-1724.646498849188
 30
0.0
 11
6953.284759423112
 21
-1724.865090161215
 31
0.0
  0
LINE
  5
7039
330
1F
100
AcDbEntity
  8
SPOJOVACÍ
  6
Continuous
100
AcDbLine
 10
6953.662410794058
 20
-1724.646498849188
 30
0.0
 11
6953.284759423112
 21
-1724.26884747606
 31
0.0
  0
LINE
  5
703A
330
1F
100
AcDbEntity
  8
SPOJOVACÍ
  6
Continuous
100
AcDbLine
 10
6948.86270368821
 20
-1725.84642562565
 30
0.0
 11
6949.24035506352
 21
-1726.22500717448
 31
0.0
  0
LINE
  5
703B
330
1F
100
AcDbEntity
  8
SPOJOVACÍ
  6
Continuous
100
AcDbLine
 10
6948.86270368821
 20
-1725.84642562565
 30
0.0
 11
6949.24035506352
 21
-1725.628764489602
 31
0.0
  0
LINE
  5
703C
330
1F
100
AcDbEntity
  8
SPOJOVACÍ
  6
Continuous
100
AcDbLine
 10
6948.86270368821
 20
-1725.84642562565
 30
0.0
 11
6953.662410794058
 21
-1724.646498849188
 31
0.0
  0
LINE
  5
703D
330
1F
100
AcDbEntity
  8
SPOJOVACÍ
  6
Continuous
100
AcDbLine
 10
6952.612242324684
 20
-1724.500461249272
 30
0.0
 11
6952.612242324684
 21
-1721.981545194243
 31
0.0
  0
LINE
  5
703E
330
1F
100
AcDbEntity
  8
SPOJOVACÍ
  6
Continuous
100
AcDbLine
 10
6949.912872161949
 20
-1725.413893880659
 30
0.0
 11
6949.912872161949
 21
-1722.89497782563
 31
0.0
  0
LINE
  5
703F
330
1F
100
AcDbEntity
  8
SPOJOVACÍ
  6
Continuous
100
AcDbLine
 10
6949.24035506352
 20
-1713.744838522647
 30
0.0
 11
6953.284759423112
 21
-1712.384921509105
 31
0.0
  0
LINE
  5
7040
330
1F
100
AcDbEntity
  8
SPOJOVACÍ
  6
Continuous
100
AcDbLine
 10
6949.24035506352
 20
-1713.148595837492
 30
0.0
 11
6953.284759423112
 21
-1711.78867882395
 31
0.0
  0
LINE
  5
7041
330
1F
100
AcDbEntity
  8
SPOJOVACÍ
  6
Continuous
100
AcDbLine
 10
6953.662410794058
 20
-1712.166330197078
 30
0.0
 11
6953.284759423112
 21
-1712.384921509105
 31
0.0
  0
LINE
  5
7042
330
1F
100
AcDbEntity
  8
SPOJOVACÍ
  6
Continuous
100
AcDbLine
 10
6953.662410794058
 20
-1712.166330197078
 30
0.0
 11
6953.284759423112
 21
-1711.78867882395
 31
0.0
  0
LINE
  5
7043
330
1F
100
AcDbEntity
  8
SPOJOVACÍ
  6
Continuous
100
AcDbLine
 10
6948.86270368821
 20
-1713.366256973541
 30
0.0
 11
6949.24035506352
 21
-1713.744838522647
 31
0.0
  0
LINE
  5
7044
330
1F
100
AcDbEntity
  8
SPOJOVACÍ
  6
Continuous
100
AcDbLine
 10
6948.86270368821
 20
-1713.366256973541
 30
0.0
 11
6949.24035506352
 21
-1713.148595837492
 31
0.0
  0
LINE
  5
7045
330
1F
100
AcDbEntity
  8
SPOJOVACÍ
  6
Continuous
100
AcDbLine
 10
6948.86270368821
 20
-1713.366256973541
 30
0.0
 11
6953.662410794058
 21
-1712.166330197078
 31
0.0
  0
LINE
  5
7046
330
1F
100
AcDbEntity
  8
SPOJOVACÍ
  6
Continuous
100
AcDbLine
 10
6949.24035506352
 20
-1716.864648141609
 30
0.0
 11
6953.284759423112
 21
-1715.504731128067
 31
0.0
  0
LINE
  5
7047
330
1F
100
AcDbEntity
  8
SPOJOVACÍ
  6
Continuous
100
AcDbLine
 10
6949.24035506352
 20
-1716.268405456462
 30
0.0
 11
6953.284759423112
 21
-1714.908488443189
 31
0.0
  0
LINE
  5
7048
330
1F
100
AcDbEntity
  8
SPOJOVACÍ
  6
Continuous
100
AcDbLine
 10
6953.662410794058
 20
-1715.287069992019
 30
0.0
 11
6953.284759423112
 21
-1715.504731128067
 31
0.0
  0
LINE
  5
7049
330
1F
100
AcDbEntity
  8
SPOJOVACÍ
  6
Continuous
100
AcDbLine
 10
6953.662410794058
 20
-1715.287069992019
 30
0.0
 11
6953.284759423112
 21
-1714.908488443189
 31
0.0
  0
LINE
  5
704A
330
1F
100
AcDbEntity
  8
SPOJOVACÍ
  6
Continuous
100
AcDbLine
 10
6948.86270368821
 20
-1716.486996768481
 30
0.0
 11
6949.24035506352
 21
-1716.864648141609
 31
0.0
  0
LINE
  5
704B
330
1F
100
AcDbEntity
  8
SPOJOVACÍ
  6
Continuous
100
AcDbLine
 10
6948.86270368821
 20
-1716.486996768481
 30
0.0
 11
6949.24035506352
 21
-1716.268405456462
 31
0.0
  0
LINE
  5
704C
330
1F
100
AcDbEntity
  8
SPOJOVACÍ
  6
Continuous
100
AcDbLine
 10
6948.86270368821
 20
-1716.486996768481
 30
0.0
 11
6953.662410794058
 21
-1715.287069992019
 31
0.0
  0
LINE
  5
704D
330
1F
100
AcDbEntity
  8
SPOJOVACÍ
  6
Continuous
100
AcDbLine
 10
6949.24035506352
 20
-1719.984457760578
 30
0.0
 11
6953.284759423112
 21
-1718.624540747305
 31
0.0
  0
LINE
  5
704E
330
1F
100
AcDbEntity
  8
SPOJOVACÍ
  6
Continuous
100
AcDbLine
 10
6949.24035506352
 20
-1719.388215075423
 30
0.0
 11
6953.284759423112
 21
-1718.028298062158
 31
0.0
  0
LINE
  5
704F
330
1F
100
AcDbEntity
  8
SPOJOVACÍ
  6
Continuous
100
AcDbLine
 10
6953.662410794058
 20
-1718.406879610988
 30
0.0
 11
6953.284759423112
 21
-1718.624540747305
 31
0.0
  0
LINE
  5
7050
330
1F
100
AcDbEntity
  8
SPOJOVACÍ
  6
Continuous
100
AcDbLine
 10
6953.662410794058
 20
-1718.406879610988
 30
0.0
 11
6953.284759423112
 21
-1718.028298062158
 31
0.0
  0
LINE
  5
7051
330
1F
100
AcDbEntity
  8
SPOJOVACÍ
  6
Continuous
100
AcDbLine
 10
6948.86270368821
 20
-1719.60680638745
 30
0.0
 11
6949.24035506352
 21
-1719.984457760578
 31
0.0
  0
LINE
  5
7052
330
1F
100
AcDbEntity
  8
SPOJOVACÍ
  6
Continuous
100
AcDbLine
 10
6948.86270368821
 20
-1719.60680638745
 30
0.0
 11
6949.24035506352
 21
-1719.388215075423
 31
0.0
  0
LINE
  5
7053
330
1F
100
AcDbEntity
  8
SPOJOVACÍ
  6
Continuous
100
AcDbLine
 10
6948.86270368821
 20
-1719.60680638745
 30
0.0
 11
6953.662410794058
 21
-1718.406879610988
 31
0.0
  0
LINE
  5
7054
330
1F
100
AcDbEntity
  8
SPOJOVACÍ
  6
Continuous
100
AcDbLine
 10
6950.245875099207
 20
-1704.260766108609
 30
0.0
 11
6952.400162240664
 21
-1703.950087392836
 31
0.0
  0
LINE
  5
7055
330
1F
100
AcDbEntity
  8
SPOJOVACÍ
  6
Continuous
100
AcDbLine
 10
6950.623526470153
 20
-1704.638417481738
 30
0.0
 11
6952.022510869719
 21
-1704.167748529153
 31
0.0
  0
LINE
  5
7056
330
1F
100
AcDbEntity
  8
SPOJOVACÍ
  6
Continuous
100
AcDbLine
 10
6950.623526470153
 20
-1704.04217479659
 30
0.0
 11
6952.022510869719
 21
-1703.571505844006
 31
0.0
  0
LINE
  5
7057
330
1F
100
AcDbEntity
  8
SPOJOVACÍ
  6
Continuous
100
AcDbLine
 10
6952.400162240664
 20
-1703.950087392836
 30
0.0
 11
6952.022510869719
 21
-1704.167748529153
 31
0.0
  0
LINE
  5
7058
330
1F
100
AcDbEntity
  8
SPOJOVACÍ
  6
Continuous
100
AcDbLine
 10
6952.400162240664
 20
-1703.950087392836
 30
0.0
 11
6952.022510869719
 21
-1703.571505844006
 31
0.0
  0
LINE
  5
7059
330
1F
100
AcDbEntity
  8
SPOJOVACÍ
  6
Continuous
100
AcDbLine
 10
6950.245875099207
 20
-1704.260766108609
 30
0.0
 11
6950.623526470153
 21
-1704.638417481738
 31
0.0
  0
LINE
  5
705A
330
1F
100
AcDbEntity
  8
SPOJOVACÍ
  6
Continuous
100
AcDbLine
 10
6950.245875099207
 20
-1704.260766108609
 30
0.0
 11
6950.623526470153
 21
-1704.04217479659
 31
0.0
  0
LINE
  5
705B
330
1F
100
AcDbEntity
  8
SPOJOVACÍ
  6
Continuous
100
AcDbLine
 10
6949.681258388736
 20
-1707.274535686929
 30
0.0
 11
6952.797347305168
 21
-1706.641085970159
 31
0.0
  0
LINE
  5
705C
330
1F
100
AcDbEntity
  8
SPOJOVACÍ
  6
Continuous
100
AcDbLine
 10
6950.058909764047
 20
-1707.653117236036
 30
0.0
 11
6952.419695934222
 21
-1706.858747106207
 31
0.0
  0
LINE
  5
705D
330
1F
100
AcDbEntity
  8
SPOJOVACÍ
  6
Continuous
100
AcDbLine
 10
6950.058909764047
 20
-1707.056874550881
 30
0.0
 11
6952.419695934222
 21
-1706.262504421329
 31
0.0
  0
LINE
  5
705E
330
1F
100
AcDbEntity
  8
SPOJOVACÍ
  6
Continuous
100
AcDbLine
 10
6952.797347305168
 20
-1706.641085970159
 30
0.0
 11
6952.419695934222
 21
-1706.858747106207
 31
0.0
  0
LINE
  5
705F
330
1F
100
AcDbEntity
  8
SPOJOVACÍ
  6
Continuous
100
AcDbLine
 10
6952.797347305168
 20
-1706.641085970159
 30
0.0
 11
6952.419695934222
 21
-1706.262504421329
 31
0.0
  0
LINE
  5
7060
330
1F
100
AcDbEntity
  8
SPOJOVACÍ
  6
Continuous
100
AcDbLine
 10
6949.681258388736
 20
-1707.274535686929
 30
0.0
 11
6950.058909764047
 21
-1707.653117236036
 31
0.0
  0
LINE
  5
7061
330
1F
100
AcDbEntity
  8
SPOJOVACÍ
  6
Continuous
100
AcDbLine
 10
6949.681258388736
 20
-1707.274535686929
 30
0.0
 11
6950.058909764047
 21
-1707.056874550881
 31
0.0
  0
LINE
  5
7062
330
1F
100
AcDbEntity
  8
SPOJOVACÍ
  6
Continuous
100
AcDbLine
 10
6949.11664168263
 20
-1710.289235441227
 30
0.0
 11
6953.241971335373
 21
-1709.316271558923
 31
0.0
  0
LINE
  5
7063
330
1F
100
AcDbEntity
  8
SPOJOVACÍ
  6
Continuous
100
AcDbLine
 10
6949.495223230915
 20
-1710.666886814355
 30
0.0
 11
6952.864319964428
 21
-1709.533932694971
 31
0.0
  0
LINE
  5
7064
330
1F
100
AcDbEntity
  8
SPOJOVACÍ
  6
Continuous
100
AcDbLine
 10
6949.495223230915
 20
-1710.0706441292
 30
0.0
 11
6952.864319964428
 21
-1708.937690009816
 31
0.0
  0
LINE
  5
7065
330
1F
100
AcDbEntity
  8
SPOJOVACÍ
  6
Continuous
100
AcDbLine
 10
6953.241971335373
 20
-1709.316271558923
 30
0.0
 11
6952.864319964428
 21
-1709.533932694971
 31
0.0
  0
LINE
  5
7066
330
1F
100
AcDbEntity
  8
SPOJOVACÍ
  6
Continuous
100
AcDbLine
 10
6953.241971335373
 20
-1709.316271558923
 30
0.0
 11
6952.864319964428
 21
-1708.937690009816
 31
0.0
  0
LINE
  5
7067
330
1F
100
AcDbEntity
  8
SPOJOVACÍ
  6
Continuous
100
AcDbLine
 10
6949.11664168263
 20
-1710.289235441227
 30
0.0
 11
6949.495223230915
 21
-1710.666886814355
 31
0.0
  0
LINE
  5
7068
330
1F
100
AcDbEntity
  8
SPOJOVACÍ
  6
Continuous
100
AcDbLine
 10
6949.11664168263
 20
-1710.289235441227
 30
0.0
 11
6949.495223230915
 21
-1710.0706441292
 31
0.0
  0
LINE
  5
7069
330
1F
100
AcDbEntity
  8
SPOJOVACÍ
  6
Continuous
100
AcDbLine
 10
6952.366675913217
 20
-1709.71066609632
 30
0.0
 11
6952.612242324684
 21
-1711.681708607606
 31
0.0
  0
LINE
  5
706A
330
1F
100
AcDbEntity
  8
SPOJOVACÍ
  6
Continuous
100
AcDbLine
 10
6952.028091920656
 20
-1707.003854530421
 30
0.0
 11
6952.295052375993
 21
-1709.140468333275
 31
0.0
  0
LINE
  5
706B
330
1F
100
AcDbEntity
  8
SPOJOVACÍ
  6
Continuous
100
AcDbLine
 10
6951.688577759487
 20
-1704.286811030988
 30
0.0
 11
6951.956468387797
 21
-1706.431796415973
 31
0.0
  0
LINE
  5
706C
330
1F
100
AcDbEntity
  8
SPOJOVACÍ
  6
Continuous
100
AcDbLine
 10
6950.876534287235
 20
-1703.970551260458
 30
0.0
 11
6951.262557241133
 21
-1700.881437442653
 31
0.0
  0
LINE
  5
706D
330
1F
100
AcDbEntity
  8
SPOJOVACÍ
  6
Continuous
100
AcDbLine
 10
6950.509114849555
 20
-1706.911767126667
 30
0.0
 11
6950.799329694709
 21
-1704.590978516312
 31
0.0
  0
LINE
  5
706E
330
1F
100
AcDbEntity
  8
SPOJOVACÍ
  6
Continuous
100
AcDbLine
 10
6950.139835057197
 20
-1709.864145102396
 30
0.0
 11
6950.430049906717
 21
-1707.542426316331
 31
0.0
  0
LINE
  5
706F
330
1F
100
AcDbEntity
  8
SPOJOVACÍ
  6
Continuous
100
AcDbLine
 10
6951.262557241133
 20
-1700.881437442653
 30
0.0
 11
6951.616954222263
 21
-1703.717543443922
 31
0.0
  0
LINE
  5
7070
330
1F
100
AcDbEntity
  8
SPOJOVACÍ
  6
Continuous
100
AcDbLine
 10
6949.912872161949
 20
-1711.681708607606
 30
0.0
 11
6950.062630464671
 21
-1710.484572358249
 31
0.0
  0
LINE
  5
7071
330
1F
100
AcDbEntity
  8
SPOJOVACÍ
  6
Continuous
100
AcDbLine
 10
6952.612242324684
 20
-1712.01843224549
 30
0.0
 11
6952.612242324684
 21
-1711.681708607606
 31
0.0
  0
LINE
  5
7072
330
1F
100
AcDbEntity
  8
SPOJOVACÍ
  6
Continuous
100
AcDbLine
 10
6952.612242324684
 20
-1715.141032392103
 30
0.0
 11
6952.612242324684
 21
-1712.622116337074
 31
0.0
  0
LINE
  5
7073
330
1F
100
AcDbEntity
  8
SPOJOVACÍ
  6
Continuous
100
AcDbLine
 10
6949.912872161949
 20
-1712.929074349495
 30
0.0
 11
6949.912872161949
 21
-1711.681708607606
 31
0.0
  0
LINE
  5
7074
330
1F
100
AcDbEntity
  8
SPOJOVACÍ
  6
Continuous
100
AcDbLine
 10
6949.912872161949
 20
-1716.043302913977
 30
0.0
 11
6949.912872161949
 21
-1713.52531703465
 31
0.0
  0
LINE
  5
7075
330
1F
100
AcDbEntity
  8
SPOJOVACÍ
  6
Continuous
100
AcDbLine
 10
6952.612242324684
 20
-1718.262702362745
 30
0.0
 11
6952.612242324684
 21
-1715.741925956035
 31
0.0
  0
LINE
  5
7076
330
1F
100
AcDbEntity
  8
SPOJOVACÍ
  6
Continuous
100
AcDbLine
 10
6949.912872161949
 20
-1719.176134994132
 30
0.0
 11
6949.912872161949
 21
-1716.647917181262
 31
0.0
  0
ELLIPSE
  5
7077
330
1F
100
AcDbEntity
  8
0
  6
Continuous
 62
     5
100
AcDbEllipse
 10
6955.248034335628
 20
-1703.137402844318
 30
0.0
 11
1.337731569581761
 21
1.343740118827014
 31
0.0
210
0.0
220
0.0
230
0.9999999999999998
 40
0.9999999999993672
 41
5.493225360727321
 42
11.7764106679069
  0
ELLIPSE
  5
7078
330
1F
100
AcDbEntity
  8
0
  6
Continuous
 62
     5
100
AcDbEllipse
 10
6972.689007034524
 20
-1681.883423719599
 30
0.0
 11
1.029065566365614
 21
1.033687712745874
 31
0.0
210
0.0
220
0.0
230
1.0
 40
0.9999999999988942
 41
5.493225360726983
 42
11.77641066790656
  0
ELLIPSE
  5
7079
330
1F
100
AcDbEntity
  8
0
  6
Continuous
 62
     5
100
AcDbEllipse
 10
6962.750266762014
 20
-1681.860355650246
 30
0.0
 11
-1.033687712746777
 21
1.029065566366512
 31
0.0
210
0.0
220
0.0
230
1.0
 40
0.9999999999968133
 41
3.922429033934233
 42
10.20561434111382
  0
INSERT
  5
707A
330
1F
100
AcDbEntity
  8
POPIS
100
AcDbBlockReference
  2
E_PUNKT
 10
6980.030510311545
 20
-1619.863880888082
 30
0.0
  0
ARC
  5
707B
330
1F
100
AcDbEntity
  8
SPOJOVACÍ
100
AcDbCircle
 10
6967.854488829492
 20
-1537.809001078601
 30
0.0
 40
3.772098134126344
100
AcDbArc
 50
300.0337920944151
 51
239.9661539344486
  0
LINE
  5
7080
330
1F
100
AcDbEntity
  8
CETRIS
100
AcDbLine
 10
7072.854487859574
 20
-1724.646696790602
 30
0.0
 11
7072.854487859574
 21
-1736.646696790604
 31
0.0
  0
LINE
  5
7081
330
1F
100
AcDbEntity
  8
CETRIS
100
AcDbLine
 10
7082.854487859574
 20
-1724.646696790602
 30
0.0
 11
7082.854487859574
 21
-1736.646696790604
 31
0.0
  0
LWPOLYLINE
  5
7085
330
1F
100
AcDbEntity
  8
CETRIS
100
AcDbPolyline
 90
        4
 70
     1
 43
0.0
 10
7127.854487859574
 20
-1724.646696790602
 10
7027.854487859574
 20
-1724.646696790602
 10
7027.854487859574
 20
-1712.646696790603
 10
7127.854487859574
 20
-1712.646696790603
  0
LINE
  5
7086
330
1F
100
AcDbEntity
  8
CETRIS
100
AcDbLine
 10
7082.854487859574
 20
-1736.646696790604
 30
0.0
 11
7192.735441415861
 21
-1736.646696790604
 31
0.0
  0
LINE
  5
708A
330
1F
100
AcDbEntity
  8
NOSNÉ KONSTRUKCE
100
AcDbLine
 10
7062.854487859574
 20
-1693.084451077995
 30
0.0
 11
7062.854487859573
 21
-1664.084507588187
 31
0.0
  0
LINE
  5
708B
330
1F
100
AcDbEntity
  8
NOSNÉ KONSTRUKCE
100
AcDbLine
 10
7092.854487859573
 20
-1693.084451077995
 30
0.0
 11
7092.854487859573
 21
-1664.084507588187
 31
0.0
  0
LINE
  5
708C
330
1F
100
AcDbEntity
  8
NOSNÉ KONSTRUKCE
  6
DASHED
100
AcDbLine
 10
7125.272650301226
 20
-1664.084507588187
 30
0.0
 11
7385.433815677501
 21
-1664.084507588187
 31
0.0
  0
LINE
  5
708D
330
1F
100
AcDbEntity
  8
NOSNÉ KONSTRUKCE
100
AcDbLine
 10
7092.854487859574
 20
-1693.084451077995
 30
0.0
 11
7385.433815677501
 21
-1693.084451077995
 31
0.0
  0
LINE
  5
708E
330
1F
100
AcDbEntity
  8
NOSNÉ KONSTRUKCE
  6
DASHED
100
AcDbLine
 10
7025.5934845486
 20
-1684.498726446595
 30
0.0
 11
6828.916652336342
 21
-1684.498726446595
 31
0.0
  0
LINE
  5
708F
330
1F
100
AcDbEntity
  8
NOSNÉ KONSTRUKCE
  6
DASHED
100
AcDbLine
 10
7027.833314030316
 20
-1679.584482276379
 30
0.0
 11
6828.916652336342
 21
-1679.584482276379
 31
0.0
  0
LINE
  5
7090
330
1F
100
AcDbEntity
  8
NOSNÉ KONSTRUKCE
  6
DASHED
100
AcDbLine
 10
7028.74487420743
 20
-1677.584495526162
 30
0.0
 11
6828.916652336342
 21
-1677.584495526162
 31
0.0
  0
LINE
  5
7091
330
1F
100
AcDbEntity
  8
NOSNÉ KONSTRUKCE
  6
DASHED
100
AcDbLine
 10
7030.984703689156
 20
-1672.670251355931
 30
0.0
 11
6828.916652336342
 21
-1672.670251355931
 31
0.0
  0
LINE
  5
7092
330
1F
100
AcDbEntity
  8
NOSNÉ KONSTRUKCE
  6
DASHED
100
AcDbLine
 10
7032.430212014983
 20
-1669.498768472446
 30
0.0
 11
6828.916652336342
 21
-1669.498768472446
 31
0.0
  0
LINE
  5
7094
330
1F
100
AcDbEntity
  8
NOSNÉ KONSTRUKCE
100
AcDbLine
 10
7125.272650301226
 20
-1664.084507588187
 30
0.0
 11
7092.854487859573
 21
-1664.084507588187
 31
0.0
  0
LINE
  5
7095
330
1F
100
AcDbEntity
  8
NOSNÉ KONSTRUKCE
100
AcDbLine
 10
7122.804921647494
 20
-1669.498768472446
 30
0.0
 11
7092.854487859573
 21
-1669.498768472446
 31
0.0
  0
LINE
  5
7096
330
1F
100
AcDbEntity
  8
NOSNÉ KONSTRUKCE
100
AcDbLine
 10
7121.359413321667
 20
-1672.670251355931
 30
0.0
 11
7092.854487859573
 21
-1672.670251355931
 31
0.0
  0
LINE
  5
7097
330
1F
100
AcDbEntity
  8
NOSNÉ KONSTRUKCE
100
AcDbLine
 10
7119.119583839941
 20
-1677.584495526162
 30
0.0
 11
7092.854487859573
 21
-1677.584495526162
 31
0.0
  0
LINE
  5
7098
330
1F
100
AcDbEntity
  8
NOSNÉ KONSTRUKCE
100
AcDbLine
 10
7118.208023662827
 20
-1679.584482276379
 30
0.0
 11
7092.854487859573
 21
-1679.584482276379
 31
0.0
  0
LINE
  5
7099
330
1F
100
AcDbEntity
  8
NOSNÉ KONSTRUKCE
100
AcDbLine
 10
7115.968194181109
 20
-1684.498726446595
 30
0.0
 11
7092.854487859573
 21
-1684.498726446595
 31
0.0
  0
LINE
  5
709C
330
1F
100
AcDbEntity
  8
NOSNÉ KONSTRUKCE
100
AcDbLine
 10
7062.854487859573
 20
-1664.084507588187
 30
0.0
 11
7034.897940668717
 21
-1664.084507588187
 31
0.0
  0
LINE
  5
709D
330
1F
100
AcDbEntity
  8
NOSNÉ KONSTRUKCE
100
AcDbLine
 10
7062.854487859573
 20
-1669.498768472446
 30
0.0
 11
7032.430212014983
 21
-1669.498768472446
 31
0.0
  0
LINE
  5
709E
330
1F
100
AcDbEntity
  8
NOSNÉ KONSTRUKCE
100
AcDbLine
 10
7062.854487859573
 20
-1672.670251355931
 30
0.0
 11
7030.984703689156
 21
-1672.670251355931
 31
0.0
  0
LINE
  5
709F
330
1F
100
AcDbEntity
  8
NOSNÉ KONSTRUKCE
100
AcDbLine
 10
7062.854487859573
 20
-1677.584495526162
 30
0.0
 11
7028.744874207432
 21
-1677.584495526162
 31
0.0
  0
LINE
  5
70A0
330
1F
100
AcDbEntity
  8
NOSNÉ KONSTRUKCE
100
AcDbLine
 10
7062.854487859574
 20
-1679.584482276379
 30
0.0
 11
7027.833314030316
 21
-1679.584482276379
 31
0.0
  0
LINE
  5
70A1
330
1F
100
AcDbEntity
  8
NOSNÉ KONSTRUKCE
100
AcDbLine
 10
7062.854487859574
 20
-1684.498726446595
 30
0.0
 11
7025.593484548598
 21
-1684.498726446595
 31
0.0
  0
LINE
  5
70A2
330
1F
100
AcDbEntity
  8
izolace
  6
IZOLACE
 48
1.5
100
AcDbLine
 10
7029.863291466249
 20
-1676.602069420655
 30
0.0
 11
6828.916652336342
 21
-1676.602069420655
 31
0.0
  0
LWPOLYLINE
  5
70A3
330
1F
100
AcDbEntity
  8
NOSNÉ KONSTRUKCE
100
AcDbPolyline
 90
        4
 70
     1
 43
0.0
 10
7092.854487859573
 20
-1691.084451077995
 10
7062.854487859573
 20
-1691.084451077995
 10
7062.854487859573
 20
-1666.084507588187
 10
7092.854487859573
 20
-1666.084507588187
  0
LWPOLYLINE
  5
70A4
330
1F
100
AcDbEntity
  8
NOSNÉ KONSTRUKCE
  6
DASHED
 48
0.7
100
AcDbPolyline
 90
        4
 70
     1
 43
0.0
 10
7132.854487859574
 20
-1691.084451077995
 10
7092.854487859573
 20
-1691.084451077995
 10
7092.854487859573
 20
-1666.084507588187
 10
7132.854487859574
 20
-1666.084507588187
  0
LWPOLYLINE
  5
70A5
330
1F
100
AcDbEntity
  8
NOSNÉ KONSTRUKCE
  6
DASHED
 48
0.7
100
AcDbPolyline
 90
        4
 70
     1
 43
0.0
 10
7022.854487859575
 20
-1691.084451077995
 10
7062.854487859574
 20
-1691.084451077995
 10
7062.854487859574
 20
-1666.084507588187
 10
7022.854487859575
 20
-1666.084507588187
  0
TEXT
  5
70A6
330
1F
100
AcDbEntity
  8
POPIS
100
AcDbText
 10
6936.498402309472
 20
-1878.258632252238
 30
0.0
 40
25.0
  1
02
 41
0.85
  7
SIMPLEX7
100
AcDbText
  0
LINE
  5
70A7
330
1F
100
AcDbEntity
  8
POPIS
100
AcDbLine
 10
6950.020542017177
 20
-1736.976877169963
 30
0.0
 11
6950.020542017177
 21
-1846.646698265196
 31
0.0
  0
TEXT
  5
70AC
330
1F
100
AcDbEntity
  8
POPIS
100
AcDbText
 10
7479.147503811894
 20
-1755.944504324593
 30
0.0
 40
25.0
  1
Pásek CETRIS   
 41
0.7
  7
SIMPLEX7
100
AcDbText
  0
CIRCLE
  5
70AD
330
1F
100
AcDbEntity
  8
POPIS
100
AcDbCircle
 10
7651.532718106121
 20
-1725.423848471325
 30
0.0
 40
11.13656048292026
  0
TEXT
  5
70AE
330
1F
100
AcDbEntity
  8
POPIS
100
AcDbText
 10
7646.77368905094
 20
-1730.969194216313
 30
0.0
 40
12.0
  1
R
 41
0.85
  7
SIMPLEX7
100
AcDbText
  0
LINE
  5
70AF
330
1F
100
AcDbEntity
  8
POPIS
100
AcDbLine
 10
6993.742544903895
 20
-1722.849988058622
 30
0.0
 11
6993.742472964429
 21
-1846.646698265196
 31
0.0
  0
TEXT
  5
70B0
330
1F
100
AcDbEntity
  8
POPIS
100
AcDbText
 10
6977.375091413097
 20
-1878.258632252238
 30
0.0
 40
25.0
  1
03
 41
0.85
  7
SIMPLEX7
100
AcDbText
  0
INSERT
  5
70B1
330
1F
100
AcDbEntity
  8
POPIS
100
AcDbBlockReference
  2
E_PUNKT
 10
6993.654917234285
 20
-1723.443245944749
 30
0.0
  0
INSERT
  5
70B2
330
1F
100
AcDbEntity
  8
POPIS
100
AcDbBlockReference
  2
E_PUNKT
 10
7016.854414746451
 20
-1693.796255954782
 30
0.0
  0
LINE
  5
70B3
330
1F
100
AcDbEntity
  8
POPIS
100
AcDbLine
 10
7036.974445382394
 20
-1769.592817879472
 30
0.0
 11
7036.974400605638
 21
-1846.646698265196
 31
0.0
  0
TEXT
  5
70B4
330
1F
100
AcDbEntity
  8
POPIS
100
AcDbText
 10
7020.607019054306
 20
-1878.258632252238
 30
0.0
 40
25.0
  1
04
 41
0.85
  7
SIMPLEX7
100
AcDbText
  0
LINE
  5
70B5
330
1F
100
AcDbEntity
  8
POPIS
100
AcDbLine
 10
7036.974445382394
 20
-1769.592817879472
 30
0.0
 11
7017.038211738968
 21
-1693.084451077995
 31
0.0
  0
TEXT
  5
70B7
330
1F
100
AcDbEntity
  8
POPIS
100
AcDbText
 10
7071.468096541263
 20
-1878.258632252238
 30
0.0
 40
25.0
  1
05
 41
0.85
  7
SIMPLEX7
100
AcDbText
  0
LINE
  5
70B8
330
1F
100
AcDbEntity
  8
POPIS
100
AcDbLine
 10
7087.83556849132
 20
-1691.084451077995
 30
0.0
 11
7087.835478092594
 21
-1846.646698265196
 31
0.0
  0
LINE
  5
70B9
330
1F
100
AcDbEntity
  8
POPIS
100
AcDbLine
 10
7137.001234515532
 20
-1781.098450766342
 30
0.0
 11
7137.001196424811
 21
-1846.646698265196
 31
0.0
  0
TEXT
  5
70BA
330
1F
100
AcDbEntity
  8
POPIS
100
AcDbText
 10
7120.633814873478
 20
-1878.258632252238
 30
0.0
 40
25.0
  1
06
 41
0.85
  7
SIMPLEX7
100
AcDbText
  0
INSERT
  5
70BB
330
1F
100
AcDbEntity
  8
POPIS
100
AcDbBlockReference
  2
E_PUNKT
 10
7088.006955662828
 20
-1690.196263210824
 30
0.0
  0
INSERT
  5
70BC
330
1F
100
AcDbEntity
  8
POPIS
100
AcDbBlockReference
  2
E_PUNKT
 10
7119.980575298665
 20
-1717.196203967857
 30
0.0
  0
LINE
  5
70BD
330
1F
100
AcDbEntity
  8
POPIS
100
AcDbLine
 10
7137.001234515532
 20
-1781.098450766342
 30
0.0
 11
7120.16437229118
 21
-1716.48439909107
 31
0.0
  0
TEXT
  5
70C0
330
1F
100
AcDbEntity
  8
POPIS
100
AcDbText
 10
6996.06381478429
 20
-1505.44186370392
 30
0.0
 40
25.0
  1
150
 41
0.85
 51
15.0
  7
SIMPLEX7
100
AcDbText
  0
LINE
  5
70C1
330
1F
100
AcDbEntity
  8
POPIS
100
AcDbLine
 10
6945.643600479356
 20
-1516.337697584164
 30
0.0
 11
7193.442381183742
 21
-1516.337697584164
 31
0.0
  0
LINE
  5
70C2
330
1F
100
AcDbEntity
  8
POPIS
100
AcDbLine
 10
6969.664911773516
 20
-1494.860870496051
 30
0.0
 11
6969.664911773516
 21
-1531.497812342631
 31
0.0
  0
LINE
  5
70C3
330
1F
100
AcDbEntity
  8
POPIS
100
AcDbLine
 10
6976.933270675814
 20
-1507.033757796398
 30
0.0
 11
6963.33344175884
 21
-1523.643443496575
 31
0.0
  0
LINE
  5
70C4
330
1F
100
AcDbEntity
  8
POPIS
100
AcDbLine
 10
7077.854487859574
 20
-1494.860870496051
 30
0.0
 11
7077.854487859574
 21
-1531.497812342631
 31
0.0
  0
LINE
  5
70C5
330
1F
100
AcDbEntity
  8
POPIS
100
AcDbLine
 10
7085.122846761873
 20
-1507.033757796398
 30
0.0
 11
7071.523017844898
 21
-1523.643443496575
 31
0.0
  0
TEXT
  5
70C7
330
1F
100
AcDbEntity
  8
POPIS
100
AcDbText
 10
7092.127111722525
 20
-1505.44186370392
 30
0.0
 40
25.0
  1
150
 41
0.85
 51
15.0
  7
SIMPLEX7
100
AcDbText
  0
LINE
  5
70C8
330
1F
100
AcDbEntity
  8
POPIS
100
AcDbLine
 10
7186.044063945631
 20
-1494.860870496051
 30
0.0
 11
7186.044063945631
 21
-1531.497812342631
 31
0.0
  0
LINE
  5
70C9
330
1F
100
AcDbEntity
  8
POPIS
100
AcDbLine
 10
7193.31242284793
 20
-1507.460736141468
 30
0.0
 11
7179.712593930955
 21
-1524.070421841645
 31
0.0
  0
LINE
  5
70CA
330
1F
100
AcDbEntity
  8
POPIS
  6
DASHDOT2
100
AcDbLine
 10
7077.854487859574
 20
-1676.313513932511
 30
0.0
 11
7077.854487859574
 21
-1779.298457428374
 31
0.0
  0
HATCH
  5
719A
330
1F
100
AcDbEntity
  8
CETRIS
100
AcDbHatch
 10
0.0
 20
0.0
 30
0.0
210
0.0
220
0.0
230
1.0
  2
ANSI31
 70
     0
 71
     0
 91
       12
 92
        7
 72
     1
 73
     1
 93
       16
 10
6949.846829680025
 20
-1730.834028242638
 42
0.0
 10
6949.912872161949
 20
-1730.047099519511
 42
0.0
 10
6949.912872161949
 20
-1725.998875620226
 42
0.0
 10
6949.24035506352
 20
-1726.22500717448
 42
0.0
 10
6948.794968935256
 20
-1725.77852403874
 42
0.0
 10
6949.912872161949
 20
-1725.402632935304
 42
0.0
 10
6949.912872161949
 20
-1724.646696790603
 42
0.0
 10
6828.916652336342
 20
-1724.646696790603
 42
0.0
 10
6828.916652336342
 20
-1736.646696790604
 42
0.0
 10
6908.248465765243
 20
-1736.646696790604
 42
-0.7629533813748547
 10
6910.659673692473
 20
-1736.646696790604
 42
0.0
 10
6946.162403352499
 20
-1736.646696790604
 42
0.0
 10
6946.1624033525
 20
-1735.446770013872
 42
0.0
 10
6947.512088436051
 20
-1734.702629377398
 42
0.0
 10
6948.622718336409
 20
-1733.633857387986
 42
0.0
 10
6949.418948815727
 20
-1732.314868109687
 42
0.0
 97
        0
 92
        7
 72
     1
 73
     1
 93
       13
 10
6993.74254385049
 20
-1724.662736002926
 42
-0.0539189791868102
 10
6993.474209394188
 20
-1724.646696790602
 42
0.0
 10
6953.66206881868
 20
-1724.646696790603
 42
0.0
 10
6953.284759423114
 20
-1724.865090161214
 42
0.0
 10
6952.612242324684
 20
-1725.091221715468
 42
0.0
 10
6952.612242324684
 20
-1730.047099519516
 42
0.0
 10
6952.839205215568
 20
-1731.570727472946
 42
0.0
 10
6953.452191064714
 20
-1732.984594682647
 42
0.0
 10
6954.410272134698
 20
-1734.191962865546
 42
0.0
 10
6955.647405943598
 20
-1735.110046375988
 42
0.0
 10
6956.362711129767
 20
-1735.446770013872
 42
0.0
 10
6956.362711129767
 20
-1736.646696790604
 42
0.0
 10
6993.742536886495
 20
-1736.646696790604
 42
0.0
 97
        0
 92
        7
 72
     1
 73
     1
 93
        5
 10
7025.262571127928
 20
-1724.646696790602
 42
0.0
 10
6993.890845825635
 20
-1724.646696790602
 42
-0.0298599585533314
 10
6993.74254385049
 20
-1724.662736002926
 42
0.0
 10
6993.742536886495
 20
-1736.646696790604
 42
0.0
 10
7028.389481474111
 20
-1736.646696790604
 42
0.0
 97
        0
 92
        7
 72
     0
 73
     1
 93
        5
 10
7072.854487859574
 20
-1724.646696790602
 10
7027.854487859574
 20
-1724.646696790602
 10
7025.262571127926
 20
-1724.646696790602
 10
7028.389481474111
 20
-1736.646696790604
 10
7072.854487859574
 20
-1736.646696790604
 97
        0
 92
        7
 72
     0
 73
     1
 93
        4
 10
7087.835548987974
 20
-1724.646696790602
 10
7082.854487859574
 20
-1724.646696790602
 10
7082.854487859574
 20
-1736.646696790604
 10
7087.835542014658
 20
-1736.646696790604
 97
        0
 92
        7
 72
     0
 73
     1
 93
       14
 10
7106.657089517415
 20
-1730.834028242638
 10
7106.723131999337
 20
-1730.047099519513
 10
7106.723131999337
 20
-1725.998875620227
 10
7106.050614900908
 20
-1726.22500717448
 10
7105.605228772643
 20
-1725.77852403874
 10
7106.723131999337
 20
-1725.402632935303
 10
7106.723131999337
 20
-1724.646696790602
 10
7087.835548987975
 20
-1724.646696790602
 10
7087.835542014659
 20
-1736.646696790604
 10
7102.972663189888
 20
-1736.646696790604
 10
7102.972663189888
 20
-1735.446770013872
 10
7104.322348273441
 20
-1734.7026293774
 10
7105.432978173798
 20
-1733.633857387986
 10
7106.229208653116
 20
-1732.314868109688
 97
        0
 92
        7
 72
     0
 73
     1
 93
       12
 10
7122.29127005162
 20
-1724.646696790602
 10
7110.47232865607
 20
-1724.646696790602
 10
7110.095019260504
 20
-1724.865090161215
 10
7109.422502162073
 20
-1725.091221715469
 10
7109.422502162073
 20
-1730.04709951951
 10
7109.649465052957
 20
-1731.570727472943
 10
7110.262450902104
 20
-1732.984594682648
 10
7111.220531972088
 20
-1734.191962865547
 10
7112.457665780985
 20
-1735.110046375987
 10
7113.172970967156
 20
-1735.446770013872
 10
7113.172970967156
 20
-1736.646696790604
 10
7125.418180397803
 20
-1736.646696790603
 97
        0
 92
        7
 72
     0
 73
     1
 93
        4
 10
7188.709987138556
 20
-1724.646696790601
 10
7122.29127005162
 20
-1724.646696790602
 10
7125.418180397804
 20
-1736.646696790604
 10
7188.709987138557
 20
-1736.646696790604
 97
        0
 92
        7
 72
     0
 73
     1
 93
       16
 10
7205.802825655904
 20
-1730.834028242639
 10
7205.868868137826
 20
-1730.047099519516
 10
7205.868868137826
 20
-1725.998875620227
 10
7205.196351039397
 20
-1726.22500717448
 10
7204.750964911133
 20
-1725.778524038739
 10
7205.868868137826
 20
-1725.402632935303
 10
7205.868868137826
 20
-1724.646696790602
 10
7192.735441415861
 20
-1724.646696790602
 10
7188.709987138558
 20
-1724.646696790602
 10
7188.709987138558
 20
-1736.646696790604
 10
7192.735441415861
 20
-1736.646696790604
 10
7202.118399328377
 20
-1736.646696790604
 10
7202.118399328377
 20
-1735.446770013871
 10
7203.468084411927
 20
-1734.702629377398
 10
7204.578714312285
 20
-1733.633857387986
 10
7205.374944791604
 20
-1732.314868109685
 97
        0
 92
        7
 72
     0
 73
     1
 93
       12
 10
7235.390252302763
 20
-1724.646696790602
 10
7209.618064794558
 20
-1724.646696790602
 10
7209.24075539899
 20
-1724.865090161215
 10
7208.568238300562
 20
-1725.091221715469
 10
7208.568238300562
 20
-1730.047099519518
 10
7208.795201191446
 20
-1731.570727472946
 10
7209.408187040593
 20
-1732.98459468265
 10
7210.366268110577
 20
-1734.191962865547
 10
7211.603401919479
 20
-1735.110046375989
 10
7212.318707105644
 20
-1735.446770013872
 10
7212.318707105644
 20
-1736.646696790604
 10
7239.435457505286
 20
-1736.646696790604
 97
        0
 92
        7
 72
     0
 73
     1
 93
        4
 10
7344.029942215623
 20
-1724.646696790602
 10
7235.390252302764
 20
-1724.646696790602
 10
7239.435457505287
 20
-1736.646696790604
 10
7344.029942215623
 20
-1736.646696790604
 97
        0
 92
        7
 72
     0
 73
     1
 93
        4
 10
7385.433815677501
 20
-1724.646696790602
 10
7344.029942215623
 20
-1724.646696790602
 10
7344.029942215623
 20
-1736.646696790604
 10
7385.433815677501
 20
-1736.646696790604
 97
        0
 75
     0
 76
     1
 52
90.0
 41
1.0
 77
     0
 78
     1
 53
135.0
 43
2654.207973230143
 44
258.930576946961
 45
-2.245064030267288
 46
-2.245064030267287
 79
     0
 47
1.110371376460323
 98
       12
 10
6899.298150248694
 20
-1732.230634957128
 10
6963.747438993181
 20
-1731.120261269819
 10
7002.63926334999
 20
-1731.120261269819
 10
7054.865397201793
 20
-1733.341008644434
 10
7084.867648245847
 20
-1731.120261269819
 10
7094.86840981034
 20
-1731.120261269819
 10
7119.31468594628
 20
-1731.120261269819
 10
7144.872167158668
 20
-1731.120261269819
 10
7193.764719430543
 20
-1731.120261269819
 10
7228.211757130975
 20
-1731.120261269819
 10
7274.881932899375
 20
-1731.120261269819
 10
7370.444677764368
 20
-1731.120261269819
  0
HATCH
  5
7230
330
1F
100
AcDbEntity
  8
CETRIS
100
AcDbHatch
 10
0.0
 20
0.0
 30
0.0
210
0.0
220
0.0
230
1.0
  2
ANSI31
 70
     0
 71
     0
 91
        4
 92
        7
 72
     0
 73
     1
 93
        4
 10
7077.854487859574
 20
-1712.646696790603
 10
7027.854487859574
 20
-1712.646696790602
 10
7027.854487859574
 20
-1724.646696790602
 10
7077.854487859574
 20
-1724.646696790602
 97
        0
 92
        7
 72
     0
 73
     1
 93
        4
 10
7087.835555961291
 20
-1712.646696790602
 10
7077.854487859574
 20
-1712.646696790602
 10
7077.854487859574
 20
-1724.646696790602
 10
7087.835548987975
 20
-1724.646696790602
 97
        0
 92
        7
 72
     0
 73
     1
 93
       20
 10
7106.723131999337
 20
-1716.638516587309
 10
7106.050614900908
 20
-1716.864648141609
 10
7105.604407808613
 20
-1716.418441051892
 10
7106.723131999335
 20
-1716.042273902207
 10
7106.723131999335
 20
-1713.518706968347
 10
7106.050614900908
 20
-1713.744838522647
 10
7105.605228772681
 20
-1713.298355386618
 10
7106.723131999337
 20
-1712.922464283193
 10
7106.723131999337
 20
-1712.646696790603
 10
7087.835555961291
 20
-1712.646696790603
 10
7087.835548987975
 20
-1724.646696790602
 10
7106.723131999337
 20
-1724.646696790602
 10
7106.723131999337
 20
-1722.878290498247
 10
7106.050614900907
 20
-1723.104267379816
 10
7105.60433099555
 20
-1722.657983477037
 10
7106.723131999337
 20
-1722.282047813139
 10
7106.723131999337
 20
-1719.758326206323
 10
7106.050614900907
 20
-1719.984457760578
 10
7105.604407808607
 20
-1719.538250670856
 10
7106.723131999337
 20
-1719.16208352117
 97
        0
 92
        7
 72
     1
 73
     1
 93
       24
 10
7120.625504721407
 20
-1718.254065806805
 42
-0.5749923614621859
 10
7118.758185674291
 20
-1717.167135636984
 42
-1.0
 10
7121.258185674292
 20
-1717.167135636984
 42
-0.2698474284302711
 10
7120.625504721407
 20
-1718.254065806805
 42
0.0
 10
7122.29127005162
 20
-1724.646696790602
 42
0.0
 10
7127.854487859574
 20
-1724.646696790602
 42
0.0
 10
7127.854487859574
 20
-1712.646696790603
 42
0.0
 10
7109.422502162073
 20
-1712.646696790602
 42
0.0
 10
7109.422502162073
 20
-1715.134619997443
 42
0.0
 10
7110.095019260501
 20
-1714.908488443189
 42
0.0
 10
7110.540405384909
 20
-1715.354971580226
 42
0.0
 10
7109.422502162072
 20
-1715.730862682366
 42
0.0
 10
7109.422502162073
 20
-1718.254429616412
 42
0.0
 10
7110.095019260501
 20
-1718.028298062158
 42
0.0
 10
7110.540405385133
 20
-1718.474781199419
 42
0.0
 10
7109.422502162073
 20
-1718.85067230156
 42
0.0
 10
7109.422502162073
 20
-1721.375014738621
 42
0.0
 10
7110.095019260501
 20
-1721.149037857099
 42
0.0
 10
7110.541303162013
 20
-1721.595321760863
 42
0.0
 10
7109.422502162072
 20
-1721.971257423546
 42
0.0
 10
7109.422502162073
 20
-1724.49497903036
 42
0.0
 10
7110.095019260501
 20
-1724.26884747606
 42
0.0
 10
7110.472868572859
 20
-1724.646696790602
 42
0.0
 10
7122.29127005162
 20
-1724.646696790602
 42
0.0
 97
        0
 75
     0
 76
     1
 52
0.0
 41
1.0
 77
     0
 78
     1
 53
45.0
 43
2654.207973230143
 44
258.930576946961
 45
-2.245064030267287
 46
2.245064030267288
 79
     0
 47
1.110371376460323
 98
        4
 10
7058.198978781717
 20
-1717.795805957956
 10
7082.645271742371
 20
-1718.906179645262
 10
7093.757221558604
 20
-1718.906179645262
 10
7114.869916114614
 20
-1720.016553332571
  0
TEXT
  5
7244
330
1F
100
AcDbEntity
  8
POPIS
100
AcDbText
 10
6844.439118668883
 20
-1465.448245051288
 30
0.0
 40
20.0
  1
Svislý řez
 41
0.85
  7
SIMPLEX7
100
AcDbText
  0
TEXT
  5
9B1A
330
1F
100
AcDbEntity
  8
POPIS
100
AcDbText
 10
7424.803800652153
 20
-1614.197233731135
 30
0.0
 40
25.0
  1
v exteriéru vrut s viditelnou hlavou a těsnící podložkou
 41
0.6
 51
10.0
  7
SIMPLEX7
100
AcDbText
  0
ENDSEC
  0
SECTION
  2
OBJECTS
  0
DICTIONARY
  5
C
330
0
100
AcDbDictionary
281
     1
  3
ACAD_GROUP
350
D
  3
ACAD_LAYOUT
350
1A
  3
ACAD_MLINESTYLE
350
17
  3
ACAD_PLOTSETTINGS
350
19
  3
ACAD_PLOTSTYLENAME
350
E
  3
AcDbVariableDictionary
350
5B50
  0
DICTIONARY
  5
D
102
{ACAD_REACTORS
330
C
102
}
330
C
100
AcDbDictionary
281
     1
  0
DICTIONARY
  5
1A
102
{ACAD_REACTORS
330
C
102
}
330
C
100
AcDbDictionary
281
     1
  3
Model
350
22
  3
Rozvržení1
350
1E
  3
Rozvržení2
350
26
  0
DICTIONARY
  5
17
102
{ACAD_REACTORS
330
C
102
}
330
C
100
AcDbDictionary
281
     1
  3
Standard
350
18
  0
DICTIONARY
  5
19
102
{ACAD_REACTORS
330
C
102
}
330
C
100
AcDbDictionary
281
     1
  0
ACDBDICTIONARYWDFLT
  5
E
102
{ACAD_REACTORS
330
C
102
}
330
C
100
AcDbDictionary
281
     1
  3
Normal
350
F
100
AcDbDictionaryWithDefault
340
F
  0
DICTIONARY
  5
5B50
102
{ACAD_REACTORS
330
C
102
}
330
C
100
AcDbDictionary
281
     1
  3
DIMASSOC
350
8518
  3
SORTENTS
350
5B51
  0
LAYOUT
  5
22
102
{ACAD_REACTORS
330
1A
102
}
330
1A
100
AcDbPlotSettings
  1

  2
HP DeskJet 690C
  4
A4
  6

 40
3.757083177566528
 41
5.450418472290039
 42
16.28775024414062
 43
7.56707763671875
 44
296.9259948730469
 45
210.0579986572265
 46
0.0
 47
0.0
 48
0.0
 49
0.0
140
0.0
141
0.0
142
1.0
143
1.0
 70
 11952
 72
     1
 73
     0
 74
     0
  7
monochrome.ctb
 75
     0
147
1.0
148
-323.9392076651195
149
-131.8860906043446
100
AcDbLayout
  1
Model
 70
     1
 71
     0
 10
0.0
 20
0.0
 11
12.0
 21
9.0
 12
0.0
 22
0.0
 32
0.0
 14
0.0
 24
0.0
 34
0.0
 15
0.0
 25
0.0
 35
0.0
146
0.0
 13
0.0
 23
0.0
 33
0.0
 16
1.0
 26
0.0
 36
0.0
 17
0.0
 27
1.0
 37
0.0
 76
     0
330
1F
  0
LAYOUT
  5
1E
102
{ACAD_REACTORS
330
1A
102
}
330
1A
100
AcDbPlotSettings
  1

  2
HP DeskJet 690C
  4

  6

 40
0.0
 41
0.0
 42
0.0
 43
0.0
 44
0.0
 45
0.0
 46
0.0
 47
0.0
 48
0.0
 49
0.0
140
0.0
141
0.0
142
1.0
143
1.0
 70
   688
 72
     0
 73
     0
 74
     5
  7
monochrome.ctb
 75
    16
147
1.0
148
0.0
149
0.0
100
AcDbLayout
  1
Rozvržení1
 70
     1
 71
     1
 10
0.0
 20
0.0
 11
420.0
 21
297.0
 12
0.0
 22
0.0
 32
0.0
 14
1.000000000000000E+20
 24
1.000000000000000E+20
 34
1.000000000000000E+20
 15
-1.000000000000000E+20
 25
-1.000000000000000E+20
 35
-1.000000000000000E+20
146
0.0
 13
0.0
 23
0.0
 33
0.0
 16
1.0
 26
0.0
 36
0.0
 17
0.0
 27
1.0
 37
0.0
 76
     0
330
1B
  0
LAYOUT
  5
26
102
{ACAD_REACTORS
330
1A
102
}
330
1A
100
AcDbPlotSettings
  1

  2
HP DeskJet 690C
  4

  6

 40
0.0
 41
0.0
 42
0.0
 43
0.0
 44
0.0
 45
0.0
 46
0.0
 47
0.0
 48
0.0
 49
0.0
140
0.0
141
0.0
142
1.0
143
1.0
 70
   688
 72
     0
 73
     0
 74
     5
  7
monochrome.ctb
 75
    16
147
1.0
148
0.0
149
0.0
100
AcDbLayout
  1
Rozvržení2
 70
     1
 71
     2
 10
0.0
 20
0.0
 11
12.0
 21
9.0
 12
0.0
 22
0.0
 32
0.0
 14
0.0
 24
0.0
 34
0.0
 15
0.0
 25
0.0
 35
0.0
146
0.0
 13
0.0
 23
0.0
 33
0.0
 16
1.0
 26
0.0
 36
0.0
 17
0.0
 27
1.0
 37
0.0
 76
     0
330
23
  0
MLINESTYLE
  5
18
102
{ACAD_REACTORS
330
17
102
}
330
17
100
AcDbMlineStyle
  2
STANDARD
 70
     0
  3

 62
   256
 51
90.0
 52
90.0
 71
     2
 49
0.5
 62
   256
  6
BYLAYER
 49
-0.5
 62
   256
  6
BYLAYER
  0
ACDBPLACEHOLDER
  5
F
102
{ACAD_REACTORS
330
E
102
}
330
E
  0
DICTIONARYVAR
  5
8518
102
{ACAD_REACTORS
330
5B50
102
}
330
5B50
100
DictionaryVariables
280
     0
  1
1
  0
DICTIONARYVAR
  5
5B51
102
{ACAD_REACTORS
330
5B50
102
}
330
5B50
100
DictionaryVariables
280
     0
  1
96
  0
ENDSEC
  0
EOF
