  0
SECTION
  2
HEADER
  9
$ACADVER
  1
AC1015
  9
$ACADMAINTVER
 70
    14
  9
$DWGCODEPAGE
  3
ANSI_1250
  9
$INSBASE
 10
0.0
 20
0.0
 30
0.0
  9
$EXTMIN
 10
5344.000844237078
 20
-2049.361578153539
 30
-0.0762881293658211
  9
$EXTMAX
 10
6187.698881716544
 20
-1230.906052616048
 30
2500.076454800198
  9
$LIMMIN
 10
0.0
 20
0.0
  9
$LIMMAX
 10
420.0
 20
297.0
  9
$ORTHOMODE
 70
     0
  9
$REGENMODE
 70
     1
  9
$FILLMODE
 70
     1
  9
$QTEXTMODE
 70
     0
  9
$MIRRTEXT
 70
     1
  9
$LTSCALE
 40
1.0
  9
$ATTMODE
 70
     1
  9
$TEXTSIZE
 40
2.5
  9
$TRACEWID
 40
1.0
  9
$TEXTSTYLE
  7
Standard
  9
$CLAYER
  8
SPOJOVACÍ
  9
$CELTYPE
  6
ByLayer
  9
$CECOLOR
 62
   256
  9
$CELTSCALE
 40
1.0
  9
$DISPSILH
 70
     0
  9
$DIMSCALE
 40
1.0
  9
$DIMASZ
 40
2.5
  9
$DIMEXO
 40
0.625
  9
$DIMDLI
 40
3.75
  9
$DIMRND
 40
0.0
  9
$DIMDLE
 40
0.0
  9
$DIMEXE
 40
1.25
  9
$DIMTP
 40
0.0
  9
$DIMTM
 40
0.0
  9
$DIMTXT
 40
2.5
  9
$DIMCEN
 40
2.5
  9
$DIMTSZ
 40
0.0
  9
$DIMTOL
 70
     0
  9
$DIMLIM
 70
     0
  9
$DIMTIH
 70
     0
  9
$DIMTOH
 70
     0
  9
$DIMSE1
 70
     0
  9
$DIMSE2
 70
     0
  9
$DIMTAD
 70
     1
  9
$DIMZIN
 70
     8
  9
$DIMBLK
  1

  9
$DIMASO
 70
     1
  9
$DIMSHO
 70
     1
  9
$DIMPOST
  1

  9
$DIMAPOST
  1

  9
$DIMALT
 70
     0
  9
$DIMALTD
 70
     3
  9
$DIMALTF
 40
0.03937007874016
  9
$DIMLFAC
 40
1.0
  9
$DIMTOFL
 70
     1
  9
$DIMTVP
 40
0.0
  9
$DIMTIX
 70
     0
  9
$DIMSOXD
 70
     0
  9
$DIMSAH
 70
     0
  9
$DIMBLK1
  1

  9
$DIMBLK2
  1

  9
$DIMSTYLE
  2
ISO-25
  9
$DIMCLRD
 70
     0
  9
$DIMCLRE
 70
     0
  9
$DIMCLRT
 70
     0
  9
$DIMTFAC
 40
1.0
  9
$DIMGAP
 40
0.625
  9
$DIMJUST
 70
     0
  9
$DIMSD1
 70
     0
  9
$DIMSD2
 70
     0
  9
$DIMTOLJ
 70
     0
  9
$DIMTZIN
 70
     8
  9
$DIMALTZ
 70
     0
  9
$DIMALTTZ
 70
     0
  9
$DIMUPT
 70
     0
  9
$DIMDEC
 70
     2
  9
$DIMTDEC
 70
     2
  9
$DIMALTU
 70
     2
  9
$DIMALTTD
 70
     3
  9
$DIMTXSTY
  7
Standard
  9
$DIMAUNIT
 70
     0
  9
$DIMADEC
 70
     0
  9
$DIMALTRND
 40
0.0
  9
$DIMAZIN
 70
     0
  9
$DIMDSEP
 70
    44
  9
$DIMATFIT
 70
     3
  9
$DIMFRAC
 70
     0
  9
$DIMLDRBLK
  1

  9
$DIMLUNIT
 70
     2
  9
$DIMLWD
 70
    -2
  9
$DIMLWE
 70
    -2
  9
$DIMTMOVE
 70
     0
  9
$LUNITS
 70
     2
  9
$LUPREC
 70
     4
  9
$SKETCHINC
 40
1.0
  9
$FILLETRAD
 40
0.0
  9
$AUNITS
 70
     0
  9
$AUPREC
 70
     0
  9
$MENU
  1
.
  9
$ELEVATION
 40
0.0
  9
$PELEVATION
 40
0.0
  9
$THICKNESS
 40
0.0
  9
$LIMCHECK
 70
     0
  9
$CHAMFERA
 40
3.0
  9
$CHAMFERB
 40
3.0
  9
$CHAMFERC
 40
20.0
  9
$CHAMFERD
 40
0.0
  9
$SKPOLY
 70
     0
  9
$TDCREATE
 40
2452332.512107639
  9
$TDUCREATE
 40
2452332.470440972
  9
$TDUPDATE
 40
2455601.271228657
  9
$TDUUPDATE
 40
2455601.229561990
  9
$TDINDWG
 40
0.3259031366
  9
$TDUSRTIMER
 40
0.3258892477
  9
$USRTIMER
 70
     1
  9
$ANGBASE
 50
0.0
  9
$ANGDIR
 70
     0
  9
$PDMODE
 70
     0
  9
$PDSIZE
 40
0.0
  9
$PLINEWID
 40
0.0
  9
$SPLFRAME
 70
     0
  9
$SPLINETYPE
 70
     6
  9
$SPLINESEGS
 70
     8
  9
$HANDSEED
  5
9B28
  9
$SURFTAB1
 70
     6
  9
$SURFTAB2
 70
     6
  9
$SURFTYPE
 70
     6
  9
$SURFU
 70
     6
  9
$SURFV
 70
     6
  9
$UCSBASE
  2

  9
$UCSNAME
  2

  9
$UCSORG
 10
0.0
 20
0.0
 30
0.0
  9
$UCSXDIR
 10
1.0
 20
0.0
 30
0.0
  9
$UCSYDIR
 10
0.0
 20
1.0
 30
0.0
  9
$UCSORTHOREF
  2

  9
$UCSORTHOVIEW
 70
     0
  9
$UCSORGTOP
 10
0.0
 20
0.0
 30
0.0
  9
$UCSORGBOTTOM
 10
0.0
 20
0.0
 30
0.0
  9
$UCSORGLEFT
 10
0.0
 20
0.0
 30
0.0
  9
$UCSORGRIGHT
 10
0.0
 20
0.0
 30
0.0
  9
$UCSORGFRONT
 10
0.0
 20
0.0
 30
0.0
  9
$UCSORGBACK
 10
0.0
 20
0.0
 30
0.0
  9
$PUCSBASE
  2

  9
$PUCSNAME
  2

  9
$PUCSORG
 10
0.0
 20
0.0
 30
0.0
  9
$PUCSXDIR
 10
1.0
 20
0.0
 30
0.0
  9
$PUCSYDIR
 10
0.0
 20
1.0
 30
0.0
  9
$PUCSORTHOREF
  2

  9
$PUCSORTHOVIEW
 70
     0
  9
$PUCSORGTOP
 10
0.0
 20
0.0
 30
0.0
  9
$PUCSORGBOTTOM
 10
0.0
 20
0.0
 30
0.0
  9
$PUCSORGLEFT
 10
0.0
 20
0.0
 30
0.0
  9
$PUCSORGRIGHT
 10
0.0
 20
0.0
 30
0.0
  9
$PUCSORGFRONT
 10
0.0
 20
0.0
 30
0.0
  9
$PUCSORGBACK
 10
0.0
 20
0.0
 30
0.0
  9
$USERI1
 70
     0
  9
$USERI2
 70
     0
  9
$USERI3
 70
     0
  9
$USERI4
 70
     0
  9
$USERI5
 70
     0
  9
$USERR1
 40
0.0
  9
$USERR2
 40
0.0
  9
$USERR3
 40
0.0
  9
$USERR4
 40
0.0
  9
$USERR5
 40
0.0
  9
$WORLDVIEW
 70
     1
  9
$SHADEDGE
 70
     3
  9
$SHADEDIF
 70
    70
  9
$TILEMODE
 70
     1
  9
$MAXACTVP
 70
    64
  9
$PINSBASE
 10
0.0
 20
0.0
 30
0.0
  9
$PLIMCHECK
 70
     0
  9
$PEXTMIN
 10
1.000000000000000E+20
 20
1.000000000000000E+20
 30
1.000000000000000E+20
  9
$PEXTMAX
 10
-1.000000000000000E+20
 20
-1.000000000000000E+20
 30
-1.000000000000000E+20
  9
$PLIMMIN
 10
0.0
 20
0.0
  9
$PLIMMAX
 10
420.0
 20
297.0
  9
$UNITMODE
 70
     0
  9
$VISRETAIN
 70
     1
  9
$PLINEGEN
 70
     0
  9
$PSLTSCALE
 70
     1
  9
$TREEDEPTH
 70
  3020
  9
$CMLSTYLE
  2
Standard
  9
$CMLJUST
 70
     0
  9
$CMLSCALE
 40
20.0
  9
$PROXYGRAPHICS
 70
     1
  9
$MEASUREMENT
 70
     1
  9
$CELWEIGHT
370
    -1
  9
$ENDCAPS
280
     0
  9
$JOINSTYLE
280
     0
  9
$LWDISPLAY
290
     0
  9
$INSUNITS
 70
     4
  9
$HYPERLINKBASE
  1

  9
$STYLESHEET
  1
monochrome.ctb
  9
$XEDIT
290
     1
  9
$CEPSNTYPE
380
     0
  9
$PSTYLEMODE
290
     1
  9
$FINGERPRINTGUID
  2
{D99C744E-04C5-44F1-9703-862C59725F9B}
  9
$VERSIONGUID
  2
{FABE55BA-DC2F-4CDD-8015-31B7BE3910A1}
  9
$EXTNAMES
290
     1
  9
$PSVPSCALE
 40
0.0
  9
$OLESTARTUP
290
     0
  0
ENDSEC
  0
SECTION
  2
CLASSES
  0
CLASS
  1
ACDBDICTIONARYWDFLT
  2
AcDbDictionaryWithDefault
  3
AutoCAD 2000
 90
        0
280
     0
281
     0
  0
CLASS
  1
ACDBPLACEHOLDER
  2
AcDbPlaceHolder
  3
AutoCAD 2000
 90
        0
280
     0
281
     0
  0
CLASS
  1
LAYOUT
  2
AcDbLayout
  3
AutoCAD 2000
 90
        0
280
     0
281
     0
  0
CLASS
  1
DICTIONARYVAR
  2
AcDbDictionaryVar
  3
AutoCAD 2000
 90
        0
280
     0
281
     0
  0
ENDSEC
  0
SECTION
  2
TABLES
  0
TABLE
  2
VPORT
  5
8
330
0
100
AcDbSymbolTable
 70
     2
  0
VPORT
  5
9B27
330
8
100
AcDbSymbolTableRecord
100
AcDbViewportTableRecord
  2
*Active
 70
     0
 10
0.0
 20
0.0
 11
1.0
 21
1.0
 12
5594.20387482271
 22
-1666.692017696847
 13
0.0
 23
0.0
 14
10.0
 24
10.0
 15
10.0
 25
10.0
 16
0.0
 26
0.0
 36
1.0
 17
0.0
 27
0.0
 37
0.0
 40
924.7756845391595
 41
2.031862745098039
 42
50.0
 43
0.0
 44
0.0
 50
0.0
 51
0.0
 71
     0
 72
   100
 73
     1
 74
     3
 75
     0
 76
     0
 77
     0
 78
     0
281
     0
 65
     1
110
0.0
120
0.0
130
0.0
111
1.0
121
0.0
131
0.0
112
0.0
122
1.0
132
0.0
 79
     0
146
0.0
  0
ENDTAB
  0
TABLE
  2
LTYPE
  5
5
330
0
100
AcDbSymbolTable
 70
     5
  0
LTYPE
  5
14
330
5
100
AcDbSymbolTableRecord
100
AcDbLinetypeTableRecord
  2
ByBlock
 70
     0
  3

 72
    65
 73
     0
 40
0.0
  0
LTYPE
  5
15
330
5
100
AcDbSymbolTableRecord
100
AcDbLinetypeTableRecord
  2
ByLayer
 70
     0
  3

 72
    65
 73
     0
 40
0.0
  0
LTYPE
  5
16
330
5
100
AcDbSymbolTableRecord
100
AcDbLinetypeTableRecord
  2
Continuous
 70
     0
  3
Solid line
 72
    65
 73
     0
 40
0.0
  0
LTYPE
  5
3402
330
5
100
AcDbSymbolTableRecord
100
AcDbLinetypeTableRecord
  2
DASHED
 70
     0
  3
Dashed __ __ __ __ __ __ __ __ __ __ __ __ __ _
 72
    65
 73
     2
 40
19.04999999999999
 49
12.7
 74
     0
 49
-6.349999999999999
 74
     0
  0
LTYPE
  5
3403
330
5
100
AcDbSymbolTableRecord
100
AcDbLinetypeTableRecord
  2
DASHDOT2
 70
     0
  3
Dash dot (.5x) _._._._._._._._._._._._._._._.
 72
    65
 73
     4
 40
12.7
 49
6.349999999999999
 74
     0
 49
-3.174999999999999
 74
     0
 49
0.0
 74
     0
 49
-3.174999999999999
 74
     0
  0
LTYPE
  5
3404
330
5
100
AcDbSymbolTableRecord
100
AcDbLinetypeTableRecord
  2
CIKCAK
 70
     0
  3
Cik-cak /\/\/\/\/\/\/\/\/\/\/\/\/\/\/\/\/\/\/\/
 72
    65
 73
     4
 40
20.32254
 49
0.00254
 74
     0
 49
-5.08
 74
     4
 75
   131
340
340B
 46
5.08
 50
0.0
 44
-5.08
 45
0.0
 49
-10.16
 74
     4
 75
   131
340
340B
 46
5.08
 50
180.0
 44
5.08
 45
0.0
 49
-5.08
 74
     0
  0
LTYPE
  5
3757
330
5
100
AcDbSymbolTableRecord
100
AcDbLinetypeTableRecord
  2
IZOLACE
 70
     0
  3
Izolace SSSSSSSSSSSSSSSSSSSSSSSSSSSSSSSSSSSSSSS
 72
    65
 73
     4
 40
10.16253999999999
 49
0.00254
 74
     0
 49
-2.54
 74
     4
 75
   134
340
340B
 46
2.54
 50
0.0
 44
-2.54
 45
0.0
 49
-5.08
 74
     4
 75
   134
340
340B
 46
2.54
 50
180.0
 44
2.54
 45
0.0
 49
-2.54
 74
     0
  0
ENDTAB
  0
TABLE
  2
LAYER
  5
2
330
0
100
AcDbSymbolTable
 70
     8
  0
LAYER
  5
10
330
2
100
AcDbSymbolTableRecord
100
AcDbLayerTableRecord
  2
0
 70
     0
 62
     7
  6
Continuous
370
    -3
390
F
  0
LAYER
  5
3405
330
2
100
AcDbSymbolTableRecord
100
AcDbLayerTableRecord
  2
POPIS
 70
     0
 62
    30
  6
Continuous
370
    -3
390
F
  0
LAYER
  5
3406
330
2
100
AcDbSymbolTableRecord
100
AcDbLayerTableRecord
  2
SPOJOVACÍ
 70
     0
 62
   180
  6
Continuous
370
    -3
390
F
  0
LAYER
  5
3407
330
2
100
AcDbSymbolTableRecord
100
AcDbLayerTableRecord
  2
CETRIS
 70
     0
 62
     1
  6
Continuous
370
    -3
390
F
  0
LAYER
  5
3408
330
2
100
AcDbSymbolTableRecord
100
AcDbLayerTableRecord
  2
izolace
 70
     0
 62
    73
  6
Continuous
370
    -3
390
F
  0
LAYER
  5
3409
330
2
100
AcDbSymbolTableRecord
100
AcDbLayerTableRecord
  2
STAVBA OBRYS
 70
     0
 62
     6
  6
Continuous
370
    -3
390
F
  0
LAYER
  5
3758
330
2
100
AcDbSymbolTableRecord
100
AcDbLayerTableRecord
  2
NOSNÉ KONSTRUKCE
 70
     0
 62
    33
  6
Continuous
370
    -3
390
F
  0
LAYER
  5
56AA
330
2
100
AcDbSymbolTableRecord
100
AcDbLayerTableRecord
  2
Defpoints
 70
     0
 62
     7
  6
Continuous
290
     0
370
    -3
390
F
  0
ENDTAB
  0
TABLE
  2
STYLE
  5
3
330
0
100
AcDbSymbolTable
 70
     3
  0
STYLE
  5
11
330
3
100
AcDbSymbolTableRecord
100
AcDbTextStyleTableRecord
  2
Standard
 70
     0
 40
0.0
 41
1.0
 50
0.0
 71
     0
 42
2.5
  3
txt
  4

  0
STYLE
  5
340A
330
3
100
AcDbSymbolTableRecord
100
AcDbTextStyleTableRecord
  2
SIMPLEX7
 70
     0
 40
0.0
 41
0.85
 50
0.0
 71
     0
 42
102.0
  3
ARIAL.TTF
  4

1001
ACAD
1000
Arial CE
1071
    60962
  0
STYLE
  5
340B
330
3
100
AcDbSymbolTableRecord
100
AcDbTextStyleTableRecord
  2

 70
     1
 40
0.0
 41
1.0
 50
0.0
 71
     0
 42
2.5
  3
ltypeshp.shx
  4

  0
ENDTAB
  0
TABLE
  2
VIEW
  5
6
330
0
100
AcDbSymbolTable
 70
     0
  0
ENDTAB
  0
TABLE
  2
UCS
  5
7
330
0
100
AcDbSymbolTable
 70
     0
  0
ENDTAB
  0
TABLE
  2
APPID
  5
9
330
0
100
AcDbSymbolTable
 70
     1
  0
APPID
  5
12
330
9
100
AcDbSymbolTableRecord
100
AcDbRegAppTableRecord
  2
ACAD
 70
     0
  0
ENDTAB
  0
TABLE
  2
DIMSTYLE
  5
A
330
0
100
AcDbSymbolTable
 70
     1
100
AcDbDimStyleTable
 71
     1
340
27
  0
DIMSTYLE
105
27
330
A
100
AcDbSymbolTableRecord
100
AcDbDimStyleTableRecord
  2
ISO-25
 70
     0
 41
2.5
 42
0.625
 43
3.75
 44
1.25
 73
     0
 74
     0
 77
     1
 78
     8
140
2.5
141
2.5
143
0.03937007874016
147
0.625
171
     3
172
     1
271
     2
272
     2
274
     3
278
    44
283
     0
284
     8
340
11
  0
ENDTAB
  0
TABLE
  2
BLOCK_RECORD
  5
1
330
0
100
AcDbSymbolTable
 70
     3
  0
BLOCK_RECORD
  5
1F
330
1
100
AcDbSymbolTableRecord
100
AcDbBlockTableRecord
  2
*Model_Space
340
22
  0
BLOCK_RECORD
  5
1B
330
1
100
AcDbSymbolTableRecord
100
AcDbBlockTableRecord
  2
*Paper_Space
340
1E
  0
BLOCK_RECORD
  5
23
330
1
100
AcDbSymbolTableRecord
100
AcDbBlockTableRecord
  2
*Paper_Space0
340
26
  0
BLOCK_RECORD
  5
33FA
330
1
100
AcDbSymbolTableRecord
100
AcDbBlockTableRecord
  2
E_PUNKT
340
0
102
{BLKREFS
331
43B3
331
4478
331
4479
331
4D8B
331
4DA1
331
4DA7
331
4DF9
331
4DFC
331
4E0B
331
4E13
331
4E17
331
4B02
331
475B
331
4763
331
4769
331
476A
331
476B
331
476C
331
4FB8
331
59FB
331
594B
331
5864
331
5855
331
5910
331
57E8
331
5AED
331
5B49
331
5B4D
331
6E80
331
6E6D
331
6DAA
331
6D50
331
6FA1
331
707A
331
70B1
331
70B2
331
70BB
331
70BC
331
7646
331
7677
331
76B6
331
7779
331
7A28
331
7A2B
331
78FB
331
792A
331
794D
331
97D6
331
97D9
331
98CA
331
9958
331
9969
331
9AB5
331
9AB9
331
9ABC
331
9B15
102
}
  0
BLOCK_RECORD
  5
3730
330
1
100
AcDbSymbolTableRecord
100
AcDbBlockTableRecord
  2
SYM_KOMPON-2_K___-SPO
340
0
102
{BLKREFS
331
4DB5
331
6B31
102
}
  0
ENDTAB
  0
ENDSEC
  0
SECTION
  2
BLOCKS
  0
BLOCK
  5
20
330
1F
100
AcDbEntity
  8
0
100
AcDbBlockBegin
  2
*Model_Space
 70
     0
 10
0.0
 20
0.0
 30
0.0
  3
*Model_Space
  1

  0
ENDBLK
  5
21
330
1F
100
AcDbEntity
  8
0
100
AcDbBlockEnd
  0
BLOCK
  5
1C
330
1B
100
AcDbEntity
 67
     1
  8
0
100
AcDbBlockBegin
  2
*Paper_Space
 70
     0
 10
0.0
 20
0.0
 30
0.0
  3
*Paper_Space
  1

  0
ENDBLK
  5
1D
330
1B
100
AcDbEntity
 67
     1
  8
0
100
AcDbBlockEnd
  0
BLOCK
  5
24
330
23
100
AcDbEntity
  8
0
100
AcDbBlockBegin
  2
*Paper_Space0
 70
     0
 10
0.0
 20
0.0
 30
0.0
  3
*Paper_Space0
  1

  0
ENDBLK
  5
25
330
23
100
AcDbEntity
  8
0
100
AcDbBlockEnd
  0
BLOCK
  5
33FC
330
33FA
100
AcDbEntity
  8
0
100
AcDbBlockBegin
  2
E_PUNKT
 70
     0
 10
0.0
 20
0.0
 30
0.0
  3
E_PUNKT
  1

  0
LWPOLYLINE
  5
33FB
330
33FA
100
AcDbEntity
  8
POPIS
100
AcDbPolyline
 90
        2
 70
     1
 43
2.5
 10
1.27761037562675
 20
0.0290683308725193
 42
-1.0
 10
-1.222389624373249
 20
0.0290683308725193
 42
-1.0
  0
ENDBLK
  5
33FD
330
33FA
100
AcDbEntity
  8
0
100
AcDbBlockEnd
  0
BLOCK
  5
3755
330
3730
100
AcDbEntity
  8
0
  6
Continuous
 62
     7
100
AcDbBlockBegin
  2
SYM_KOMPON-2_K___-SPO
 70
     0
 10
0.0
 20
0.0
 30
0.0
  3
SYM_KOMPON-2_K___-SPO
  1

  0
ARC
  5
3731
330
3730
100
AcDbEntity
  8
0
  6
Continuous
 62
     5
100
AcDbCircle
 39
2.500000155029299
 10
-0.0508188465429459
 20
0.0106048761117461
 30
0.0
 40
0.011751466147934
100
AcDbArc
 50
244.4784797551157
 51
325.5219527481187
  0
LINE
  5
3732
330
3730
100
AcDbEntity
  8
0
  6
Continuous
 62
     5
100
AcDbLine
 39
2.500000155029299
 10
-0.0558819096713726
 20
0.0000000968933121
 30
0.0
 11
-0.0473700259934526
 21
-0.0147428987899281
 31
0.0
  0
LINE
  5
3733
330
3730
100
AcDbEntity
  8
0
  6
Continuous
 62
     5
100
AcDbLine
 39
2.500000155029299
 10
-0.0279409548356863
 20
-0.0234403331604447
 30
0.0
 11
-0.0356294633710414
 21
-0.0234403331604447
 31
0.0
  0
ARC
  5
3734
330
3730
100
AcDbEntity
  8
0
  6
Continuous
 62
     5
100
AcDbCircle
 39
2.500000155029299
 10
-0.0337367494132451
 20
-0.0086124589358392
 30
0.0
 40
0.014948212690269
100
AcDbArc
 50
204.2119054656276
 51
262.7260677832351
  0
LINE
  5
3735
330
3730
100
AcDbEntity
  8
0
  6
Continuous
 62
     5
100
AcDbLine
 39
2.500000155029299
 10
-0.0411315500964158
 20
0.0039524719855855
 30
0.0
 11
-0.0360044404887169
 21
0.0290662495386328
 31
0.0
  0
LINE
  5
3736
330
3730
100
AcDbEntity
  8
0
  6
Continuous
 62
     5
100
AcDbLine
 39
2.500000155029299
 10
-0.0360044404887169
 20
0.0290662495386328
 30
0.0
 11
-0.0330041390807532
 21
0.0290662495386328
 31
0.0
  0
LINE
  5
3737
330
3730
100
AcDbEntity
  8
0
  6
Continuous
 62
     5
100
AcDbLine
 39
2.500000155029299
 10
-0.0330041390807532
 20
0.0290662495386328
 30
0.0
 11
-0.0330041390807532
 21
0.0266284138071823
 31
0.0
  0
LINE
  5
3738
330
3730
100
AcDbEntity
  8
0
  6
Continuous
 62
     5
100
AcDbLine
 39
2.500000155029299
 10
-0.0330041390807532
 20
0.0266284138071823
 30
0.0
 11
-0.031691428488953
 21
0.0266284138071823
 31
0.0
  0
LINE
  5
3739
330
3730
100
AcDbEntity
  8
0
  6
Continuous
 62
     5
100
AcDbLine
 39
2.500000155029299
 10
-0.031691428488953
 20
0.0266284138071823
 30
0.0
 11
-0.031691428488953
 21
0.0290662495386328
 31
0.0
  0
LINE
  5
373A
330
3730
100
AcDbEntity
  8
0
  6
Continuous
 62
     5
100
AcDbLine
 39
2.500000155029299
 10
-0.031691428488953
 20
0.0290662495386328
 30
0.0
 11
-0.0279409548356863
 21
0.0290662495386328
 31
0.0
  0
CIRCLE
  5
373B
330
3730
100
AcDbEntity
  8
0
  6
Continuous
 62
     5
100
AcDbCircle
 39
2.500000155029299
 10
-0.0328383546238171
 20
0.0189341158964315
 30
0.0
 40
0.0013649867099716
  0
CIRCLE
  5
373C
330
3730
100
AcDbEntity
  8
0
  6
Continuous
 62
     5
100
AcDbCircle
 39
2.500000155029299
 10
-0.0329103463546783
 20
0.0132205110708283
 30
0.0
 40
0.0014585928407229
  0
CIRCLE
  5
373D
330
3730
100
AcDbEntity
  8
0
  6
Continuous
 62
     5
100
AcDbCircle
 39
2.500000155029299
 10
-0.0330509385504785
 20
0.0073604035573891
 30
0.0
 40
0.0015249057151225
  0
CIRCLE
  5
373E
330
3730
100
AcDbEntity
  8
0
  6
Continuous
 62
     5
100
AcDbCircle
 39
2.500000155029299
 10
-0.033113725416694
 20
0.0012600006300391
 30
0.0
 40
0.0016056164247336
  0
CIRCLE
  5
373F
330
3730
100
AcDbEntity
  8
0
  6
Continuous
 62
     5
100
AcDbCircle
 39
2.500000155029299
 10
-0.033426012561466
 20
-0.0052037522175391
 30
0.0
 40
0.0017900717687164
  0
CIRCLE
  5
3740
330
3730
100
AcDbEntity
  8
0
  6
Continuous
 62
     5
100
AcDbCircle
 39
2.500000155029299
 10
-0.0335356957907189
 20
-0.0113853517403961
 30
0.0
 40
0.0017680026136918
  0
CIRCLE
  5
3741
330
3730
100
AcDbEntity
  8
0
  6
Continuous
 62
     5
100
AcDbCircle
 39
2.500000155029299
 10
-0.0403631861317734
 20
-0.0080739259074051
 30
0.0
 40
0.0018960946260124
  0
ARC
  5
3742
330
3730
100
AcDbEntity
  8
0
  6
Continuous
 62
     5
100
AcDbCircle
 39
2.500000155029299
 10
-0.0050630631284268
 20
0.0106048761117461
 30
0.0
 40
0.011751466147934
100
AcDbArc
 50
214.4780759391286
 51
295.5215216113749
  0
LINE
  5
3743
330
3730
100
AcDbEntity
  8
0
  6
Continuous
 62
     5
100
AcDbLine
 39
2.500000155029299
 10
0.0
 20
0.0000000968933121
 30
0.0
 11
-0.0085118836779201
 21
-0.0147428987899281
 31
0.0
  0
LINE
  5
3744
330
3730
100
AcDbEntity
  8
0
  6
Continuous
 62
     5
100
AcDbLine
 39
2.500000155029299
 10
-0.0279409548356863
 20
-0.0234403331604447
 30
0.0
 11
-0.0202524463003312
 21
-0.0234403331604447
 31
0.0
  0
ARC
  5
3745
330
3730
100
AcDbEntity
  8
0
  6
Continuous
 62
     5
100
AcDbCircle
 39
2.500000155029299
 10
-0.0221451602581275
 20
-0.0086124589358392
 30
0.0
 40
0.014948212690269
100
AcDbArc
 50
277.2739609040121
 51
335.7881642027547
  0
LINE
  5
3746
330
3730
100
AcDbEntity
  8
0
  6
Continuous
 62
     5
100
AcDbLine
 39
2.500000155029299
 10
-0.0147503595749568
 20
0.0039524719855855
 30
0.0
 11
-0.0198774691826558
 21
0.0290662495386328
 31
0.0
  0
LINE
  5
3747
330
3730
100
AcDbEntity
  8
0
  6
Continuous
 62
     5
100
AcDbLine
 39
2.500000155029299
 10
-0.0198774691826558
 20
0.0290662495386328
 30
0.0
 11
-0.0228777705906195
 21
0.0290662495386328
 31
0.0
  0
LINE
  5
3748
330
3730
100
AcDbEntity
  8
0
  6
Continuous
 62
     5
100
AcDbLine
 39
2.500000155029299
 10
-0.0228777705906195
 20
0.0290662495386328
 30
0.0
 11
-0.0228777705906195
 21
0.0266284138071823
 31
0.0
  0
LINE
  5
3749
330
3730
100
AcDbEntity
  8
0
  6
Continuous
 62
     5
100
AcDbLine
 39
2.500000155029299
 10
-0.0228777705906195
 20
0.0266284138071823
 30
0.0
 11
-0.0241904811824196
 21
0.0266284138071823
 31
0.0
  0
LINE
  5
374A
330
3730
100
AcDbEntity
  8
0
  6
Continuous
 62
     5
100
AcDbLine
 39
2.500000155029299
 10
-0.0241904811824196
 20
0.0266284138071823
 30
0.0
 11
-0.0241904811824196
 21
0.0290662495386328
 31
0.0
  0
LINE
  5
374B
330
3730
100
AcDbEntity
  8
0
  6
Continuous
 62
     5
100
AcDbLine
 39
2.500000155029299
 10
-0.0241904811824196
 20
0.0290662495386328
 30
0.0
 11
-0.0279409548356863
 21
0.0290662495386328
 31
0.0
  0
CIRCLE
  5
374C
330
3730
100
AcDbEntity
  8
0
  6
Continuous
 62
     5
100
AcDbCircle
 39
2.500000155029299
 10
-0.0230435550475556
 20
0.0189341158964315
 30
0.0
 40
0.0013649867099716
  0
CIRCLE
  5
374D
330
3730
100
AcDbEntity
  8
0
  6
Continuous
 62
     5
100
AcDbCircle
 39
2.500000155029299
 10
-0.0229715633166944
 20
0.0132205110708283
 30
0.0
 40
0.0014585928407229
  0
CIRCLE
  5
374E
330
3730
100
AcDbEntity
  8
0
  6
Continuous
 62
     5
100
AcDbCircle
 39
2.500000155029299
 10
-0.0228309711208941
 20
0.0073604035573891
 30
0.0
 40
0.0015249057151225
  0
CIRCLE
  5
374F
330
3730
100
AcDbEntity
  8
0
  6
Continuous
 62
     5
100
AcDbCircle
 39
2.500000155029299
 10
-0.0227681842546787
 20
0.0012600006300391
 30
0.0
 40
0.0016056164247336
  0
CIRCLE
  5
3750
330
3730
100
AcDbEntity
  8
0
  6
Continuous
 62
     5
100
AcDbCircle
 39
2.500000155029299
 10
-0.0224558971099066
 20
-0.0052037522175391
 30
0.0
 40
0.0017900717687164
  0
CIRCLE
  5
3751
330
3730
100
AcDbEntity
  8
0
  6
Continuous
 62
     5
100
AcDbCircle
 39
2.500000155029299
 10
-0.0223462138806537
 20
-0.0113853517403961
 30
0.0
 40
0.0017680026136918
  0
CIRCLE
  5
3752
330
3730
100
AcDbEntity
  8
0
  6
Continuous
 62
     5
100
AcDbCircle
 39
2.500000155029299
 10
-0.0155187235395992
 20
-0.0080739259074051
 30
0.0
 40
0.0018960946260124
  0
CIRCLE
  5
3753
330
3730
100
AcDbEntity
  8
0
  6
Continuous
 62
     5
100
AcDbCircle
 39
2.500000155029299
 10
-0.0280347717850892
 20
-0.0082510468818523
 30
0.0
 40
0.0018752247149693
  0
CIRCLE
  5
3754
330
3730
100
AcDbEntity
  8
0
  6
Continuous
 62
     5
100
AcDbCircle
 39
2.500000155029299
 10
-0.0278472347795955
 20
0.0103139054956274
 30
0.0
 40
0.0016877361561316
  0
ENDBLK
  5
3756
330
3730
100
AcDbEntity
  8
0
100
AcDbBlockEnd
  0
ENDSEC
  0
SECTION
  2
ENTITIES
  0
TEXT
  5
43AE
330
1F
100
AcDbEntity
  8
POPIS
100
AcDbText
 10
5344.580516015539
 20
-1294.168972057723
 30
0.0
 40
50.0
  1
Protipožární podhled 
 41
0.85
  7
SIMPLEX7
100
AcDbText
  0
LINE
  5
763E
330
1F
100
AcDbEntity
  8
SPOJOVACÍ
  6
Continuous
100
AcDbLine
 10
5794.03641019353
 20
-1615.806629308966
 30
0.0
 11
5794.39080717466
 21
-1618.642735310235
 31
0.0
  0
LINE
  5
763F
330
1F
100
AcDbEntity
  8
SPOJOVACÍ
  6
Continuous
100
AcDbLine
 10
5793.650387239632
 20
-1618.895743126771
 30
0.0
 11
5794.03641019353
 21
-1615.806629308966
 31
0.0
  0
LINE
  5
7640
330
1F
100
AcDbEntity
  8
POPIS
100
AcDbLine
 10
5672.168902101335
 20
-1604.478831182726
 30
0.0
 11
5672.168902101335
 21
-1761.576946901679
 31
0.0
  0
LINE
  5
7641
330
1F
100
AcDbEntity
  8
POPIS
100
AcDbLine
 10
5721.833553133464
 20
-1604.478831182726
 30
0.0
 11
5721.833553133464
 21
-1761.576946901679
 31
0.0
  0
LINE
  5
7642
330
1F
100
AcDbEntity
  8
SPOJOVACÍ
  6
DASHED
 48
0.5
100
AcDbLine
 10
5673.257542824596
 20
-1609.487967479667
 30
0.0
 11
5673.257542824596
 21
-1638.487910969474
 31
0.0
  0
LINE
  5
7643
330
1F
100
AcDbEntity
  8
SPOJOVACÍ
  6
DASHED
 48
0.5
100
AcDbLine
 10
5674.757542824596
 20
-1609.487967479667
 30
0.0
 11
5674.757542824596
 21
-1638.487910969474
 31
0.0
  0
LINE
  5
7644
330
1F
100
AcDbEntity
  8
SPOJOVACÍ
  6
DASHED
 48
0.5
100
AcDbLine
 10
5738.92998301493
 20
-1609.487967479667
 30
0.0
 11
5738.92998301493
 21
-1638.487910969474
 31
0.0
  0
LINE
  5
7645
330
1F
100
AcDbEntity
  8
SPOJOVACÍ
  6
DASHED
 48
0.5
100
AcDbLine
 10
5737.42998301493
 20
-1609.487967479667
 30
0.0
 11
5737.42998301493
 21
-1638.487910969474
 31
0.0
  0
INSERT
  5
7646
330
1F
100
AcDbEntity
  8
POPIS
100
AcDbBlockReference
  2
E_PUNKT
 10
5776.451991983897
 20
-1616.456062170733
 30
0.0
  0
LINE
  5
7647
330
1F
100
AcDbEntity
  8
SPOJOVACÍ
  6
Continuous
100
AcDbLine
 10
5608.736047820181
 20
-1618.895743126771
 30
0.0
 11
5609.12207077408
 21
-1615.806629308966
 31
0.0
  0
LINE
  5
7648
330
1F
100
AcDbEntity
  8
SPOJOVACÍ
  6
Continuous
100
AcDbLine
 10
5609.12207077408
 20
-1615.806629308966
 30
0.0
 11
5609.476467755209
 21
-1618.642735310235
 31
0.0
  0
LINE
  5
7649
330
1F
100
AcDbEntity
  8
SPOJOVACÍ
  6
Continuous
100
AcDbLine
 10
5993.243474655602
 20
-1615.806629308966
 30
0.0
 11
5993.597871636731
 21
-1618.642735310235
 31
0.0
  0
LINE
  5
764A
330
1F
100
AcDbEntity
  8
SPOJOVACÍ
  6
Continuous
100
AcDbLine
 10
5992.857451701703
 20
-1618.895743126771
 30
0.0
 11
5993.243474655602
 21
-1615.806629308966
 31
0.0
  0
LINE
  5
764B
330
1F
100
AcDbEntity
  8
POPIS
100
AcDbLine
 10
5830.372492569023
 20
-1595.342643577865
 30
0.0
 11
5830.372492569023
 21
-1761.553561615988
 31
0.0
  0
LINE
  5
764C
330
1F
100
AcDbEntity
  8
POPIS
100
AcDbLine
 10
5884.345782123438
 20
-1560.81328900944
 30
0.0
 11
5884.345782123438
 21
-1761.553561615988
 31
0.0
  0
LINE
  5
764D
330
1F
100
AcDbEntity
  8
SPOJOVACÍ
  6
Continuous
100
AcDbLine
 10
5536.236886146526
 20
-1617.884517092847
 30
0.0
 11
5536.236886146526
 21
-1615.366531213521
 31
0.0
  0
LINE
  5
764E
330
1F
100
AcDbEntity
  8
SPOJOVACÍ
100
AcDbLine
 10
5510.979486387759
 20
-1617.000932946255
 30
0.0
 11
5508.592510660831
 21
-1613.221636071255
 31
0.0
  0
LINE
  5
764F
330
1F
100
AcDbEntity
  8
SPOJOVACÍ
  6
Continuous
100
AcDbLine
 10
5538.936256309263
 20
-1616.982246570974
 30
0.0
 11
5538.936256309263
 21
-1614.463330515945
 31
0.0
  0
LINE
  5
7650
330
1F
100
AcDbEntity
  8
SPOJOVACÍ
100
AcDbLine
 10
5510.979486387759
 20
-1606.875932946255
 30
0.0
 11
5510.979486387759
 21
-1617.000932946255
 31
0.0
  0
LINE
  5
7651
330
1F
100
AcDbEntity
  8
SPOJOVACÍ
100
AcDbLine
 10
5512.060677662613
 20
-1606.875932946255
 30
0.0
 11
5512.060677662613
 21
-1617.000932946255
 31
0.0
  0
LINE
  5
7652
330
1F
100
AcDbEntity
  8
NOSNÉ KONSTRUKCE
100
AcDbLine
 10
5600.790232567673
 20
-1609.487967479667
 30
0.0
 11
5600.790232567673
 21
-1639.018336850869
 31
0.0
  0
LINE
  5
7653
330
1F
100
AcDbEntity
  8
NOSNÉ KONSTRUKCE
100
AcDbLine
 10
5510.280307684731
 20
-1598.987967479668
 30
0.0
 11
5510.280307684731
 21
-1624.987910969474
 31
0.0
  0
HATCH
  5
7654
330
1F
100
AcDbEntity
  8
NOSNÉ KONSTRUKCE
100
AcDbHatch
 10
0.0
 20
0.0
 30
0.0
210
0.0
220
0.0
230
1.0
  2
SOLID
 70
     1
 71
     0
 91
        3
 92
        7
 72
     0
 73
     1
 93
        6
 10
5554.142787385853
 20
-1597.487967479667
 10
5507.690050541297
 20
-1597.487967479668
 10
5507.690050541295
 20
-1607.231140867151
 10
5510.280307684731
 20
-1607.231140867151
 10
5510.280307684731
 20
-1598.987967479668
 10
5554.142787385853
 20
-1598.987967479667
 97
        0
 92
        7
 72
     0
 73
     1
 93
        7
 10
5510.280307684731
 20
-1615.893923831076
 10
5509.452042864716
 20
-1614.582532763861
 10
5507.690050541297
 20
-1614.582532763861
 10
5507.690050541297
 20
-1626.487910969474
 10
5536.236886146526
 20
-1626.487910969474
 10
5536.236886146526
 20
-1624.987910969474
 10
5510.280307684731
 20
-1624.987910969474
 97
        0
 92
        7
 72
     0
 73
     1
 93
        6
 10
5554.142787385853
 20
-1624.987910969474
 10
5538.936256309263
 20
-1624.987910969474
 10
5538.936256309263
 20
-1626.336193209231
 10
5539.60877340769
 20
-1626.110061654931
 10
5539.986622720051
 20
-1626.487910969474
 10
5554.142787385853
 20
-1626.487910969474
 97
        0
 75
     0
 76
     1
 47
0.2079962341606263
 98
        3
 10
5547.920021488666
 20
-1598.371169569607
 10
5509.6203318415
 20
-1621.666750978453
 10
5547.08742026399
 20
-1625.826670091668
  0
HATCH
  5
7655
330
1F
100
AcDbEntity
  8
STAVBA OBRYS
100
AcDbHatch
 10
0.0
 20
0.0
 30
0.0
210
0.0
220
0.0
230
1.0
  2
BRICK
 70
     0
 71
     0
 91
        2
 92
        7
 72
     0
 73
     1
 93
        9
 10
5507.690050541297
 20
-1408.449456629814
 10
5355.402476793906
 20
-1410.325563231575
 10
5355.402476793906
 20
-1802.440671206338
 10
5507.690050541297
 20
-1803.178369420504
 10
5507.690050541297
 20
-1626.582532763861
 10
5471.629387034063
 20
-1626.582532763861
 10
5467.392306778518
 20
-1623.938432946255
 10
5471.629387034064
 20
-1621.294333128649
 10
5507.690050541297
 20
-1621.294333128644
 97
        0
 92
       24
 93
        4
 72
     1
 10
5454.768339945982
 20
-1799.99231661514
 11
5495.599769004646
 21
-1799.99231661514
 72
     1
 10
5495.599769004646
 20
-1799.99231661514
 11
5495.599769004646
 21
-1761.699342536013
 72
     1
 10
5495.599769004646
 20
-1761.699342536013
 11
5454.768339945982
 21
-1761.699342536013
 72
     1
 10
5454.768339945982
 20
-1761.699342536013
 11
5454.768339945982
 21
-1799.99231661514
 97
        0
 75
     0
 76
     1
 52
0.0
 41
10.0
 77
     0
 78
     3
 53
0.0
 43
4954.284923644047
 44
70.65197438193536
 45
0.0
 46
63.5
 79
     0
 53
90.0
 43
4954.284923644047
 44
70.65197438193536
 45
-127.0
 46
0.0000000000000078
 79
     2
 49
63.5
 49
-63.5
 53
90.0
 43
5017.784923644047
 44
70.65197438193536
 45
-127.0
 46
0.0000000000000078
 79
     2
 49
-63.5
 49
63.5
 47
1.098743268595766
 98
        1
 10
5456.983589834674
 20
-1538.103267151313
  0
LINE
  5
7656
330
1F
100
AcDbEntity
  8
STAVBA OBRYS
100
AcDbLine
 10
5507.690050541297
 20
-1408.449625905201
 30
0.0
 11
5507.690050541297
 21
-1803.178369420504
 31
0.0
  0
TEXT
  5
7657
330
1F
100
AcDbEntity
  8
POPIS
100
AcDbText
 10
5895.722810288212
 20
-2035.129437172082
 30
0.0
 40
25.0
  1
09
 41
0.85
  7
SIMPLEX7
100
AcDbText
  0
TEXT
  5
7658
330
1F
100
AcDbEntity
  8
POPIS
100
AcDbText
 10
5898.355177963487
 20
-2003.078631531225
 30
0.0
 40
25.0
  1
08
 41
0.85
  7
SIMPLEX7
100
AcDbText
  0
TEXT
  5
7659
330
1F
100
AcDbEntity
  8
POPIS
100
AcDbText
 10
5897.535435187748
 20
-1969.639679523199
 30
0.0
 40
25.0
  1
07
 41
0.85
  7
SIMPLEX7
100
AcDbText
  0
TEXT
  5
765A
330
1F
100
AcDbEntity
  8
POPIS
100
AcDbText
 10
5897.535435187748
 20
-1934.639679523199
 30
0.0
 40
25.0
  1
06
 41
0.85
  7
SIMPLEX7
100
AcDbText
  0
TEXT
  5
765B
330
1F
100
AcDbEntity
  8
POPIS
100
AcDbText
 10
5897.535435187748
 20
-1902.962943453933
 30
0.0
 40
25.0
  1
05
 41
0.85
  7
SIMPLEX7
100
AcDbText
  0
LINE
  5
765C
330
1F
100
AcDbEntity
  8
CETRIS
100
AcDbLine
 10
5514.690050541297
 20
-1639.571888656917
 30
0.0
 11
6046.595506367522
 21
-1639.571888656917
 31
0.0
  0
LINE
  5
765D
330
1F
100
AcDbEntity
  8
CETRIS
100
AcDbLine
 10
5514.690050541297
 20
-1651.571888656915
 30
0.0
 11
6046.855626653344
 21
-1651.571888656917
 31
0.0
  0
LINE
  5
765E
330
1F
100
AcDbEntity
  8
NOSNÉ KONSTRUKCE
100
AcDbLine
 10
6046.385899223273
 20
-1629.902186338075
 30
0.0
 11
5600.790232567673
 21
-1629.902186338074
 31
0.0
  0
LINE
  5
765F
330
1F
100
AcDbEntity
  8
NOSNÉ KONSTRUKCE
100
AcDbLine
 10
6046.279374673426
 20
-1624.987942167859
 30
0.0
 11
5600.790232567673
 21
-1624.98794216786
 31
0.0
  0
LINE
  5
7660
330
1F
100
AcDbEntity
  8
NOSNÉ KONSTRUKCE
100
AcDbLine
 10
6046.236021579667
 20
-1622.987955417642
 30
0.0
 11
5600.790232567673
 21
-1622.987955417642
 31
0.0
  0
LINE
  5
7661
330
1F
100
AcDbEntity
  8
NOSNÉ KONSTRUKCE
100
AcDbLine
 10
6046.12949702982
 20
-1618.073711247411
 30
0.0
 11
5600.790232567673
 21
-1618.073711247411
 31
0.0
  0
LINE
  5
7662
330
1F
100
AcDbEntity
  8
NOSNÉ KONSTRUKCE
100
AcDbLine
 10
6046.385899223273
 20
-1639.01833685087
 30
0.0
 11
5600.790232567673
 21
-1639.018336850869
 31
0.0
  0
HATCH
  5
7663
330
1F
100
AcDbEntity
  8
CETRIS
100
AcDbHatch
 10
0.0
 20
0.0
 30
0.0
210
0.0
220
0.0
230
1.0
  2
ANSI31
 70
     0
 71
     0
 91
       10
 92
        7
 72
     1
 73
     1
 93
       18
 10
6046.855626653344
 20
-1639.571888656917
 42
0.0
 10
5995.642986233146
 20
-1639.571888656917
 42
0.0
 10
5995.265676837578
 20
-1639.790282027529
 42
0.0
 10
5994.593159739153
 20
-1640.016413581782
 42
0.0
 10
5994.593159739153
 20
-1644.972291385829
 42
0.0
 10
5994.820122630035
 20
-1646.495919339258
 42
0.0
 10
5995.433108479184
 20
-1647.909786548961
 42
0.0
 10
5996.391189549169
 20
-1649.117154731861
 42
0.0
 10
5997.628323358068
 20
-1650.035238242302
 42
0.0
 10
5998.343628544236
 20
-1650.371961880185
 42
0.0
 10
5998.343628544236
 20
-1651.571888656917
 42
0.0
 10
6031.687521408954
 20
-1651.571888656917
 42
0.0
 10
6031.687521408954
 20
-1645.142980838873
 42
-0.3954850216876489
 10
6030.517920753869
 20
-1643.89556914046
 42
-1.0
 10
6033.01792075387
 20
-1643.89556914046
 42
-0.433193455262839
 10
6031.687521408954
 20
-1645.142980838873
 42
0.0
 10
6031.687521408954
 20
-1651.571888656917
 42
0.0
 10
6046.855626653344
 20
-1651.571888656917
 42
0.0
 97
        0
 92
        7
 72
     0
 73
     1
 93
       14
 10
5991.399866230196
 20
-1647.240059976001
 10
5991.827747094496
 20
-1645.759220108951
 10
5991.893789576416
 20
-1644.972291385824
 10
5991.893789576416
 20
-1640.92406748654
 10
5991.221272477988
 20
-1641.150199040793
 10
5990.775886349723
 20
-1640.703715905053
 10
5991.893789576417
 20
-1640.327824801616
 10
5991.893789576416
 20
-1639.571888656917
 10
5884.345782123438
 20
-1639.571888656917
 10
5884.345782123438
 20
-1651.571888656917
 10
5988.143320766968
 20
-1651.571888656917
 10
5988.143320766968
 20
-1650.371961880185
 10
5989.493005850518
 20
-1649.627821243711
 10
5990.603635750876
 20
-1648.5590492543
 97
        0
 92
        7
 72
     0
 73
     1
 93
        4
 10
5884.345782123437
 20
-1639.571888656917
 10
5830.372492569023
 20
-1639.571888656917
 10
5830.372492569023
 20
-1651.571888656916
 10
5884.345782123438
 20
-1651.571888656917
 97
        0
 92
        7
 72
     0
 73
     1
 93
       12
 10
5830.372492569023
 20
-1639.571888656917
 10
5796.435921771075
 20
-1639.571888656917
 10
5796.058612375509
 20
-1639.790282027528
 10
5795.386095277081
 20
-1640.016413581782
 10
5795.386095277081
 20
-1644.972291385832
 10
5795.613058167965
 20
-1646.495919339258
 10
5796.226044017114
 20
-1647.909786548961
 10
5797.184125087097
 20
-1649.117154731861
 10
5798.421258895996
 20
-1650.035238242302
 10
5799.136564082164
 20
-1650.371961880185
 10
5799.136564082164
 20
-1651.571888656916
 10
5830.372492569023
 20
-1651.571888656916
 97
        0
 92
        7
 72
     0
 73
     1
 93
       14
 10
5792.192801768123
 20
-1647.240059976003
 10
5792.620682632423
 20
-1645.75922010895
 10
5792.686725114346
 20
-1644.972291385832
 10
5792.686725114345
 20
-1640.92406748654
 10
5792.014208015919
 20
-1641.150199040794
 10
5791.568821887653
 20
-1640.703715905053
 10
5792.686725114346
 20
-1640.327824801616
 10
5792.686725114345
 20
-1639.571888656917
 10
5776.399203014609
 20
-1639.571888656917
 10
5776.399203014609
 20
-1651.571888656916
 10
5788.936256304896
 20
-1651.571888656916
 10
5788.936256304896
 20
-1650.371961880185
 10
5790.285941388447
 20
-1649.627821243712
 10
5791.396571288806
 20
-1648.5590492543
 97
        0
 92
        7
 72
     0
 73
     1
 93
        4
 10
5776.399203014609
 20
-1639.571888656917
 10
5721.833553133463
 20
-1639.571888656917
 10
5721.833553133463
 20
-1651.571888656916
 10
5776.399203014609
 20
-1651.571888656916
 97
        0
 92
        7
 72
     0
 73
     1
 93
        4
 10
5721.833553133465
 20
-1639.571888656917
 10
5672.168902101335
 20
-1639.571888656917
 10
5672.168902101335
 20
-1651.571888656916
 10
5721.833553133464
 20
-1651.571888656916
 97
        0
 92
        7
 72
     0
 73
     1
 93
       12
 10
5672.168902101335
 20
-1639.571888656917
 10
5611.521582351626
 20
-1639.571888656917
 10
5611.14427295606
 20
-1639.790282027527
 10
5610.471755857631
 20
-1640.016413581781
 10
5610.471755857631
 20
-1644.972291385831
 10
5610.698718748516
 20
-1646.495919339258
 10
5611.311704597662
 20
-1647.909786548962
 10
5612.269785667648
 20
-1649.117154731861
 10
5613.506919476546
 20
-1650.035238242302
 10
5614.222224662714
 20
-1650.371961880186
 10
5614.222224662714
 20
-1651.571888656916
 10
5672.168902101335
 20
-1651.571888656917
 97
        0
 92
        7
 72
     0
 73
     1
 93
       14
 10
5607.278462348675
 20
-1647.240059976001
 10
5607.706343212974
 20
-1645.759220108951
 10
5607.772385694895
 20
-1644.972291385824
 10
5607.772385694894
 20
-1640.92406748654
 10
5607.099868596467
 20
-1641.150199040794
 10
5606.654482468202
 20
-1640.703715905053
 10
5607.772385694895
 20
-1640.327824801616
 10
5607.772385694894
 20
-1639.571888656917
 10
5572.89463429512
 20
-1639.571888656917
 10
5572.89463429512
 20
-1651.571888656916
 10
5604.021916885447
 20
-1651.571888656916
 10
5604.021916885447
 20
-1650.371961880185
 10
5605.371601968998
 20
-1649.627821243712
 10
5606.482231869355
 20
-1648.559049254299
 97
        0
 92
        7
 72
     0
 73
     1
 93
        4
 10
5572.894634295119
 20
-1639.571888656917
 10
5514.690050541297
 20
-1639.571888656917
 10
5514.690050541296
 20
-1651.571888656915
 10
5572.894634295119
 20
-1651.571888656916
 97
        0
 75
     0
 76
     1
 52
0.0
 41
1.0
 77
     0
 78
     1
 53
45.0
 43
3320.705664167944
 44
70.65197438193536
 45
-2.245064030267287
 46
2.245064030267288
 79
     0
 47
0.9591924204579052
 98
       10
 10
6040.281857052455
 20
-1646.281113609502
 10
5927.973132642874
 20
-1648.199506639639
 10
5857.900182360951
 20
-1650.117890121211
 10
5814.70452168896
 20
-1648.199506639639
 10
5783.987602621586
 20
-1648.199506639639
 10
5745.59145795137
 20
-1648.199506639639
 10
5677.438297414134
 20
-1648.199506639639
 10
5640.002072600295
 20
-1648.199506639639
 10
5587.207363268735
 20
-1648.199506639639
 10
5563.209783259867
 20
-1648.199506639639
  0
TEXT
  5
7664
330
1F
100
AcDbEntity
  8
POPIS
100
AcDbText
 10
5428.908025585782
 20
-2005.967362775688
 30
0.0
 40
25.0
  1
CD profil montážní
 41
0.7
  7
SIMPLEX7
100
AcDbText
  0
TEXT
  5
7665
330
1F
100
AcDbEntity
  8
POPIS
100
AcDbText
 10
5428.088282810043
 20
-2041.786496136978
 30
0.0
 40
25.0
  1
CD profil nosný
 41
0.7
  7
SIMPLEX7
100
AcDbText
  0
LINE
  5
7666
330
1F
100
AcDbEntity
  8
NOSNÉ KONSTRUKCE
100
AcDbLine
 10
5554.142787385853
 20
-1624.987910969474
 30
0.0
 11
5510.280307684731
 21
-1624.987910969474
 31
0.0
  0
LINE
  5
7667
330
1F
100
AcDbEntity
  8
CETRIS
100
AcDbLine
 10
5507.690050541291
 20
-1626.487910969474
 30
0.0
 11
5587.69005054129
 21
-1626.487910969474
 31
0.0
  0
LINE
  5
7668
330
1F
100
AcDbEntity
  8
CETRIS
100
AcDbLine
 10
5587.69005054129
 20
-1638.487910969474
 30
0.0
 11
5507.690050541291
 21
-1638.487910969474
 31
0.0
  0
HATCH
  5
7669
330
1F
100
AcDbEntity
  8
CETRIS
100
AcDbHatch
 10
0.0
 20
0.0
 30
0.0
210
0.0
220
0.0
230
1.0
  2
ANSI31
 70
     0
 71
     0
 91
        2
 92
        7
 72
     1
 73
     1
 93
       18
 10
5587.69005054129
 20
-1626.487910969474
 42
0.0
 10
5539.986082803256
 20
-1626.487910969474
 42
0.0
 10
5539.60877340769
 20
-1626.706304340085
 42
0.0
 10
5538.936256309263
 20
-1626.932435894339
 42
0.0
 10
5538.936256309263
 20
-1631.888313698387
 42
0.0
 10
5539.163219200146
 20
-1633.411941651815
 42
0.0
 10
5539.776205049295
 20
-1634.82580886152
 42
0.0
 10
5540.734286119278
 20
-1636.033177044418
 42
0.0
 10
5541.971419928179
 20
-1636.95126055486
 42
0.0
 10
5542.686725114346
 20
-1637.287984192743
 42
0.0
 10
5542.686725114347
 20
-1638.487910969475
 42
0.0
 10
5572.89463429512
 20
-1638.487910969474
 42
0.0
 10
5572.89463429512
 20
-1634.580544477513
 42
-0.3280775105340839
 10
5572.017310929453
 20
-1633.38739229685
 42
-1.0
 10
5574.517310929454
 20
-1633.38739229685
 42
-0.5059362003620891
 10
5572.89463429512
 20
-1634.580544477513
 42
0.0
 10
5572.89463429512
 20
-1638.487910969475
 42
0.0
 10
5587.690050541291
 20
-1638.487910969475
 42
0.0
 97
        0
 92
        7
 72
     0
 73
     1
 93
       14
 10
5536.170843664605
 20
-1632.675242421509
 10
5536.236886146528
 20
-1631.888313698383
 10
5536.236886146525
 20
-1627.840089799098
 10
5535.564369048098
 20
-1628.066221353351
 10
5535.118982919834
 20
-1627.61973821761
 10
5536.236886146526
 20
-1627.243847114173
 10
5536.236886146526
 20
-1626.487910969474
 10
5507.690050541292
 20
-1626.487910969474
 10
5507.690050541291
 20
-1638.487910969474
 10
5532.486417337078
 20
-1638.487910969474
 10
5532.486417337078
 20
-1637.287984192744
 10
5533.83610242063
 20
-1636.543843556269
 10
5534.946732320986
 20
-1635.475071566856
 10
5535.742962800306
 20
-1634.15608228856
 97
        0
 75
     0
 76
     1
 52
90.0
 41
1.0
 77
     0
 78
     1
 53
135.0
 43
3320.705664167944
 44
70.65197438193536
 45
-2.245064030267288
 46
-2.245064030267287
 79
     0
 47
0.9591924204579052
 98
        2
 10
5580.488040866254
 20
-1633.811620979289
 10
5523.853735389297
 20
-1633.811620979289
  0
TEXT
  5
766A
330
1F
100
AcDbEntity
  8
POPIS
100
AcDbText
 10
5429.727768361522
 20
-1903.047929852053
 30
0.0
 40
25.0
  1
Deska CETRIS   
 41
0.7
  7
SIMPLEX7
100
AcDbText
  0
LINE
  5
766B
330
1F
100
AcDbEntity
  8
POPIS
100
AcDbLine
 10
5485.652434863865
 20
-1834.399887515731
 30
0.0
 11
5733.451215568251
 21
-1834.399887515731
 31
0.0
  0
TEXT
  5
766C
330
1F
100
AcDbEntity
  8
POPIS
100
AcDbText
 10
5428.908025585782
 20
-1935.547284209797
 30
0.0
 40
25.0
  1
Vrut 4,2x25 (35,45) mm
 41
0.7
  7
SIMPLEX7
100
AcDbText
  0
LINE
  5
766D
330
1F
100
AcDbEntity
  8
POPIS
100
AcDbLine
 10
5509.673746158025
 20
-1812.923060427618
 30
0.0
 11
5509.673746158025
 21
-1849.560002274198
 31
0.0
  0
TEXT
  5
766E
330
1F
100
AcDbEntity
  8
POPIS
100
AcDbText
 10
5374.564322426039
 20
-1935.547284209797
 30
0.0
 40
25.0
  1
02
 41
0.85
  7
SIMPLEX7
100
AcDbText
  0
TEXT
  5
766F
330
1F
100
AcDbEntity
  8
POPIS
100
AcDbText
 10
5374.564322426039
 20
-2005.967362775688
 30
0.0
 40
25.0
  1
03
 41
0.85
  7
SIMPLEX7
100
AcDbText
  0
TEXT
  5
7670
330
1F
100
AcDbEntity
  8
POPIS
100
AcDbText
 10
5373.744579650301
 20
-2041.786496136978
 30
0.0
 40
25.0
  1
04
 41
0.85
  7
SIMPLEX7
100
AcDbText
  0
TEXT
  5
7671
330
1F
100
AcDbEntity
  8
POPIS
100
AcDbText
 10
5376.203807977518
 20
-1902.228796490763
 30
0.0
 40
25.0
  1
01
 41
0.85
  7
SIMPLEX7
100
AcDbText
  0
LINE
  5
7672
330
1F
100
AcDbEntity
  8
POPIS
100
AcDbLine
 10
5516.942105060323
 20
-1825.095947727964
 30
0.0
 11
5503.342276143349
 21
-1841.705633428141
 31
0.0
  0
LINE
  5
7673
330
1F
100
AcDbEntity
  8
POPIS
100
AcDbLine
 10
5476.745186070655
 20
-1702.278275854252
 30
0.0
 11
5476.745186070655
 21
-1761.57189013151
 31
0.0
  0
TEXT
  5
7674
330
1F
100
AcDbEntity
  8
POPIS
100
AcDbText
 10
5461.150502292504
 20
-1793.183824118551
 30
0.0
 40
25.0
  1
08
 41
0.85
  7
SIMPLEX7
100
AcDbText
  0
LINE
  5
7675
330
1F
100
AcDbEntity
  8
POPIS
100
AcDbLine
 10
5507.690050541297
 20
-1621.457878311687
 30
0.0
 11
5476.745186070655
 21
-1702.278275854252
 31
0.0
  0
LINE
  5
7676
330
1F
100
AcDbEntity
  8
CETRIS
100
AcDbLine
 10
5514.690050541297
 20
-1651.571888656915
 30
0.0
 11
5514.690050541297
 21
-1639.571888656917
 31
0.0
  0
INSERT
  5
7677
330
1F
100
AcDbEntity
  8
POPIS
100
AcDbBlockReference
  2
E_PUNKT
 10
5508.246237346445
 20
-1622.592243368204
 30
0.0
  0
LINE
  5
7678
330
1F
100
AcDbEntity
  8
STAVBA OBRYS
100
AcDbLine
 10
5522.874616098442
 20
-1639.571888656915
 30
0.0
 11
5507.690050541297
 21
-1639.571888656915
 31
0.0
  0
LINE
  5
7679
330
1F
100
AcDbEntity
  8
SPOJOVACÍ
100
AcDbLine
 10
5512.060677662613
 20
-1617.000932946255
 30
0.0
 11
5510.979486387759
 21
-1617.000932946255
 31
0.0
  0
LINE
  5
767A
330
1F
100
AcDbEntity
  8
SPOJOVACÍ
100
AcDbLine
 10
5510.979486387759
 20
-1617.000932946255
 30
0.0
 11
5511.63716935436
 21
-1617.000932946255
 31
0.0
  0
LINE
  5
767B
330
1F
100
AcDbEntity
  8
CETRIS
100
AcDbLine
 10
5507.690050541291
 20
-1638.487910969474
 30
0.0
 11
5507.690050541291
 21
-1626.487910969474
 31
0.0
  0
LINE
  5
767C
330
1F
100
AcDbEntity
  8
POPIS
100
AcDbLine
 10
5700.579943528172
 20
-1812.923060427618
 30
0.0
 11
5700.579943528172
 21
-1849.560002274198
 31
0.0
  0
TEXT
  5
767D
330
1F
100
AcDbEntity
  8
POPIS
100
AcDbText
 10
5576.788222074682
 20
-1823.504053635487
 30
0.0
 40
25.0
  1
150
 41
0.85
 51
15.0
  7
SIMPLEX7
100
AcDbText
  0
CIRCLE
  5
767E
330
1F
100
AcDbEntity
  8
POPIS
100
AcDbCircle
 10
5601.293239880009
 20
-1868.431616740901
 30
0.0
 40
11.13656048292026
  0
TEXT
  5
767F
330
1F
100
AcDbEntity
  8
POPIS
100
AcDbText
 10
5596.534210824827
 20
-1873.976962485889
 30
0.0
 40
12.0
  1
R
 41
0.85
  7
SIMPLEX7
100
AcDbText
  0
LINE
  5
7680
330
1F
100
AcDbEntity
  8
POPIS
100
AcDbLine
 10
5707.84830243047
 20
-1825.095947727964
 30
0.0
 11
5694.248473513495
 21
-1841.705633428141
 31
0.0
  0
LINE
  5
7681
330
1F
100
AcDbEntity
  8
POPIS
100
AcDbLine
 10
5572.89463429512
 20
-1632.209629262415
 30
0.0
 11
5572.89463429512
 21
-1761.57189013151
 31
0.0
  0
TEXT
  5
7682
330
1F
100
AcDbEntity
  8
POPIS
100
AcDbText
 10
5556.527252743787
 20
-1793.183824118551
 30
0.0
 40
25.0
  1
09
 41
0.85
  7
SIMPLEX7
100
AcDbText
  0
LINE
  5
7683
330
1F
100
AcDbEntity
  8
SPOJOVACÍ
  6
Continuous
100
AcDbLine
 10
5535.564369048098
 20
-1628.066221353351
 30
0.0
 11
5539.608773407691
 21
-1626.706304340086
 31
0.0
  0
LINE
  5
7684
330
1F
100
AcDbEntity
  8
SPOJOVACÍ
  6
Continuous
100
AcDbLine
 10
5535.186717672787
 20
-1627.687639804521
 30
0.0
 11
5535.564369048098
 21
-1628.066221353351
 31
0.0
  0
LINE
  5
7685
330
1F
100
AcDbEntity
  8
SPOJOVACÍ
  6
Continuous
100
AcDbLine
 10
5535.186717672787
 20
-1627.687639804521
 30
0.0
 11
5535.564369048098
 21
-1627.469978668473
 31
0.0
  0
LINE
  5
7686
330
1F
100
AcDbEntity
  8
SPOJOVACÍ
  6
Continuous
100
AcDbLine
 10
5535.564369048098
 20
-1627.469978668473
 30
0.0
 11
5539.608773407691
 21
-1626.110061654931
 31
0.0
  0
LINE
  5
7687
330
1F
100
AcDbEntity
  8
SPOJOVACÍ
  6
Continuous
100
AcDbLine
 10
5536.236886146526
 20
-1627.25510805953
 30
0.0
 11
5536.236886146526
 21
-1624.736192004501
 31
0.0
  0
LINE
  5
7688
330
1F
100
AcDbEntity
  8
SPOJOVACÍ
  6
Continuous
100
AcDbLine
 10
5532.486417337078
 20
-1638.487910969474
 30
0.0
 11
5532.486417337078
 21
-1637.287984192743
 31
0.0
  0
LINE
  5
7689
330
1F
100
AcDbEntity
  8
SPOJOVACÍ
  6
Continuous
100
AcDbLine
 10
5532.486417337078
 20
-1637.287984192743
 30
0.0
 11
5533.836102420629
 21
-1636.543843556269
 31
0.0
  0
LINE
  5
768A
330
1F
100
AcDbEntity
  8
SPOJOVACÍ
  6
Continuous
100
AcDbLine
 10
5533.836102420629
 20
-1636.543843556269
 30
0.0
 11
5534.946732320987
 21
-1635.475071566856
 31
0.0
  0
LINE
  5
768B
330
1F
100
AcDbEntity
  8
SPOJOVACÍ
  6
Continuous
100
AcDbLine
 10
5534.946732320987
 20
-1635.475071566856
 30
0.0
 11
5535.742962800306
 21
-1634.156082288559
 31
0.0
  0
LINE
  5
768C
330
1F
100
AcDbEntity
  8
SPOJOVACÍ
  6
Continuous
100
AcDbLine
 10
5535.742962800306
 20
-1634.156082288559
 30
0.0
 11
5536.170843664605
 21
-1632.675242421509
 31
0.0
  0
LINE
  5
768D
330
1F
100
AcDbEntity
  8
SPOJOVACÍ
  6
Continuous
100
AcDbLine
 10
5536.170843664605
 20
-1632.675242421509
 30
0.0
 11
5536.236886146526
 21
-1631.888313698386
 31
0.0
  0
LINE
  5
768E
330
1F
100
AcDbEntity
  8
SPOJOVACÍ
  6
Continuous
100
AcDbLine
 10
5536.236886146526
 20
-1631.888313698386
 30
0.0
 11
5536.236886146526
 21
-1627.850420568706
 31
0.0
  0
LINE
  5
768F
330
1F
100
AcDbEntity
  8
SPOJOVACÍ
  6
Continuous
100
AcDbLine
 10
5539.986424778636
 20
-1626.487713028059
 30
0.0
 11
5539.608773407691
 21
-1626.706304340086
 31
0.0
  0
LINE
  5
7690
330
1F
100
AcDbEntity
  8
SPOJOVACÍ
  6
Continuous
100
AcDbLine
 10
5538.936256309263
 20
-1631.888313698386
 30
0.0
 11
5538.936256309263
 21
-1626.945359519458
 31
0.0
  0
LINE
  5
7691
330
1F
100
AcDbEntity
  8
SPOJOVACÍ
  6
Continuous
100
AcDbLine
 10
5538.936256309263
 20
-1631.888313698386
 30
0.0
 11
5539.163219200146
 21
-1633.411941651815
 31
0.0
  0
LINE
  5
7692
330
1F
100
AcDbEntity
  8
SPOJOVACÍ
  6
Continuous
100
AcDbLine
 10
5539.163219200146
 20
-1633.411941651815
 30
0.0
 11
5539.776205049293
 21
-1634.825808861519
 31
0.0
  0
LINE
  5
7693
330
1F
100
AcDbEntity
  8
SPOJOVACÍ
  6
Continuous
100
AcDbLine
 10
5539.776205049293
 20
-1634.825808861519
 30
0.0
 11
5540.734286119278
 21
-1636.033177044418
 31
0.0
  0
LINE
  5
7694
330
1F
100
AcDbEntity
  8
SPOJOVACÍ
  6
Continuous
100
AcDbLine
 10
5540.734286119278
 20
-1636.033177044418
 30
0.0
 11
5541.971419928177
 21
-1636.95126055486
 31
0.0
  0
LINE
  5
7695
330
1F
100
AcDbEntity
  8
SPOJOVACÍ
  6
Continuous
100
AcDbLine
 10
5541.971419928177
 20
-1636.95126055486
 30
0.0
 11
5542.686725114346
 21
-1637.287984192743
 31
0.0
  0
LINE
  5
7696
330
1F
100
AcDbEntity
  8
SPOJOVACÍ
  6
Continuous
100
AcDbLine
 10
5542.686725114346
 20
-1638.487910969474
 30
0.0
 11
5542.686725114346
 21
-1637.287984192743
 31
0.0
  0
LINE
  5
7697
330
1F
100
AcDbEntity
  8
SPOJOVACÍ
  6
Continuous
100
AcDbLine
 10
5535.564369048098
 20
-1618.70586232048
 30
0.0
 11
5539.608773407691
 21
-1617.345945306938
 31
0.0
  0
LINE
  5
7698
330
1F
100
AcDbEntity
  8
SPOJOVACÍ
  6
Continuous
100
AcDbLine
 10
5535.564369048098
 20
-1618.109619635333
 30
0.0
 11
5539.608773407691
 21
-1616.749702622059
 31
0.0
  0
LINE
  5
7699
330
1F
100
AcDbEntity
  8
SPOJOVACÍ
  6
Continuous
100
AcDbLine
 10
5539.986424778636
 20
-1617.128284170889
 30
0.0
 11
5539.608773407691
 21
-1617.345945306938
 31
0.0
  0
LINE
  5
769A
330
1F
100
AcDbEntity
  8
SPOJOVACÍ
  6
Continuous
100
AcDbLine
 10
5539.986424778636
 20
-1617.128284170889
 30
0.0
 11
5539.608773407691
 21
-1616.749702622059
 31
0.0
  0
LINE
  5
769B
330
1F
100
AcDbEntity
  8
SPOJOVACÍ
  6
Continuous
100
AcDbLine
 10
5535.186717672787
 20
-1618.328210947352
 30
0.0
 11
5535.564369048098
 21
-1618.70586232048
 31
0.0
  0
LINE
  5
769C
330
1F
100
AcDbEntity
  8
SPOJOVACÍ
  6
Continuous
100
AcDbLine
 10
5535.186717672787
 20
-1618.328210947352
 30
0.0
 11
5535.564369048098
 21
-1618.109619635333
 31
0.0
  0
LINE
  5
769D
330
1F
100
AcDbEntity
  8
SPOJOVACÍ
  6
Continuous
100
AcDbLine
 10
5535.186717672787
 20
-1618.328210947352
 30
0.0
 11
5539.986424778636
 21
-1617.128284170889
 31
0.0
  0
LINE
  5
769E
330
1F
100
AcDbEntity
  8
SPOJOVACÍ
  6
Continuous
100
AcDbLine
 10
5535.564369048098
 20
-1621.825671939449
 30
0.0
 11
5539.608773407691
 21
-1620.465754926176
 31
0.0
  0
LINE
  5
769F
330
1F
100
AcDbEntity
  8
SPOJOVACÍ
  6
Continuous
100
AcDbLine
 10
5535.564369048098
 20
-1621.229429254294
 30
0.0
 11
5539.608773407691
 21
-1619.869512241029
 31
0.0
  0
LINE
  5
76A0
330
1F
100
AcDbEntity
  8
SPOJOVACÍ
  6
Continuous
100
AcDbLine
 10
5539.986424778636
 20
-1620.248093789859
 30
0.0
 11
5539.608773407691
 21
-1620.465754926176
 31
0.0
  0
LINE
  5
76A1
330
1F
100
AcDbEntity
  8
SPOJOVACÍ
  6
Continuous
100
AcDbLine
 10
5539.986424778636
 20
-1620.248093789859
 30
0.0
 11
5539.608773407691
 21
-1619.869512241029
 31
0.0
  0
LINE
  5
76A2
330
1F
100
AcDbEntity
  8
SPOJOVACÍ
  6
Continuous
100
AcDbLine
 10
5535.186717672787
 20
-1621.448020566321
 30
0.0
 11
5535.564369048098
 21
-1621.825671939449
 31
0.0
  0
LINE
  5
76A3
330
1F
100
AcDbEntity
  8
SPOJOVACÍ
  6
Continuous
100
AcDbLine
 10
5535.186717672787
 20
-1621.448020566321
 30
0.0
 11
5535.564369048098
 21
-1621.229429254294
 31
0.0
  0
LINE
  5
76A4
330
1F
100
AcDbEntity
  8
SPOJOVACÍ
  6
Continuous
100
AcDbLine
 10
5535.186717672787
 20
-1621.448020566321
 30
0.0
 11
5539.986424778636
 21
-1620.248093789859
 31
0.0
  0
LINE
  5
76A5
330
1F
100
AcDbEntity
  8
SPOJOVACÍ
  6
Continuous
100
AcDbLine
 10
5535.564369048098
 20
-1624.945481558688
 30
0.0
 11
5539.608773407691
 21
-1623.586494720847
 31
0.0
  0
LINE
  5
76A6
330
1F
100
AcDbEntity
  8
SPOJOVACÍ
  6
Continuous
100
AcDbLine
 10
5535.564369048098
 20
-1624.349238873532
 30
0.0
 11
5539.608773407691
 21
-1622.990252035969
 31
0.0
  0
LINE
  5
76A7
330
1F
100
AcDbEntity
  8
SPOJOVACÍ
  6
Continuous
100
AcDbLine
 10
5539.986424778636
 20
-1623.36790340882
 30
0.0
 11
5539.608773407691
 21
-1623.586494720847
 31
0.0
  0
LINE
  5
76A8
330
1F
100
AcDbEntity
  8
SPOJOVACÍ
  6
Continuous
100
AcDbLine
 10
5539.986424778636
 20
-1623.36790340882
 30
0.0
 11
5539.608773407691
 21
-1622.990252035969
 31
0.0
  0
LINE
  5
76A9
330
1F
100
AcDbEntity
  8
SPOJOVACÍ
  6
Continuous
100
AcDbLine
 10
5535.186717672787
 20
-1624.567830185559
 30
0.0
 11
5535.564369048098
 21
-1624.945481558688
 31
0.0
  0
LINE
  5
76AA
330
1F
100
AcDbEntity
  8
SPOJOVACÍ
  6
Continuous
100
AcDbLine
 10
5535.186717672787
 20
-1624.567830185559
 30
0.0
 11
5535.564369048098
 21
-1624.349238873532
 31
0.0
  0
LINE
  5
76AB
330
1F
100
AcDbEntity
  8
SPOJOVACÍ
  6
Continuous
100
AcDbLine
 10
5535.186717672787
 20
-1624.567830185559
 30
0.0
 11
5539.986424778636
 21
-1623.36790340882
 31
0.0
  0
LINE
  5
76AC
330
1F
100
AcDbEntity
  8
SPOJOVACÍ
  6
Continuous
100
AcDbLine
 10
5539.986424778636
 20
-1626.487713028059
 30
0.0
 11
5539.608773407691
 21
-1626.110061654931
 31
0.0
  0
LINE
  5
76AD
330
1F
100
AcDbEntity
  8
SPOJOVACÍ
  6
Continuous
100
AcDbLine
 10
5535.186717672787
 20
-1627.687639804521
 30
0.0
 11
5539.986424778636
 21
-1626.487713028059
 31
0.0
  0
LINE
  5
76AE
330
1F
100
AcDbEntity
  8
SPOJOVACÍ
  6
Continuous
100
AcDbLine
 10
5538.936256309263
 20
-1620.103916541616
 30
0.0
 11
5538.936256309263
 21
-1617.583140134907
 31
0.0
  0
LINE
  5
76AF
330
1F
100
AcDbEntity
  8
SPOJOVACÍ
  6
Continuous
100
AcDbLine
 10
5538.936256309263
 20
-1623.226516687959
 30
0.0
 11
5538.936256309263
 21
-1620.69829887509
 31
0.0
  0
LINE
  5
76B0
330
1F
100
AcDbEntity
  8
SPOJOVACÍ
  6
Continuous
100
AcDbLine
 10
5538.936256309263
 20
-1626.341675428143
 30
0.0
 11
5538.936256309263
 21
-1623.822759373114
 31
0.0
  0
LINE
  5
76B1
330
1F
100
AcDbEntity
  8
SPOJOVACÍ
  6
Continuous
100
AcDbLine
 10
5536.236886146526
 20
-1621.017349173002
 30
0.0
 11
5536.236886146526
 21
-1618.489131360133
 31
0.0
  0
LINE
  5
76B2
330
1F
100
AcDbEntity
  8
SPOJOVACÍ
  6
Continuous
100
AcDbLine
 10
5536.236886146526
 20
-1624.132507913186
 30
0.0
 11
5536.236886146526
 21
-1621.611731506477
 31
0.0
  0
LINE
  5
76B3
330
1F
100
AcDbEntity
  8
SPOJOVACÍ
  6
Continuous
100
AcDbLine
 10
5532.486417337078
 20
-1637.287984192743
 30
0.0
 11
5542.686725114346
 21
-1637.287984192743
 31
0.0
  0
LINE
  5
76B4
330
1F
100
AcDbEntity
  8
SPOJOVACÍ
  6
Continuous
100
AcDbLine
 10
5532.486417337078
 20
-1638.487910969474
 30
0.0
 11
5542.686725114346
 21
-1638.487910969474
 31
0.0
  0
LINE
  5
76B5
330
1F
100
AcDbEntity
  8
NOSNÉ KONSTRUKCE
100
AcDbLine
 10
5554.142787385853
 20
-1626.487910969474
 30
0.0
 11
5554.142787385853
 21
-1624.987910969474
 31
0.0
  0
INSERT
  5
76B6
330
1F
100
AcDbEntity
  8
POPIS
100
AcDbBlockReference
  2
E_PUNKT
 10
5573.239700553827
 20
-1633.416460627722
 30
0.0
  0
LINE
  5
76B7
330
1F
100
AcDbEntity
  8
SPOJOVACÍ
  6
Continuous
100
AcDbLine
 10
5608.368628382502
 20
-1621.83695899298
 30
0.0
 11
5608.658843227655
 21
-1619.516170382625
 31
0.0
  0
LINE
  5
76B8
330
1F
100
AcDbEntity
  8
SPOJOVACÍ
  6
Continuous
100
AcDbLine
 10
5607.099868596467
 20
-1628.670030388961
 30
0.0
 11
5611.144272956059
 21
-1627.310113375418
 31
0.0
  0
LINE
  5
76B9
330
1F
100
AcDbEntity
  8
SPOJOVACÍ
  6
Continuous
100
AcDbLine
 10
5607.099868596467
 20
-1628.073787703806
 30
0.0
 11
5611.144272956059
 21
-1626.713870690264
 31
0.0
  0
LINE
  5
76BA
330
1F
100
AcDbEntity
  8
SPOJOVACÍ
  6
Continuous
100
AcDbLine
 10
5606.722217221156
 20
-1628.291448839854
 30
0.0
 11
5611.521924327004
 21
-1627.091522063392
 31
0.0
  0
LINE
  5
76BB
330
1F
100
AcDbEntity
  8
SPOJOVACÍ
  6
Continuous
100
AcDbLine
 10
5607.099868596467
 20
-1631.789840007923
 30
0.0
 11
5611.144272956059
 21
-1630.42992299438
 31
0.0
  0
LINE
  5
76BC
330
1F
100
AcDbEntity
  8
SPOJOVACÍ
  6
Continuous
100
AcDbLine
 10
5607.099868596467
 20
-1631.193597322775
 30
0.0
 11
5611.144272956059
 21
-1629.833680309502
 31
0.0
  0
LINE
  5
76BD
330
1F
100
AcDbEntity
  8
SPOJOVACÍ
  6
Continuous
100
AcDbLine
 10
5606.722217221156
 20
-1631.412188634794
 30
0.0
 11
5611.521924327004
 21
-1630.212261858332
 31
0.0
  0
LINE
  5
76BE
330
1F
100
AcDbEntity
  8
SPOJOVACÍ
  6
Continuous
100
AcDbLine
 10
5607.099868596467
 20
-1634.909649626892
 30
0.0
 11
5611.144272956059
 21
-1633.549732613619
 31
0.0
  0
LINE
  5
76BF
330
1F
100
AcDbEntity
  8
SPOJOVACÍ
  6
Continuous
100
AcDbLine
 10
5607.099868596467
 20
-1634.313406941737
 30
0.0
 11
5611.144272956059
 21
-1632.953489928471
 31
0.0
  0
LINE
  5
76C0
330
1F
100
AcDbEntity
  8
SPOJOVACÍ
  6
Continuous
100
AcDbLine
 10
5606.722217221156
 20
-1634.531998253764
 30
0.0
 11
5611.521924327004
 21
-1633.332071477301
 31
0.0
  0
LINE
  5
76C1
330
1F
100
AcDbEntity
  8
SPOJOVACÍ
  6
Continuous
100
AcDbLine
 10
5607.540771921683
 20
-1622.199727553243
 30
0.0
 11
5610.656860838114
 21
-1621.566277836473
 31
0.0
  0
LINE
  5
76C2
330
1F
100
AcDbEntity
  8
SPOJOVACÍ
  6
Continuous
100
AcDbLine
 10
5607.918423296993
 20
-1622.578309102349
 30
0.0
 11
5610.279209467169
 21
-1621.783938972521
 31
0.0
  0
LINE
  5
76C3
330
1F
100
AcDbEntity
  8
SPOJOVACÍ
  6
Continuous
100
AcDbLine
 10
5607.918423296993
 20
-1621.982066417194
 30
0.0
 11
5610.279209467169
 21
-1621.187696287643
 31
0.0
  0
LINE
  5
76C4
330
1F
100
AcDbEntity
  8
SPOJOVACÍ
  6
Continuous
100
AcDbLine
 10
5606.976155215576
 20
-1625.214427307541
 30
0.0
 11
5611.10148486832
 21
-1624.241463425236
 31
0.0
  0
LINE
  5
76C5
330
1F
100
AcDbEntity
  8
SPOJOVACÍ
  6
Continuous
100
AcDbLine
 10
5607.354736763861
 20
-1625.592078680669
 30
0.0
 11
5610.723833497374
 21
-1624.459124561284
 31
0.0
  0
LINE
  5
76C6
330
1F
100
AcDbEntity
  8
SPOJOVACÍ
  6
Continuous
100
AcDbLine
 10
5607.354736763861
 20
-1624.995835995514
 30
0.0
 11
5610.723833497374
 21
-1623.86288187613
 31
0.0
  0
LINE
  5
76C7
330
1F
100
AcDbEntity
  8
SPOJOVACÍ
  6
Continuous
100
AcDbLine
 10
5607.099868596467
 20
-1638.02945924613
 30
0.0
 11
5611.144272956059
 21
-1636.67047240829
 31
0.0
  0
LINE
  5
76C8
330
1F
100
AcDbEntity
  8
SPOJOVACÍ
  6
Continuous
100
AcDbLine
 10
5607.099868596467
 20
-1637.433216560975
 30
0.0
 11
5611.144272956059
 21
-1636.074229723411
 31
0.0
  0
LINE
  5
76C9
330
1F
100
AcDbEntity
  8
SPOJOVACÍ
  6
Continuous
100
AcDbLine
 10
5606.722217221156
 20
-1637.651807873002
 30
0.0
 11
5611.521924327004
 21
-1636.451881096263
 31
0.0
  0
LINE
  5
76CA
330
1F
100
AcDbEntity
  8
SPOJOVACÍ
  6
Continuous
100
AcDbLine
 10
5606.722217221156
 20
-1640.771617491964
 30
0.0
 11
5611.521924327004
 21
-1639.571690715501
 31
0.0
  0
LINE
  5
76CB
330
1F
100
AcDbEntity
  8
SPOJOVACÍ
  6
Continuous
100
AcDbLine
 10
5608.105388632154
 20
-1619.185957974923
 30
0.0
 11
5610.259675773611
 21
-1618.875279259149
 31
0.0
  0
LINE
  5
76CC
330
1F
100
AcDbEntity
  8
SPOJOVACÍ
  6
Continuous
100
AcDbLine
 10
5608.4830400031
 20
-1619.563609348051
 30
0.0
 11
5609.882024402665
 21
-1619.092940395467
 31
0.0
  0
LINE
  5
76CD
330
1F
100
AcDbEntity
  8
SPOJOVACÍ
  6
Continuous
100
AcDbLine
 10
5608.4830400031
 20
-1618.967366662904
 30
0.0
 11
5609.882024402665
 21
-1618.496697710319
 31
0.0
  0
LINE
  5
76CE
330
1F
100
AcDbEntity
  8
SPOJOVACÍ
  6
Continuous
100
AcDbLine
 10
5607.099868596467
 20
-1640.553956355915
 30
0.0
 11
5611.144272956059
 21
-1639.194039342373
 31
0.0
  0
LINE
  5
76CF
330
1F
100
AcDbEntity
  8
SPOJOVACÍ
  6
Continuous
100
AcDbLine
 10
5607.099868596467
 20
-1641.150199040794
 30
0.0
 11
5611.144272956059
 21
-1639.790282027528
 31
0.0
  0
LINE
  5
76D0
330
1F
100
AcDbEntity
  8
SPOJOVACÍ
  6
Continuous
100
AcDbLine
 10
5604.021916885447
 20
-1650.371961880185
 30
0.0
 11
5614.222224662714
 21
-1650.371961880185
 31
0.0
  0
LINE
  5
76D1
330
1F
100
AcDbEntity
  8
SPOJOVACÍ
  6
Continuous
100
AcDbLine
 10
5604.021916885447
 20
-1651.571888656917
 30
0.0
 11
5614.222224662714
 21
-1651.571888656917
 31
0.0
  0
LINE
  5
76D2
330
1F
100
AcDbEntity
  8
CETRIS
100
AcDbLine
 10
5587.69005054129
 20
-1626.487910969474
 30
0.0
 11
5587.69005054129
 21
-1638.487910969474
 31
0.0
  0
LINE
  5
76D3
330
1F
100
AcDbEntity
  8
SPOJOVACÍ
  6
Continuous
100
AcDbLine
 10
5606.722217221156
 20
-1628.291448839854
 30
0.0
 11
5607.099868596467
 21
-1628.670030388961
 31
0.0
  0
LINE
  5
76D4
330
1F
100
AcDbEntity
  8
SPOJOVACÍ
  6
Continuous
100
AcDbLine
 10
5606.722217221156
 20
-1628.291448839854
 30
0.0
 11
5607.099868596467
 21
-1628.073787703806
 31
0.0
  0
LINE
  5
76D5
330
1F
100
AcDbEntity
  8
SPOJOVACÍ
  6
Continuous
100
AcDbLine
 10
5606.722217221156
 20
-1631.412188634794
 30
0.0
 11
5607.099868596467
 21
-1631.789840007923
 31
0.0
  0
LINE
  5
76D6
330
1F
100
AcDbEntity
  8
SPOJOVACÍ
  6
Continuous
100
AcDbLine
 10
5606.722217221156
 20
-1631.412188634794
 30
0.0
 11
5607.099868596467
 21
-1631.193597322775
 31
0.0
  0
LINE
  5
76D7
330
1F
100
AcDbEntity
  8
SPOJOVACÍ
  6
Continuous
100
AcDbLine
 10
5606.722217221156
 20
-1634.531998253764
 30
0.0
 11
5607.099868596467
 21
-1634.909649626892
 31
0.0
  0
LINE
  5
76D8
330
1F
100
AcDbEntity
  8
SPOJOVACÍ
  6
Continuous
100
AcDbLine
 10
5606.722217221156
 20
-1634.531998253764
 30
0.0
 11
5607.099868596467
 21
-1634.313406941737
 31
0.0
  0
LINE
  5
76D9
330
1F
100
AcDbEntity
  8
SPOJOVACÍ
  6
Continuous
100
AcDbLine
 10
5607.540771921683
 20
-1622.199727553243
 30
0.0
 11
5607.918423296993
 21
-1622.578309102349
 31
0.0
  0
LINE
  5
76DA
330
1F
100
AcDbEntity
  8
SPOJOVACÍ
  6
Continuous
100
AcDbLine
 10
5607.540771921683
 20
-1622.199727553243
 30
0.0
 11
5607.918423296993
 21
-1621.982066417194
 31
0.0
  0
LINE
  5
76DB
330
1F
100
AcDbEntity
  8
SPOJOVACÍ
  6
Continuous
100
AcDbLine
 10
5606.976155215576
 20
-1625.214427307541
 30
0.0
 11
5607.354736763861
 21
-1625.592078680669
 31
0.0
  0
LINE
  5
76DC
330
1F
100
AcDbEntity
  8
SPOJOVACÍ
  6
Continuous
100
AcDbLine
 10
5606.976155215576
 20
-1625.214427307541
 30
0.0
 11
5607.354736763861
 21
-1624.995835995514
 31
0.0
  0
LINE
  5
76DD
330
1F
100
AcDbEntity
  8
SPOJOVACÍ
  6
Continuous
100
AcDbLine
 10
5606.722217221156
 20
-1637.651807873002
 30
0.0
 11
5607.099868596467
 21
-1638.02945924613
 31
0.0
  0
LINE
  5
76DE
330
1F
100
AcDbEntity
  8
SPOJOVACÍ
  6
Continuous
100
AcDbLine
 10
5606.722217221156
 20
-1637.651807873002
 30
0.0
 11
5607.099868596467
 21
-1637.433216560975
 31
0.0
  0
LINE
  5
76DF
330
1F
100
AcDbEntity
  8
SPOJOVACÍ
  6
Continuous
100
AcDbLine
 10
5607.999348590144
 20
-1624.789336968709
 30
0.0
 11
5608.289563439663
 21
-1622.467618182645
 31
0.0
  0
LINE
  5
76E0
330
1F
100
AcDbEntity
  8
SPOJOVACÍ
  6
Continuous
100
AcDbLine
 10
5607.772385694895
 20
-1626.60690047392
 30
0.0
 11
5607.922143997618
 21
-1625.409764224563
 31
0.0
  0
LINE
  5
76E1
330
1F
100
AcDbEntity
  8
SPOJOVACÍ
  6
Continuous
100
AcDbLine
 10
5607.772385694895
 20
-1627.854266215808
 30
0.0
 11
5607.772385694895
 21
-1626.60690047392
 31
0.0
  0
LINE
  5
76E2
330
1F
100
AcDbEntity
  8
SPOJOVACÍ
  6
Continuous
100
AcDbLine
 10
5607.772385694895
 20
-1630.96849478029
 30
0.0
 11
5607.772385694895
 21
-1628.450508900963
 31
0.0
  0
LINE
  5
76E3
330
1F
100
AcDbEntity
  8
SPOJOVACÍ
  6
Continuous
100
AcDbLine
 10
5607.772385694895
 20
-1634.101326860445
 30
0.0
 11
5607.772385694895
 21
-1631.573109047576
 31
0.0
  0
LINE
  5
76E4
330
1F
100
AcDbEntity
  8
SPOJOVACÍ
  6
Continuous
100
AcDbLine
 10
5607.772385694895
 20
-1637.216485600629
 30
0.0
 11
5607.772385694895
 21
-1634.69570919392
 31
0.0
  0
LINE
  5
76E5
330
1F
100
AcDbEntity
  8
SPOJOVACÍ
  6
Continuous
100
AcDbLine
 10
5608.105388632154
 20
-1619.185957974923
 30
0.0
 11
5608.4830400031
 21
-1619.563609348051
 31
0.0
  0
LINE
  5
76E6
330
1F
100
AcDbEntity
  8
SPOJOVACÍ
  6
Continuous
100
AcDbLine
 10
5608.105388632154
 20
-1619.185957974923
 30
0.0
 11
5608.4830400031
 21
-1618.967366662904
 31
0.0
  0
LINE
  5
76E7
330
1F
100
AcDbEntity
  8
SPOJOVACÍ
  6
Continuous
100
AcDbLine
 10
5607.706343212973
 20
-1645.759220108951
 30
0.0
 11
5607.772385694895
 21
-1644.972291385829
 31
0.0
  0
LINE
  5
76E8
330
1F
100
AcDbEntity
  8
SPOJOVACÍ
  6
Continuous
100
AcDbLine
 10
5607.278462348673
 20
-1647.240059976002
 30
0.0
 11
5607.706343212973
 21
-1645.759220108951
 31
0.0
  0
LINE
  5
76E9
330
1F
100
AcDbEntity
  8
SPOJOVACÍ
  6
Continuous
100
AcDbLine
 10
5606.482231869356
 20
-1648.559049254299
 30
0.0
 11
5607.278462348673
 21
-1647.240059976002
 31
0.0
  0
LINE
  5
76EA
330
1F
100
AcDbEntity
  8
SPOJOVACÍ
  6
Continuous
100
AcDbLine
 10
5605.371601968997
 20
-1649.627821243711
 30
0.0
 11
5606.482231869356
 21
-1648.559049254299
 31
0.0
  0
LINE
  5
76EB
330
1F
100
AcDbEntity
  8
SPOJOVACÍ
  6
Continuous
100
AcDbLine
 10
5604.021916885447
 20
-1650.371961880185
 30
0.0
 11
5605.371601968997
 21
-1649.627821243711
 31
0.0
  0
LINE
  5
76EC
330
1F
100
AcDbEntity
  8
SPOJOVACÍ
  6
Continuous
100
AcDbLine
 10
5604.021916885447
 20
-1651.571888656917
 30
0.0
 11
5604.021916885447
 21
-1650.371961880185
 31
0.0
  0
LINE
  5
76ED
330
1F
100
AcDbEntity
  8
SPOJOVACÍ
  6
Continuous
100
AcDbLine
 10
5607.772385694895
 20
-1640.339085746973
 30
0.0
 11
5607.772385694895
 21
-1637.820169691944
 31
0.0
  0
LINE
  5
76EE
330
1F
100
AcDbEntity
  8
SPOJOVACÍ
  6
Continuous
100
AcDbLine
 10
5606.722217221156
 20
-1640.771617491964
 30
0.0
 11
5607.099868596467
 21
-1640.553956355915
 31
0.0
  0
LINE
  5
76EF
330
1F
100
AcDbEntity
  8
SPOJOVACÍ
  6
Continuous
100
AcDbLine
 10
5606.722217221156
 20
-1640.771617491964
 30
0.0
 11
5607.099868596467
 21
-1641.150199040794
 31
0.0
  0
LINE
  5
76F0
330
1F
100
AcDbEntity
  8
SPOJOVACÍ
  6
Continuous
100
AcDbLine
 10
5607.772385694895
 20
-1644.972291385829
 30
0.0
 11
5607.772385694895
 21
-1640.934398256149
 31
0.0
  0
LINE
  5
76F1
330
1F
100
AcDbEntity
  8
SPOJOVACÍ
  6
Continuous
100
AcDbLine
 10
5614.222224662714
 20
-1651.571888656917
 30
0.0
 11
5614.222224662714
 21
-1650.371961880185
 31
0.0
  0
LINE
  5
76F2
330
1F
100
AcDbEntity
  8
SPOJOVACÍ
  6
Continuous
100
AcDbLine
 10
5613.506919476546
 20
-1650.035238242302
 30
0.0
 11
5614.222224662714
 21
-1650.371961880185
 31
0.0
  0
LINE
  5
76F3
330
1F
100
AcDbEntity
  8
SPOJOVACÍ
  6
Continuous
100
AcDbLine
 10
5612.269785667646
 20
-1649.11715473186
 30
0.0
 11
5613.506919476546
 21
-1650.035238242302
 31
0.0
  0
LINE
  5
76F4
330
1F
100
AcDbEntity
  8
SPOJOVACÍ
  6
Continuous
100
AcDbLine
 10
5609.548091292433
 20
-1619.212002897302
 30
0.0
 11
5609.815981920744
 21
-1621.356988282286
 31
0.0
  0
LINE
  5
76F5
330
1F
100
AcDbEntity
  8
SPOJOVACÍ
  6
Continuous
100
AcDbLine
 10
5611.521924327004
 20
-1627.091522063392
 30
0.0
 11
5611.144272956059
 21
-1627.310113375418
 31
0.0
  0
LINE
  5
76F6
330
1F
100
AcDbEntity
  8
SPOJOVACÍ
  6
Continuous
100
AcDbLine
 10
5611.521924327004
 20
-1627.091522063392
 30
0.0
 11
5611.144272956059
 21
-1626.713870690264
 31
0.0
  0
LINE
  5
76F7
330
1F
100
AcDbEntity
  8
SPOJOVACÍ
  6
Continuous
100
AcDbLine
 10
5611.521924327004
 20
-1630.212261858332
 30
0.0
 11
5611.144272956059
 21
-1630.42992299438
 31
0.0
  0
LINE
  5
76F8
330
1F
100
AcDbEntity
  8
SPOJOVACÍ
  6
Continuous
100
AcDbLine
 10
5611.521924327004
 20
-1630.212261858332
 30
0.0
 11
5611.144272956059
 21
-1629.833680309502
 31
0.0
  0
LINE
  5
76F9
330
1F
100
AcDbEntity
  8
SPOJOVACÍ
  6
Continuous
100
AcDbLine
 10
5611.521924327004
 20
-1633.332071477301
 30
0.0
 11
5611.144272956059
 21
-1633.549732613619
 31
0.0
  0
LINE
  5
76FA
330
1F
100
AcDbEntity
  8
SPOJOVACÍ
  6
Continuous
100
AcDbLine
 10
5611.521924327004
 20
-1633.332071477301
 30
0.0
 11
5611.144272956059
 21
-1632.953489928471
 31
0.0
  0
LINE
  5
76FB
330
1F
100
AcDbEntity
  8
SPOJOVACÍ
  6
Continuous
100
AcDbLine
 10
5610.656860838114
 20
-1621.566277836473
 30
0.0
 11
5610.279209467169
 21
-1621.783938972521
 31
0.0
  0
LINE
  5
76FC
330
1F
100
AcDbEntity
  8
SPOJOVACÍ
  6
Continuous
100
AcDbLine
 10
5610.656860838114
 20
-1621.566277836473
 30
0.0
 11
5610.279209467169
 21
-1621.187696287643
 31
0.0
  0
LINE
  5
76FD
330
1F
100
AcDbEntity
  8
SPOJOVACÍ
  6
Continuous
100
AcDbLine
 10
5611.10148486832
 20
-1624.241463425236
 30
0.0
 11
5610.723833497374
 21
-1624.459124561284
 31
0.0
  0
LINE
  5
76FE
330
1F
100
AcDbEntity
  8
SPOJOVACÍ
  6
Continuous
100
AcDbLine
 10
5611.10148486832
 20
-1624.241463425236
 30
0.0
 11
5610.723833497374
 21
-1623.86288187613
 31
0.0
  0
LINE
  5
76FF
330
1F
100
AcDbEntity
  8
SPOJOVACÍ
  6
Continuous
100
AcDbLine
 10
5611.521924327004
 20
-1636.451881096263
 30
0.0
 11
5611.144272956059
 21
-1636.67047240829
 31
0.0
  0
LINE
  5
7700
330
1F
100
AcDbEntity
  8
SPOJOVACÍ
  6
Continuous
100
AcDbLine
 10
5611.521924327004
 20
-1636.451881096263
 30
0.0
 11
5611.144272956059
 21
-1636.074229723411
 31
0.0
  0
LINE
  5
7701
330
1F
100
AcDbEntity
  8
SPOJOVACÍ
  6
Continuous
100
AcDbLine
 10
5611.521924327004
 20
-1639.571690715501
 30
0.0
 11
5611.144272956059
 21
-1639.194039342373
 31
0.0
  0
LINE
  5
7702
330
1F
100
AcDbEntity
  8
SPOJOVACÍ
  6
Continuous
100
AcDbLine
 10
5610.226189446163
 20
-1624.635857962633
 30
0.0
 11
5610.471755857631
 21
-1626.60690047392
 31
0.0
  0
LINE
  5
7703
330
1F
100
AcDbEntity
  8
SPOJOVACÍ
  6
Continuous
100
AcDbLine
 10
5609.887605453602
 20
-1621.929046396735
 30
0.0
 11
5610.154565908939
 21
-1624.065660199588
 31
0.0
  0
LINE
  5
7704
330
1F
100
AcDbEntity
  8
SPOJOVACÍ
  6
Continuous
100
AcDbLine
 10
5610.471755857631
 20
-1626.943624111803
 30
0.0
 11
5610.471755857631
 21
-1626.60690047392
 31
0.0
  0
LINE
  5
7705
330
1F
100
AcDbEntity
  8
SPOJOVACÍ
  6
Continuous
100
AcDbLine
 10
5610.471755857631
 20
-1630.066224258416
 30
0.0
 11
5610.471755857631
 21
-1627.547308203387
 31
0.0
  0
LINE
  5
7706
330
1F
100
AcDbEntity
  8
SPOJOVACÍ
  6
Continuous
100
AcDbLine
 10
5610.471755857631
 20
-1633.187894229058
 30
0.0
 11
5610.471755857631
 21
-1630.667117822349
 31
0.0
  0
LINE
  5
7707
330
1F
100
AcDbEntity
  8
SPOJOVACÍ
  6
Continuous
100
AcDbLine
 10
5610.471755857631
 20
-1636.310494375402
 30
0.0
 11
5610.471755857631
 21
-1633.782276562533
 31
0.0
  0
LINE
  5
7708
330
1F
100
AcDbEntity
  8
SPOJOVACÍ
  6
Continuous
100
AcDbLine
 10
5610.471755857631
 20
-1639.425653115586
 30
0.0
 11
5610.471755857631
 21
-1636.906737060557
 31
0.0
  0
LINE
  5
7709
330
1F
100
AcDbEntity
  8
SPOJOVACÍ
  6
Continuous
100
AcDbLine
 10
5610.259675773611
 20
-1618.875279259149
 30
0.0
 11
5609.882024402665
 21
-1619.092940395467
 31
0.0
  0
LINE
  5
770A
330
1F
100
AcDbEntity
  8
SPOJOVACÍ
  6
Continuous
100
AcDbLine
 10
5610.259675773611
 20
-1618.875279259149
 30
0.0
 11
5609.882024402665
 21
-1618.496697710319
 31
0.0
  0
LINE
  5
770B
330
1F
100
AcDbEntity
  8
SPOJOVACÍ
  6
Continuous
100
AcDbLine
 10
5610.698718748515
 20
-1646.495919339258
 30
0.0
 11
5611.311704597662
 21
-1647.909786548962
 31
0.0
  0
LINE
  5
770C
330
1F
100
AcDbEntity
  8
SPOJOVACÍ
  6
Continuous
100
AcDbLine
 10
5610.471755857631
 20
-1644.972291385829
 30
0.0
 11
5610.698718748515
 21
-1646.495919339258
 31
0.0
  0
LINE
  5
770D
330
1F
100
AcDbEntity
  8
SPOJOVACÍ
  6
Continuous
100
AcDbLine
 10
5610.471755857631
 20
-1644.972291385829
 30
0.0
 11
5610.471755857631
 21
-1640.0293372069
 31
0.0
  0
LINE
  5
770E
330
1F
100
AcDbEntity
  8
SPOJOVACÍ
  6
Continuous
100
AcDbLine
 10
5611.521924327004
 20
-1639.571690715501
 30
0.0
 11
5611.144272956059
 21
-1639.790282027528
 31
0.0
  0
LINE
  5
770F
330
1F
100
AcDbEntity
  8
SPOJOVACÍ
  6
Continuous
100
AcDbLine
 10
5611.311704597662
 20
-1647.909786548962
 30
0.0
 11
5612.269785667646
 21
-1649.11715473186
 31
0.0
  0
TEXT
  5
7710
330
1F
100
AcDbEntity
  8
POPIS
100
AcDbText
 10
5656.437823719946
 20
-1793.183824118551
 30
0.0
 40
25.0
  1
05
 41
0.85
  7
SIMPLEX7
100
AcDbText
  0
TEXT
  5
7711
330
1F
100
AcDbEntity
  8
POPIS
100
AcDbText
 10
5706.102474752076
 20
-1793.183824118551
 30
0.0
 40
25.0
  1
04
 41
0.85
  7
SIMPLEX7
100
AcDbText
  0
TEXT
  5
7712
330
1F
100
AcDbEntity
  8
POPIS
100
AcDbText
 10
5950.066513447954
 20
-2034.379349578839
 30
0.0
 40
25.0
  1
Pásek CETRIS   
 41
0.7
  7
SIMPLEX7
100
AcDbText
  0
TEXT
  5
7713
330
1F
100
AcDbEntity
  8
POPIS
100
AcDbText
 10
6116.872955911259
 20
-2005.308382212675
 30
0.0
 40
12.0
  1
R
 41
0.85
  7
SIMPLEX7
100
AcDbText
  0
CIRCLE
  5
7714
330
1F
100
AcDbEntity
  8
POPIS
100
AcDbCircle
 10
6121.631984966441
 20
-1999.763036467688
 30
0.0
 40
11.13656048292026
  0
TEXT
  5
7715
330
1F
100
AcDbEntity
  8
POPIS
100
AcDbText
 10
5951.879138347489
 20
-1934.639679523199
 30
0.0
 40
25.0
  1
Závěs
 41
0.7
  7
SIMPLEX7
100
AcDbText
  0
TEXT
  5
7716
330
1F
100
AcDbEntity
  8
POPIS
100
AcDbText
 10
5951.879138347489
 20
-1902.962943453933
 30
0.0
 40
25.0
  1
Křížová spojka
 41
0.7
  7
SIMPLEX7
100
AcDbText
  0
TEXT
  5
7717
330
1F
100
AcDbEntity
  8
POPIS
100
AcDbText
 10
5952.698881123231
 20
-2003.078631531225
 30
0.0
 40
25.0
  1
UD profil
 41
0.7
  7
SIMPLEX7
100
AcDbText
  0
TEXT
  5
7718
330
1F
100
AcDbEntity
  8
POPIS
100
AcDbText
 10
5951.879138347489
 20
-1969.639679523199
 30
0.0
 40
25.0
  1
Minerální plsť
 41
0.7
  7
SIMPLEX7
100
AcDbText
  0
LINE
  5
7719
330
1F
100
AcDbEntity
  8
POPIS
100
AcDbLine
 10
5776.399203014609
 20
-1616.111398034931
 30
0.0
 11
5776.399203014609
 21
-1761.576946901679
 31
0.0
  0
TEXT
  5
771A
330
1F
100
AcDbEntity
  8
POPIS
100
AcDbText
 10
5760.66812463322
 20
-1793.183824118551
 30
0.0
 40
25.0
  1
03
 41
0.85
  7
SIMPLEX7
100
AcDbText
  0
TEXT
  5
771B
330
1F
100
AcDbEntity
  8
POPIS
100
AcDbText
 10
5816.088391285409
 20
-1793.183824118551
 30
0.0
 40
25.0
  1
06
 41
0.85
  7
SIMPLEX7
100
AcDbText
  0
LINE
  5
771C
330
1F
100
AcDbEntity
  8
SPOJOVACÍ
  6
Continuous
100
AcDbLine
 10
5796.226044017113
 20
-1647.909786548962
 30
0.0
 11
5797.184125087097
 21
-1649.11715473186
 31
0.0
  0
LINE
  5
771D
330
1F
100
AcDbEntity
  8
SPOJOVACÍ
  6
Continuous
100
AcDbLine
 10
5788.936256304896
 20
-1651.571888656917
 30
0.0
 11
5799.136564082164
 21
-1651.571888656917
 31
0.0
  0
LINE
  5
771E
330
1F
100
AcDbEntity
  8
SPOJOVACÍ
  6
Continuous
100
AcDbLine
 10
5788.936256304896
 20
-1650.371961880185
 30
0.0
 11
5799.136564082164
 21
-1650.371961880185
 31
0.0
  0
LINE
  5
771F
330
1F
100
AcDbEntity
  8
SPOJOVACÍ
  6
Continuous
100
AcDbLine
 10
5792.686725114346
 20
-1644.972291385829
 30
0.0
 11
5792.686725114346
 21
-1640.934398256149
 31
0.0
  0
LINE
  5
7720
330
1F
100
AcDbEntity
  8
SPOJOVACÍ
  6
Continuous
100
AcDbLine
 10
5792.014208015917
 20
-1641.150199040794
 30
0.0
 11
5796.05861237551
 21
-1639.790282027528
 31
0.0
  0
LINE
  5
7721
330
1F
100
AcDbEntity
  8
SPOJOVACÍ
  6
Continuous
100
AcDbLine
 10
5791.636556640606
 20
-1640.771617491964
 30
0.0
 11
5792.014208015917
 21
-1641.150199040794
 31
0.0
  0
LINE
  5
7722
330
1F
100
AcDbEntity
  8
SPOJOVACÍ
  6
Continuous
100
AcDbLine
 10
5791.636556640606
 20
-1640.771617491964
 30
0.0
 11
5792.014208015917
 21
-1640.553956355915
 31
0.0
  0
LINE
  5
7723
330
1F
100
AcDbEntity
  8
SPOJOVACÍ
  6
Continuous
100
AcDbLine
 10
5792.014208015917
 20
-1640.553956355915
 30
0.0
 11
5796.05861237551
 21
-1639.194039342373
 31
0.0
  0
LINE
  5
7724
330
1F
100
AcDbEntity
  8
SPOJOVACÍ
  6
Continuous
100
AcDbLine
 10
5792.686725114346
 20
-1640.339085746973
 30
0.0
 11
5792.686725114346
 21
-1637.820169691944
 31
0.0
  0
LINE
  5
7725
330
1F
100
AcDbEntity
  8
SPOJOVACÍ
  6
Continuous
100
AcDbLine
 10
5788.936256304896
 20
-1651.571888656917
 30
0.0
 11
5788.936256304896
 21
-1650.371961880185
 31
0.0
  0
LINE
  5
7726
330
1F
100
AcDbEntity
  8
SPOJOVACÍ
  6
Continuous
100
AcDbLine
 10
5788.936256304896
 20
-1650.371961880185
 30
0.0
 11
5790.285941388447
 21
-1649.627821243711
 31
0.0
  0
LINE
  5
7727
330
1F
100
AcDbEntity
  8
SPOJOVACÍ
  6
Continuous
100
AcDbLine
 10
5790.285941388447
 20
-1649.627821243711
 30
0.0
 11
5791.396571288807
 21
-1648.559049254299
 31
0.0
  0
LINE
  5
7728
330
1F
100
AcDbEntity
  8
SPOJOVACÍ
  6
Continuous
100
AcDbLine
 10
5791.396571288807
 20
-1648.559049254299
 30
0.0
 11
5792.192801768124
 21
-1647.240059976002
 31
0.0
  0
LINE
  5
7729
330
1F
100
AcDbEntity
  8
SPOJOVACÍ
  6
Continuous
100
AcDbLine
 10
5792.192801768124
 20
-1647.240059976002
 30
0.0
 11
5792.620682632424
 21
-1645.759220108951
 31
0.0
  0
LINE
  5
772A
330
1F
100
AcDbEntity
  8
SPOJOVACÍ
  6
Continuous
100
AcDbLine
 10
5792.620682632424
 20
-1645.759220108951
 30
0.0
 11
5792.686725114346
 21
-1644.972291385829
 31
0.0
  0
LINE
  5
772B
330
1F
100
AcDbEntity
  8
SPOJOVACÍ
  6
Continuous
100
AcDbLine
 10
5796.436263746455
 20
-1639.571690715501
 30
0.0
 11
5796.05861237551
 21
-1639.790282027528
 31
0.0
  0
LINE
  5
772C
330
1F
100
AcDbEntity
  8
SPOJOVACÍ
  6
Continuous
100
AcDbLine
 10
5795.386095277081
 20
-1644.972291385829
 30
0.0
 11
5795.386095277081
 21
-1640.0293372069
 31
0.0
  0
LINE
  5
772D
330
1F
100
AcDbEntity
  8
SPOJOVACÍ
  6
Continuous
100
AcDbLine
 10
5795.386095277081
 20
-1644.972291385829
 30
0.0
 11
5795.613058167965
 21
-1646.495919339258
 31
0.0
  0
LINE
  5
772E
330
1F
100
AcDbEntity
  8
SPOJOVACÍ
  6
Continuous
100
AcDbLine
 10
5795.613058167965
 20
-1646.495919339258
 30
0.0
 11
5796.226044017113
 21
-1647.909786548962
 31
0.0
  0
LINE
  5
772F
330
1F
100
AcDbEntity
  8
SPOJOVACÍ
  6
Continuous
100
AcDbLine
 10
5793.019728051604
 20
-1619.185957974923
 30
0.0
 11
5793.39737942255
 21
-1618.967366662904
 31
0.0
  0
LINE
  5
7730
330
1F
100
AcDbEntity
  8
SPOJOVACÍ
  6
Continuous
100
AcDbLine
 10
5793.019728051604
 20
-1619.185957974923
 30
0.0
 11
5793.39737942255
 21
-1619.563609348051
 31
0.0
  0
LINE
  5
7731
330
1F
100
AcDbEntity
  8
SPOJOVACÍ
  6
Continuous
100
AcDbLine
 10
5795.174015193062
 20
-1618.875279259149
 30
0.0
 11
5794.796363822116
 21
-1618.496697710319
 31
0.0
  0
LINE
  5
7732
330
1F
100
AcDbEntity
  8
SPOJOVACÍ
  6
Continuous
100
AcDbLine
 10
5795.174015193062
 20
-1618.875279259149
 30
0.0
 11
5794.796363822116
 21
-1619.092940395467
 31
0.0
  0
LINE
  5
7733
330
1F
100
AcDbEntity
  8
SPOJOVACÍ
  6
Continuous
100
AcDbLine
 10
5793.39737942255
 20
-1618.967366662904
 30
0.0
 11
5794.796363822116
 21
-1618.496697710319
 31
0.0
  0
LINE
  5
7734
330
1F
100
AcDbEntity
  8
SPOJOVACÍ
  6
Continuous
100
AcDbLine
 10
5793.39737942255
 20
-1619.563609348051
 30
0.0
 11
5794.796363822116
 21
-1619.092940395467
 31
0.0
  0
LINE
  5
7735
330
1F
100
AcDbEntity
  8
SPOJOVACÍ
  6
Continuous
100
AcDbLine
 10
5793.019728051604
 20
-1619.185957974923
 30
0.0
 11
5795.174015193062
 21
-1618.875279259149
 31
0.0
  0
LINE
  5
7736
330
1F
100
AcDbEntity
  8
SPOJOVACÍ
  6
Continuous
100
AcDbLine
 10
5792.686725114346
 20
-1637.216485600629
 30
0.0
 11
5792.686725114346
 21
-1634.69570919392
 31
0.0
  0
LINE
  5
7737
330
1F
100
AcDbEntity
  8
SPOJOVACÍ
  6
Continuous
100
AcDbLine
 10
5792.686725114346
 20
-1634.101326860445
 30
0.0
 11
5792.686725114346
 21
-1631.573109047576
 31
0.0
  0
LINE
  5
7738
330
1F
100
AcDbEntity
  8
SPOJOVACÍ
  6
Continuous
100
AcDbLine
 10
5795.386095277081
 20
-1639.425653115586
 30
0.0
 11
5795.386095277081
 21
-1636.906737060557
 31
0.0
  0
LINE
  5
7739
330
1F
100
AcDbEntity
  8
SPOJOVACÍ
  6
Continuous
100
AcDbLine
 10
5795.386095277081
 20
-1636.310494375402
 30
0.0
 11
5795.386095277081
 21
-1633.782276562533
 31
0.0
  0
LINE
  5
773A
330
1F
100
AcDbEntity
  8
SPOJOVACÍ
  6
Continuous
100
AcDbLine
 10
5795.386095277081
 20
-1633.187894229058
 30
0.0
 11
5795.386095277081
 21
-1630.667117822349
 31
0.0
  0
LINE
  5
773B
330
1F
100
AcDbEntity
  8
SPOJOVACÍ
  6
Continuous
100
AcDbLine
 10
5792.686725114346
 20
-1630.96849478029
 30
0.0
 11
5792.686725114346
 21
-1628.450508900963
 31
0.0
  0
LINE
  5
773C
330
1F
100
AcDbEntity
  8
SPOJOVACÍ
  6
Continuous
100
AcDbLine
 10
5792.686725114346
 20
-1627.854266215808
 30
0.0
 11
5792.686725114346
 21
-1626.60690047392
 31
0.0
  0
LINE
  5
773D
330
1F
100
AcDbEntity
  8
SPOJOVACÍ
  6
Continuous
100
AcDbLine
 10
5795.386095277081
 20
-1630.066224258416
 30
0.0
 11
5795.386095277081
 21
-1627.547308203387
 31
0.0
  0
LINE
  5
773E
330
1F
100
AcDbEntity
  8
SPOJOVACÍ
  6
Continuous
100
AcDbLine
 10
5795.386095277081
 20
-1626.943624111803
 30
0.0
 11
5795.386095277081
 21
-1626.60690047392
 31
0.0
  0
LINE
  5
773F
330
1F
100
AcDbEntity
  8
SPOJOVACÍ
  6
Continuous
100
AcDbLine
 10
5792.686725114346
 20
-1626.60690047392
 30
0.0
 11
5792.836483417069
 21
-1625.409764224563
 31
0.0
  0
LINE
  5
7740
330
1F
100
AcDbEntity
  8
SPOJOVACÍ
  6
Continuous
100
AcDbLine
 10
5792.913688009594
 20
-1624.789336968709
 30
0.0
 11
5793.203902859114
 21
-1622.467618182645
 31
0.0
  0
LINE
  5
7741
330
1F
100
AcDbEntity
  8
SPOJOVACÍ
  6
Continuous
100
AcDbLine
 10
5794.801944873053
 20
-1621.929046396735
 30
0.0
 11
5795.06890532839
 21
-1624.065660199588
 31
0.0
  0
LINE
  5
7742
330
1F
100
AcDbEntity
  8
SPOJOVACÍ
  6
Continuous
100
AcDbLine
 10
5795.140528865614
 20
-1624.635857962633
 30
0.0
 11
5795.386095277081
 21
-1626.60690047392
 31
0.0
  0
LINE
  5
7743
330
1F
100
AcDbEntity
  8
SPOJOVACÍ
  6
Continuous
100
AcDbLine
 10
5791.636556640606
 20
-1640.771617491964
 30
0.0
 11
5796.436263746455
 21
-1639.571690715501
 31
0.0
  0
LINE
  5
7744
330
1F
100
AcDbEntity
  8
SPOJOVACÍ
  6
Continuous
100
AcDbLine
 10
5796.436263746455
 20
-1639.571690715501
 30
0.0
 11
5796.05861237551
 21
-1639.194039342373
 31
0.0
  0
LINE
  5
7745
330
1F
100
AcDbEntity
  8
SPOJOVACÍ
  6
Continuous
100
AcDbLine
 10
5791.636556640606
 20
-1637.651807873002
 30
0.0
 11
5796.436263746455
 21
-1636.451881096263
 31
0.0
  0
LINE
  5
7746
330
1F
100
AcDbEntity
  8
SPOJOVACÍ
  6
Continuous
100
AcDbLine
 10
5791.636556640606
 20
-1637.651807873002
 30
0.0
 11
5792.014208015917
 21
-1637.433216560975
 31
0.0
  0
LINE
  5
7747
330
1F
100
AcDbEntity
  8
SPOJOVACÍ
  6
Continuous
100
AcDbLine
 10
5791.636556640606
 20
-1637.651807873002
 30
0.0
 11
5792.014208015917
 21
-1638.02945924613
 31
0.0
  0
LINE
  5
7748
330
1F
100
AcDbEntity
  8
SPOJOVACÍ
  6
Continuous
100
AcDbLine
 10
5796.436263746455
 20
-1636.451881096263
 30
0.0
 11
5796.05861237551
 21
-1636.074229723411
 31
0.0
  0
LINE
  5
7749
330
1F
100
AcDbEntity
  8
SPOJOVACÍ
  6
Continuous
100
AcDbLine
 10
5796.436263746455
 20
-1636.451881096263
 30
0.0
 11
5796.05861237551
 21
-1636.67047240829
 31
0.0
  0
LINE
  5
774A
330
1F
100
AcDbEntity
  8
SPOJOVACÍ
  6
Continuous
100
AcDbLine
 10
5792.014208015917
 20
-1637.433216560975
 30
0.0
 11
5796.05861237551
 21
-1636.074229723411
 31
0.0
  0
LINE
  5
774B
330
1F
100
AcDbEntity
  8
SPOJOVACÍ
  6
Continuous
100
AcDbLine
 10
5792.014208015917
 20
-1638.02945924613
 30
0.0
 11
5796.05861237551
 21
-1636.67047240829
 31
0.0
  0
LINE
  5
774C
330
1F
100
AcDbEntity
  8
SPOJOVACÍ
  6
Continuous
100
AcDbLine
 10
5791.890494635027
 20
-1625.214427307541
 30
0.0
 11
5792.269076183312
 21
-1624.995835995514
 31
0.0
  0
LINE
  5
774D
330
1F
100
AcDbEntity
  8
SPOJOVACÍ
  6
Continuous
100
AcDbLine
 10
5791.890494635027
 20
-1625.214427307541
 30
0.0
 11
5792.269076183312
 21
-1625.592078680669
 31
0.0
  0
LINE
  5
774E
330
1F
100
AcDbEntity
  8
SPOJOVACÍ
  6
Continuous
100
AcDbLine
 10
5796.015824287771
 20
-1624.241463425236
 30
0.0
 11
5795.638172916825
 21
-1623.86288187613
 31
0.0
  0
LINE
  5
774F
330
1F
100
AcDbEntity
  8
SPOJOVACÍ
  6
Continuous
100
AcDbLine
 10
5796.015824287771
 20
-1624.241463425236
 30
0.0
 11
5795.638172916825
 21
-1624.459124561284
 31
0.0
  0
LINE
  5
7750
330
1F
100
AcDbEntity
  8
SPOJOVACÍ
  6
Continuous
100
AcDbLine
 10
5792.269076183312
 20
-1624.995835995514
 30
0.0
 11
5795.638172916825
 21
-1623.86288187613
 31
0.0
  0
LINE
  5
7751
330
1F
100
AcDbEntity
  8
SPOJOVACÍ
  6
Continuous
100
AcDbLine
 10
5792.269076183312
 20
-1625.592078680669
 30
0.0
 11
5795.638172916825
 21
-1624.459124561284
 31
0.0
  0
LINE
  5
7752
330
1F
100
AcDbEntity
  8
SPOJOVACÍ
  6
Continuous
100
AcDbLine
 10
5791.890494635027
 20
-1625.214427307541
 30
0.0
 11
5796.015824287771
 21
-1624.241463425236
 31
0.0
  0
LINE
  5
7753
330
1F
100
AcDbEntity
  8
SPOJOVACÍ
  6
Continuous
100
AcDbLine
 10
5792.455111341133
 20
-1622.199727553243
 30
0.0
 11
5792.832762716444
 21
-1621.982066417194
 31
0.0
  0
LINE
  5
7754
330
1F
100
AcDbEntity
  8
SPOJOVACÍ
  6
Continuous
100
AcDbLine
 10
5792.455111341133
 20
-1622.199727553243
 30
0.0
 11
5792.832762716444
 21
-1622.578309102349
 31
0.0
  0
LINE
  5
7755
330
1F
100
AcDbEntity
  8
SPOJOVACÍ
  6
Continuous
100
AcDbLine
 10
5795.571200257565
 20
-1621.566277836473
 30
0.0
 11
5795.193548886619
 21
-1621.187696287643
 31
0.0
  0
LINE
  5
7756
330
1F
100
AcDbEntity
  8
SPOJOVACÍ
  6
Continuous
100
AcDbLine
 10
5795.571200257565
 20
-1621.566277836473
 30
0.0
 11
5795.193548886619
 21
-1621.783938972521
 31
0.0
  0
LINE
  5
7757
330
1F
100
AcDbEntity
  8
SPOJOVACÍ
  6
Continuous
100
AcDbLine
 10
5792.832762716444
 20
-1621.982066417194
 30
0.0
 11
5795.193548886619
 21
-1621.187696287643
 31
0.0
  0
LINE
  5
7758
330
1F
100
AcDbEntity
  8
SPOJOVACÍ
  6
Continuous
100
AcDbLine
 10
5792.832762716444
 20
-1622.578309102349
 30
0.0
 11
5795.193548886619
 21
-1621.783938972521
 31
0.0
  0
LINE
  5
7759
330
1F
100
AcDbEntity
  8
SPOJOVACÍ
  6
Continuous
100
AcDbLine
 10
5792.455111341133
 20
-1622.199727553243
 30
0.0
 11
5795.571200257565
 21
-1621.566277836473
 31
0.0
  0
LINE
  5
775A
330
1F
100
AcDbEntity
  8
SPOJOVACÍ
  6
Continuous
100
AcDbLine
 10
5791.636556640606
 20
-1634.531998253764
 30
0.0
 11
5796.436263746455
 21
-1633.332071477301
 31
0.0
  0
LINE
  5
775B
330
1F
100
AcDbEntity
  8
SPOJOVACÍ
  6
Continuous
100
AcDbLine
 10
5791.636556640606
 20
-1634.531998253764
 30
0.0
 11
5792.014208015917
 21
-1634.313406941737
 31
0.0
  0
LINE
  5
775C
330
1F
100
AcDbEntity
  8
SPOJOVACÍ
  6
Continuous
100
AcDbLine
 10
5791.636556640606
 20
-1634.531998253764
 30
0.0
 11
5792.014208015917
 21
-1634.909649626892
 31
0.0
  0
LINE
  5
775D
330
1F
100
AcDbEntity
  8
SPOJOVACÍ
  6
Continuous
100
AcDbLine
 10
5796.436263746455
 20
-1633.332071477301
 30
0.0
 11
5796.05861237551
 21
-1632.953489928471
 31
0.0
  0
LINE
  5
775E
330
1F
100
AcDbEntity
  8
SPOJOVACÍ
  6
Continuous
100
AcDbLine
 10
5796.436263746455
 20
-1633.332071477301
 30
0.0
 11
5796.05861237551
 21
-1633.549732613619
 31
0.0
  0
LINE
  5
775F
330
1F
100
AcDbEntity
  8
SPOJOVACÍ
  6
Continuous
100
AcDbLine
 10
5792.014208015917
 20
-1634.313406941737
 30
0.0
 11
5796.05861237551
 21
-1632.953489928471
 31
0.0
  0
LINE
  5
7760
330
1F
100
AcDbEntity
  8
SPOJOVACÍ
  6
Continuous
100
AcDbLine
 10
5792.014208015917
 20
-1634.909649626892
 30
0.0
 11
5796.05861237551
 21
-1633.549732613619
 31
0.0
  0
LINE
  5
7761
330
1F
100
AcDbEntity
  8
SPOJOVACÍ
  6
Continuous
100
AcDbLine
 10
5791.636556640606
 20
-1631.412188634794
 30
0.0
 11
5796.436263746455
 21
-1630.212261858332
 31
0.0
  0
LINE
  5
7762
330
1F
100
AcDbEntity
  8
SPOJOVACÍ
  6
Continuous
100
AcDbLine
 10
5791.636556640606
 20
-1631.412188634794
 30
0.0
 11
5792.014208015917
 21
-1631.193597322775
 31
0.0
  0
LINE
  5
7763
330
1F
100
AcDbEntity
  8
SPOJOVACÍ
  6
Continuous
100
AcDbLine
 10
5791.636556640606
 20
-1631.412188634794
 30
0.0
 11
5792.014208015917
 21
-1631.789840007923
 31
0.0
  0
LINE
  5
7764
330
1F
100
AcDbEntity
  8
SPOJOVACÍ
  6
Continuous
100
AcDbLine
 10
5796.436263746455
 20
-1630.212261858332
 30
0.0
 11
5796.05861237551
 21
-1629.833680309502
 31
0.0
  0
LINE
  5
7765
330
1F
100
AcDbEntity
  8
SPOJOVACÍ
  6
Continuous
100
AcDbLine
 10
5796.436263746455
 20
-1630.212261858332
 30
0.0
 11
5796.05861237551
 21
-1630.42992299438
 31
0.0
  0
LINE
  5
7766
330
1F
100
AcDbEntity
  8
SPOJOVACÍ
  6
Continuous
100
AcDbLine
 10
5792.014208015917
 20
-1631.193597322775
 30
0.0
 11
5796.05861237551
 21
-1629.833680309502
 31
0.0
  0
LINE
  5
7767
330
1F
100
AcDbEntity
  8
SPOJOVACÍ
  6
Continuous
100
AcDbLine
 10
5792.014208015917
 20
-1631.789840007923
 30
0.0
 11
5796.05861237551
 21
-1630.42992299438
 31
0.0
  0
LINE
  5
7768
330
1F
100
AcDbEntity
  8
SPOJOVACÍ
  6
Continuous
100
AcDbLine
 10
5791.636556640606
 20
-1628.291448839854
 30
0.0
 11
5796.436263746455
 21
-1627.091522063392
 31
0.0
  0
LINE
  5
7769
330
1F
100
AcDbEntity
  8
SPOJOVACÍ
  6
Continuous
100
AcDbLine
 10
5791.636556640606
 20
-1628.291448839854
 30
0.0
 11
5792.014208015917
 21
-1628.073787703806
 31
0.0
  0
LINE
  5
776A
330
1F
100
AcDbEntity
  8
SPOJOVACÍ
  6
Continuous
100
AcDbLine
 10
5791.636556640606
 20
-1628.291448839854
 30
0.0
 11
5792.014208015917
 21
-1628.670030388961
 31
0.0
  0
LINE
  5
776B
330
1F
100
AcDbEntity
  8
SPOJOVACÍ
  6
Continuous
100
AcDbLine
 10
5796.436263746455
 20
-1627.091522063392
 30
0.0
 11
5796.05861237551
 21
-1626.713870690264
 31
0.0
  0
LINE
  5
776C
330
1F
100
AcDbEntity
  8
SPOJOVACÍ
  6
Continuous
100
AcDbLine
 10
5796.436263746455
 20
-1627.091522063392
 30
0.0
 11
5796.05861237551
 21
-1627.310113375418
 31
0.0
  0
LINE
  5
776D
330
1F
100
AcDbEntity
  8
SPOJOVACÍ
  6
Continuous
100
AcDbLine
 10
5792.014208015917
 20
-1628.073787703806
 30
0.0
 11
5796.05861237551
 21
-1626.713870690264
 31
0.0
  0
LINE
  5
776E
330
1F
100
AcDbEntity
  8
SPOJOVACÍ
  6
Continuous
100
AcDbLine
 10
5792.014208015917
 20
-1628.670030388961
 30
0.0
 11
5796.05861237551
 21
-1627.310113375418
 31
0.0
  0
LINE
  5
776F
330
1F
100
AcDbEntity
  8
SPOJOVACÍ
  6
Continuous
100
AcDbLine
 10
5793.282967801952
 20
-1621.83695899298
 30
0.0
 11
5793.573182647106
 21
-1619.516170382625
 31
0.0
  0
LINE
  5
7770
330
1F
100
AcDbEntity
  8
SPOJOVACÍ
  6
Continuous
100
AcDbLine
 10
5794.462430711884
 20
-1619.212002897302
 30
0.0
 11
5794.730321340194
 21
-1621.356988282286
 31
0.0
  0
LINE
  5
7771
330
1F
100
AcDbEntity
  8
SPOJOVACÍ
  6
Continuous
100
AcDbLine
 10
5797.184125087097
 20
-1649.11715473186
 30
0.0
 11
5798.421258895997
 21
-1650.035238242302
 31
0.0
  0
LINE
  5
7772
330
1F
100
AcDbEntity
  8
SPOJOVACÍ
  6
Continuous
100
AcDbLine
 10
5798.421258895997
 20
-1650.035238242302
 30
0.0
 11
5799.136564082164
 21
-1650.371961880185
 31
0.0
  0
LINE
  5
7773
330
1F
100
AcDbEntity
  8
SPOJOVACÍ
  6
Continuous
100
AcDbLine
 10
5799.136564082164
 20
-1651.571888656917
 30
0.0
 11
5799.136564082164
 21
-1650.371961880185
 31
0.0
  0
TEXT
  5
7774
330
1F
100
AcDbEntity
  8
POPIS
100
AcDbText
 10
5870.061680839824
 20
-1793.183824118551
 30
0.0
 40
25.0
  1
07
 41
0.85
  7
SIMPLEX7
100
AcDbText
  0
LINE
  5
7775
330
1F
100
AcDbEntity
  8
POPIS
100
AcDbLine
 10
5992.878463474922
 20
-1651.571888656917
 30
0.0
 11
5992.878463474922
 21
-1761.576946901679
 31
0.0
  0
TEXT
  5
7776
330
1F
100
AcDbEntity
  8
POPIS
100
AcDbText
 10
5977.147385093534
 20
-1793.183824118551
 30
0.0
 40
25.0
  1
02
 41
0.85
  7
SIMPLEX7
100
AcDbText
  0
LINE
  5
7777
330
1F
100
AcDbEntity
  8
SPOJOVACÍ
  6
Continuous
100
AcDbLine
 10
5991.221272477988
 20
-1641.150199040794
 30
0.0
 11
5995.265676837581
 21
-1639.790282027528
 31
0.0
  0
LINE
  5
7778
330
1F
100
AcDbEntity
  8
SPOJOVACÍ
  6
Continuous
100
AcDbLine
 10
5991.221272477988
 20
-1640.553956355915
 30
0.0
 11
5995.265676837581
 21
-1639.194039342373
 31
0.0
  0
INSERT
  5
7779
330
1F
100
AcDbEntity
  8
POPIS
100
AcDbBlockReference
  2
E_PUNKT
 10
5993.339778964053
 20
-1651.272488426247
 30
0.0
  0
LINE
  5
777A
330
1F
100
AcDbEntity
  8
SPOJOVACÍ
  6
Continuous
100
AcDbLine
 10
5988.143320766968
 20
-1651.571888656917
 30
0.0
 11
5998.343628544236
 21
-1651.571888656917
 31
0.0
  0
LINE
  5
777B
330
1F
100
AcDbEntity
  8
SPOJOVACÍ
  6
Continuous
100
AcDbLine
 10
5992.226792513676
 20
-1619.185957974923
 30
0.0
 11
5992.604443884621
 21
-1618.967366662904
 31
0.0
  0
LINE
  5
777C
330
1F
100
AcDbEntity
  8
SPOJOVACÍ
  6
Continuous
100
AcDbLine
 10
5992.226792513676
 20
-1619.185957974923
 30
0.0
 11
5992.604443884621
 21
-1619.563609348051
 31
0.0
  0
LINE
  5
777D
330
1F
100
AcDbEntity
  8
SPOJOVACÍ
  6
Continuous
100
AcDbLine
 10
5992.226792513676
 20
-1619.185957974923
 30
0.0
 11
5994.381079655132
 21
-1618.875279259149
 31
0.0
  0
LINE
  5
777E
330
1F
100
AcDbEntity
  8
SPOJOVACÍ
  6
Continuous
100
AcDbLine
 10
5988.143320766968
 20
-1650.371961880185
 30
0.0
 11
5998.343628544236
 21
-1650.371961880185
 31
0.0
  0
LINE
  5
777F
330
1F
100
AcDbEntity
  8
SPOJOVACÍ
  6
Continuous
100
AcDbLine
 10
5992.120752471666
 20
-1624.789336968709
 30
0.0
 11
5992.410967321185
 21
-1622.467618182645
 31
0.0
  0
LINE
  5
7780
330
1F
100
AcDbEntity
  8
SPOJOVACÍ
  6
Continuous
100
AcDbLine
 10
5990.843621102677
 20
-1640.771617491964
 30
0.0
 11
5995.643328208526
 21
-1639.571690715501
 31
0.0
  0
LINE
  5
7781
330
1F
100
AcDbEntity
  8
SPOJOVACÍ
  6
Continuous
100
AcDbLine
 10
5990.843621102677
 20
-1637.651807873002
 30
0.0
 11
5995.643328208526
 21
-1636.451881096263
 31
0.0
  0
LINE
  5
7782
330
1F
100
AcDbEntity
  8
SPOJOVACÍ
  6
Continuous
100
AcDbLine
 10
5991.221272477988
 20
-1637.433216560975
 30
0.0
 11
5995.265676837581
 21
-1636.074229723411
 31
0.0
  0
LINE
  5
7783
330
1F
100
AcDbEntity
  8
SPOJOVACÍ
  6
Continuous
100
AcDbLine
 10
5991.221272477988
 20
-1638.02945924613
 30
0.0
 11
5995.265676837581
 21
-1636.67047240829
 31
0.0
  0
LINE
  5
7784
330
1F
100
AcDbEntity
  8
SPOJOVACÍ
  6
Continuous
100
AcDbLine
 10
5991.476140645382
 20
-1624.995835995514
 30
0.0
 11
5994.845237378896
 21
-1623.86288187613
 31
0.0
  0
LINE
  5
7785
330
1F
100
AcDbEntity
  8
SPOJOVACÍ
  6
Continuous
100
AcDbLine
 10
5991.476140645382
 20
-1625.592078680669
 30
0.0
 11
5994.845237378896
 21
-1624.459124561284
 31
0.0
  0
LINE
  5
7786
330
1F
100
AcDbEntity
  8
SPOJOVACÍ
  6
Continuous
100
AcDbLine
 10
5991.097559097099
 20
-1625.214427307541
 30
0.0
 11
5995.222888749841
 21
-1624.241463425236
 31
0.0
  0
LINE
  5
7787
330
1F
100
AcDbEntity
  8
SPOJOVACÍ
  6
Continuous
100
AcDbLine
 10
5992.039827178516
 20
-1621.982066417194
 30
0.0
 11
5994.40061334869
 21
-1621.187696287643
 31
0.0
  0
LINE
  5
7788
330
1F
100
AcDbEntity
  8
SPOJOVACÍ
  6
Continuous
100
AcDbLine
 10
5992.039827178516
 20
-1622.578309102349
 30
0.0
 11
5994.40061334869
 21
-1621.783938972521
 31
0.0
  0
LINE
  5
7789
330
1F
100
AcDbEntity
  8
SPOJOVACÍ
  6
Continuous
100
AcDbLine
 10
5991.662175803204
 20
-1622.199727553243
 30
0.0
 11
5994.778264719635
 21
-1621.566277836473
 31
0.0
  0
LINE
  5
778A
330
1F
100
AcDbEntity
  8
SPOJOVACÍ
  6
Continuous
100
AcDbLine
 10
5990.843621102677
 20
-1634.531998253764
 30
0.0
 11
5995.643328208526
 21
-1633.332071477301
 31
0.0
  0
LINE
  5
778B
330
1F
100
AcDbEntity
  8
SPOJOVACÍ
  6
Continuous
100
AcDbLine
 10
5991.221272477988
 20
-1634.313406941737
 30
0.0
 11
5995.265676837581
 21
-1632.953489928471
 31
0.0
  0
LINE
  5
778C
330
1F
100
AcDbEntity
  8
SPOJOVACÍ
  6
Continuous
100
AcDbLine
 10
5991.221272477988
 20
-1634.909649626892
 30
0.0
 11
5995.265676837581
 21
-1633.549732613619
 31
0.0
  0
LINE
  5
778D
330
1F
100
AcDbEntity
  8
SPOJOVACÍ
  6
Continuous
100
AcDbLine
 10
5990.843621102677
 20
-1631.412188634794
 30
0.0
 11
5995.643328208526
 21
-1630.212261858332
 31
0.0
  0
LINE
  5
778E
330
1F
100
AcDbEntity
  8
SPOJOVACÍ
  6
Continuous
100
AcDbLine
 10
5991.221272477988
 20
-1631.193597322775
 30
0.0
 11
5995.265676837581
 21
-1629.833680309502
 31
0.0
  0
LINE
  5
778F
330
1F
100
AcDbEntity
  8
SPOJOVACÍ
  6
Continuous
100
AcDbLine
 10
5991.221272477988
 20
-1631.789840007923
 30
0.0
 11
5995.265676837581
 21
-1630.42992299438
 31
0.0
  0
LINE
  5
7790
330
1F
100
AcDbEntity
  8
SPOJOVACÍ
  6
Continuous
100
AcDbLine
 10
5990.843621102677
 20
-1628.291448839854
 30
0.0
 11
5995.643328208526
 21
-1627.091522063392
 31
0.0
  0
LINE
  5
7791
330
1F
100
AcDbEntity
  8
SPOJOVACÍ
  6
Continuous
100
AcDbLine
 10
5991.221272477988
 20
-1628.073787703806
 30
0.0
 11
5995.265676837581
 21
-1626.713870690264
 31
0.0
  0
LINE
  5
7792
330
1F
100
AcDbEntity
  8
SPOJOVACÍ
  6
Continuous
100
AcDbLine
 10
5991.221272477988
 20
-1628.670030388961
 30
0.0
 11
5995.265676837581
 21
-1627.310113375418
 31
0.0
  0
LINE
  5
7793
330
1F
100
AcDbEntity
  8
SPOJOVACÍ
  6
Continuous
100
AcDbLine
 10
5990.843621102677
 20
-1640.771617491964
 30
0.0
 11
5991.221272477988
 21
-1641.150199040794
 31
0.0
  0
LINE
  5
7794
330
1F
100
AcDbEntity
  8
SPOJOVACÍ
  6
Continuous
100
AcDbLine
 10
5990.843621102677
 20
-1640.771617491964
 30
0.0
 11
5991.221272477988
 21
-1640.553956355915
 31
0.0
  0
LINE
  5
7795
330
1F
100
AcDbEntity
  8
SPOJOVACÍ
  6
Continuous
100
AcDbLine
 10
5991.893789576416
 20
-1640.339085746973
 30
0.0
 11
5991.893789576416
 21
-1637.820169691944
 31
0.0
  0
LINE
  5
7796
330
1F
100
AcDbEntity
  8
SPOJOVACÍ
  6
Continuous
100
AcDbLine
 10
5988.143320766968
 20
-1651.571888656917
 30
0.0
 11
5988.143320766968
 21
-1650.371961880185
 31
0.0
  0
LINE
  5
7797
330
1F
100
AcDbEntity
  8
SPOJOVACÍ
  6
Continuous
100
AcDbLine
 10
5988.143320766968
 20
-1650.371961880185
 30
0.0
 11
5989.493005850519
 21
-1649.627821243711
 31
0.0
  0
LINE
  5
7798
330
1F
100
AcDbEntity
  8
SPOJOVACÍ
  6
Continuous
100
AcDbLine
 10
5989.493005850519
 20
-1649.627821243711
 30
0.0
 11
5990.603635750877
 21
-1648.559049254299
 31
0.0
  0
LINE
  5
7799
330
1F
100
AcDbEntity
  8
SPOJOVACÍ
  6
Continuous
100
AcDbLine
 10
5990.603635750877
 20
-1648.559049254299
 30
0.0
 11
5991.399866230196
 21
-1647.240059976002
 31
0.0
  0
LINE
  5
779A
330
1F
100
AcDbEntity
  8
SPOJOVACÍ
  6
Continuous
100
AcDbLine
 10
5991.399866230196
 20
-1647.240059976002
 30
0.0
 11
5991.827747094495
 21
-1645.759220108951
 31
0.0
  0
LINE
  5
779B
330
1F
100
AcDbEntity
  8
SPOJOVACÍ
  6
Continuous
100
AcDbLine
 10
5991.827747094495
 20
-1645.759220108951
 30
0.0
 11
5991.893789576416
 21
-1644.972291385829
 31
0.0
  0
LINE
  5
779C
330
1F
100
AcDbEntity
  8
SPOJOVACÍ
  6
Continuous
100
AcDbLine
 10
5991.893789576416
 20
-1644.972291385829
 30
0.0
 11
5991.893789576416
 21
-1640.934398256149
 31
0.0
  0
LINE
  5
779D
330
1F
100
AcDbEntity
  8
SPOJOVACÍ
  6
Continuous
100
AcDbLine
 10
5991.893789576416
 20
-1637.216485600629
 30
0.0
 11
5991.893789576416
 21
-1634.69570919392
 31
0.0
  0
LINE
  5
779E
330
1F
100
AcDbEntity
  8
SPOJOVACÍ
  6
Continuous
100
AcDbLine
 10
5991.893789576416
 20
-1634.101326860445
 30
0.0
 11
5991.893789576416
 21
-1631.573109047576
 31
0.0
  0
LINE
  5
779F
330
1F
100
AcDbEntity
  8
SPOJOVACÍ
  6
Continuous
100
AcDbLine
 10
5991.893789576416
 20
-1630.96849478029
 30
0.0
 11
5991.893789576416
 21
-1628.450508900963
 31
0.0
  0
LINE
  5
77A0
330
1F
100
AcDbEntity
  8
SPOJOVACÍ
  6
Continuous
100
AcDbLine
 10
5991.893789576416
 20
-1627.854266215808
 30
0.0
 11
5991.893789576416
 21
-1626.60690047392
 31
0.0
  0
LINE
  5
77A1
330
1F
100
AcDbEntity
  8
SPOJOVACÍ
  6
Continuous
100
AcDbLine
 10
5991.893789576416
 20
-1626.60690047392
 30
0.0
 11
5992.04354787914
 21
-1625.409764224563
 31
0.0
  0
LINE
  5
77A2
330
1F
100
AcDbEntity
  8
SPOJOVACÍ
  6
Continuous
100
AcDbLine
 10
5990.843621102677
 20
-1637.651807873002
 30
0.0
 11
5991.221272477988
 21
-1637.433216560975
 31
0.0
  0
LINE
  5
77A3
330
1F
100
AcDbEntity
  8
SPOJOVACÍ
  6
Continuous
100
AcDbLine
 10
5990.843621102677
 20
-1637.651807873002
 30
0.0
 11
5991.221272477988
 21
-1638.02945924613
 31
0.0
  0
LINE
  5
77A4
330
1F
100
AcDbEntity
  8
SPOJOVACÍ
  6
Continuous
100
AcDbLine
 10
5991.097559097099
 20
-1625.214427307541
 30
0.0
 11
5991.476140645382
 21
-1624.995835995514
 31
0.0
  0
LINE
  5
77A5
330
1F
100
AcDbEntity
  8
SPOJOVACÍ
  6
Continuous
100
AcDbLine
 10
5991.097559097099
 20
-1625.214427307541
 30
0.0
 11
5991.476140645382
 21
-1625.592078680669
 31
0.0
  0
LINE
  5
77A6
330
1F
100
AcDbEntity
  8
SPOJOVACÍ
  6
Continuous
100
AcDbLine
 10
5991.662175803204
 20
-1622.199727553243
 30
0.0
 11
5992.039827178516
 21
-1621.982066417194
 31
0.0
  0
LINE
  5
77A7
330
1F
100
AcDbEntity
  8
SPOJOVACÍ
  6
Continuous
100
AcDbLine
 10
5991.662175803204
 20
-1622.199727553243
 30
0.0
 11
5992.039827178516
 21
-1622.578309102349
 31
0.0
  0
LINE
  5
77A8
330
1F
100
AcDbEntity
  8
SPOJOVACÍ
  6
Continuous
100
AcDbLine
 10
5990.843621102677
 20
-1634.531998253764
 30
0.0
 11
5991.221272477988
 21
-1634.313406941737
 31
0.0
  0
LINE
  5
77A9
330
1F
100
AcDbEntity
  8
SPOJOVACÍ
  6
Continuous
100
AcDbLine
 10
5990.843621102677
 20
-1634.531998253764
 30
0.0
 11
5991.221272477988
 21
-1634.909649626892
 31
0.0
  0
LINE
  5
77AA
330
1F
100
AcDbEntity
  8
SPOJOVACÍ
  6
Continuous
100
AcDbLine
 10
5990.843621102677
 20
-1631.412188634794
 30
0.0
 11
5991.221272477988
 21
-1631.193597322775
 31
0.0
  0
LINE
  5
77AB
330
1F
100
AcDbEntity
  8
SPOJOVACÍ
  6
Continuous
100
AcDbLine
 10
5990.843621102677
 20
-1631.412188634794
 30
0.0
 11
5991.221272477988
 21
-1631.789840007923
 31
0.0
  0
LINE
  5
77AC
330
1F
100
AcDbEntity
  8
SPOJOVACÍ
  6
Continuous
100
AcDbLine
 10
5990.843621102677
 20
-1628.291448839854
 30
0.0
 11
5991.221272477988
 21
-1628.073787703806
 31
0.0
  0
LINE
  5
77AD
330
1F
100
AcDbEntity
  8
SPOJOVACÍ
  6
Continuous
100
AcDbLine
 10
5990.843621102677
 20
-1628.291448839854
 30
0.0
 11
5991.221272477988
 21
-1628.670030388961
 31
0.0
  0
LINE
  5
77AE
330
1F
100
AcDbEntity
  8
SPOJOVACÍ
  6
Continuous
100
AcDbLine
 10
5995.643328208526
 20
-1639.571690715501
 30
0.0
 11
5995.265676837581
 21
-1639.790282027528
 31
0.0
  0
LINE
  5
77AF
330
1F
100
AcDbEntity
  8
SPOJOVACÍ
  6
Continuous
100
AcDbLine
 10
5994.593159739153
 20
-1644.972291385829
 30
0.0
 11
5994.593159739153
 21
-1640.0293372069
 31
0.0
  0
LINE
  5
77B0
330
1F
100
AcDbEntity
  8
SPOJOVACÍ
  6
Continuous
100
AcDbLine
 10
5994.593159739153
 20
-1644.972291385829
 30
0.0
 11
5994.820122630036
 21
-1646.495919339258
 31
0.0
  0
LINE
  5
77B1
330
1F
100
AcDbEntity
  8
SPOJOVACÍ
  6
Continuous
100
AcDbLine
 10
5994.820122630036
 20
-1646.495919339258
 30
0.0
 11
5995.433108479184
 21
-1647.909786548962
 31
0.0
  0
LINE
  5
77B2
330
1F
100
AcDbEntity
  8
SPOJOVACÍ
  6
Continuous
100
AcDbLine
 10
5995.433108479184
 20
-1647.909786548962
 30
0.0
 11
5996.391189549168
 21
-1649.11715473186
 31
0.0
  0
LINE
  5
77B3
330
1F
100
AcDbEntity
  8
SPOJOVACÍ
  6
Continuous
100
AcDbLine
 10
5996.391189549168
 20
-1649.11715473186
 30
0.0
 11
5997.628323358068
 21
-1650.035238242302
 31
0.0
  0
LINE
  5
77B4
330
1F
100
AcDbEntity
  8
SPOJOVACÍ
  6
Continuous
100
AcDbLine
 10
5997.628323358068
 20
-1650.035238242302
 30
0.0
 11
5998.343628544236
 21
-1650.371961880185
 31
0.0
  0
LINE
  5
77B5
330
1F
100
AcDbEntity
  8
SPOJOVACÍ
  6
Continuous
100
AcDbLine
 10
5998.343628544236
 20
-1651.571888656917
 30
0.0
 11
5998.343628544236
 21
-1650.371961880185
 31
0.0
  0
LINE
  5
77B6
330
1F
100
AcDbEntity
  8
SPOJOVACÍ
  6
Continuous
100
AcDbLine
 10
5994.381079655132
 20
-1618.875279259149
 30
0.0
 11
5994.003428284187
 21
-1618.496697710319
 31
0.0
  0
LINE
  5
77B7
330
1F
100
AcDbEntity
  8
SPOJOVACÍ
  6
Continuous
100
AcDbLine
 10
5994.381079655132
 20
-1618.875279259149
 30
0.0
 11
5994.003428284187
 21
-1619.092940395467
 31
0.0
  0
LINE
  5
77B8
330
1F
100
AcDbEntity
  8
SPOJOVACÍ
  6
Continuous
100
AcDbLine
 10
5992.604443884621
 20
-1618.967366662904
 30
0.0
 11
5994.003428284187
 21
-1618.496697710319
 31
0.0
  0
LINE
  5
77B9
330
1F
100
AcDbEntity
  8
SPOJOVACÍ
  6
Continuous
100
AcDbLine
 10
5992.604443884621
 20
-1619.563609348051
 30
0.0
 11
5994.003428284187
 21
-1619.092940395467
 31
0.0
  0
LINE
  5
77BA
330
1F
100
AcDbEntity
  8
SPOJOVACÍ
  6
Continuous
100
AcDbLine
 10
5994.593159739153
 20
-1639.425653115586
 30
0.0
 11
5994.593159739153
 21
-1636.906737060557
 31
0.0
  0
LINE
  5
77BB
330
1F
100
AcDbEntity
  8
SPOJOVACÍ
  6
Continuous
100
AcDbLine
 10
5994.593159739153
 20
-1636.310494375402
 30
0.0
 11
5994.593159739153
 21
-1633.782276562533
 31
0.0
  0
LINE
  5
77BC
330
1F
100
AcDbEntity
  8
SPOJOVACÍ
  6
Continuous
100
AcDbLine
 10
5994.593159739153
 20
-1633.187894229058
 30
0.0
 11
5994.593159739153
 21
-1630.667117822349
 31
0.0
  0
LINE
  5
77BD
330
1F
100
AcDbEntity
  8
SPOJOVACÍ
  6
Continuous
100
AcDbLine
 10
5994.593159739153
 20
-1630.066224258416
 30
0.0
 11
5994.593159739153
 21
-1627.547308203387
 31
0.0
  0
LINE
  5
77BE
330
1F
100
AcDbEntity
  8
SPOJOVACÍ
  6
Continuous
100
AcDbLine
 10
5994.593159739153
 20
-1626.943624111803
 30
0.0
 11
5994.593159739153
 21
-1626.60690047392
 31
0.0
  0
LINE
  5
77BF
330
1F
100
AcDbEntity
  8
SPOJOVACÍ
  6
Continuous
100
AcDbLine
 10
5994.009009335123
 20
-1621.929046396735
 30
0.0
 11
5994.275969790461
 21
-1624.065660199588
 31
0.0
  0
LINE
  5
77C0
330
1F
100
AcDbEntity
  8
SPOJOVACÍ
  6
Continuous
100
AcDbLine
 10
5994.347593327685
 20
-1624.635857962633
 30
0.0
 11
5994.593159739153
 21
-1626.60690047392
 31
0.0
  0
LINE
  5
77C1
330
1F
100
AcDbEntity
  8
SPOJOVACÍ
  6
Continuous
100
AcDbLine
 10
5995.643328208526
 20
-1639.571690715501
 30
0.0
 11
5995.265676837581
 21
-1639.194039342373
 31
0.0
  0
LINE
  5
77C2
330
1F
100
AcDbEntity
  8
SPOJOVACÍ
  6
Continuous
100
AcDbLine
 10
5995.643328208526
 20
-1636.451881096263
 30
0.0
 11
5995.265676837581
 21
-1636.074229723411
 31
0.0
  0
LINE
  5
77C3
330
1F
100
AcDbEntity
  8
SPOJOVACÍ
  6
Continuous
100
AcDbLine
 10
5995.643328208526
 20
-1636.451881096263
 30
0.0
 11
5995.265676837581
 21
-1636.67047240829
 31
0.0
  0
LINE
  5
77C4
330
1F
100
AcDbEntity
  8
SPOJOVACÍ
  6
Continuous
100
AcDbLine
 10
5995.222888749841
 20
-1624.241463425236
 30
0.0
 11
5994.845237378896
 21
-1623.86288187613
 31
0.0
  0
LINE
  5
77C5
330
1F
100
AcDbEntity
  8
SPOJOVACÍ
  6
Continuous
100
AcDbLine
 10
5995.222888749841
 20
-1624.241463425236
 30
0.0
 11
5994.845237378896
 21
-1624.459124561284
 31
0.0
  0
LINE
  5
77C6
330
1F
100
AcDbEntity
  8
SPOJOVACÍ
  6
Continuous
100
AcDbLine
 10
5994.778264719635
 20
-1621.566277836473
 30
0.0
 11
5994.40061334869
 21
-1621.187696287643
 31
0.0
  0
LINE
  5
77C7
330
1F
100
AcDbEntity
  8
SPOJOVACÍ
  6
Continuous
100
AcDbLine
 10
5994.778264719635
 20
-1621.566277836473
 30
0.0
 11
5994.40061334869
 21
-1621.783938972521
 31
0.0
  0
LINE
  5
77C8
330
1F
100
AcDbEntity
  8
SPOJOVACÍ
  6
Continuous
100
AcDbLine
 10
5995.643328208526
 20
-1633.332071477301
 30
0.0
 11
5995.265676837581
 21
-1632.953489928471
 31
0.0
  0
LINE
  5
77C9
330
1F
100
AcDbEntity
  8
SPOJOVACÍ
  6
Continuous
100
AcDbLine
 10
5995.643328208526
 20
-1633.332071477301
 30
0.0
 11
5995.265676837581
 21
-1633.549732613619
 31
0.0
  0
LINE
  5
77CA
330
1F
100
AcDbEntity
  8
SPOJOVACÍ
  6
Continuous
100
AcDbLine
 10
5995.643328208526
 20
-1630.212261858332
 30
0.0
 11
5995.265676837581
 21
-1629.833680309502
 31
0.0
  0
LINE
  5
77CB
330
1F
100
AcDbEntity
  8
SPOJOVACÍ
  6
Continuous
100
AcDbLine
 10
5995.643328208526
 20
-1630.212261858332
 30
0.0
 11
5995.265676837581
 21
-1630.42992299438
 31
0.0
  0
LINE
  5
77CC
330
1F
100
AcDbEntity
  8
SPOJOVACÍ
  6
Continuous
100
AcDbLine
 10
5995.643328208526
 20
-1627.091522063392
 30
0.0
 11
5995.265676837581
 21
-1626.713870690264
 31
0.0
  0
LINE
  5
77CD
330
1F
100
AcDbEntity
  8
SPOJOVACÍ
  6
Continuous
100
AcDbLine
 10
5995.643328208526
 20
-1627.091522063392
 30
0.0
 11
5995.265676837581
 21
-1627.310113375418
 31
0.0
  0
LINE
  5
77CE
330
1F
100
AcDbEntity
  8
SPOJOVACÍ
  6
Continuous
100
AcDbLine
 10
5992.490032264023
 20
-1621.83695899298
 30
0.0
 11
5992.780247109177
 21
-1619.516170382625
 31
0.0
  0
LINE
  5
77CF
330
1F
100
AcDbEntity
  8
SPOJOVACÍ
  6
Continuous
100
AcDbLine
 10
5993.669495173954
 20
-1619.212002897302
 30
0.0
 11
5993.937385802265
 21
-1621.356988282286
 31
0.0
  0
LINE
  5
77D0
330
1F
100
AcDbEntity
  8
NOSNÉ KONSTRUKCE
100
AcDbLine
 39
2500.000155029299
 10
5736.138136064624
 20
-1604.077374350949
 30
0.0
 11
5736.138116928135
 21
-1608.077395441622
 31
0.0
  0
LINE
  5
77D1
330
1F
100
AcDbEntity
  8
NOSNÉ KONSTRUKCE
100
AcDbLine
 39
2500.000155029299
 10
5736.138116928135
 20
-1608.077395441622
 30
0.0
 11
5725.138180044645
 21
-1608.077342816859
 31
0.0
  0
LINE
  5
77D2
330
1F
100
AcDbEntity
  8
NOSNÉ KONSTRUKCE
100
AcDbLine
 39
2500.000155029299
 10
5734.138135087302
 20
-1602.077402683714
 30
0.0
 11
5736.138155200654
 21
-1600.077450152967
 31
0.0
  0
LINE
  5
77D3
330
1F
100
AcDbEntity
  8
NOSNÉ KONSTRUKCE
100
AcDbLine
 39
2500.000155029299
 10
5736.138136064624
 20
-1604.077374350949
 30
0.0
 11
5734.138135087302
 21
-1602.077402683714
 31
0.0
  0
LINE
  5
77D4
330
1F
100
AcDbEntity
  8
NOSNÉ KONSTRUKCE
100
AcDbLine
 39
2500.000155029299
 10
5735.552365778455
 20
-1602.077409449528
 30
0.0
 11
5737.138153218968
 21
-1600.491675594306
 31
0.0
  0
LINE
  5
77D5
330
1F
100
AcDbEntity
  8
NOSNÉ KONSTRUKCE
100
AcDbLine
 39
2500.000155029299
 10
5737.138138046282
 20
-1603.663158477807
 30
0.0
 11
5735.552365778455
 21
-1602.077409449528
 31
0.0
  0
LINE
  5
77D6
330
1F
100
AcDbEntity
  8
NOSNÉ KONSTRUKCE
100
AcDbLine
 39
2500.000155029299
 10
5737.138138046282
 20
-1603.663158477807
 30
0.0
 11
5737.138112144018
 21
-1609.077400225706
 31
0.0
  0
LINE
  5
77D7
330
1F
100
AcDbEntity
  8
NOSNÉ KONSTRUKCE
100
AcDbLine
 39
2500.000155029299
 10
5737.138112144018
 20
-1609.077400225706
 30
0.0
 11
5724.723968793017
 21
-1609.077340835244
 31
0.0
  0
LINE
  5
77D8
330
1F
100
AcDbEntity
  8
POPIS
100
AcDbLine
 10
5690.643302887552
 20
-1521.535254787884
 30
0.0
 11
5830.372492569023
 21
-1595.342643577865
 31
0.0
  0
TEXT
  5
77D9
330
1F
100
AcDbEntity
  8
POPIS
100
AcDbText
 10
5352.35937178523
 20
-1363.150877521297
 30
0.0
 40
25.0
  1
Napojení s podloženou spárou (podloženou páskem a profilem)
 41
0.85
  7
SIMPLEX7
100
AcDbText
  0
LINE
  5
77DA
330
1F
100
AcDbEntity
  8
NOSNÉ KONSTRUKCE
100
AcDbLine
 10
6046.060749776977
 20
-1614.902228363926
 30
0.0
 11
5600.790232567673
 21
-1614.902228363926
 31
0.0
  0
LINE
  5
77DB
330
1F
100
AcDbEntity
  8
izolace
100
AcDbLine
 10
5738.92998301493
 20
-1607.231140867151
 30
0.0
 11
6045.894465987624
 21
-1607.231140867151
 31
0.0
  0
LINE
  5
77DC
330
1F
100
AcDbEntity
  8
NOSNÉ KONSTRUKCE
100
AcDbLine
 10
5600.790232567673
 20
-1609.487967479667
 30
0.0
 11
6045.943386519582
 21
-1609.487967479667
 31
0.0
  0
LINE
  5
77DD
330
1F
100
AcDbEntity
  8
izolace
  6
IZOLACE
 48
1.45
100
AcDbLine
 10
5738.92998301493
 20
-1592.23114086715
 30
0.0
 11
6045.569315630346
 21
-1592.23114086715
 31
0.0
  0
LINE
  5
77DE
330
1F
100
AcDbEntity
  8
izolace
100
AcDbLine
 10
5507.690050541297
 20
-1577.231140867151
 30
0.0
 11
6045.244165273068
 21
-1577.231140867151
 31
0.0
  0
LINE
  5
77DF
330
1F
100
AcDbEntity
  8
izolace
  6
IZOLACE
 48
1.45
100
AcDbLine
 10
5507.690050541297
 20
-1562.231140867151
 30
0.0
 11
6044.919014915791
 21
-1562.231140867151
 31
0.0
  0
LINE
  5
77E0
330
1F
100
AcDbEntity
  8
izolace
100
AcDbLine
 10
5507.690050541297
 20
-1547.231140867151
 30
0.0
 11
6044.593864558513
 21
-1547.231140867151
 31
0.0
  0
LINE
  5
77E1
330
1F
100
AcDbEntity
  8
NOSNÉ KONSTRUKCE
100
AcDbLine
 10
5554.142787385853
 20
-1598.987967479667
 30
0.0
 11
5510.280307684731
 21
-1598.987967479668
 31
0.0
  0
LINE
  5
77E2
330
1F
100
AcDbEntity
  8
NOSNÉ KONSTRUKCE
100
AcDbLine
 10
5554.142787385853
 20
-1597.487967479667
 30
0.0
 11
5507.690050541297
 21
-1597.487967479667
 31
0.0
  0
LINE
  5
77E3
330
1F
100
AcDbEntity
  8
izolace
  6
IZOLACE
 48
1.45
100
AcDbLine
 10
5507.690050541297
 20
-1592.231140867151
 30
0.0
 11
5673.257542824596
 21
-1592.23114086715
 31
0.0
  0
LINE
  5
77E4
330
1F
100
AcDbEntity
  8
izolace
100
AcDbLine
 10
5507.690050541297
 20
-1607.231140867151
 30
0.0
 11
5673.257542824596
 21
-1607.231140867151
 31
0.0
  0
LINE
  5
77E5
330
1F
100
AcDbEntity
  8
SPOJOVACÍ
 48
0.25
100
AcDbLine
 10
5471.629387034064
 20
-1614.582532763861
 30
0.0
 11
5467.392306778519
 21
-1611.938432946255
 31
0.0
  0
LINE
  5
77E6
330
1F
100
AcDbEntity
  8
SPOJOVACÍ
 48
0.25
100
AcDbLine
 10
5471.629387034064
 20
-1609.29433312865
 30
0.0
 11
5467.392306778519
 21
-1611.938432946255
 31
0.0
  0
LINE
  5
77E7
330
1F
100
AcDbEntity
  8
SPOJOVACÍ
  6
Continuous
100
AcDbLine
 10
5469.220261611573
 20
-1611.444182584327
 30
0.0
 11
5468.856228593552
 21
-1612.526209580868
 31
0.0
  0
LINE
  5
77E8
330
1F
100
AcDbEntity
  8
SPOJOVACÍ
  6
Continuous
100
AcDbLine
 10
5469.149037760228
 20
-1612.818299313081
 30
0.0
 11
5468.856228593552
 21
-1612.526209580868
 31
0.0
  0
LINE
  5
77E9
330
1F
100
AcDbEntity
  8
SPOJOVACÍ
  6
DASHED
100
AcDbLine
 10
5467.998495504934
 20
-1611.938432946255
 30
0.0
 11
5477.5274405977
 21
-1613.221636071255
 31
0.0
  0
LINE
  5
77EA
330
1F
100
AcDbEntity
  8
SPOJOVACÍ
  6
DASHED
100
AcDbLine
 10
5467.998495504934
 20
-1611.938432946255
 30
0.0
 11
5477.5274405977
 21
-1610.655229821255
 31
0.0
  0
LINE
  5
77EB
330
1F
100
AcDbEntity
  8
SPOJOVACÍ
  6
DASHED
100
AcDbLine
 10
5492.527440597701
 20
-1613.221636071255
 30
0.0
 11
5508.592510660831
 21
-1613.221636071255
 31
0.0
  0
LINE
  5
77EC
330
1F
100
AcDbEntity
  8
SPOJOVACÍ
  6
DASHED
100
AcDbLine
 10
5492.527440597701
 20
-1610.655229821255
 30
0.0
 11
5508.592510660824
 21
-1610.655229821255
 31
0.0
  0
LINE
  5
77ED
330
1F
100
AcDbEntity
  8
SPOJOVACÍ
  6
DASHDOT2
100
AcDbLine
 10
5516.989637349664
 20
-1611.938432946255
 30
0.0
 11
5478.712063061427
 21
-1611.938432946255
 31
0.0
  0
LINE
  5
77EE
330
1F
100
AcDbEntity
  8
SPOJOVACÍ
  6
Continuous
100
AcDbLine
 10
5496.877401033276
 20
-1609.803875704063
 30
0.0
 11
5497.214131575184
 21
-1610.139778899992
 31
0.0
  0
LINE
  5
77EF
330
1F
100
AcDbEntity
  8
SPOJOVACÍ
  6
Continuous
100
AcDbLine
 10
5497.214131575184
 20
-1610.139778899992
 30
0.0
 11
5496.004549137758
 21
-1613.737086996398
 31
0.0
  0
LINE
  5
77F0
330
1F
100
AcDbEntity
  8
SPOJOVACÍ
  6
CIKCAK
 48
0.25
100
AcDbLine
 10
5509.452042864713
 20
-1614.582532763861
 30
0.0
 11
5471.629387034064
 21
-1614.582532763861
 31
0.0
  0
LINE
  5
77F1
330
1F
100
AcDbEntity
  8
SPOJOVACÍ
  6
CIKCAK
 48
0.25
100
AcDbLine
 10
5509.452042864713
 20
-1609.294333128644
 30
0.0
 11
5471.629387034064
 21
-1609.29433312865
 31
0.0
  0
LINE
  5
77F2
330
1F
100
AcDbEntity
  8
SPOJOVACÍ
  6
Continuous
100
AcDbLine
 10
5492.120146703808
 20
-1610.139778899992
 30
0.0
 11
5490.910564266382
 21
-1613.737086996398
 31
0.0
  0
LINE
  5
77F3
330
1F
100
AcDbEntity
  8
SPOJOVACÍ
  6
Continuous
100
AcDbLine
 10
5491.589816784244
 20
-1610.139778899992
 30
0.0
 11
5490.380234346817
 21
-1613.737086996398
 31
0.0
  0
LINE
  5
77F4
330
1F
100
AcDbEntity
  8
SPOJOVACÍ
  6
Continuous
100
AcDbLine
 10
5490.7161375408
 20
-1614.072990188448
 30
0.0
 11
5490.910564266382
 21
-1613.737086996398
 31
0.0
  0
LINE
  5
77F5
330
1F
100
AcDbEntity
  8
SPOJOVACÍ
  6
Continuous
100
AcDbLine
 10
5490.7161375408
 20
-1614.072990188448
 30
0.0
 11
5490.380234346817
 21
-1613.737086996398
 31
0.0
  0
LINE
  5
77F6
330
1F
100
AcDbEntity
  8
SPOJOVACÍ
  6
Continuous
100
AcDbLine
 10
5491.783416161901
 20
-1609.803875704063
 30
0.0
 11
5492.120146703808
 21
-1610.139778899992
 31
0.0
  0
LINE
  5
77F7
330
1F
100
AcDbEntity
  8
SPOJOVACÍ
  6
Continuous
100
AcDbLine
 10
5491.783416161901
 20
-1609.803875704063
 30
0.0
 11
5491.589816784244
 21
-1610.139778899992
 31
0.0
  0
LINE
  5
77F8
330
1F
100
AcDbEntity
  8
SPOJOVACÍ
  6
Continuous
100
AcDbLine
 10
5491.783416161901
 20
-1609.803875704063
 30
0.0
 11
5490.7161375408
 21
-1614.072990188448
 31
0.0
  0
LINE
  5
77F9
330
1F
100
AcDbEntity
  8
SPOJOVACÍ
  6
Continuous
100
AcDbLine
 10
5489.573154268121
 20
-1610.139778899992
 30
0.0
 11
5488.363571830695
 21
-1613.737086996398
 31
0.0
  0
LINE
  5
77FA
330
1F
100
AcDbEntity
  8
SPOJOVACÍ
  6
Continuous
100
AcDbLine
 10
5489.042824348556
 20
-1610.139778899992
 30
0.0
 11
5487.833241911129
 21
-1613.737086996398
 31
0.0
  0
LINE
  5
77FB
330
1F
100
AcDbEntity
  8
SPOJOVACÍ
  6
Continuous
100
AcDbLine
 10
5488.169145105113
 20
-1614.072990188448
 30
0.0
 11
5488.363571830695
 21
-1613.737086996398
 31
0.0
  0
LINE
  5
77FC
330
1F
100
AcDbEntity
  8
SPOJOVACÍ
  6
Continuous
100
AcDbLine
 10
5488.169145105113
 20
-1614.072990188448
 30
0.0
 11
5487.833241911129
 21
-1613.737086996398
 31
0.0
  0
LINE
  5
77FD
330
1F
100
AcDbEntity
  8
SPOJOVACÍ
  6
Continuous
100
AcDbLine
 10
5489.236423726213
 20
-1609.803875704063
 30
0.0
 11
5489.573154268121
 21
-1610.139778899992
 31
0.0
  0
LINE
  5
77FE
330
1F
100
AcDbEntity
  8
SPOJOVACÍ
  6
Continuous
100
AcDbLine
 10
5489.236423726213
 20
-1609.803875704063
 30
0.0
 11
5489.042824348556
 21
-1610.139778899992
 31
0.0
  0
LINE
  5
77FF
330
1F
100
AcDbEntity
  8
SPOJOVACÍ
  6
Continuous
100
AcDbLine
 10
5489.236423726213
 20
-1609.803875704063
 30
0.0
 11
5488.169145105113
 21
-1614.072990188448
 31
0.0
  0
LINE
  5
7800
330
1F
100
AcDbEntity
  8
SPOJOVACÍ
  6
Continuous
100
AcDbLine
 10
5487.026161832434
 20
-1610.139778899992
 30
0.0
 11
5485.816579395008
 21
-1613.737086996398
 31
0.0
  0
LINE
  5
7801
330
1F
100
AcDbEntity
  8
SPOJOVACÍ
  6
Continuous
100
AcDbLine
 10
5486.495831912868
 20
-1610.139778899992
 30
0.0
 11
5485.286249475442
 21
-1613.737086996398
 31
0.0
  0
LINE
  5
7802
330
1F
100
AcDbEntity
  8
SPOJOVACÍ
  6
Continuous
100
AcDbLine
 10
5485.622152669425
 20
-1614.072990188448
 30
0.0
 11
5485.816579395008
 21
-1613.737086996398
 31
0.0
  0
LINE
  5
7803
330
1F
100
AcDbEntity
  8
SPOJOVACÍ
  6
Continuous
100
AcDbLine
 10
5485.622152669425
 20
-1614.072990188448
 30
0.0
 11
5485.286249475442
 21
-1613.737086996398
 31
0.0
  0
LINE
  5
7804
330
1F
100
AcDbEntity
  8
SPOJOVACÍ
  6
Continuous
100
AcDbLine
 10
5486.689431290525
 20
-1609.803875704063
 30
0.0
 11
5487.026161832434
 21
-1610.139778899992
 31
0.0
  0
LINE
  5
7805
330
1F
100
AcDbEntity
  8
SPOJOVACÍ
  6
Continuous
100
AcDbLine
 10
5486.689431290525
 20
-1609.803875704063
 30
0.0
 11
5486.495831912868
 21
-1610.139778899992
 31
0.0
  0
LINE
  5
7806
330
1F
100
AcDbEntity
  8
SPOJOVACÍ
  6
Continuous
100
AcDbLine
 10
5486.689431290525
 20
-1609.803875704063
 30
0.0
 11
5485.622152669425
 21
-1614.072990188448
 31
0.0
  0
LINE
  5
7807
330
1F
100
AcDbEntity
  8
SPOJOVACÍ
  6
Continuous
100
AcDbLine
 10
5484.479169396746
 20
-1610.139778899992
 30
0.0
 11
5483.26958695932
 21
-1613.737086996398
 31
0.0
  0
LINE
  5
7808
330
1F
100
AcDbEntity
  8
SPOJOVACÍ
  6
Continuous
100
AcDbLine
 10
5483.94883947718
 20
-1610.139778899992
 30
0.0
 11
5482.739257039754
 21
-1613.737086996398
 31
0.0
  0
LINE
  5
7809
330
1F
100
AcDbEntity
  8
SPOJOVACÍ
  6
Continuous
100
AcDbLine
 10
5483.075160233738
 20
-1614.072990188448
 30
0.0
 11
5483.26958695932
 21
-1613.737086996398
 31
0.0
  0
LINE
  5
780A
330
1F
100
AcDbEntity
  8
SPOJOVACÍ
  6
Continuous
100
AcDbLine
 10
5483.075160233738
 20
-1614.072990188448
 30
0.0
 11
5482.739257039754
 21
-1613.737086996398
 31
0.0
  0
LINE
  5
780B
330
1F
100
AcDbEntity
  8
SPOJOVACÍ
  6
Continuous
100
AcDbLine
 10
5484.142438854838
 20
-1609.803875704063
 30
0.0
 11
5484.479169396746
 21
-1610.139778899992
 31
0.0
  0
LINE
  5
780C
330
1F
100
AcDbEntity
  8
SPOJOVACÍ
  6
Continuous
100
AcDbLine
 10
5484.142438854838
 20
-1609.803875704063
 30
0.0
 11
5483.94883947718
 21
-1610.139778899992
 31
0.0
  0
LINE
  5
780D
330
1F
100
AcDbEntity
  8
SPOJOVACÍ
  6
Continuous
100
AcDbLine
 10
5484.142438854838
 20
-1609.803875704063
 30
0.0
 11
5483.075160233738
 21
-1614.072990188448
 31
0.0
  0
LINE
  5
780E
330
1F
100
AcDbEntity
  8
SPOJOVACÍ
  6
Continuous
100
AcDbLine
 10
5481.932176961059
 20
-1610.139778899992
 30
0.0
 11
5480.722594523633
 21
-1613.737086996398
 31
0.0
  0
LINE
  5
780F
330
1F
100
AcDbEntity
  8
SPOJOVACÍ
  6
Continuous
100
AcDbLine
 10
5481.401847041492
 20
-1610.139778899992
 30
0.0
 11
5480.192264604067
 21
-1613.737086996398
 31
0.0
  0
LINE
  5
7810
330
1F
100
AcDbEntity
  8
SPOJOVACÍ
  6
Continuous
100
AcDbLine
 10
5480.52816779805
 20
-1614.072990188448
 30
0.0
 11
5480.722594523633
 21
-1613.737086996398
 31
0.0
  0
LINE
  5
7811
330
1F
100
AcDbEntity
  8
SPOJOVACÍ
  6
Continuous
100
AcDbLine
 10
5480.52816779805
 20
-1614.072990188448
 30
0.0
 11
5480.192264604067
 21
-1613.737086996398
 31
0.0
  0
LINE
  5
7812
330
1F
100
AcDbEntity
  8
SPOJOVACÍ
  6
Continuous
100
AcDbLine
 10
5481.59544641915
 20
-1609.803875704063
 30
0.0
 11
5481.932176961059
 21
-1610.139778899992
 31
0.0
  0
LINE
  5
7813
330
1F
100
AcDbEntity
  8
SPOJOVACÍ
  6
Continuous
100
AcDbLine
 10
5481.59544641915
 20
-1609.803875704063
 30
0.0
 11
5481.401847041492
 21
-1610.139778899992
 31
0.0
  0
LINE
  5
7814
330
1F
100
AcDbEntity
  8
SPOJOVACÍ
  6
Continuous
100
AcDbLine
 10
5481.59544641915
 20
-1609.803875704063
 30
0.0
 11
5480.52816779805
 21
-1614.072990188448
 31
0.0
  0
LINE
  5
7815
330
1F
100
AcDbEntity
  8
SPOJOVACÍ
  6
Continuous
100
AcDbLine
 10
5479.048453983462
 20
-1609.803875704063
 30
0.0
 11
5477.981175362362
 21
-1614.072990188448
 31
0.0
  0
LINE
  5
7816
330
1F
100
AcDbEntity
  8
SPOJOVACÍ
  6
Continuous
100
AcDbLine
 10
5479.048453983462
 20
-1609.803875704063
 30
0.0
 11
5478.854854605805
 21
-1610.139778899992
 31
0.0
  0
LINE
  5
7817
330
1F
100
AcDbEntity
  8
SPOJOVACÍ
  6
Continuous
100
AcDbLine
 10
5479.048453983462
 20
-1609.803875704063
 30
0.0
 11
5479.385184525371
 21
-1610.139778899992
 31
0.0
  0
LINE
  5
7818
330
1F
100
AcDbEntity
  8
SPOJOVACÍ
  6
Continuous
100
AcDbLine
 10
5477.981175362362
 20
-1614.072990188448
 30
0.0
 11
5477.645272168379
 21
-1613.737086996398
 31
0.0
  0
LINE
  5
7819
330
1F
100
AcDbEntity
  8
SPOJOVACÍ
  6
Continuous
100
AcDbLine
 10
5477.981175362362
 20
-1614.072990188448
 30
0.0
 11
5478.175602087945
 21
-1613.737086996398
 31
0.0
  0
LINE
  5
781A
330
1F
100
AcDbEntity
  8
SPOJOVACÍ
  6
Continuous
100
AcDbLine
 10
5478.854854605805
 20
-1610.139778899992
 30
0.0
 11
5477.645272168379
 21
-1613.737086996398
 31
0.0
  0
LINE
  5
781B
330
1F
100
AcDbEntity
  8
SPOJOVACÍ
  6
Continuous
100
AcDbLine
 10
5479.385184525371
 20
-1610.139778899992
 30
0.0
 11
5478.175602087945
 21
-1613.737086996398
 31
0.0
  0
LINE
  5
781C
330
1F
100
AcDbEntity
  8
SPOJOVACÍ
  6
Continuous
100
AcDbLine
 10
5476.838192089683
 20
-1610.139778899992
 30
0.0
 11
5475.628609652257
 21
-1613.737086996398
 31
0.0
  0
LINE
  5
781D
330
1F
100
AcDbEntity
  8
SPOJOVACÍ
  6
Continuous
100
AcDbLine
 10
5476.307862170118
 20
-1610.139778899992
 30
0.0
 11
5475.098279732691
 21
-1613.737086996398
 31
0.0
  0
LINE
  5
781E
330
1F
100
AcDbEntity
  8
SPOJOVACÍ
  6
Continuous
100
AcDbLine
 10
5475.434182926675
 20
-1614.072990188448
 30
0.0
 11
5475.628609652257
 21
-1613.737086996398
 31
0.0
  0
LINE
  5
781F
330
1F
100
AcDbEntity
  8
SPOJOVACÍ
  6
Continuous
100
AcDbLine
 10
5475.434182926675
 20
-1614.072990188448
 30
0.0
 11
5475.098279732691
 21
-1613.737086996398
 31
0.0
  0
LINE
  5
7820
330
1F
100
AcDbEntity
  8
SPOJOVACÍ
  6
Continuous
100
AcDbLine
 10
5476.501461547775
 20
-1609.803875704063
 30
0.0
 11
5476.838192089683
 21
-1610.139778899992
 31
0.0
  0
LINE
  5
7821
330
1F
100
AcDbEntity
  8
SPOJOVACÍ
  6
Continuous
100
AcDbLine
 10
5476.501461547775
 20
-1609.803875704063
 30
0.0
 11
5476.307862170118
 21
-1610.139778899992
 31
0.0
  0
LINE
  5
7822
330
1F
100
AcDbEntity
  8
SPOJOVACÍ
  6
Continuous
100
AcDbLine
 10
5476.501461547775
 20
-1609.803875704063
 30
0.0
 11
5475.434182926675
 21
-1614.072990188448
 31
0.0
  0
LINE
  5
7823
330
1F
100
AcDbEntity
  8
SPOJOVACÍ
  6
Continuous
100
AcDbLine
 10
5474.05197257891
 20
-1610.278701381474
 30
0.0
 11
5474.344062312816
 21
-1610.571510547726
 31
0.0
  0
LINE
  5
7824
330
1F
100
AcDbEntity
  8
SPOJOVACÍ
  6
Continuous
100
AcDbLine
 10
5474.05197257891
 20
-1610.278701381474
 30
0.0
 11
5473.88290586101
 21
-1610.571510547726
 31
0.0
  0
LINE
  5
7825
330
1F
100
AcDbEntity
  8
SPOJOVACÍ
  6
Continuous
100
AcDbLine
 10
5494.330408597588
 20
-1609.803875704063
 30
0.0
 11
5493.263129976488
 21
-1614.072990188448
 31
0.0
  0
LINE
  5
7826
330
1F
100
AcDbEntity
  8
SPOJOVACÍ
  6
Continuous
100
AcDbLine
 10
5494.330408597588
 20
-1609.803875704063
 30
0.0
 11
5494.136809219931
 21
-1610.139778899992
 31
0.0
  0
LINE
  5
7827
330
1F
100
AcDbEntity
  8
SPOJOVACÍ
  6
Continuous
100
AcDbLine
 10
5494.330408597588
 20
-1609.803875704063
 30
0.0
 11
5494.667139139497
 21
-1610.139778899992
 31
0.0
  0
LINE
  5
7828
330
1F
100
AcDbEntity
  8
SPOJOVACÍ
  6
Continuous
100
AcDbLine
 10
5493.263129976488
 20
-1614.072990188448
 30
0.0
 11
5492.927226782505
 21
-1613.737086996398
 31
0.0
  0
LINE
  5
7829
330
1F
100
AcDbEntity
  8
SPOJOVACÍ
  6
Continuous
100
AcDbLine
 10
5493.263129976488
 20
-1614.072990188448
 30
0.0
 11
5493.45755670207
 21
-1613.737086996398
 31
0.0
  0
LINE
  5
782A
330
1F
100
AcDbEntity
  8
SPOJOVACÍ
  6
Continuous
100
AcDbLine
 10
5494.136809219931
 20
-1610.139778899992
 30
0.0
 11
5492.927226782505
 21
-1613.737086996398
 31
0.0
  0
LINE
  5
782B
330
1F
100
AcDbEntity
  8
SPOJOVACÍ
  6
Continuous
100
AcDbLine
 10
5494.667139139497
 20
-1610.139778899992
 30
0.0
 11
5493.45755670207
 21
-1613.737086996398
 31
0.0
  0
LINE
  5
782C
330
1F
100
AcDbEntity
  8
SPOJOVACÍ
  6
Continuous
100
AcDbLine
 10
5496.877401033276
 20
-1609.803875704063
 30
0.0
 11
5495.810122412176
 21
-1614.072990188448
 31
0.0
  0
LINE
  5
782D
330
1F
100
AcDbEntity
  8
SPOJOVACÍ
  6
Continuous
100
AcDbLine
 10
5496.877401033276
 20
-1609.803875704063
 30
0.0
 11
5496.683801655619
 21
-1610.139778899992
 31
0.0
  0
LINE
  5
782E
330
1F
100
AcDbEntity
  8
SPOJOVACÍ
  6
Continuous
100
AcDbLine
 10
5495.810122412176
 20
-1614.072990188448
 30
0.0
 11
5495.474219218192
 21
-1613.737086996398
 31
0.0
  0
LINE
  5
782F
330
1F
100
AcDbEntity
  8
SPOJOVACÍ
  6
Continuous
100
AcDbLine
 10
5495.810122412176
 20
-1614.072990188448
 30
0.0
 11
5496.004549137758
 21
-1613.737086996398
 31
0.0
  0
LINE
  5
7830
330
1F
100
AcDbEntity
  8
SPOJOVACÍ
  6
Continuous
100
AcDbLine
 10
5496.683801655619
 20
-1610.139778899992
 30
0.0
 11
5495.474219218192
 21
-1613.737086996398
 31
0.0
  0
LINE
  5
7831
330
1F
100
AcDbEntity
  8
SPOJOVACÍ
  6
Continuous
100
AcDbLine
 10
5469.389328329465
 20
-1611.152092852109
 30
0.0
 11
5469.149037760228
 21
-1612.818299313081
 31
0.0
  0
LINE
  5
7832
330
1F
100
AcDbEntity
  8
SPOJOVACÍ
  6
Continuous
100
AcDbLine
 10
5469.681418063363
 20
-1611.444182584327
 30
0.0
 11
5469.31738504535
 21
-1612.526209580868
 31
0.0
  0
LINE
  5
7833
330
1F
100
AcDbEntity
  8
SPOJOVACÍ
  6
Continuous
100
AcDbLine
 10
5469.149037760228
 20
-1612.818299313081
 30
0.0
 11
5469.31738504535
 21
-1612.526209580868
 31
0.0
  0
LINE
  5
7834
330
1F
100
AcDbEntity
  8
SPOJOVACÍ
  6
Continuous
100
AcDbLine
 10
5469.389328329465
 20
-1611.152092852109
 30
0.0
 11
5469.681418063363
 21
-1611.444182584327
 31
0.0
  0
LINE
  5
7835
330
1F
100
AcDbEntity
  8
SPOJOVACÍ
  6
Continuous
100
AcDbLine
 10
5469.389328329465
 20
-1611.152092852109
 30
0.0
 11
5469.220261611573
 21
-1611.444182584327
 31
0.0
  0
LINE
  5
7836
330
1F
100
AcDbEntity
  8
SPOJOVACÍ
  6
Continuous
100
AcDbLine
 10
5471.720290737697
 20
-1610.715397115105
 30
0.0
 11
5471.230356972378
 21
-1613.12549713641
 31
0.0
  0
LINE
  5
7837
330
1F
100
AcDbEntity
  8
SPOJOVACÍ
  6
Continuous
100
AcDbLine
 10
5472.013099904584
 20
-1611.007486850696
 30
0.0
 11
5471.398704257289
 21
-1612.833407404192
 31
0.0
  0
LINE
  5
7838
330
1F
100
AcDbEntity
  8
SPOJOVACÍ
  6
Continuous
100
AcDbLine
 10
5471.551943452786
 20
-1611.007486850696
 30
0.0
 11
5470.937547805709
 21
-1612.833407404192
 31
0.0
  0
LINE
  5
7839
330
1F
100
AcDbEntity
  8
SPOJOVACÍ
  6
Continuous
100
AcDbLine
 10
5471.230356972378
 20
-1613.12549713641
 30
0.0
 11
5471.398704257289
 21
-1612.833407404192
 31
0.0
  0
LINE
  5
783A
330
1F
100
AcDbEntity
  8
SPOJOVACÍ
  6
Continuous
100
AcDbLine
 10
5471.230356972378
 20
-1613.12549713641
 30
0.0
 11
5470.937547805709
 21
-1612.833407404192
 31
0.0
  0
LINE
  5
783B
330
1F
100
AcDbEntity
  8
SPOJOVACÍ
  6
Continuous
100
AcDbLine
 10
5471.720290737697
 20
-1610.715397115105
 30
0.0
 11
5472.013099904584
 21
-1611.007486850696
 31
0.0
  0
LINE
  5
783C
330
1F
100
AcDbEntity
  8
SPOJOVACÍ
  6
Continuous
100
AcDbLine
 10
5471.720290737697
 20
-1610.715397115105
 30
0.0
 11
5471.551943452786
 21
-1611.007486850696
 31
0.0
  0
LINE
  5
783D
330
1F
100
AcDbEntity
  8
SPOJOVACÍ
  6
Continuous
100
AcDbLine
 10
5473.299445826186
 20
-1613.469386034768
 30
0.0
 11
5473.467793111097
 21
-1613.17729630255
 31
0.0
  0
LINE
  5
783E
330
1F
100
AcDbEntity
  8
SPOJOVACÍ
  6
Continuous
100
AcDbLine
 10
5473.299445826186
 20
-1613.469386034768
 30
0.0
 11
5473.006636659299
 21
-1613.17729630255
 31
0.0
  0
LINE
  5
783F
330
1F
100
AcDbEntity
  8
SPOJOVACÍ
  6
Continuous
100
AcDbLine
 10
5474.05197257891
 20
-1610.278701381474
 30
0.0
 11
5473.299445826186
 21
-1613.469386034768
 31
0.0
  0
LINE
  5
7840
330
1F
100
AcDbEntity
  8
SPOJOVACÍ
  6
Continuous
100
AcDbLine
 10
5474.344062312816
 20
-1610.571510547726
 30
0.0
 11
5473.467793111097
 21
-1613.17729630255
 31
0.0
  0
LINE
  5
7841
330
1F
100
AcDbEntity
  8
SPOJOVACÍ
  6
Continuous
100
AcDbLine
 10
5473.88290586101
 20
-1610.571510547726
 30
0.0
 11
5473.006636659299
 21
-1613.17729630255
 31
0.0
  0
LINE
  5
7842
330
1F
100
AcDbEntity
  8
SPOJOVACÍ
  6
Continuous
100
AcDbLine
 10
5499.424393468963
 20
-1609.803875704063
 30
0.0
 11
5498.357114847863
 21
-1614.072990188448
 31
0.0
  0
LINE
  5
7843
330
1F
100
AcDbEntity
  8
SPOJOVACÍ
  6
Continuous
100
AcDbLine
 10
5499.424393468963
 20
-1609.803875704063
 30
0.0
 11
5499.230794091307
 21
-1610.139778899992
 31
0.0
  0
LINE
  5
7844
330
1F
100
AcDbEntity
  8
SPOJOVACÍ
  6
Continuous
100
AcDbLine
 10
5499.424393468963
 20
-1609.803875704063
 30
0.0
 11
5499.761124010872
 21
-1610.139778899992
 31
0.0
  0
LINE
  5
7845
330
1F
100
AcDbEntity
  8
SPOJOVACÍ
  6
Continuous
100
AcDbLine
 10
5498.357114847863
 20
-1614.072990188448
 30
0.0
 11
5498.021211653879
 21
-1613.737086996398
 31
0.0
  0
LINE
  5
7846
330
1F
100
AcDbEntity
  8
SPOJOVACÍ
  6
Continuous
100
AcDbLine
 10
5498.357114847863
 20
-1614.072990188448
 30
0.0
 11
5498.551541573445
 21
-1613.737086996398
 31
0.0
  0
LINE
  5
7847
330
1F
100
AcDbEntity
  8
SPOJOVACÍ
  6
Continuous
100
AcDbLine
 10
5499.230794091307
 20
-1610.139778899992
 30
0.0
 11
5498.021211653879
 21
-1613.737086996398
 31
0.0
  0
LINE
  5
7848
330
1F
100
AcDbEntity
  8
SPOJOVACÍ
  6
Continuous
100
AcDbLine
 10
5499.761124010872
 20
-1610.139778899992
 30
0.0
 11
5498.551541573445
 21
-1613.737086996398
 31
0.0
  0
LINE
  5
7849
330
1F
100
AcDbEntity
  8
SPOJOVACÍ
100
AcDbLine
 10
5512.060677662613
 20
-1606.875932946255
 30
0.0
 11
5510.979486387759
 21
-1606.875932946255
 31
0.0
  0
LINE
  5
784A
330
1F
100
AcDbEntity
  8
SPOJOVACÍ
100
AcDbLine
 10
5510.979486387759
 20
-1606.875932946255
 30
0.0
 11
5511.63716935436
 21
-1606.875932946255
 31
0.0
  0
LINE
  5
784B
330
1F
100
AcDbEntity
  8
SPOJOVACÍ
100
AcDbLine
 10
5511.63716935436
 20
-1606.875932946255
 30
0.0
 11
5510.979486387759
 21
-1606.875932946255
 31
0.0
  0
LINE
  5
784C
330
1F
100
AcDbEntity
  8
SPOJOVACÍ
  6
DASHED
100
AcDbLine
 10
5510.979486387759
 20
-1606.875932946255
 30
0.0
 11
5508.592510660824
 21
-1610.655229821255
 31
0.0
  0
HATCH
  5
784D
330
1F
100
AcDbEntity
  8
NOSNÉ KONSTRUKCE
100
AcDbHatch
 10
0.0
 20
0.0
 30
0.0
210
0.0
220
0.0
230
1.0
  2
SOLID
 70
     1
 71
     0
 91
        1
 92
        7
 72
     0
 73
     1
 93
        5
 10
5510.280307684731
 20
-1607.982942061431
 10
5510.280307684732
 20
-1607.231140867151
 10
5507.690050541297
 20
-1607.231140867151
 10
5507.690050541297
 20
-1609.294333128644
 10
5509.452042864715
 20
-1609.294333128644
 97
        0
 75
     0
 76
     1
 47
0.2079962341606263
 98
        1
 10
5508.579580310652
 20
-1608.146992376228
  0
TEXT
  5
784E
330
1F
100
AcDbEntity
  8
POPIS
100
AcDbText
 10
5352.35937178523
 20
-1394.433483730286
 30
0.0
 40
20.0
  1
Svislý řez
 41
0.85
  7
SIMPLEX7
100
AcDbText
  0
LWPOLYLINE
  5
784F
330
1F
100
AcDbEntity
  8
STAVBA OBRYS
100
AcDbPolyline
 90
        4
 70
     0
 43
0.0
 10
5688.03953353434
 20
-1423.929966801645
 42
0.0067884601454819
 10
5685.644521585088
 20
-1411.775331187762
 42
0.0219777111230329
 10
5684.557186582712
 20
-1407.553595280759
 42
0.0044723068875599
 10
5683.783915795477
 20
-1406.280433457997
 42
0.0044723068875599
  0
LWPOLYLINE
  5
7850
330
1F
100
AcDbEntity
  8
STAVBA OBRYS
100
AcDbPolyline
 90
        8
 70
     0
 43
0.0
 10
5667.530745232904
 20
-1436.169763006721
 42
0.0120721047703132
 10
5667.447966004857
 20
-1434.089097240228
 42
0.044358077361292
 10
5666.973212723246
 20
-1430.854137218128
 42
0.0188067511131767
 10
5664.549424585192
 20
-1422.16346220776
 42
0.0457786284636091
 10
5663.099797117652
 20
-1418.745129748304
 42
0.0295006114745606
 10
5660.200524572491
 20
-1414.032850692221
 42
0.0258674098621065
 10
5656.321314195736
 20
-1409.057914597717
 42
0.0199858822254975
 10
5654.706161009784
 20
-1406.638624505549
 42
0.0199858822254975
  0
LWPOLYLINE
  5
7851
330
1F
100
AcDbEntity
  8
STAVBA OBRYS
100
AcDbPolyline
 90
       10
 70
     0
 43
0.0
 10
5656.890274164694
 20
-1436.169763006721
 42
0.0168162630274194
 10
5656.728243469818
 20
-1434.140517224177
 42
0.0575155827655532
 10
5655.912204733399
 20
-1430.420967631316
 42
0.0310289133982999
 10
5652.308843119612
 20
-1421.726934601744
 42
0.0882970623535771
 10
5650.344176815493
 20
-1419.038491740783
 42
0.0171636441953577
 10
5646.968139941271
 20
-1416.021790914489
 42
0.0157521173632038
 10
5643.081514136827
 20
-1412.983995651481
 42
0.0073640874174249
 10
5637.521134909239
 20
-1409.037913940597
 42
0.0194185739168057
 10
5635.334682925623
 20
-1407.65603114146
 42
0.0567960585128809
 10
5628.039533534339
 20
-1404.47379409501
 42
0.0229547400386702
  0
LWPOLYLINE
  5
7852
330
1F
100
AcDbEntity
  8
STAVBA OBRYS
100
AcDbPolyline
 90
        3
 70
     0
 43
0.0
 10
5636.08961048359
 20
-1429.548966172098
 10
5656.195871627261
 20
-1419.488477130537
 10
5665.996397206215
 20
-1409.67091508922
  0
LWPOLYLINE
  5
7853
330
1F
100
AcDbEntity
  8
STAVBA OBRYS
100
AcDbPolyline
 90
        6
 70
     0
 43
0.0
 10
5677.879803688954
 20
-1436.169763006721
 42
0.0128837512779302
 10
5677.538053336689
 20
-1432.169965220625
 42
0.0351641677647434
 10
5676.784741670858
 20
-1427.845513875419
 42
0.0187319685742942
 10
5672.723922613664
 20
-1413.735629064847
 42
0.0582629403736403
 10
5670.732522771975
 20
-1409.439828026128
 42
0.0132943096135683
 10
5668.796017386849
 20
-1406.465060196587
 42
0.0132943096135683
  0
LWPOLYLINE
  5
7854
330
1F
100
AcDbEntity
  8
STAVBA OBRYS
100
AcDbPolyline
 90
        8
 70
     0
 43
0.0
 10
5588.549105642528
 20
-1436.41857285664
 42
-0.0120721047703132
 10
5588.618774231579
 20
-1434.337426845388
 42
-0.044358077361292
 10
5589.073136595868
 20
-1431.09953990096
 42
-0.0188067511131767
 10
5591.442122026351
 20
-1422.393766580675
 42
-0.0457786284636091
 10
5592.870183910626
 20
-1418.966368755402
 42
-0.0295006114745606
 10
5595.739709738392
 20
-1414.235916692721
 42
-0.0258674098621065
 10
5599.587499107762
 20
-1409.236638818822
 42
-0.0158254702278021
 10
5600.838476081099
 20
-1407.302187515691
 42
-0.0158254702278021
  0
LWPOLYLINE
  5
7855
330
1F
100
AcDbEntity
  8
STAVBA OBRYS
100
AcDbPolyline
 90
        3
 70
     0
 43
0.0
 10
5620.942761808857
 20
-1427.252757337051
 10
5599.77865574943
 20
-1419.666203993238
 10
5588.875506149304
 20
-1411.089715501088
  0
LWPOLYLINE
  5
7856
330
1F
100
AcDbEntity
  8
STAVBA OBRYS
100
AcDbPolyline
 90
       10
 70
     0
 43
0.0
 10
5599.189365522664
 20
-1436.351533789067
 42
-0.0168162630274194
 10
5599.338607971306
 20
-1434.321307426424
 42
-0.0575155827655532
 10
5600.131195915679
 20
-1430.596690299322
 42
-0.0310289133982999
 10
5603.679710253357
 20
-1421.880127259086
 42
-0.0882970623535771
 10
5605.627399337613
 20
-1419.179359602616
 42
-0.0171636441953577
 10
5608.984362827968
 20
-1416.14144831755
 42
-0.0157521173632038
 10
5612.851772211482
 20
-1413.079226107453
 42
-0.0073640874174249
 10
5618.387179243521
 20
-1409.098190185332
 42
-0.0194185739168057
 10
5620.564881437172
 20
-1407.702559323336
 42
-0.0567960585128809
 10
5627.839836717544
 20
-1404.474423184698
 42
-0.0229547400386702
  0
LWPOLYLINE
  5
7857
330
1F
100
AcDbEntity
  8
STAVBA OBRYS
100
AcDbPolyline
 90
        4
 70
     0
 43
0.0
 10
5588.620537164102
 20
-1407.452692820239
 10
5588.620537164102
 20
-1516.437517820872
 10
5688.620537164101
 20
-1516.437517820872
 10
5688.620537164101
 20
-1406.220854082375
  0
POLYLINE
  5
7858
330
1F
100
AcDbEntity
  8
STAVBA OBRYS
100
AcDb2dPolyline
 66
     1
 10
0.0
 20
0.0
 30
0.0
  0
VERTEX
  5
7859
330
7858
100
AcDbEntity
  8
STAVBA OBRYS
100
AcDbVertex
100
AcDb2dVertex
 10
5648.550540536269
 20
-1436.169763006719
 30
0.0
 42
0.0072417954699014
  0
VERTEX
  5
785A
330
7858
100
AcDbEntity
  8
STAVBA OBRYS
100
AcDbVertex
100
AcDb2dVertex
 10
5648.48385609486
 20
-1435.67607675319
 30
0.0
 42
0.0707158694326265
  0
VERTEX
  5
785B
330
7858
100
AcDbEntity
  8
STAVBA OBRYS
100
AcDbVertex
100
AcDb2dVertex
 10
5647.846504275153
 20
-1433.352752610077
 30
0.0
 42
0.033952657250207
  0
VERTEX
  5
785C
330
7858
100
AcDbEntity
  8
STAVBA OBRYS
100
AcDbVertex
100
AcDb2dVertex
 10
5645.148117267866
 20
-1428.129107339869
 30
0.0
 42
0.0571374688189033
  0
VERTEX
  5
785D
330
7858
100
AcDbEntity
  8
STAVBA OBRYS
100
AcDbVertex
100
AcDb2dVertex
 10
5643.004729156038
 20
-1425.360798199445
 30
0.0
 42
0.0274923553235744
  0
VERTEX
  5
785E
330
7858
100
AcDbEntity
  8
STAVBA OBRYS
100
AcDbVertex
100
AcDb2dVertex
 10
5639.88796227938
 20
-1422.498707811684
 30
0.0
 42
0.0255412025538677
  0
VERTEX
  5
785F
330
7858
100
AcDbEntity
  8
STAVBA OBRYS
100
AcDbVertex
100
AcDb2dVertex
 10
5636.226246234121
 20
-1419.79065139926
 30
0.0
 42
0.0272796991712396
  0
VERTEX
  5
7860
330
7858
100
AcDbEntity
  8
STAVBA OBRYS
100
AcDbVertex
100
AcDb2dVertex
 10
5631.290647250299
 20
-1416.891048341265
 30
0.0
 42
0.056967459841729
  0
VERTEX
  5
7861
330
7858
100
AcDbEntity
  8
STAVBA OBRYS
100
AcDbVertex
100
AcDb2dVertex
 10
5628.721510513421
 20
-1415.915765339026
 30
0.0
 42
0.0373408083348504
  0
VERTEX
  5
7862
330
7858
100
AcDbEntity
  8
STAVBA OBRYS
100
AcDbVertex
100
AcDb2dVertex
 10
5628.454685262853
 20
-1415.868766689885
 30
0.0
 42
0.0052305969362967
  0
VERTEX
  5
7863
330
7858
100
AcDbEntity
  8
STAVBA OBRYS
100
AcDbVertex
100
AcDb2dVertex
 10
5628.039533534339
 20
-1415.8316183296
 30
0.0
  0
SEQEND
  5
7864
330
7858
100
AcDbEntity
  8
STAVBA OBRYS
  0
POLYLINE
  5
7865
330
1F
100
AcDbEntity
  8
STAVBA OBRYS
100
AcDb2dPolyline
 66
     1
 10
0.0
 20
0.0
 30
0.0
  0
VERTEX
  5
7866
330
7865
100
AcDbEntity
  8
STAVBA OBRYS
100
AcDbVertex
100
AcDb2dVertex
 10
5639.876879311382
 20
-1436.169763006719
 30
0.0
 42
0.0064239028828688
  0
VERTEX
  5
7867
330
7865
100
AcDbEntity
  8
STAVBA OBRYS
100
AcDbVertex
100
AcDb2dVertex
 10
5639.830237183164
 20
-1435.906826615499
 30
0.0
 42
0.0832048017309575
  0
VERTEX
  5
7868
330
7865
100
AcDbEntity
  8
STAVBA OBRYS
100
AcDbVertex
100
AcDb2dVertex
 10
5638.889218059947
 20
-1433.110570319913
 30
0.0
 42
0.0336767237692336
  0
VERTEX
  5
7869
330
7865
100
AcDbEntity
  8
STAVBA OBRYS
100
AcDbVertex
100
AcDb2dVertex
 10
5636.845838189246
 20
-1429.836640896561
 30
0.0
 42
0.0844635135812105
  0
VERTEX
  5
786A
330
7865
100
AcDbEntity
  8
STAVBA OBRYS
100
AcDbVertex
100
AcDb2dVertex
 10
5635.742066477372
 20
-1428.751334970566
 30
0.0
 42
0.0495829410719565
  0
VERTEX
  5
786B
330
7865
100
AcDbEntity
  8
STAVBA OBRYS
100
AcDbVertex
100
AcDb2dVertex
 10
5633.643652352546
 20
-1427.579355561791
 30
0.0
 42
0.0322692699774654
  0
VERTEX
  5
786C
330
7865
100
AcDbEntity
  8
STAVBA OBRYS
100
AcDbVertex
100
AcDb2dVertex
 10
5630.174027335238
 20
-1426.32952736011
 30
0.0
 42
0.0276160659512937
  0
VERTEX
  5
786D
330
7865
100
AcDbEntity
  8
STAVBA OBRYS
100
AcDbVertex
100
AcDb2dVertex
 10
5629.147335609295
 20
-1426.093444845377
 30
0.0
 42
0.0126891984598699
  0
VERTEX
  5
786E
330
7865
100
AcDbEntity
  8
STAVBA OBRYS
100
AcDbVertex
100
AcDb2dVertex
 10
5628.039533534339
 20
-1425.931201977927
 30
0.0
  0
SEQEND
  5
786F
330
7865
100
AcDbEntity
  8
STAVBA OBRYS
  0
POLYLINE
  5
7870
330
1F
100
AcDbEntity
  8
STAVBA OBRYS
100
AcDb2dPolyline
 66
     1
 10
0.0
 20
0.0
 30
0.0
  0
VERTEX
  5
7871
330
7870
100
AcDbEntity
  8
STAVBA OBRYS
100
AcDbVertex
100
AcDb2dVertex
 10
5639.876879311382
 20
-1436.169763006722
 30
0.0
 42
-0.0064239028828688
  0
VERTEX
  5
7872
330
7870
100
AcDbEntity
  8
STAVBA OBRYS
100
AcDbVertex
100
AcDb2dVertex
 10
5639.830237183164
 20
-1436.432699397943
 30
0.0
 42
-0.0832048017309575
  0
VERTEX
  5
7873
330
7870
100
AcDbEntity
  8
STAVBA OBRYS
100
AcDbVertex
100
AcDb2dVertex
 10
5638.889218059947
 20
-1439.228955693528
 30
0.0
 42
-0.0336767237692336
  0
VERTEX
  5
7874
330
7870
100
AcDbEntity
  8
STAVBA OBRYS
100
AcDbVertex
100
AcDb2dVertex
 10
5636.845838189246
 20
-1442.502885116881
 30
0.0
 42
-0.0844635135812105
  0
VERTEX
  5
7875
330
7870
100
AcDbEntity
  8
STAVBA OBRYS
100
AcDbVertex
100
AcDb2dVertex
 10
5635.742066477372
 20
-1443.588191042876
 30
0.0
 42
-0.0495829410719565
  0
VERTEX
  5
7876
330
7870
100
AcDbEntity
  8
STAVBA OBRYS
100
AcDbVertex
100
AcDb2dVertex
 10
5633.643652352546
 20
-1444.760170451651
 30
0.0
 42
-0.0322692699774654
  0
VERTEX
  5
7877
330
7870
100
AcDbEntity
  8
STAVBA OBRYS
100
AcDbVertex
100
AcDb2dVertex
 10
5630.174027335238
 20
-1446.009998653331
 30
0.0
 42
-0.0276160659512937
  0
VERTEX
  5
7878
330
7870
100
AcDbEntity
  8
STAVBA OBRYS
100
AcDbVertex
100
AcDb2dVertex
 10
5629.147335609295
 20
-1446.246081168064
 30
0.0
 42
-0.0126891984598699
  0
VERTEX
  5
7879
330
7870
100
AcDbEntity
  8
STAVBA OBRYS
100
AcDbVertex
100
AcDb2dVertex
 10
5628.039533534339
 20
-1446.408324035514
 30
0.0
  0
SEQEND
  5
787A
330
7870
100
AcDbEntity
  8
STAVBA OBRYS
  0
POLYLINE
  5
787B
330
1F
100
AcDbEntity
  8
STAVBA OBRYS
100
AcDb2dPolyline
 66
     1
 10
0.0
 20
0.0
 30
0.0
  0
VERTEX
  5
787C
330
787B
100
AcDbEntity
  8
STAVBA OBRYS
100
AcDbVertex
100
AcDb2dVertex
 10
5648.550540536269
 20
-1436.169763006722
 30
0.0
 42
-0.0072417954699014
  0
VERTEX
  5
787D
330
787B
100
AcDbEntity
  8
STAVBA OBRYS
100
AcDbVertex
100
AcDb2dVertex
 10
5648.48385609486
 20
-1436.663449260251
 30
0.0
 42
-0.0707158694326265
  0
VERTEX
  5
787E
330
787B
100
AcDbEntity
  8
STAVBA OBRYS
100
AcDbVertex
100
AcDb2dVertex
 10
5647.846504275153
 20
-1438.986773403365
 30
0.0
 42
-0.033952657250207
  0
VERTEX
  5
787F
330
787B
100
AcDbEntity
  8
STAVBA OBRYS
100
AcDbVertex
100
AcDb2dVertex
 10
5645.148117267866
 20
-1444.210418673572
 30
0.0
 42
-0.0571374688189033
  0
VERTEX
  5
7880
330
787B
100
AcDbEntity
  8
STAVBA OBRYS
100
AcDbVertex
100
AcDb2dVertex
 10
5643.004729156038
 20
-1446.978727813996
 30
0.0
 42
-0.0274923553235744
  0
VERTEX
  5
7881
330
787B
100
AcDbEntity
  8
STAVBA OBRYS
100
AcDbVertex
100
AcDb2dVertex
 10
5639.88796227938
 20
-1449.840818201757
 30
0.0
 42
-0.0255412025538677
  0
VERTEX
  5
7882
330
787B
100
AcDbEntity
  8
STAVBA OBRYS
100
AcDbVertex
100
AcDb2dVertex
 10
5636.226246234121
 20
-1452.548874614181
 30
0.0
 42
-0.0272796991712396
  0
VERTEX
  5
7883
330
787B
100
AcDbEntity
  8
STAVBA OBRYS
100
AcDbVertex
100
AcDb2dVertex
 10
5631.290647250299
 20
-1455.448477672176
 30
0.0
 42
-0.056967459841729
  0
VERTEX
  5
7884
330
787B
100
AcDbEntity
  8
STAVBA OBRYS
100
AcDbVertex
100
AcDb2dVertex
 10
5628.721510513421
 20
-1456.423760674415
 30
0.0
 42
-0.0373408083348504
  0
VERTEX
  5
7885
330
787B
100
AcDbEntity
  8
STAVBA OBRYS
100
AcDbVertex
100
AcDb2dVertex
 10
5628.454685262853
 20
-1456.470759323556
 30
0.0
 42
-0.0052305969362967
  0
VERTEX
  5
7886
330
787B
100
AcDbEntity
  8
STAVBA OBRYS
100
AcDbVertex
100
AcDb2dVertex
 10
5628.039533534339
 20
-1456.507907683842
 30
0.0
  0
SEQEND
  5
7887
330
787B
100
AcDbEntity
  8
STAVBA OBRYS
  0
LWPOLYLINE
  5
7888
330
1F
100
AcDbEntity
  8
STAVBA OBRYS
100
AcDbPolyline
 90
        3
 70
     0
 43
0.0
 10
5634.343327646541
 20
-1480.975262257781
 10
5658.338830564932
 20
-1492.034497118405
 10
5663.138755725388
 20
-1492.808974088815
  0
LWPOLYLINE
  5
7889
330
1F
100
AcDbEntity
  8
STAVBA OBRYS
100
AcDbPolyline
 90
        3
 70
     0
 43
0.0
 10
5588.620537164102
 20
-1504.141957466741
 42
0.1594823739701661
 10
5628.181613276542
 20
-1515.117964073557
 42
0.2797225762992413
 10
5688.03953353434
 20
-1482.105080731169
  0
LWPOLYLINE
  5
788A
330
1F
100
AcDbEntity
  8
STAVBA OBRYS
100
AcDbPolyline
 90
        5
 70
     0
 43
0.0
 10
5588.620537164102
 20
-1485.513068651722
 42
0.1515799785300641
 10
5627.801490246818
 20
-1501.695696896144
 42
0.2517236249987814
 10
5684.557186582712
 20
-1464.785930732682
 42
0.0219777111230329
 10
5685.644521585088
 20
-1460.564194825679
 42
0.0067884601454819
 10
5688.03953353434
 20
-1448.409559211796
  0
LWPOLYLINE
  5
788B
330
1F
100
AcDbEntity
  8
STAVBA OBRYS
100
AcDbPolyline
 90
        3
 70
     0
 43
0.0
 10
5636.08961048359
 20
-1442.790559841343
 10
5656.195871627261
 20
-1452.851048882905
 10
5665.996397206215
 20
-1462.668610924222
  0
LWPOLYLINE
  5
788C
330
1F
100
AcDbEntity
  8
STAVBA OBRYS
100
AcDbPolyline
 90
       10
 70
     0
 43
0.0
 10
5656.890274164694
 20
-1436.169763006721
 42
-0.0168162630274194
 10
5656.728243469818
 20
-1438.199008789264
 42
-0.0575155827655532
 10
5655.912204733399
 20
-1441.918558382125
 42
-0.0310289133982999
 10
5652.308843119612
 20
-1450.612591411698
 42
-0.0882970623535771
 10
5650.344176815493
 20
-1453.301034272658
 42
-0.0171636441953577
 10
5646.968139941271
 20
-1456.317735098952
 42
-0.0157521173632038
 10
5643.081514136827
 20
-1459.35553036196
 42
-0.0073640874174249
 10
5637.521134909239
 20
-1463.301612072844
 42
-0.0194185739168057
 10
5635.334682925623
 20
-1464.683494871981
 42
-0.0567960585128809
 10
5628.039533534339
 20
-1467.865731918432
 42
-0.0229547400386702
  0
LWPOLYLINE
  5
788D
330
1F
100
AcDbEntity
  8
STAVBA OBRYS
100
AcDbPolyline
 90
        8
 70
     0
 43
0.0
 10
5667.530745232904
 20
-1436.169763006721
 42
-0.0120721047703132
 10
5667.447966004857
 20
-1438.250428773213
 42
-0.044358077361292
 10
5666.973212723246
 20
-1441.485388795314
 42
-0.0188067511131767
 10
5664.549424585192
 20
-1450.176063805682
 42
-0.0457786284636091
 10
5663.099797117652
 20
-1453.594396265138
 42
-0.0295006114745606
 10
5660.200524572491
 20
-1458.30667532122
 42
-0.0258674098621065
 10
5656.321314195736
 20
-1463.281611415724
 42
-0.2409478365688615
 10
5628.039533534339
 20
-1480.591068349693
 42
-0.0884720560394402
  0
LWPOLYLINE
  5
788E
330
1F
100
AcDbEntity
  8
STAVBA OBRYS
100
AcDbPolyline
 90
        6
 70
     0
 43
0.0
 10
5677.879803688954
 20
-1436.169763006721
 42
-0.0128837512779302
 10
5677.538053336689
 20
-1440.169560792816
 42
-0.0351641677647434
 10
5676.784741670858
 20
-1444.494012138023
 42
-0.0187319685742942
 10
5672.723922613664
 20
-1458.603896948594
 42
-0.0582629403736403
 10
5670.732522771975
 20
-1462.899697987313
 42
-0.2538762603868234
 10
5628.054905599963
 20
-1490.552703946448
  0
LINE
  5
788F
330
1F
100
AcDbEntity
  8
SPOJOVACÍ
  6
Continuous
100
AcDbLine
 10
5536.569889083786
 20
-1606.10198028748
 30
0.0
 11
5538.724176225242
 21
-1605.791301571707
 31
0.0
  0
LINE
  5
7890
330
1F
100
AcDbEntity
  8
SPOJOVACÍ
  6
Continuous
100
AcDbLine
 10
5536.947540454731
 20
-1606.479631660608
 30
0.0
 11
5538.346524854297
 21
-1606.008962708024
 31
0.0
  0
LINE
  5
7891
330
1F
100
AcDbEntity
  8
SPOJOVACÍ
  6
Continuous
100
AcDbLine
 10
5536.947540454731
 20
-1605.883388975461
 30
0.0
 11
5538.346524854297
 21
-1605.412720022877
 31
0.0
  0
LINE
  5
7892
330
1F
100
AcDbEntity
  8
SPOJOVACÍ
  6
Continuous
100
AcDbLine
 10
5538.724176225242
 20
-1605.791301571707
 30
0.0
 11
5538.346524854297
 21
-1606.008962708024
 31
0.0
  0
LINE
  5
7893
330
1F
100
AcDbEntity
  8
SPOJOVACÍ
  6
Continuous
100
AcDbLine
 10
5538.724176225242
 20
-1605.791301571707
 30
0.0
 11
5538.346524854297
 21
-1605.412720022877
 31
0.0
  0
LINE
  5
7894
330
1F
100
AcDbEntity
  8
SPOJOVACÍ
  6
Continuous
100
AcDbLine
 10
5536.569889083786
 20
-1606.10198028748
 30
0.0
 11
5536.947540454731
 21
-1606.479631660608
 31
0.0
  0
LINE
  5
7895
330
1F
100
AcDbEntity
  8
SPOJOVACÍ
  6
Continuous
100
AcDbLine
 10
5536.569889083786
 20
-1606.10198028748
 30
0.0
 11
5536.947540454731
 21
-1605.883388975461
 31
0.0
  0
LINE
  5
7896
330
1F
100
AcDbEntity
  8
SPOJOVACÍ
  6
Continuous
100
AcDbLine
 10
5537.200548271813
 20
-1605.811765439329
 30
0.0
 11
5537.586571225712
 21
-1602.722651621524
 31
0.0
  0
LINE
  5
7897
330
1F
100
AcDbEntity
  8
SPOJOVACÍ
  6
Continuous
100
AcDbLine
 10
5537.586571225712
 20
-1602.722651621524
 30
0.0
 11
5537.94096820684
 21
-1605.558757622793
 31
0.0
  0
LINE
  5
7898
330
1F
100
AcDbEntity
  8
SPOJOVACÍ
  6
Continuous
100
AcDbLine
 10
5539.986424778636
 20
-1614.007544375949
 30
0.0
 11
5539.608773407691
 21
-1614.226135687976
 31
0.0
  0
LINE
  5
7899
330
1F
100
AcDbEntity
  8
SPOJOVACÍ
  6
Continuous
100
AcDbLine
 10
5539.986424778636
 20
-1614.007544375949
 30
0.0
 11
5539.608773407691
 21
-1613.629893002821
 31
0.0
  0
LINE
  5
789A
330
1F
100
AcDbEntity
  8
SPOJOVACÍ
  6
Continuous
100
AcDbLine
 10
5536.005272373314
 20
-1609.1157498658
 30
0.0
 11
5539.121361289745
 21
-1608.48230014903
 31
0.0
  0
LINE
  5
789B
330
1F
100
AcDbEntity
  8
SPOJOVACÍ
  6
Continuous
100
AcDbLine
 10
5536.382923748625
 20
-1609.494331414907
 30
0.0
 11
5538.7437099188
 21
-1608.699961285078
 31
0.0
  0
LINE
  5
789C
330
1F
100
AcDbEntity
  8
SPOJOVACÍ
  6
Continuous
100
AcDbLine
 10
5536.382923748625
 20
-1608.898088729752
 30
0.0
 11
5538.7437099188
 21
-1608.1037186002
 31
0.0
  0
LINE
  5
789D
330
1F
100
AcDbEntity
  8
SPOJOVACÍ
  6
Continuous
100
AcDbLine
 10
5539.121361289745
 20
-1608.48230014903
 30
0.0
 11
5538.7437099188
 21
-1608.699961285078
 31
0.0
  0
LINE
  5
789E
330
1F
100
AcDbEntity
  8
SPOJOVACÍ
  6
Continuous
100
AcDbLine
 10
5539.121361289745
 20
-1608.48230014903
 30
0.0
 11
5538.7437099188
 21
-1608.1037186002
 31
0.0
  0
LINE
  5
789F
330
1F
100
AcDbEntity
  8
SPOJOVACÍ
  6
Continuous
100
AcDbLine
 10
5536.005272373314
 20
-1609.1157498658
 30
0.0
 11
5536.382923748625
 21
-1609.494331414907
 31
0.0
  0
LINE
  5
78A0
330
1F
100
AcDbEntity
  8
SPOJOVACÍ
  6
Continuous
100
AcDbLine
 10
5536.005272373314
 20
-1609.1157498658
 30
0.0
 11
5536.382923748625
 21
-1608.898088729752
 31
0.0
  0
LINE
  5
78A1
330
1F
100
AcDbEntity
  8
SPOJOVACÍ
  6
Continuous
100
AcDbLine
 10
5535.440655667208
 20
-1612.130449620098
 30
0.0
 11
5539.565985319951
 21
-1611.157485737793
 31
0.0
  0
LINE
  5
78A2
330
1F
100
AcDbEntity
  8
SPOJOVACÍ
  6
Continuous
100
AcDbLine
 10
5535.819237215492
 20
-1612.508100993226
 30
0.0
 11
5539.188333949006
 21
-1611.375146873842
 31
0.0
  0
LINE
  5
78A3
330
1F
100
AcDbEntity
  8
SPOJOVACÍ
  6
Continuous
100
AcDbLine
 10
5535.819237215492
 20
-1611.911858308071
 30
0.0
 11
5539.188333949006
 21
-1610.778904188687
 31
0.0
  0
LINE
  5
78A4
330
1F
100
AcDbEntity
  8
SPOJOVACÍ
  6
Continuous
100
AcDbLine
 10
5539.565985319951
 20
-1611.157485737793
 30
0.0
 11
5539.188333949006
 21
-1611.375146873842
 31
0.0
  0
LINE
  5
78A5
330
1F
100
AcDbEntity
  8
SPOJOVACÍ
  6
Continuous
100
AcDbLine
 10
5539.565985319951
 20
-1611.157485737793
 30
0.0
 11
5539.188333949006
 21
-1610.778904188687
 31
0.0
  0
LINE
  5
78A6
330
1F
100
AcDbEntity
  8
SPOJOVACÍ
  6
Continuous
100
AcDbLine
 10
5535.440655667208
 20
-1612.130449620098
 30
0.0
 11
5535.819237215492
 21
-1612.508100993226
 31
0.0
  0
LINE
  5
78A7
330
1F
100
AcDbEntity
  8
SPOJOVACÍ
  6
Continuous
100
AcDbLine
 10
5535.440655667208
 20
-1612.130449620098
 30
0.0
 11
5535.819237215492
 21
-1611.911858308071
 31
0.0
  0
LINE
  5
78A8
330
1F
100
AcDbEntity
  8
SPOJOVACÍ
  6
Continuous
100
AcDbLine
 10
5538.690689897794
 20
-1611.551880275191
 30
0.0
 11
5538.936256309263
 21
-1613.522922786477
 31
0.0
  0
LINE
  5
78A9
330
1F
100
AcDbEntity
  8
SPOJOVACÍ
  6
Continuous
100
AcDbLine
 10
5538.352105905233
 20
-1608.845068709292
 30
0.0
 11
5538.61906636057
 21
-1610.981682512146
 31
0.0
  0
LINE
  5
78AA
330
1F
100
AcDbEntity
  8
SPOJOVACÍ
  6
Continuous
100
AcDbLine
 10
5536.463849041775
 20
-1611.705359281267
 30
0.0
 11
5536.754063891295
 21
-1609.383640495202
 31
0.0
  0
LINE
  5
78AB
330
1F
100
AcDbEntity
  8
SPOJOVACÍ
  6
Continuous
100
AcDbLine
 10
5536.236886146526
 20
-1613.522922786477
 30
0.0
 11
5536.386644449249
 21
-1612.32578653712
 31
0.0
  0
LINE
  5
78AC
330
1F
100
AcDbEntity
  8
SPOJOVACÍ
  6
Continuous
100
AcDbLine
 10
5538.936256309263
 20
-1613.859646424361
 30
0.0
 11
5538.936256309263
 21
-1613.522922786477
 31
0.0
  0
LINE
  5
78AD
330
1F
100
AcDbEntity
  8
SPOJOVACÍ
  6
Continuous
100
AcDbLine
 10
5538.012591744064
 20
-1606.128025209859
 30
0.0
 11
5538.280482372375
 21
-1608.273010594843
 31
0.0
  0
LINE
  5
78AE
330
1F
100
AcDbEntity
  8
SPOJOVACÍ
  6
Continuous
100
AcDbLine
 10
5536.833128834133
 20
-1608.752981305538
 30
0.0
 11
5537.123343679287
 21
-1606.432192695182
 31
0.0
  0
LINE
  5
78AF
330
1F
100
AcDbEntity
  8
SPOJOVACÍ
  6
Continuous
100
AcDbLine
 10
5535.186717672787
 20
-1615.207471152412
 30
0.0
 11
5535.564369048098
 21
-1615.586052701518
 31
0.0
  0
LINE
  5
78B0
330
1F
100
AcDbEntity
  8
SPOJOVACÍ
  6
Continuous
100
AcDbLine
 10
5535.186717672787
 20
-1615.207471152412
 30
0.0
 11
5535.564369048098
 21
-1614.989810016363
 31
0.0
  0
LINE
  5
78B1
330
1F
100
AcDbEntity
  8
SPOJOVACÍ
  6
Continuous
100
AcDbLine
 10
5535.564369048098
 20
-1615.586052701518
 30
0.0
 11
5539.608773407691
 21
-1614.226135687976
 31
0.0
  0
LINE
  5
78B2
330
1F
100
AcDbEntity
  8
SPOJOVACÍ
  6
Continuous
100
AcDbLine
 10
5535.564369048098
 20
-1614.989810016363
 30
0.0
 11
5539.608773407691
 21
-1613.629893002821
 31
0.0
  0
LINE
  5
78B3
330
1F
100
AcDbEntity
  8
SPOJOVACÍ
  6
Continuous
100
AcDbLine
 10
5535.186717672787
 20
-1615.207471152412
 30
0.0
 11
5539.986424778636
 21
-1614.007544375949
 31
0.0
  0
LINE
  5
78B4
330
1F
100
AcDbEntity
  8
SPOJOVACÍ
  6
Continuous
100
AcDbLine
 10
5536.236886146526
 20
-1614.770288528366
 30
0.0
 11
5536.236886146526
 21
-1613.522922786477
 31
0.0
  0
LINE
  5
78B5
330
1F
100
AcDbEntity
  8
NOSNÉ KONSTRUKCE
100
AcDbLine
 10
5554.142787385853
 20
-1597.487967479667
 30
0.0
 11
5554.142787385853
 21
-1598.987967479667
 31
0.0
  0
LWPOLYLINE
  5
78B6
330
1F
100
AcDbEntity
  8
STAVBA OBRYS
100
AcDbPolyline
 90
        8
 70
     0
 43
0.0
 10
5588.549105642528
 20
-1435.920953156801
 42
0.0120721047703132
 10
5588.618774231579
 20
-1438.002099168054
 42
0.044358077361292
 10
5589.073136595868
 20
-1441.239986112482
 42
0.0188067511131767
 10
5591.442122026351
 20
-1449.945759432766
 42
0.0457786284636091
 10
5592.870183910626
 20
-1453.37315725804
 42
0.0295006114745606
 10
5595.739709738392
 20
-1458.10360932072
 42
0.0258674098621065
 10
5599.587499107762
 20
-1463.10288719462
 42
0.2409478365688615
 10
5627.759662194866
 20
-1480.590186692305
 42
0.0884720560394402
  0
LWPOLYLINE
  5
78B7
330
1F
100
AcDbEntity
  8
STAVBA OBRYS
100
AcDbPolyline
 90
        3
 70
     0
 43
0.0
 10
5615.364621162296
 20
-1438.045258980839
 10
5599.149678478029
 20
-1453.619301830364
 10
5592.704123726214
 20
-1465.903016659362
  0
LWPOLYLINE
  5
78B8
330
1F
100
AcDbEntity
  8
STAVBA OBRYS
100
AcDbPolyline
 90
       10
 70
     0
 43
0.0
 10
5599.189365522664
 20
-1435.987992224374
 42
0.0168162630274194
 10
5599.338607971306
 20
-1438.018218587018
 42
0.0575155827655532
 10
5600.131195915679
 20
-1441.742835714119
 42
0.0310289133982999
 10
5603.679710253357
 20
-1450.459398754355
 42
0.0882970623535771
 10
5605.627399337613
 20
-1453.160166410825
 42
0.0171636441953577
 10
5608.984362827968
 20
-1456.198077695891
 42
0.0157521173632038
 10
5612.851772211482
 20
-1459.260299905989
 42
0.0073640874174249
 10
5618.387179243521
 20
-1463.241335828109
 42
0.0194185739168057
 10
5620.564881437172
 20
-1464.636966690105
 42
0.0567960585128809
 10
5627.839836717544
 20
-1467.865102828744
 42
0.0229547400386702
  0
LWPOLYLINE
  5
78B9
330
1F
100
AcDbEntity
  8
STAVBA OBRYS
100
AcDbPolyline
 90
        3
 70
     0
 43
0.0
 10
5621.453572628355
 20
-1480.934656643257
 10
5597.388868522878
 20
-1491.842491090335
 10
5592.584159126219
 20
-1492.586711311263
  0
LWPOLYLINE
  5
78BA
330
1F
100
AcDbEntity
  8
STAVBA OBRYS
100
AcDbPolyline
 90
        2
 70
     0
 43
0.0
 10
5588.620537164102
 20
-1468.201640854162
 42
0.2237289391062531
 10
5628.054905599963
 20
-1490.552703946448
  0
LWPOLYLINE
  5
78BB
330
1F
100
AcDbEntity
  8
STAVBA OBRYS
100
AcDbPolyline
 90
        2
 70
     0
 43
0.0
 10
5620.928264276304
 20
-1495.953550208513
 10
5620.552699169803
 20
-1496.123783010372
  0
POLYLINE
  5
78BC
330
1F
100
AcDbEntity
  8
STAVBA OBRYS
100
AcDb2dPolyline
 66
     1
 10
0.0
 20
0.0
 30
0.0
  0
VERTEX
  5
78BD
330
78BC
100
AcDbEntity
  8
STAVBA OBRYS
100
AcDbVertex
100
AcDb2dVertex
 10
5607.528933627186
 20
-1436.298990253854
 30
0.0
 42
-0.0072417954699014
  0
VERTEX
  5
78BE
330
78BC
100
AcDbEntity
  8
STAVBA OBRYS
100
AcDbVertex
100
AcDb2dVertex
 10
5607.592506331454
 20
-1435.80489366115
 30
0.0
 42
-0.0707158694326265
  0
VERTEX
  5
78BF
330
78BC
100
AcDbEntity
  8
STAVBA OBRYS
100
AcDbVertex
100
AcDb2dVertex
 10
5608.215207663937
 20
-1433.477600068462
 30
0.0
 42
-0.033952657250207
  0
VERTEX
  5
78C0
330
78BC
100
AcDbEntity
  8
STAVBA OBRYS
100
AcDbVertex
100
AcDb2dVertex
 10
5610.880630136748
 20
-1428.237057597351
 30
0.0
 42
-0.0571374688189033
  0
VERTEX
  5
78C1
330
78BC
100
AcDbEntity
  8
STAVBA OBRYS
100
AcDbVertex
100
AcDb2dVertex
 10
5613.006534293182
 20
-1425.455299230323
 30
0.0
 42
-0.0274923553235744
  0
VERTEX
  5
78C2
330
78BC
100
AcDbEntity
  8
STAVBA OBRYS
100
AcDbVertex
100
AcDb2dVertex
 10
5616.1052070372
 20
-1422.573628816023
 30
0.0
 42
-0.0255412025538677
  0
VERTEX
  5
78C3
330
78BC
100
AcDbEntity
  8
STAVBA OBRYS
100
AcDbVertex
100
AcDb2dVertex
 10
5619.749788607257
 20
-1419.842555930118
 30
0.0
 42
-0.0272796991712396
  0
VERTEX
  5
78C4
330
78BC
100
AcDbEntity
  8
STAVBA OBRYS
100
AcDbVertex
100
AcDb2dVertex
 10
5624.667021014659
 20
-1416.91191424704
 30
0.0
 42
-0.056967459841729
  0
VERTEX
  5
78C5
330
78BC
100
AcDbEntity
  8
STAVBA OBRYS
100
AcDbVertex
100
AcDb2dVertex
 10
5627.229962101589
 20
-1415.920464050505
 30
0.0
 42
-0.0373408083348504
  0
VERTEX
  5
78C6
330
78BC
100
AcDbEntity
  8
STAVBA OBRYS
100
AcDbVertex
100
AcDb2dVertex
 10
5627.496485946704
 20
-1415.871785232287
 30
0.0
 42
-0.0052305969362967
  0
VERTEX
  5
78C7
330
78BC
100
AcDbEntity
  8
STAVBA OBRYS
100
AcDbVertex
100
AcDb2dVertex
 10
5627.911395386462
 20
-1415.832021993458
 30
0.0
  0
SEQEND
  5
78C8
330
78BC
100
AcDbEntity
  8
STAVBA OBRYS
  0
POLYLINE
  5
78C9
330
1F
100
AcDbEntity
  8
STAVBA OBRYS
100
AcDb2dPolyline
 66
     1
 10
0.0
 20
0.0
 30
0.0
  0
VERTEX
  5
78CA
330
78C9
100
AcDbEntity
  8
STAVBA OBRYS
100
AcDbVertex
100
AcDb2dVertex
 10
5607.528933627186
 20
-1436.040535759587
 30
0.0
 42
0.0072417954699014
  0
VERTEX
  5
78CB
330
78C9
100
AcDbEntity
  8
STAVBA OBRYS
100
AcDbVertex
100
AcDb2dVertex
 10
5607.592506331454
 20
-1436.534632352291
 30
0.0
 42
0.0707158694326265
  0
VERTEX
  5
78CC
330
78C9
100
AcDbEntity
  8
STAVBA OBRYS
100
AcDbVertex
100
AcDb2dVertex
 10
5608.215207663937
 20
-1438.861925944979
 30
0.0
 42
0.033952657250207
  0
VERTEX
  5
78CD
330
78C9
100
AcDbEntity
  8
STAVBA OBRYS
100
AcDbVertex
100
AcDb2dVertex
 10
5610.880630136748
 20
-1444.10246841609
 30
0.0
 42
0.0571374688189033
  0
VERTEX
  5
78CE
330
78C9
100
AcDbEntity
  8
STAVBA OBRYS
100
AcDbVertex
100
AcDb2dVertex
 10
5613.006534293182
 20
-1446.884226783118
 30
0.0
 42
0.0274923553235744
  0
VERTEX
  5
78CF
330
78C9
100
AcDbEntity
  8
STAVBA OBRYS
100
AcDbVertex
100
AcDb2dVertex
 10
5616.1052070372
 20
-1449.765897197418
 30
0.0
 42
0.0255412025538677
  0
VERTEX
  5
78D0
330
78C9
100
AcDbEntity
  8
STAVBA OBRYS
100
AcDbVertex
100
AcDb2dVertex
 10
5619.749788607257
 20
-1452.496970083323
 30
0.0
 42
0.0272796991712396
  0
VERTEX
  5
78D1
330
78C9
100
AcDbEntity
  8
STAVBA OBRYS
100
AcDbVertex
100
AcDb2dVertex
 10
5624.667021014659
 20
-1455.427611766401
 30
0.0
 42
0.056967459841729
  0
VERTEX
  5
78D2
330
78C9
100
AcDbEntity
  8
STAVBA OBRYS
100
AcDbVertex
100
AcDb2dVertex
 10
5627.229962101589
 20
-1456.419061962937
 30
0.0
 42
0.0373408083348504
  0
VERTEX
  5
78D3
330
78C9
100
AcDbEntity
  8
STAVBA OBRYS
100
AcDbVertex
100
AcDb2dVertex
 10
5627.496485946704
 20
-1456.467740781155
 30
0.0
 42
0.0052305969362967
  0
VERTEX
  5
78D4
330
78C9
100
AcDbEntity
  8
STAVBA OBRYS
100
AcDbVertex
100
AcDb2dVertex
 10
5627.911395386462
 20
-1456.507504019983
 30
0.0
  0
SEQEND
  5
78D5
330
78C9
100
AcDbEntity
  8
STAVBA OBRYS
  0
LWPOLYLINE
  5
78D6
330
1F
100
AcDbEntity
  8
STAVBA OBRYS
100
AcDbPolyline
 90
        2
 70
     0
 43
0.0
 10
5596.789845976968
 20
-1443.772032304496
 10
5588.620537164102
 20
-1447.474943742227
  0
LWPOLYLINE
  5
78D7
330
1F
100
AcDbEntity
  8
STAVBA OBRYS
100
AcDbPolyline
 90
        2
 70
     0
 43
0.0
 10
5596.789845976968
 20
-1428.567493708946
 10
5588.620537164102
 20
-1424.864582271215
  0
LWPOLYLINE
  5
78D8
330
1F
100
AcDbEntity
  8
STAVBA OBRYS
100
AcDbPolyline
 90
        7
 70
     0
 43
0.0
 10
5622.621918887639
 20
-1436.203896743911
 42
-0.0203924744732807
 10
5623.696738452408
 20
-1434.981344666777
 42
-0.0273961979096945
 10
5624.710596453476
 20
-1434.029126422624
 42
-0.0243529190212958
 10
5626.099707317528
 20
-1432.971842290768
 42
-0.0398020282482987
 10
5627.026315308719
 20
-1432.438439224475
 42
-0.104168275620852
 10
5627.48931890306
 20
-1432.327500169343
 42
-0.007272956268647
 10
5628.015164921937
 20
-1432.302042609987
 42
-0.007272956268647
  0
LWPOLYLINE
  5
78D9
330
1F
100
AcDbEntity
  8
STAVBA OBRYS
100
AcDbPolyline
 90
        7
 70
     0
 43
0.0
 10
5633.457255709965
 20
-1436.169763006721
 42
0.0203924744732807
 10
5632.374754928668
 20
-1434.954006971736
 42
0.0273961979096945
 10
5631.354917708439
 20
-1434.008195322904
 42
0.0243529190212958
 10
5629.959173117536
 20
-1432.959684109303
 42
0.0398020282482987
 10
5629.029222872462
 20
-1432.432129617167
 42
0.104168275620852
 10
5628.565529508855
 20
-1432.324109864955
 42
0.007272956268647
 10
5628.039533534339
 20
-1432.301965843401
 42
0.007272956268647
  0
LWPOLYLINE
  5
78DA
330
1F
100
AcDbEntity
  8
STAVBA OBRYS
100
AcDbPolyline
 90
        7
 70
     0
 43
0.0
 10
5633.457255709965
 20
-1436.169763006721
 42
-0.0203924744732807
 10
5632.374754928668
 20
-1437.385519041706
 42
-0.0273961979096945
 10
5631.354917708439
 20
-1438.331330690537
 42
-0.0243529190212958
 10
5629.959173117536
 20
-1439.379841904138
 42
-0.0398020282482987
 10
5629.029222872462
 20
-1439.907396396274
 42
-0.104168275620852
 10
5628.565529508855
 20
-1440.015416148487
 42
-0.007272956268647
 10
5628.039533534339
 20
-1440.03756017004
 42
-0.007272956268647
  0
LWPOLYLINE
  5
78DB
330
1F
100
AcDbEntity
  8
STAVBA OBRYS
100
AcDbPolyline
 90
        7
 70
     0
 43
0.0
 10
5622.621918887639
 20
-1436.13562926953
 42
0.0203924744732807
 10
5623.696738452408
 20
-1437.358181346664
 42
0.0273961979096945
 10
5624.710596453476
 20
-1438.310399590817
 42
0.0243529190212958
 10
5626.099707317528
 20
-1439.367683722674
 42
0.0398020282482987
 10
5627.026315308719
 20
-1439.901086788966
 42
0.104168275620852
 10
5627.48931890306
 20
-1440.012025844098
 42
0.007272956268647
 10
5628.015164921937
 20
-1440.037483403454
 42
0.007272956268647
  0
POLYLINE
  5
78DC
330
1F
100
AcDbEntity
  8
STAVBA OBRYS
100
AcDb2dPolyline
 66
     1
 10
0.0
 20
0.0
 30
0.0
  0
VERTEX
  5
78DD
330
78DC
100
AcDbEntity
  8
STAVBA OBRYS
100
AcDbVertex
100
AcDb2dVertex
 10
5616.202422700499
 20
-1436.24434284612
 30
0.0
 42
-0.0064239028828688
  0
VERTEX
  5
78DE
330
78DC
100
AcDbEntity
  8
STAVBA OBRYS
100
AcDbVertex
100
AcDb2dVertex
 10
5616.24740730241
 20
-1435.981117810183
 30
0.0
 42
-0.0832048017309575
  0
VERTEX
  5
78DF
330
78DC
100
AcDbEntity
  8
STAVBA OBRYS
100
AcDbVertex
100
AcDb2dVertex
 10
5617.170790256544
 20
-1433.178988230585
 30
0.0
 42
-0.0336767237692336
  0
VERTEX
  5
78E0
330
78DC
100
AcDbEntity
  8
STAVBA OBRYS
100
AcDbVertex
100
AcDb2dVertex
 10
5619.193502554187
 20
-1429.892249706441
 30
0.0
 42
-0.0844635135812105
  0
VERTEX
  5
78E1
330
78DC
100
AcDbEntity
  8
STAVBA OBRYS
100
AcDbVertex
100
AcDb2dVertex
 10
5620.290414513305
 20
-1428.800011134117
 30
0.0
 42
-0.0495829410719565
  0
VERTEX
  5
78E2
330
78DC
100
AcDbEntity
  8
STAVBA OBRYS
100
AcDbVertex
100
AcDb2dVertex
 10
5622.381403067743
 20
-1427.61483416883
 30
0.0
 42
-0.0322692699774654
  0
VERTEX
  5
78E3
330
78DC
100
AcDbEntity
  8
STAVBA OBRYS
100
AcDbVertex
100
AcDb2dVertex
 10
5625.843084822006
 20
-1426.343170798792
 30
0.0
 42
-0.0276160659512937
  0
VERTEX
  5
78E4
330
78DC
100
AcDbEntity
  8
STAVBA OBRYS
100
AcDbVertex
100
AcDb2dVertex
 10
5626.868268759751
 20
-1426.100624416271
 30
0.0
 42
-0.0126891984598699
  0
VERTEX
  5
78E5
330
78DC
100
AcDbEntity
  8
STAVBA OBRYS
100
AcDbVertex
100
AcDb2dVertex
 10
5627.975026654884
 20
-1425.931405189041
 30
0.0
  0
SEQEND
  5
78E6
330
78DC
100
AcDbEntity
  8
STAVBA OBRYS
  0
POLYLINE
  5
78E7
330
1F
100
AcDbEntity
  8
STAVBA OBRYS
100
AcDb2dPolyline
 66
     1
 10
0.0
 20
0.0
 30
0.0
  0
VERTEX
  5
78E8
330
78E7
100
AcDbEntity
  8
STAVBA OBRYS
100
AcDbVertex
100
AcDb2dVertex
 10
5616.202422700499
 20
-1436.095183167322
 30
0.0
 42
0.0064239028828688
  0
VERTEX
  5
78E9
330
78E7
100
AcDbEntity
  8
STAVBA OBRYS
100
AcDbVertex
100
AcDb2dVertex
 10
5616.24740730241
 20
-1436.358408203258
 30
0.0
 42
0.0832048017309575
  0
VERTEX
  5
78EA
330
78E7
100
AcDbEntity
  8
STAVBA OBRYS
100
AcDbVertex
100
AcDb2dVertex
 10
5617.170790256544
 20
-1439.160537782856
 30
0.0
 42
0.0336767237692336
  0
VERTEX
  5
78EB
330
78E7
100
AcDbEntity
  8
STAVBA OBRYS
100
AcDbVertex
100
AcDb2dVertex
 10
5619.193502554187
 20
-1442.447276307
 30
0.0
 42
0.0844635135812105
  0
VERTEX
  5
78EC
330
78E7
100
AcDbEntity
  8
STAVBA OBRYS
100
AcDbVertex
100
AcDb2dVertex
 10
5620.290414513305
 20
-1443.539514879325
 30
0.0
 42
0.0495829410719565
  0
VERTEX
  5
78ED
330
78E7
100
AcDbEntity
  8
STAVBA OBRYS
100
AcDbVertex
100
AcDb2dVertex
 10
5622.381403067743
 20
-1444.724691844611
 30
0.0
 42
0.0322692699774654
  0
VERTEX
  5
78EE
330
78E7
100
AcDbEntity
  8
STAVBA OBRYS
100
AcDbVertex
100
AcDb2dVertex
 10
5625.843084822006
 20
-1445.99635521465
 30
0.0
 42
0.0276160659512937
  0
VERTEX
  5
78EF
330
78E7
100
AcDbEntity
  8
STAVBA OBRYS
100
AcDbVertex
100
AcDb2dVertex
 10
5626.868268759751
 20
-1446.238901597171
 30
0.0
 42
0.0126891984598699
  0
VERTEX
  5
78F0
330
78E7
100
AcDbEntity
  8
STAVBA OBRYS
100
AcDbVertex
100
AcDb2dVertex
 10
5627.975026654884
 20
-1446.4081208244
 30
0.0
  0
SEQEND
  5
78F1
330
78E7
100
AcDbEntity
  8
STAVBA OBRYS
  0
LINE
  5
78F2
330
1F
100
AcDbEntity
  8
NOSNÉ KONSTRUKCE
100
AcDbLine
 10
5691.664734065813
 20
-1469.626573267769
 30
0.0
 11
5691.664734065813
 21
-1575.881495864857
 31
0.0
  0
LINE
  5
78F3
330
1F
100
AcDbEntity
  8
NOSNÉ KONSTRUKCE
100
AcDbLine
 10
5689.664734065814
 20
-1469.626573267769
 30
0.0
 11
5689.664734065814
 21
-1577.881495864856
 31
0.0
  0
LWPOLYLINE
  5
78F4
330
1F
100
AcDbEntity
  8
STAVBA OBRYS
100
AcDbPolyline
 90
        2
 70
     0
 43
0.0
 10
5676.005947105424
 20
-1516.437517820873
 42
0.0508155708990308
 10
5688.620537164101
 20
-1505.962976099392
  0
LINE
  5
78F5
330
1F
100
AcDbEntity
  8
SPOJOVACÍ
  6
Continuous
100
AcDbLine
 10
5692.298633703275
 20
-1594.929825642189
 30
0.0
 11
5692.053210642433
 21
-1594.685005585117
 31
0.0
  0
LINE
  5
78F6
330
1F
100
AcDbEntity
  8
SPOJOVACÍ
  6
Continuous
100
AcDbLine
 10
5692.053210642433
 20
-1594.685005585117
 30
0.0
 11
5692.568176966499
 21
-1593.154578734577
 31
0.0
  0
LINE
  5
78F7
330
1F
100
AcDbEntity
  8
SPOJOVACÍ
100
AcDbLine
 10
5673.257542824596
 20
-1578.321466590625
 30
0.0
 11
5738.92998301493
 21
-1578.321466590625
 31
0.0
  0
LINE
  5
78F8
330
1F
100
AcDbEntity
  8
SPOJOVACÍ
100
AcDbLine
 10
5674.757542824596
 20
-1579.821466590625
 30
0.0
 11
5737.42998301493
 21
-1579.821466590625
 31
0.0
  0
LINE
  5
78F9
330
1F
100
AcDbEntity
  8
izolace
  6
IZOLACE
 48
1.3
100
AcDbLine
 10
5734.651662091998
 20
-1594.77967738143
 30
0.0
 11
5677.535863747526
 21
-1594.77967738143
 31
0.0
  0
HATCH
  5
78FA
330
1F
100
AcDbEntity
  8
NOSNÉ KONSTRUKCE
100
AcDbHatch
 10
0.0
 20
0.0
 30
0.0
210
0.0
220
0.0
230
1.0
  2
SOLID
 70
     1
 71
     0
 91
        1
 92
        7
 72
     0
 73
     1
 93
       68
 10
5737.138209807524
 20
-1588.663200503642
 10
5735.552437539712
 20
-1587.077451475369
 10
5737.138224980224
 20
-1585.491717620165
 10
5737.138250882465
 20
-1580.077475872245
 10
5733.138259287644
 20
-1580.077456735897
 10
5733.138254503557
 20
-1581.077456735887
 10
5736.138246098385
 20
-1581.077471088137
 10
5736.138226961903
 20
-1585.077492178815
 10
5734.138206848545
 20
-1587.077444709556
 10
5736.138207825873
 20
-1589.077416376789
 10
5736.138188689384
 20
-1593.077437467461
 10
5734.138170967931
 20
-1594.577423696641
 10
5736.138174337136
 20
-1596.077429062304
 10
5736.138155200647
 20
-1600.077450152973
 10
5734.138135087295
 20
-1602.077402683711
 10
5736.138136064624
 20
-1604.077374350949
 10
5736.138116928135
 20
-1608.077395441622
 10
5725.138180044652
 20
-1608.077342816858
 10
5723.138179067316
 20
-1606.077371149626
 10
5719.138206422981
 20
-1606.077352013369
 10
5717.138186309637
 20
-1608.077304544112
 10
5706.138249426146
 20
-1608.077251919353
 10
5695.138312542648
 20
-1608.077199294588
 10
5693.138311565327
 20
-1606.077227627357
 10
5689.138338921
 20
-1606.077208491097
 10
5687.138318807647
 20
-1608.077161021844
 10
5676.13838192415
 20
-1608.077108397081
 10
5676.138401060646
 20
-1604.077087306408
 10
5678.138421173983
 20
-1602.07713477566
 10
5676.138420196662
 20
-1600.077163108427
 10
5676.138439333143
 20
-1596.077142017753
 10
5678.138457054618
 20
-1594.577155788584
 10
5676.1384536854
 20
-1593.077150422915
 10
5676.138472821889
 20
-1589.077129332244
 10
5678.138492935239
 20
-1587.077176801508
 10
5676.138491957918
 20
-1585.07720513426
 10
5676.138511094393
 20
-1581.077184043597
 10
5679.138244347505
 20
-1581.077198394609
 10
5679.138239564648
 20
-1580.077456735898
 10
5675.138247969819
 20
-1580.077475872245
 10
5675.138273872061
 20
-1585.491717620154
 10
5676.72406131258
 20
-1587.077451475375
 10
5675.138289044761
 20
-1588.663200503643
 10
5675.138312554988
 20
-1593.577444673875
 10
5676.471652605008
 20
-1594.577431670173
 10
5675.138322123098
 20
-1595.57743142409
 10
5675.138345633325
 20
-1600.491675594309
 10
5676.724133073837
 20
-1602.077409449528
 10
5675.138360806011
 20
-1603.663158477807
 10
5675.138362786264
 20
-1604.077082522493
 10
5675.13840106066
 20
-1604.07708252231
 10
5675.138381924164
 20
-1608.077103612981
 10
5675.138386708274
 20
-1609.077400225706
 10
5687.552530059268
 20
-1609.077340835243
 10
5689.552531036603
 20
-1607.07736916801
 10
5692.724090745874
 20
-1607.077353994962
 10
5694.724001642313
 20
-1609.077197312498
 10
5717.552387993074
 20
-1609.077306525707
 10
5719.552408106441
 20
-1607.077353994961
 10
5722.723967815696
 20
-1607.07736916801
 10
5724.723968793017
 20
-1609.077340835244
 10
5737.138112144018
 20
-1609.077400225707
 10
5737.138138046282
 20
-1603.663158477814
 10
5735.552365778455
 20
-1602.077409449525
 10
5737.138153218975
 20
-1600.491675594302
 10
5737.138176729194
 20
-1595.577431424089
 10
5735.804846247284
 20
-1594.577431670178
 10
5737.138186297304
 20
-1593.577444673878
 97
        0
 75
     0
 76
     1
 47
0.131671459398827
 98
        1
 10
5736.457834125246
 20
-1590.794282256241
  0
INSERT
  5
78FB
330
1F
100
AcDbEntity
  8
POPIS
100
AcDbBlockReference
  2
E_PUNKT
 10
5690.777639258687
 20
-1522.008134800385
 30
0.0
  0
LINE
  5
78FC
330
1F
100
AcDbEntity
  8
NOSNÉ KONSTRUKCE
100
AcDbLine
 10
5691.664734065813
 20
-1575.881495864857
 30
0.0
 11
5720.217283629511
 21
-1575.881495864856
 31
0.0
  0
LINE
  5
78FD
330
1F
100
AcDbEntity
  8
NOSNÉ KONSTRUKCE
100
AcDbLine
 10
5689.664734065814
 20
-1577.881495864856
 30
0.0
 11
5720.217283629511
 21
-1577.881495864856
 31
0.0
  0
LINE
  5
78FE
330
1F
100
AcDbEntity
  8
SPOJOVACÍ
  6
Continuous
100
AcDbLine
 10
5692.474108176601
 20
-1593.408443868453
 30
0.0
 11
5691.089005546634
 21
-1593.23538141407
 31
0.0
  0
LINE
  5
78FF
330
1F
100
AcDbEntity
  8
SPOJOVACÍ
  6
Continuous
100
AcDbLine
 10
5690.719363442772
 20
-1593.188950023594
 30
0.0
 11
5689.441595713983
 21
-1593.029756686032
 31
0.0
  0
LINE
  5
7900
330
1F
100
AcDbEntity
  8
SPOJOVACÍ
  6
Continuous
100
AcDbLine
 10
5680.259034612701
 20
-1595.4604700979
 30
0.0
 11
5681.036911144079
 21
-1592.348963972391
 31
0.0
  0
LINE
  5
7901
330
1F
100
AcDbEntity
  8
SPOJOVACÍ
  6
Continuous
100
AcDbLine
 10
5680.259034612701
 20
-1595.4604700979
 30
0.0
 11
5680.400137797366
 21
-1595.215650040827
 31
0.0
  0
LINE
  5
7902
330
1F
100
AcDbEntity
  8
SPOJOVACÍ
  6
Continuous
100
AcDbLine
 10
5680.259034612701
 20
-1595.4604700979
 30
0.0
 11
5680.013611552048
 21
-1595.215650040827
 31
0.0
  0
LINE
  5
7903
330
1F
100
AcDbEntity
  8
SPOJOVACÍ
  6
Continuous
100
AcDbLine
 10
5681.036911144079
 20
-1592.348963972391
 30
0.0
 11
5681.28173119974
 21
-1592.593784026634
 31
0.0
  0
LINE
  5
7904
330
1F
100
AcDbEntity
  8
SPOJOVACÍ
  6
Continuous
100
AcDbLine
 10
5681.036911144079
 20
-1592.348963972391
 30
0.0
 11
5680.895204954232
 21
-1592.593784026634
 31
0.0
  0
LINE
  5
7905
330
1F
100
AcDbEntity
  8
SPOJOVACÍ
  6
Continuous
100
AcDbLine
 10
5680.400137797366
 20
-1595.215650040827
 30
0.0
 11
5681.28173119974
 21
-1592.593784026634
 31
0.0
  0
LINE
  5
7906
330
1F
100
AcDbEntity
  8
SPOJOVACÍ
  6
Continuous
100
AcDbLine
 10
5680.013611552048
 20
-1595.215650040827
 30
0.0
 11
5680.895204954232
 21
-1592.593784026634
 31
0.0
  0
LINE
  5
7907
330
1F
100
AcDbEntity
  8
SPOJOVACÍ
  6
Continuous
100
AcDbLine
 10
5682.281513594387
 20
-1595.4604700979
 30
0.0
 11
5683.059390125946
 21
-1592.348963972391
 31
0.0
  0
LINE
  5
7908
330
1F
100
AcDbEntity
  8
SPOJOVACÍ
  6
Continuous
100
AcDbLine
 10
5682.281513594387
 20
-1595.4604700979
 30
0.0
 11
5682.423219784233
 21
-1595.215650040827
 31
0.0
  0
LINE
  5
7909
330
1F
100
AcDbEntity
  8
SPOJOVACÍ
  6
Continuous
100
AcDbLine
 10
5682.281513594387
 20
-1595.4604700979
 30
0.0
 11
5682.036693538726
 21
-1595.215650040827
 31
0.0
  0
LINE
  5
790A
330
1F
100
AcDbEntity
  8
SPOJOVACÍ
  6
Continuous
100
AcDbLine
 10
5683.059390125946
 20
-1592.348963972391
 30
0.0
 11
5683.304210181418
 21
-1592.593784026634
 31
0.0
  0
LINE
  5
790B
330
1F
100
AcDbEntity
  8
SPOJOVACÍ
  6
Continuous
100
AcDbLine
 10
5683.059390125946
 20
-1592.348963972391
 30
0.0
 11
5682.917683936086
 21
-1592.593784026634
 31
0.0
  0
LINE
  5
790C
330
1F
100
AcDbEntity
  8
SPOJOVACÍ
  6
Continuous
100
AcDbLine
 10
5682.423219784233
 20
-1595.215650040827
 30
0.0
 11
5683.304210181418
 21
-1592.593784026634
 31
0.0
  0
LINE
  5
790D
330
1F
100
AcDbEntity
  8
SPOJOVACÍ
  6
Continuous
100
AcDbLine
 10
5682.036693538726
 20
-1595.215650040827
 30
0.0
 11
5682.917683936086
 21
-1592.593784026634
 31
0.0
  0
LINE
  5
790E
330
1F
100
AcDbEntity
  8
SPOJOVACÍ
  6
Continuous
100
AcDbLine
 10
5690.344294293556
 20
-1595.295849714257
 30
0.0
 11
5690.486000483409
 21
-1595.05042665395
 31
0.0
  0
LINE
  5
790F
330
1F
100
AcDbEntity
  8
SPOJOVACÍ
  6
Continuous
100
AcDbLine
 10
5690.344294293556
 20
-1595.295849714257
 30
0.0
 11
5690.099474237902
 21
-1595.05042665395
 31
0.0
  0
LINE
  5
7910
330
1F
100
AcDbEntity
  8
SPOJOVACÍ
  6
Continuous
100
AcDbLine
 10
5690.975037589535
 20
-1592.621522260273
 30
0.0
 11
5691.220460650384
 21
-1592.866342314516
 31
0.0
  0
LINE
  5
7911
330
1F
100
AcDbEntity
  8
SPOJOVACÍ
  6
Continuous
100
AcDbLine
 10
5690.975037589535
 20
-1592.621522260273
 30
0.0
 11
5690.83393440487
 21
-1592.866342314516
 31
0.0
  0
LINE
  5
7912
330
1F
100
AcDbEntity
  8
SPOJOVACÍ
  6
Continuous
100
AcDbLine
 10
5690.486000483409
 20
-1595.05042665395
 30
0.0
 11
5691.220460650384
 21
-1592.866342314516
 31
0.0
  0
LINE
  5
7913
330
1F
100
AcDbEntity
  8
SPOJOVACÍ
  6
Continuous
100
AcDbLine
 10
5690.099474237902
 20
-1595.05042665395
 30
0.0
 11
5690.83393440487
 21
-1592.866342314516
 31
0.0
  0
LINE
  5
7914
330
1F
100
AcDbEntity
  8
SPOJOVACÍ
  6
Continuous
100
AcDbLine
 10
5690.344294293556
 20
-1595.295849714257
 30
0.0
 11
5690.975037589535
 21
-1592.621522260273
 31
0.0
  0
LINE
  5
7915
330
1F
100
AcDbEntity
  8
SPOJOVACÍ
  6
Continuous
100
AcDbLine
 10
5684.303992576246
 20
-1595.4604700979
 30
0.0
 11
5685.081869107625
 21
-1592.348963972391
 31
0.0
  0
LINE
  5
7916
330
1F
100
AcDbEntity
  8
SPOJOVACÍ
  6
Continuous
100
AcDbLine
 10
5684.303992576246
 20
-1595.4604700979
 30
0.0
 11
5684.445698766101
 21
-1595.215650040827
 31
0.0
  0
LINE
  5
7917
330
1F
100
AcDbEntity
  8
SPOJOVACÍ
  6
Continuous
100
AcDbLine
 10
5684.303992576246
 20
-1595.4604700979
 30
0.0
 11
5684.059172520593
 21
-1595.215650040827
 31
0.0
  0
LINE
  5
7918
330
1F
100
AcDbEntity
  8
SPOJOVACÍ
  6
Continuous
100
AcDbLine
 10
5685.081869107625
 20
-1592.348963972391
 30
0.0
 11
5685.327292168292
 21
-1592.593784026634
 31
0.0
  0
LINE
  5
7919
330
1F
100
AcDbEntity
  8
SPOJOVACÍ
  6
Continuous
100
AcDbLine
 10
5685.081869107625
 20
-1592.348963972391
 30
0.0
 11
5684.940765922777
 21
-1592.593784026634
 31
0.0
  0
LINE
  5
791A
330
1F
100
AcDbEntity
  8
SPOJOVACÍ
  6
Continuous
100
AcDbLine
 10
5684.445698766101
 20
-1595.215650040827
 30
0.0
 11
5685.327292168292
 21
-1592.593784026634
 31
0.0
  0
LINE
  5
791B
330
1F
100
AcDbEntity
  8
SPOJOVACÍ
  6
Continuous
100
AcDbLine
 10
5684.059172520593
 20
-1595.215650040827
 30
0.0
 11
5684.940765922777
 21
-1592.593784026634
 31
0.0
  0
LINE
  5
791C
330
1F
100
AcDbEntity
  8
SPOJOVACÍ
  6
Continuous
100
AcDbLine
 10
5686.32647155794
 20
-1595.4604700979
 30
0.0
 11
5687.10434808931
 21
-1592.348963972391
 31
0.0
  0
LINE
  5
791D
330
1F
100
AcDbEntity
  8
SPOJOVACÍ
  6
Continuous
100
AcDbLine
 10
5686.32647155794
 20
-1595.4604700979
 30
0.0
 11
5686.468177747779
 21
-1595.215650040827
 31
0.0
  0
LINE
  5
791E
330
1F
100
AcDbEntity
  8
SPOJOVACÍ
  6
Continuous
100
AcDbLine
 10
5686.32647155794
 20
-1595.4604700979
 30
0.0
 11
5686.081651502279
 21
-1595.215650040827
 31
0.0
  0
LINE
  5
791F
330
1F
100
AcDbEntity
  8
SPOJOVACÍ
  6
Continuous
100
AcDbLine
 10
5687.10434808931
 20
-1592.348963972391
 30
0.0
 11
5687.349771149978
 21
-1592.593784026634
 31
0.0
  0
LINE
  5
7920
330
1F
100
AcDbEntity
  8
SPOJOVACÍ
  6
Continuous
100
AcDbLine
 10
5687.10434808931
 20
-1592.348963972391
 30
0.0
 11
5686.963244904645
 21
-1592.593784026634
 31
0.0
  0
LINE
  5
7921
330
1F
100
AcDbEntity
  8
SPOJOVACÍ
  6
Continuous
100
AcDbLine
 10
5686.468177747779
 20
-1595.215650040827
 30
0.0
 11
5687.349771149978
 21
-1592.593784026634
 31
0.0
  0
LINE
  5
7922
330
1F
100
AcDbEntity
  8
SPOJOVACÍ
  6
Continuous
100
AcDbLine
 10
5686.081651502279
 20
-1595.215650040827
 30
0.0
 11
5686.963244904645
 21
-1592.593784026634
 31
0.0
  0
LINE
  5
7923
330
1F
100
AcDbEntity
  8
SPOJOVACÍ
  6
Continuous
100
AcDbLine
 10
5688.349553544806
 20
-1595.4604700979
 30
0.0
 11
5689.127430076184
 21
-1592.348963972391
 31
0.0
  0
LINE
  5
7924
330
1F
100
AcDbEntity
  8
SPOJOVACÍ
  6
Continuous
100
AcDbLine
 10
5688.349553544806
 20
-1595.4604700979
 30
0.0
 11
5688.490656729465
 21
-1595.215650040827
 31
0.0
  0
LINE
  5
7925
330
1F
100
AcDbEntity
  8
SPOJOVACÍ
  6
Continuous
100
AcDbLine
 10
5688.349553544806
 20
-1595.4604700979
 30
0.0
 11
5688.104130483957
 21
-1595.215650040827
 31
0.0
  0
LINE
  5
7926
330
1F
100
AcDbEntity
  8
SPOJOVACÍ
  6
Continuous
100
AcDbLine
 10
5689.127430076184
 20
-1592.348963972391
 30
0.0
 11
5689.372250131845
 21
-1592.593784026634
 31
0.0
  0
LINE
  5
7927
330
1F
100
AcDbEntity
  8
SPOJOVACÍ
  6
Continuous
100
AcDbLine
 10
5689.127430076184
 20
-1592.348963972391
 30
0.0
 11
5688.985723886323
 21
-1592.593784026634
 31
0.0
  0
LINE
  5
7928
330
1F
100
AcDbEntity
  8
SPOJOVACÍ
  6
Continuous
100
AcDbLine
 10
5688.490656729465
 20
-1595.215650040827
 30
0.0
 11
5689.372250131845
 21
-1592.593784026634
 31
0.0
  0
LINE
  5
7929
330
1F
100
AcDbEntity
  8
SPOJOVACÍ
  6
Continuous
100
AcDbLine
 10
5688.104130483957
 20
-1595.215650040827
 30
0.0
 11
5688.985723886323
 21
-1592.593784026634
 31
0.0
  0
INSERT
  5
792A
330
1F
100
AcDbEntity
  8
POPIS
100
AcDbBlockReference
  2
E_PUNKT
 10
5672.278448062284
 20
-1604.658387137662
 30
0.0
  0
LINE
  5
792B
330
1F
100
AcDbEntity
  8
SPOJOVACÍ
  6
Continuous
100
AcDbLine
 10
5673.257542824596
 20
-1597.21099379653
 30
0.0
 11
5673.257542824596
 21
-1590.598440273761
 31
0.0
  0
LINE
  5
792C
330
1F
100
AcDbEntity
  8
SPOJOVACÍ
  6
Continuous
100
AcDbLine
 10
5674.035419356147
 20
-1597.21099379653
 30
0.0
 11
5674.035419356147
 21
-1590.598440273761
 31
0.0
  0
LINE
  5
792D
330
1F
100
AcDbEntity
  8
SPOJOVACÍ
  6
Continuous
100
AcDbLine
 10
5674.51782340655
 20
-1596.336033447417
 30
0.0
 11
5675.210676224129
 21
-1595.616045401911
 31
0.0
  0
LINE
  5
792E
330
1F
100
AcDbEntity
  8
SPOJOVACÍ
100
AcDbLine
 10
5673.257542824596
 20
-1578.321466590625
 30
0.0
 11
5673.257542824596
 21
-1609.487967479667
 31
0.0
  0
LINE
  5
792F
330
1F
100
AcDbEntity
  8
SPOJOVACÍ
100
AcDbLine
 10
5674.757542824596
 20
-1579.821466590625
 30
0.0
 11
5674.757542824596
 21
-1609.487967479667
 31
0.0
  0
LINE
  5
7930
330
1F
100
AcDbEntity
  8
SPOJOVACÍ
  6
Continuous
100
AcDbLine
 10
5673.257542824596
 20
-1597.21099379653
 30
0.0
 11
5674.035419356147
 21
-1597.21099379653
 31
0.0
  0
LINE
  5
7931
330
1F
100
AcDbEntity
  8
SPOJOVACÍ
  6
Continuous
100
AcDbLine
 10
5674.035419356147
 20
-1597.21099379653
 30
0.0
 11
5674.51782340655
 21
-1596.336033447417
 31
0.0
  0
LINE
  5
7932
330
1F
100
AcDbEntity
  8
SPOJOVACÍ
  6
Continuous
100
AcDbLine
 10
5675.631573758121
 20
-1592.485243116332
 30
0.0
 11
5674.848873186192
 21
-1591.864147901094
 31
0.0
  0
LINE
  5
7933
330
1F
100
AcDbEntity
  8
SPOJOVACÍ
  6
Continuous
100
AcDbLine
 10
5676.548141454155
 20
-1592.882623452759
 30
0.0
 11
5675.631573758121
 21
-1592.485243116332
 31
0.0
  0
LINE
  5
7934
330
1F
100
AcDbEntity
  8
SPOJOVACÍ
  6
Continuous
100
AcDbLine
 10
5677.535863747526
 20
-1593.029756686032
 30
0.0
 11
5676.548141454155
 21
-1592.882623452759
 31
0.0
  0
LINE
  5
7935
330
1F
100
AcDbEntity
  8
SPOJOVACÍ
  6
Continuous
100
AcDbLine
 10
5673.257542824596
 20
-1590.598440273761
 30
0.0
 11
5674.035419356147
 21
-1590.598440273761
 31
0.0
  0
LINE
  5
7936
330
1F
100
AcDbEntity
  8
SPOJOVACÍ
  6
Continuous
100
AcDbLine
 10
5674.253707188878
 20
-1591.062151166798
 30
0.0
 11
5674.035419356147
 21
-1590.598440273761
 31
0.0
  0
LINE
  5
7937
330
1F
100
AcDbEntity
  8
SPOJOVACÍ
  6
Continuous
100
AcDbLine
 10
5674.848873186192
 20
-1591.864147901094
 30
0.0
 11
5674.253707188878
 21
-1591.062151166798
 31
0.0
  0
LINE
  5
7938
330
1F
100
AcDbEntity
  8
SPOJOVACÍ
  6
Continuous
100
AcDbLine
 10
5677.025721464179
 20
-1594.822490741185
 30
0.0
 11
5677.535863747526
 21
-1594.77967738143
 31
0.0
  0
LINE
  5
7939
330
1F
100
AcDbEntity
  8
SPOJOVACÍ
  6
Continuous
100
AcDbLine
 10
5676.06573740357
 20
-1595.099873069083
 30
0.0
 11
5677.025721464179
 21
-1594.822490741185
 31
0.0
  0
LINE
  5
793A
330
1F
100
AcDbEntity
  8
SPOJOVACÍ
  6
Continuous
100
AcDbLine
 10
5675.210676224129
 20
-1595.616045401911
 30
0.0
 11
5676.06573740357
 21
-1595.099873069083
 31
0.0
  0
LINE
  5
793B
330
1F
100
AcDbEntity
  8
SPOJOVACÍ
  6
Continuous
100
AcDbLine
 10
5677.535863747526
 20
-1593.029756686032
 30
0.0
 11
5680.740232653098
 21
-1593.029756686032
 31
0.0
  0
LINE
  5
793C
330
1F
100
AcDbEntity
  8
SPOJOVACÍ
  6
Continuous
100
AcDbLine
 10
5677.535863747526
 20
-1594.77967738143
 30
0.0
 11
5680.153508726701
 21
-1594.77967738143
 31
0.0
  0
LINE
  5
793D
330
1F
100
AcDbEntity
  8
SPOJOVACÍ
  6
Continuous
100
AcDbLine
 10
5680.539431967027
 20
-1594.77967738143
 30
0.0
 11
5682.172369678014
 21
-1594.77967738143
 31
0.0
  0
LINE
  5
793E
330
1F
100
AcDbEntity
  8
SPOJOVACÍ
  6
Continuous
100
AcDbLine
 10
5682.5637199639
 20
-1594.77967738143
 30
0.0
 11
5684.197863685074
 21
-1594.77967738143
 31
0.0
  0
LINE
  5
793F
330
1F
100
AcDbEntity
  8
SPOJOVACÍ
  6
Continuous
100
AcDbLine
 10
5684.583183920394
 20
-1594.77967738143
 30
0.0
 11
5686.222151681946
 21
-1594.77967738143
 31
0.0
  0
LINE
  5
7940
330
1F
100
AcDbEntity
  8
SPOJOVACÍ
  6
Continuous
100
AcDbLine
 10
5681.131582938976
 20
-1593.029756686032
 30
0.0
 11
5682.76452064997
 21
-1593.029756686032
 31
0.0
  0
LINE
  5
7941
330
1F
100
AcDbEntity
  8
SPOJOVACÍ
  6
Continuous
100
AcDbLine
 10
5683.151046895471
 20
-1593.029756686032
 30
0.0
 11
5684.790014657021
 21
-1593.029756686032
 31
0.0
  0
LINE
  5
7942
330
1F
100
AcDbEntity
  8
SPOJOVACÍ
  6
Continuous
100
AcDbLine
 10
5685.175334892342
 20
-1593.029756686032
 30
0.0
 11
5686.809478613524
 21
-1593.029756686032
 31
0.0
  0
LINE
  5
7943
330
1F
100
AcDbEntity
  8
SPOJOVACÍ
  6
Continuous
100
AcDbLine
 10
5686.614104972989
 20
-1594.77967738143
 30
0.0
 11
5688.246439678992
 21
-1594.77967738143
 31
0.0
  0
LINE
  5
7944
330
1F
100
AcDbEntity
  8
SPOJOVACÍ
  6
Continuous
100
AcDbLine
 10
5688.632965924492
 20
-1594.77967738143
 30
0.0
 11
5689.441595713983
 21
-1594.77967738143
 31
0.0
  0
LINE
  5
7945
330
1F
100
AcDbEntity
  8
SPOJOVACÍ
  6
Continuous
100
AcDbLine
 10
5687.199019884214
 20
-1593.029756686032
 30
0.0
 11
5688.831957595201
 21
-1593.029756686032
 31
0.0
  0
LINE
  5
7946
330
1F
100
AcDbEntity
  8
SPOJOVACÍ
  6
Continuous
100
AcDbLine
 10
5689.223307881254
 20
-1593.029756686032
 30
0.0
 11
5689.441595713983
 21
-1593.029756686032
 31
0.0
  0
LINE
  5
7947
330
1F
100
AcDbEntity
  8
SPOJOVACÍ
  6
Continuous
100
AcDbLine
 10
5689.441595713983
 20
-1594.77967738143
 30
0.0
 11
5690.217663230357
 21
-1594.682593566522
 31
0.0
  0
LINE
  5
7948
330
1F
100
AcDbEntity
  8
SPOJOVACÍ
  6
Continuous
100
AcDbLine
 10
5690.619867607512
 20
-1594.632544145326
 30
0.0
 11
5692.124968244947
 21
-1594.444406564827
 31
0.0
  0
LINE
  5
7949
330
1F
100
AcDbEntity
  8
SPOJOVACÍ
  6
Continuous
100
AcDbLine
 10
5720.134315197092
 20
-1594.685005585117
 30
0.0
 11
5719.619348873025
 21
-1593.154578734577
 31
0.0
  0
LINE
  5
794A
330
1F
100
AcDbEntity
  8
SPOJOVACÍ
  6
Continuous
100
AcDbLine
 10
5719.88889213625
 20
-1594.929825642189
 30
0.0
 11
5720.134315197092
 21
-1594.685005585117
 31
0.0
  0
LINE
  5
794B
330
1F
100
AcDbEntity
  8
SPOJOVACÍ
  6
Continuous
100
AcDbLine
 10
5719.713417662923
 20
-1593.408443868453
 30
0.0
 11
5721.098520292891
 21
-1593.23538141407
 31
0.0
  0
LINE
  5
794C
330
1F
100
AcDbEntity
  8
SPOJOVACÍ
  6
Continuous
100
AcDbLine
 10
5721.567658232013
 20
-1594.632544145326
 30
0.0
 11
5720.062557594578
 21
-1594.444406564827
 31
0.0
  0
INSERT
  5
794D
330
1F
100
AcDbEntity
  8
POPIS
100
AcDbBlockReference
  2
E_PUNKT
 10
5721.338995941774
 20
-1605.514369232811
 30
0.0
  0
LINE
  5
794E
330
1F
100
AcDbEntity
  8
SPOJOVACÍ
  6
Continuous
100
AcDbLine
 10
5692.298633703275
 20
-1594.929825642189
 30
0.0
 11
5692.439736887941
 21
-1594.685005585117
 31
0.0
  0
LINE
  5
794F
330
1F
100
AcDbEntity
  8
SPOJOVACÍ
  6
Continuous
100
AcDbLine
 10
5692.709280151166
 20
-1592.909758680335
 30
0.0
 11
5692.954703211833
 21
-1593.154578734577
 31
0.0
  0
LINE
  5
7950
330
1F
100
AcDbEntity
  8
SPOJOVACÍ
  6
Continuous
100
AcDbLine
 10
5692.709280151166
 20
-1592.909758680335
 30
0.0
 11
5692.568176966499
 21
-1593.154578734577
 31
0.0
  0
LINE
  5
7951
330
1F
100
AcDbEntity
  8
SPOJOVACÍ
  6
Continuous
100
AcDbLine
 10
5692.439736887941
 20
-1594.685005585117
 30
0.0
 11
5692.954703211833
 21
-1593.154578734577
 31
0.0
  0
LINE
  5
7952
330
1F
100
AcDbEntity
  8
SPOJOVACÍ
  6
Continuous
100
AcDbLine
 10
5692.298633703275
 20
-1594.929825642189
 30
0.0
 11
5692.709280151166
 21
-1592.909758680335
 31
0.0
  0
LINE
  5
7953
330
1F
100
AcDbEntity
  8
SPOJOVACÍ
  6
Continuous
100
AcDbLine
 10
5694.252370107815
 20
-1594.563801567292
 30
0.0
 11
5694.394076297654
 21
-1594.31898151305
 31
0.0
  0
LINE
  5
7954
330
1F
100
AcDbEntity
  8
SPOJOVACÍ
  6
Continuous
100
AcDbLine
 10
5694.252370107815
 20
-1594.563801567292
 30
0.0
 11
5694.007550052154
 21
-1594.31898151305
 31
0.0
  0
LINE
  5
7955
330
1F
100
AcDbEntity
  8
SPOJOVACÍ
  6
Continuous
100
AcDbLine
 10
5694.453773798883
 20
-1593.1672418421
 30
0.0
 11
5694.699196859544
 21
-1593.412061896343
 31
0.0
  0
LINE
  5
7956
330
1F
100
AcDbEntity
  8
SPOJOVACÍ
  6
Continuous
100
AcDbLine
 10
5694.453773798883
 20
-1593.1672418421
 30
0.0
 11
5694.312670614051
 21
-1593.412061896343
 31
0.0
  0
LINE
  5
7957
330
1F
100
AcDbEntity
  8
SPOJOVACÍ
  6
Continuous
100
AcDbLine
 10
5694.394076297654
 20
-1594.31898151305
 30
0.0
 11
5694.699196859544
 21
-1593.412061896343
 31
0.0
  0
LINE
  5
7958
330
1F
100
AcDbEntity
  8
SPOJOVACÍ
  6
Continuous
100
AcDbLine
 10
5694.007550052154
 20
-1594.31898151305
 30
0.0
 11
5694.312670614051
 21
-1593.412061896343
 31
0.0
  0
LINE
  5
7959
330
1F
100
AcDbEntity
  8
SPOJOVACÍ
  6
Continuous
100
AcDbLine
 10
5694.252370107815
 20
-1594.563801567292
 30
0.0
 11
5694.453773798883
 21
-1593.1672418421
 31
0.0
  0
LINE
  5
795A
330
1F
100
AcDbEntity
  8
SPOJOVACÍ
  6
Continuous
100
AcDbLine
 10
5717.93515573171
 20
-1594.563801567292
 30
0.0
 11
5717.733752040641
 21
-1593.1672418421
 31
0.0
  0
LINE
  5
795B
330
1F
100
AcDbEntity
  8
SPOJOVACÍ
  6
Continuous
100
AcDbLine
 10
5718.179975787371
 20
-1594.31898151305
 30
0.0
 11
5717.874855225474
 21
-1593.412061896343
 31
0.0
  0
LINE
  5
795C
330
1F
100
AcDbEntity
  8
SPOJOVACÍ
  6
Continuous
100
AcDbLine
 10
5717.793449541871
 20
-1594.31898151305
 30
0.0
 11
5717.488328979981
 21
-1593.412061896343
 31
0.0
  0
LINE
  5
795D
330
1F
100
AcDbEntity
  8
SPOJOVACÍ
  6
Continuous
100
AcDbLine
 10
5717.733752040641
 20
-1593.1672418421
 30
0.0
 11
5717.874855225474
 21
-1593.412061896343
 31
0.0
  0
LINE
  5
795E
330
1F
100
AcDbEntity
  8
SPOJOVACÍ
  6
Continuous
100
AcDbLine
 10
5717.733752040641
 20
-1593.1672418421
 30
0.0
 11
5717.488328979981
 21
-1593.412061896343
 31
0.0
  0
LINE
  5
795F
330
1F
100
AcDbEntity
  8
SPOJOVACÍ
  6
Continuous
100
AcDbLine
 10
5717.93515573171
 20
-1594.563801567292
 30
0.0
 11
5718.179975787371
 21
-1594.31898151305
 31
0.0
  0
LINE
  5
7960
330
1F
100
AcDbEntity
  8
SPOJOVACÍ
  6
Continuous
100
AcDbLine
 10
5717.93515573171
 20
-1594.563801567292
 30
0.0
 11
5717.793449541871
 21
-1594.31898151305
 31
0.0
  0
LINE
  5
7961
330
1F
100
AcDbEntity
  8
SPOJOVACÍ
  6
Continuous
100
AcDbLine
 10
5719.88889213625
 20
-1594.929825642189
 30
0.0
 11
5719.478245688359
 21
-1592.909758680335
 31
0.0
  0
LINE
  5
7962
330
1F
100
AcDbEntity
  8
SPOJOVACÍ
  6
Continuous
100
AcDbLine
 10
5719.747788951583
 20
-1594.685005585117
 30
0.0
 11
5719.232822627692
 21
-1593.154578734577
 31
0.0
  0
LINE
  5
7963
330
1F
100
AcDbEntity
  8
SPOJOVACÍ
  6
Continuous
100
AcDbLine
 10
5719.478245688359
 20
-1592.909758680335
 30
0.0
 11
5719.619348873025
 21
-1593.154578734577
 31
0.0
  0
LINE
  5
7964
330
1F
100
AcDbEntity
  8
SPOJOVACÍ
  6
Continuous
100
AcDbLine
 10
5719.478245688359
 20
-1592.909758680335
 30
0.0
 11
5719.232822627692
 21
-1593.154578734577
 31
0.0
  0
LINE
  5
7965
330
1F
100
AcDbEntity
  8
SPOJOVACÍ
  6
Continuous
100
AcDbLine
 10
5719.88889213625
 20
-1594.929825642189
 30
0.0
 11
5719.747788951583
 21
-1594.685005585117
 31
0.0
  0
LINE
  5
7966
330
1F
100
AcDbEntity
  8
SPOJOVACÍ
  6
Continuous
100
AcDbLine
 10
5717.952039873544
 20
-1593.628540713713
 30
0.0
 11
5719.34256954907
 21
-1593.454875256098
 31
0.0
  0
LINE
  5
7967
330
1F
100
AcDbEntity
  8
SPOJOVACÍ
  6
Continuous
100
AcDbLine
 10
5717.747018152095
 20
-1594.154964135469
 30
0.0
 11
5715.744438337436
 21
-1593.904717035146
 31
0.0
  0
LINE
  5
7968
330
1F
100
AcDbEntity
  8
SPOJOVACÍ
  6
Continuous
100
AcDbLine
 10
5719.653720161693
 20
-1594.393151134334
 30
0.0
 11
5718.149222529251
 21
-1594.205013556666
 31
0.0
  0
LINE
  5
7969
330
1F
100
AcDbEntity
  8
SPOJOVACÍ
  6
Continuous
100
AcDbLine
 10
5715.744438337436
 20
-1593.904717035146
 30
0.0
 11
5717.583000774879
 21
-1593.674972104189
 31
0.0
  0
LINE
  5
796A
330
1F
100
AcDbEntity
  8
SPOJOVACÍ
  6
Continuous
100
AcDbLine
 10
5696.443087502089
 20
-1593.904717035146
 30
0.0
 11
5694.604525064647
 21
-1593.674972104189
 31
0.0
  0
LINE
  5
796B
330
1F
100
AcDbEntity
  8
SPOJOVACÍ
  6
Continuous
100
AcDbLine
 10
5692.533805677832
 20
-1594.393151134334
 30
0.0
 11
5694.038303310275
 21
-1594.205013556666
 31
0.0
  0
LINE
  5
796C
330
1F
100
AcDbEntity
  8
SPOJOVACÍ
  6
Continuous
100
AcDbLine
 10
5694.440507687429
 20
-1594.154964135469
 30
0.0
 11
5696.443087502089
 21
-1593.904717035146
 31
0.0
  0
LINE
  5
796D
330
1F
100
AcDbEntity
  8
SPOJOVACÍ
  6
Continuous
100
AcDbLine
 10
5694.23548596598
 20
-1593.628540713713
 30
0.0
 11
5692.844956290454
 21
-1593.454875256098
 31
0.0
  0
LINE
  5
796E
330
1F
100
AcDbEntity
  8
NOSNÉ KONSTRUKCE
100
AcDbLine
 10
5720.217283629511
 20
-1577.881495864856
 30
0.0
 11
5720.217283629511
 21
-1575.881495864856
 31
0.0
  0
LINE
  5
796F
330
1F
100
AcDbEntity
  8
SPOJOVACÍ
  6
Continuous
100
AcDbLine
 10
5721.701525356116
 20
-1595.05042665395
 30
0.0
 11
5720.96706518914
 21
-1592.866342314516
 31
0.0
  0
LINE
  5
7970
330
1F
100
AcDbEntity
  8
SPOJOVACÍ
  6
Continuous
100
AcDbLine
 10
5721.212488249989
 20
-1592.621522260273
 30
0.0
 11
5721.353591434655
 21
-1592.866342314516
 31
0.0
  0
LINE
  5
7971
330
1F
100
AcDbEntity
  8
SPOJOVACÍ
  6
Continuous
100
AcDbLine
 10
5721.212488249989
 20
-1592.621522260273
 30
0.0
 11
5720.96706518914
 21
-1592.866342314516
 31
0.0
  0
LINE
  5
7972
330
1F
100
AcDbEntity
  8
SPOJOVACÍ
  6
Continuous
100
AcDbLine
 10
5721.843231545969
 20
-1595.295849714257
 30
0.0
 11
5721.212488249989
 21
-1592.621522260273
 31
0.0
  0
LINE
  5
7973
330
1F
100
AcDbEntity
  8
SPOJOVACÍ
  6
Continuous
100
AcDbLine
 10
5722.088051601623
 20
-1595.05042665395
 30
0.0
 11
5721.353591434655
 21
-1592.866342314516
 31
0.0
  0
LINE
  5
7974
330
1F
100
AcDbEntity
  8
SPOJOVACÍ
  6
Continuous
100
AcDbLine
 10
5721.843231545969
 20
-1595.295849714257
 30
0.0
 11
5721.701525356116
 21
-1595.05042665395
 31
0.0
  0
LINE
  5
7975
330
1F
100
AcDbEntity
  8
SPOJOVACÍ
  6
Continuous
100
AcDbLine
 10
5721.468162396753
 20
-1593.188950023594
 30
0.0
 11
5722.745930125541
 21
-1593.029756686032
 31
0.0
  0
LINE
  5
7976
330
1F
100
AcDbEntity
  8
SPOJOVACÍ
  6
Continuous
100
AcDbLine
 10
5737.669702432974
 20
-1596.336033447417
 30
0.0
 11
5736.976849615397
 21
-1595.616045401911
 31
0.0
  0
LINE
  5
7977
330
1F
100
AcDbEntity
  8
SPOJOVACÍ
  6
Continuous
100
AcDbLine
 10
5738.152106483377
 20
-1597.21099379653
 30
0.0
 11
5738.152106483377
 21
-1590.598440273761
 31
0.0
  0
LINE
  5
7978
330
1F
100
AcDbEntity
  8
SPOJOVACÍ
  6
Continuous
100
AcDbLine
 10
5738.92998301493
 20
-1597.21099379653
 30
0.0
 11
5738.92998301493
 21
-1590.598440273761
 31
0.0
  0
LINE
  5
7979
330
1F
100
AcDbEntity
  8
SPOJOVACÍ
100
AcDbLine
 10
5738.92998301493
 20
-1578.321466590625
 30
0.0
 11
5738.92998301493
 21
-1609.487967479667
 31
0.0
  0
LINE
  5
797A
330
1F
100
AcDbEntity
  8
SPOJOVACÍ
100
AcDbLine
 10
5737.42998301493
 20
-1579.821466590625
 30
0.0
 11
5737.42998301493
 21
-1609.487967479667
 31
0.0
  0
LINE
  5
797B
330
1F
100
AcDbEntity
  8
SPOJOVACÍ
  6
Continuous
100
AcDbLine
 10
5738.152106483377
 20
-1597.21099379653
 30
0.0
 11
5737.669702432974
 21
-1596.336033447417
 31
0.0
  0
LINE
  5
797C
330
1F
100
AcDbEntity
  8
SPOJOVACÍ
  6
Continuous
100
AcDbLine
 10
5738.92998301493
 20
-1597.21099379653
 30
0.0
 11
5738.152106483377
 21
-1597.21099379653
 31
0.0
  0
LINE
  5
797D
330
1F
100
AcDbEntity
  8
SPOJOVACÍ
  6
Continuous
100
AcDbLine
 10
5724.083395355568
 20
-1595.215650040827
 30
0.0
 11
5723.201801953202
 21
-1592.593784026634
 31
0.0
  0
LINE
  5
797E
330
1F
100
AcDbEntity
  8
SPOJOVACÍ
  6
Continuous
100
AcDbLine
 10
5723.69686911006
 20
-1595.215650040827
 30
0.0
 11
5722.81527570768
 21
-1592.593784026634
 31
0.0
  0
LINE
  5
797F
330
1F
100
AcDbEntity
  8
SPOJOVACÍ
  6
Continuous
100
AcDbLine
 10
5723.06009576334
 20
-1592.348963972391
 30
0.0
 11
5723.201801953202
 21
-1592.593784026634
 31
0.0
  0
LINE
  5
7980
330
1F
100
AcDbEntity
  8
SPOJOVACÍ
  6
Continuous
100
AcDbLine
 10
5723.06009576334
 20
-1592.348963972391
 30
0.0
 11
5722.81527570768
 21
-1592.593784026634
 31
0.0
  0
LINE
  5
7981
330
1F
100
AcDbEntity
  8
SPOJOVACÍ
  6
Continuous
100
AcDbLine
 10
5723.837972294719
 20
-1595.4604700979
 30
0.0
 11
5724.083395355568
 21
-1595.215650040827
 31
0.0
  0
LINE
  5
7982
330
1F
100
AcDbEntity
  8
SPOJOVACÍ
  6
Continuous
100
AcDbLine
 10
5723.837972294719
 20
-1595.4604700979
 30
0.0
 11
5723.69686911006
 21
-1595.215650040827
 31
0.0
  0
LINE
  5
7983
330
1F
100
AcDbEntity
  8
SPOJOVACÍ
  6
Continuous
100
AcDbLine
 10
5723.837972294719
 20
-1595.4604700979
 30
0.0
 11
5723.06009576334
 21
-1592.348963972391
 31
0.0
  0
LINE
  5
7984
330
1F
100
AcDbEntity
  8
SPOJOVACÍ
  6
Continuous
100
AcDbLine
 10
5726.105874337246
 20
-1595.215650040827
 30
0.0
 11
5725.22428093488
 21
-1592.593784026634
 31
0.0
  0
LINE
  5
7985
330
1F
100
AcDbEntity
  8
SPOJOVACÍ
  6
Continuous
100
AcDbLine
 10
5725.719348091746
 20
-1595.215650040827
 30
0.0
 11
5724.837754689548
 21
-1592.593784026634
 31
0.0
  0
LINE
  5
7986
330
1F
100
AcDbEntity
  8
SPOJOVACÍ
  6
Continuous
100
AcDbLine
 10
5725.083177750214
 20
-1592.348963972391
 30
0.0
 11
5725.22428093488
 21
-1592.593784026634
 31
0.0
  0
LINE
  5
7987
330
1F
100
AcDbEntity
  8
SPOJOVACÍ
  6
Continuous
100
AcDbLine
 10
5725.083177750214
 20
-1592.348963972391
 30
0.0
 11
5724.837754689548
 21
-1592.593784026634
 31
0.0
  0
LINE
  5
7988
330
1F
100
AcDbEntity
  8
SPOJOVACÍ
  6
Continuous
100
AcDbLine
 10
5725.861054281585
 20
-1595.4604700979
 30
0.0
 11
5726.105874337246
 21
-1595.215650040827
 31
0.0
  0
LINE
  5
7989
330
1F
100
AcDbEntity
  8
SPOJOVACÍ
  6
Continuous
100
AcDbLine
 10
5725.861054281585
 20
-1595.4604700979
 30
0.0
 11
5725.719348091746
 21
-1595.215650040827
 31
0.0
  0
LINE
  5
798A
330
1F
100
AcDbEntity
  8
SPOJOVACÍ
  6
Continuous
100
AcDbLine
 10
5725.861054281585
 20
-1595.4604700979
 30
0.0
 11
5725.083177750214
 21
-1592.348963972391
 31
0.0
  0
LINE
  5
798B
330
1F
100
AcDbEntity
  8
SPOJOVACÍ
  6
Continuous
100
AcDbLine
 10
5728.128353318932
 20
-1595.215650040827
 30
0.0
 11
5727.246759916748
 21
-1592.593784026634
 31
0.0
  0
LINE
  5
798C
330
1F
100
AcDbEntity
  8
SPOJOVACÍ
  6
Continuous
100
AcDbLine
 10
5727.741827073424
 20
-1595.215650040827
 30
0.0
 11
5726.860233671232
 21
-1592.593784026634
 31
0.0
  0
LINE
  5
798D
330
1F
100
AcDbEntity
  8
SPOJOVACÍ
  6
Continuous
100
AcDbLine
 10
5727.1056567319
 20
-1592.348963972391
 30
0.0
 11
5727.246759916748
 21
-1592.593784026634
 31
0.0
  0
LINE
  5
798E
330
1F
100
AcDbEntity
  8
SPOJOVACÍ
  6
Continuous
100
AcDbLine
 10
5727.1056567319
 20
-1592.348963972391
 30
0.0
 11
5726.860233671232
 21
-1592.593784026634
 31
0.0
  0
LINE
  5
798F
330
1F
100
AcDbEntity
  8
SPOJOVACÍ
  6
Continuous
100
AcDbLine
 10
5727.883533263278
 20
-1595.4604700979
 30
0.0
 11
5728.128353318932
 21
-1595.215650040827
 31
0.0
  0
LINE
  5
7990
330
1F
100
AcDbEntity
  8
SPOJOVACÍ
  6
Continuous
100
AcDbLine
 10
5727.883533263278
 20
-1595.4604700979
 30
0.0
 11
5727.741827073424
 21
-1595.215650040827
 31
0.0
  0
LINE
  5
7991
330
1F
100
AcDbEntity
  8
SPOJOVACÍ
  6
Continuous
100
AcDbLine
 10
5727.883533263278
 20
-1595.4604700979
 30
0.0
 11
5727.1056567319
 21
-1592.348963972391
 31
0.0
  0
LINE
  5
7992
330
1F
100
AcDbEntity
  8
SPOJOVACÍ
  6
Continuous
100
AcDbLine
 10
5721.843231545969
 20
-1595.295849714257
 30
0.0
 11
5722.088051601623
 21
-1595.05042665395
 31
0.0
  0
LINE
  5
7993
330
1F
100
AcDbEntity
  8
SPOJOVACÍ
  6
Continuous
100
AcDbLine
 10
5730.150832300799
 20
-1595.215650040827
 30
0.0
 11
5729.269841903439
 21
-1592.593784026634
 31
0.0
  0
LINE
  5
7994
330
1F
100
AcDbEntity
  8
SPOJOVACÍ
  6
Continuous
100
AcDbLine
 10
5729.764306055292
 20
-1595.215650040827
 30
0.0
 11
5728.883315658107
 21
-1592.593784026634
 31
0.0
  0
LINE
  5
7995
330
1F
100
AcDbEntity
  8
SPOJOVACÍ
  6
Continuous
100
AcDbLine
 10
5729.128135713579
 20
-1592.348963972391
 30
0.0
 11
5729.269841903439
 21
-1592.593784026634
 31
0.0
  0
LINE
  5
7996
330
1F
100
AcDbEntity
  8
SPOJOVACÍ
  6
Continuous
100
AcDbLine
 10
5729.128135713579
 20
-1592.348963972391
 30
0.0
 11
5728.883315658107
 21
-1592.593784026634
 31
0.0
  0
LINE
  5
7997
330
1F
100
AcDbEntity
  8
SPOJOVACÍ
  6
Continuous
100
AcDbLine
 10
5729.906012245138
 20
-1595.4604700979
 30
0.0
 11
5730.150832300799
 21
-1595.215650040827
 31
0.0
  0
LINE
  5
7998
330
1F
100
AcDbEntity
  8
SPOJOVACÍ
  6
Continuous
100
AcDbLine
 10
5729.906012245138
 20
-1595.4604700979
 30
0.0
 11
5729.764306055292
 21
-1595.215650040827
 31
0.0
  0
LINE
  5
7999
330
1F
100
AcDbEntity
  8
SPOJOVACÍ
  6
Continuous
100
AcDbLine
 10
5729.906012245138
 20
-1595.4604700979
 30
0.0
 11
5729.128135713579
 21
-1592.348963972391
 31
0.0
  0
LINE
  5
799A
330
1F
100
AcDbEntity
  8
SPOJOVACÍ
  6
Continuous
100
AcDbLine
 10
5732.173914287477
 20
-1595.215650040827
 30
0.0
 11
5731.292320885293
 21
-1592.593784026634
 31
0.0
  0
LINE
  5
799B
330
1F
100
AcDbEntity
  8
SPOJOVACÍ
  6
Continuous
100
AcDbLine
 10
5731.787388042159
 20
-1595.215650040827
 30
0.0
 11
5730.905794639785
 21
-1592.593784026634
 31
0.0
  0
LINE
  5
799C
330
1F
100
AcDbEntity
  8
SPOJOVACÍ
  6
Continuous
100
AcDbLine
 10
5731.150614695446
 20
-1592.348963972391
 30
0.0
 11
5731.292320885293
 21
-1592.593784026634
 31
0.0
  0
LINE
  5
799D
330
1F
100
AcDbEntity
  8
SPOJOVACÍ
  6
Continuous
100
AcDbLine
 10
5731.150614695446
 20
-1592.348963972391
 30
0.0
 11
5730.905794639785
 21
-1592.593784026634
 31
0.0
  0
LINE
  5
799E
330
1F
100
AcDbEntity
  8
SPOJOVACÍ
  6
Continuous
100
AcDbLine
 10
5731.928491226824
 20
-1595.4604700979
 30
0.0
 11
5732.173914287477
 21
-1595.215650040827
 31
0.0
  0
LINE
  5
799F
330
1F
100
AcDbEntity
  8
SPOJOVACÍ
  6
Continuous
100
AcDbLine
 10
5731.928491226824
 20
-1595.4604700979
 30
0.0
 11
5731.787388042159
 21
-1595.215650040827
 31
0.0
  0
LINE
  5
79A0
330
1F
100
AcDbEntity
  8
SPOJOVACÍ
  6
Continuous
100
AcDbLine
 10
5731.928491226824
 20
-1595.4604700979
 30
0.0
 11
5731.150614695446
 21
-1592.348963972391
 31
0.0
  0
LINE
  5
79A1
330
1F
100
AcDbEntity
  8
SPOJOVACÍ
  6
Continuous
100
AcDbLine
 10
5722.745930125541
 20
-1594.77967738143
 30
0.0
 11
5721.969862609167
 21
-1594.682593566522
 31
0.0
  0
LINE
  5
79A2
330
1F
100
AcDbEntity
  8
SPOJOVACÍ
  6
Continuous
100
AcDbLine
 10
5722.964217958271
 20
-1593.029756686032
 30
0.0
 11
5722.745930125541
 21
-1593.029756686032
 31
0.0
  0
LINE
  5
79A3
330
1F
100
AcDbEntity
  8
SPOJOVACÍ
  6
Continuous
100
AcDbLine
 10
5724.98850595531
 20
-1593.029756686032
 30
0.0
 11
5723.355568244323
 21
-1593.029756686032
 31
0.0
  0
LINE
  5
79A4
330
1F
100
AcDbEntity
  8
SPOJOVACÍ
  6
Continuous
100
AcDbLine
 10
5723.554559915033
 20
-1594.77967738143
 30
0.0
 11
5722.745930125541
 21
-1594.77967738143
 31
0.0
  0
LINE
  5
79A5
330
1F
100
AcDbEntity
  8
SPOJOVACÍ
  6
Continuous
100
AcDbLine
 10
5725.573420866535
 20
-1594.77967738143
 30
0.0
 11
5723.941086160532
 21
-1594.77967738143
 31
0.0
  0
LINE
  5
79A6
330
1F
100
AcDbEntity
  8
SPOJOVACÍ
  6
Continuous
100
AcDbLine
 10
5727.012190947182
 20
-1593.029756686032
 30
0.0
 11
5725.378047226001
 21
-1593.029756686032
 31
0.0
  0
LINE
  5
79A7
330
1F
100
AcDbEntity
  8
SPOJOVACÍ
  6
Continuous
100
AcDbLine
 10
5729.036478944054
 20
-1593.029756686032
 30
0.0
 11
5727.397511182503
 21
-1593.029756686032
 31
0.0
  0
LINE
  5
79A8
330
1F
100
AcDbEntity
  8
SPOJOVACÍ
  6
Continuous
100
AcDbLine
 10
5731.055942900549
 20
-1593.029756686032
 30
0.0
 11
5729.423005189555
 21
-1593.029756686032
 31
0.0
  0
LINE
  5
79A9
330
1F
100
AcDbEntity
  8
SPOJOVACÍ
  6
Continuous
100
AcDbLine
 10
5727.604341919131
 20
-1594.77967738143
 30
0.0
 11
5725.96537415758
 21
-1594.77967738143
 31
0.0
  0
LINE
  5
79AA
330
1F
100
AcDbEntity
  8
SPOJOVACÍ
  6
Continuous
100
AcDbLine
 10
5729.623805875625
 20
-1594.77967738143
 30
0.0
 11
5727.989662154452
 21
-1594.77967738143
 31
0.0
  0
LINE
  5
79AB
330
1F
100
AcDbEntity
  8
SPOJOVACÍ
  6
Continuous
100
AcDbLine
 10
5731.648093872497
 20
-1594.77967738143
 30
0.0
 11
5730.01515616151
 21
-1594.77967738143
 31
0.0
  0
LINE
  5
79AC
330
1F
100
AcDbEntity
  8
SPOJOVACÍ
  6
Continuous
100
AcDbLine
 10
5734.651662091998
 20
-1594.77967738143
 30
0.0
 11
5732.034017112823
 21
-1594.77967738143
 31
0.0
  0
LINE
  5
79AD
330
1F
100
AcDbEntity
  8
SPOJOVACÍ
  6
Continuous
100
AcDbLine
 10
5734.651662091998
 20
-1593.029756686032
 30
0.0
 11
5731.447293186427
 21
-1593.029756686032
 31
0.0
  0
LINE
  5
79AE
330
1F
100
AcDbEntity
  8
SPOJOVACÍ
  6
Continuous
100
AcDbLine
 10
5736.976849615397
 20
-1595.616045401911
 30
0.0
 11
5736.121788435955
 21
-1595.099873069083
 31
0.0
  0
LINE
  5
79AF
330
1F
100
AcDbEntity
  8
SPOJOVACÍ
  6
Continuous
100
AcDbLine
 10
5736.121788435955
 20
-1595.099873069083
 30
0.0
 11
5735.161804375345
 21
-1594.822490741185
 31
0.0
  0
LINE
  5
79B0
330
1F
100
AcDbEntity
  8
SPOJOVACÍ
  6
Continuous
100
AcDbLine
 10
5735.161804375345
 20
-1594.822490741185
 30
0.0
 11
5734.651662091998
 21
-1594.77967738143
 31
0.0
  0
LINE
  5
79B1
330
1F
100
AcDbEntity
  8
SPOJOVACÍ
  6
Continuous
100
AcDbLine
 10
5737.338652653333
 20
-1591.864147901094
 30
0.0
 11
5737.933818650647
 21
-1591.062151166798
 31
0.0
  0
LINE
  5
79B2
330
1F
100
AcDbEntity
  8
SPOJOVACÍ
  6
Continuous
100
AcDbLine
 10
5737.933818650647
 20
-1591.062151166798
 30
0.0
 11
5738.152106483377
 21
-1590.598440273761
 31
0.0
  0
LINE
  5
79B3
330
1F
100
AcDbEntity
  8
SPOJOVACÍ
  6
Continuous
100
AcDbLine
 10
5738.92998301493
 20
-1590.598440273761
 30
0.0
 11
5738.152106483377
 21
-1590.598440273761
 31
0.0
  0
LINE
  5
79B4
330
1F
100
AcDbEntity
  8
SPOJOVACÍ
  6
Continuous
100
AcDbLine
 10
5734.651662091998
 20
-1593.029756686032
 30
0.0
 11
5735.63938438537
 21
-1592.882623452759
 31
0.0
  0
LINE
  5
79B5
330
1F
100
AcDbEntity
  8
SPOJOVACÍ
  6
Continuous
100
AcDbLine
 10
5735.63938438537
 20
-1592.882623452759
 30
0.0
 11
5736.555952081403
 21
-1592.485243116332
 31
0.0
  0
LINE
  5
79B6
330
1F
100
AcDbEntity
  8
SPOJOVACÍ
  6
Continuous
100
AcDbLine
 10
5736.555952081403
 20
-1592.485243116332
 30
0.0
 11
5737.338652653333
 21
-1591.864147901094
 31
0.0
  0
LINE
  5
79B7
330
1F
100
AcDbEntity
  8
SPOJOVACÍ
  6
DASHDOT2
100
AcDbLine
 10
5696.593693752865
 20
-1482.328144352584
 30
0.0
 11
5658.316119464628
 21
-1482.328144352584
 31
0.0
  0
LINE
  5
79B8
330
1F
100
AcDbEntity
  8
SPOJOVACÍ
  6
CIKCAK
 48
0.25
100
AcDbLine
 10
5689.056099267914
 20
-1479.684044534973
 30
0.0
 11
5651.233443437265
 21
-1479.684044534979
 31
0.0
  0
LINE
  5
79B9
330
1F
100
AcDbEntity
  8
SPOJOVACÍ
  6
CIKCAK
 48
0.25
100
AcDbLine
 10
5689.056099267914
 20
-1484.97224417019
 30
0.0
 11
5651.233443437265
 21
-1484.97224417019
 31
0.0
  0
LINE
  5
79BA
330
1F
100
AcDbEntity
  8
SPOJOVACÍ
  6
DASHED
100
AcDbLine
 10
5647.602551908136
 20
-1482.328144352584
 30
0.0
 11
5657.131497000902
 21
-1481.044941227584
 31
0.0
  0
LINE
  5
79BB
330
1F
100
AcDbEntity
  8
SPOJOVACÍ
  6
DASHED
100
AcDbLine
 10
5647.602551908136
 20
-1482.328144352584
 30
0.0
 11
5657.131497000902
 21
-1483.611347477584
 31
0.0
  0
LINE
  5
79BC
330
1F
100
AcDbEntity
  8
SPOJOVACÍ
 48
0.25
100
AcDbLine
 10
5651.233443437265
 20
-1479.684044534979
 30
0.0
 11
5646.99636318172
 21
-1482.328144352584
 31
0.0
  0
LINE
  5
79BD
330
1F
100
AcDbEntity
  8
SPOJOVACÍ
 48
0.25
100
AcDbLine
 10
5651.233443437265
 20
-1484.97224417019
 30
0.0
 11
5646.99636318172
 21
-1482.328144352584
 31
0.0
  0
LINE
  5
79BE
330
1F
100
AcDbEntity
  8
SPOJOVACÍ
  6
Continuous
100
AcDbLine
 10
5648.993384732666
 20
-1481.541804258438
 30
0.0
 11
5648.824318014774
 21
-1481.833893990657
 31
0.0
  0
LINE
  5
79BF
330
1F
100
AcDbEntity
  8
SPOJOVACÍ
  6
Continuous
100
AcDbLine
 10
5648.993384732666
 20
-1481.541804258438
 30
0.0
 11
5649.285474466565
 21
-1481.833893990657
 31
0.0
  0
LINE
  5
79C0
330
1F
100
AcDbEntity
  8
SPOJOVACÍ
  6
Continuous
100
AcDbLine
 10
5648.75309416343
 20
-1483.20801071941
 30
0.0
 11
5648.460284996753
 21
-1482.915920987197
 31
0.0
  0
LINE
  5
79C1
330
1F
100
AcDbEntity
  8
SPOJOVACÍ
  6
Continuous
100
AcDbLine
 10
5648.75309416343
 20
-1483.20801071941
 30
0.0
 11
5648.921441448552
 21
-1482.915920987197
 31
0.0
  0
LINE
  5
79C2
330
1F
100
AcDbEntity
  8
SPOJOVACÍ
  6
Continuous
100
AcDbLine
 10
5648.824318014774
 20
-1481.833893990657
 30
0.0
 11
5648.460284996753
 21
-1482.915920987197
 31
0.0
  0
LINE
  5
79C3
330
1F
100
AcDbEntity
  8
SPOJOVACÍ
  6
Continuous
100
AcDbLine
 10
5649.285474466565
 20
-1481.833893990657
 30
0.0
 11
5648.921441448552
 21
-1482.915920987197
 31
0.0
  0
LINE
  5
79C4
330
1F
100
AcDbEntity
  8
SPOJOVACÍ
  6
Continuous
100
AcDbLine
 10
5648.993384732666
 20
-1481.541804258438
 30
0.0
 11
5648.75309416343
 21
-1483.20801071941
 31
0.0
  0
LINE
  5
79C5
330
1F
100
AcDbEntity
  8
SPOJOVACÍ
  6
Continuous
100
AcDbLine
 10
5653.656028982111
 20
-1480.668412787803
 30
0.0
 11
5653.486962264212
 21
-1480.961221954055
 31
0.0
  0
LINE
  5
79C6
330
1F
100
AcDbEntity
  8
SPOJOVACÍ
  6
Continuous
100
AcDbLine
 10
5653.656028982111
 20
-1480.668412787803
 30
0.0
 11
5653.948118716017
 21
-1480.961221954055
 31
0.0
  0
LINE
  5
79C7
330
1F
100
AcDbEntity
  8
SPOJOVACÍ
  6
Continuous
100
AcDbLine
 10
5652.903502229388
 20
-1483.859097441098
 30
0.0
 11
5652.6106930625
 21
-1483.567007708879
 31
0.0
  0
LINE
  5
79C8
330
1F
100
AcDbEntity
  8
SPOJOVACÍ
  6
Continuous
100
AcDbLine
 10
5652.903502229388
 20
-1483.859097441098
 30
0.0
 11
5653.071849514298
 21
-1483.567007708879
 31
0.0
  0
LINE
  5
79C9
330
1F
100
AcDbEntity
  8
SPOJOVACÍ
  6
Continuous
100
AcDbLine
 10
5653.486962264212
 20
-1480.961221954055
 30
0.0
 11
5652.6106930625
 21
-1483.567007708879
 31
0.0
  0
LINE
  5
79CA
330
1F
100
AcDbEntity
  8
SPOJOVACÍ
  6
Continuous
100
AcDbLine
 10
5653.948118716017
 20
-1480.961221954055
 30
0.0
 11
5653.071849514298
 21
-1483.567007708879
 31
0.0
  0
LINE
  5
79CB
330
1F
100
AcDbEntity
  8
SPOJOVACÍ
  6
Continuous
100
AcDbLine
 10
5653.656028982111
 20
-1480.668412787803
 30
0.0
 11
5652.903502229388
 21
-1483.859097441098
 31
0.0
  0
LINE
  5
79CC
330
1F
100
AcDbEntity
  8
SPOJOVACÍ
  6
Continuous
100
AcDbLine
 10
5651.324347140898
 20
-1481.105108521434
 30
0.0
 11
5651.155999855987
 21
-1481.397198257025
 31
0.0
  0
LINE
  5
79CD
330
1F
100
AcDbEntity
  8
SPOJOVACÍ
  6
Continuous
100
AcDbLine
 10
5651.324347140898
 20
-1481.105108521434
 30
0.0
 11
5651.617156307786
 21
-1481.397198257025
 31
0.0
  0
LINE
  5
79CE
330
1F
100
AcDbEntity
  8
SPOJOVACÍ
  6
Continuous
100
AcDbLine
 10
5650.834413375579
 20
-1483.51520854274
 30
0.0
 11
5650.54160420891
 21
-1483.223118810521
 31
0.0
  0
LINE
  5
79CF
330
1F
100
AcDbEntity
  8
SPOJOVACÍ
  6
Continuous
100
AcDbLine
 10
5650.834413375579
 20
-1483.51520854274
 30
0.0
 11
5651.00276066049
 21
-1483.223118810521
 31
0.0
  0
LINE
  5
79D0
330
1F
100
AcDbEntity
  8
SPOJOVACÍ
  6
Continuous
100
AcDbLine
 10
5651.155999855987
 20
-1481.397198257025
 30
0.0
 11
5650.54160420891
 21
-1483.223118810521
 31
0.0
  0
LINE
  5
79D1
330
1F
100
AcDbEntity
  8
SPOJOVACÍ
  6
Continuous
100
AcDbLine
 10
5651.617156307786
 20
-1481.397198257025
 30
0.0
 11
5651.00276066049
 21
-1483.223118810521
 31
0.0
  0
LINE
  5
79D2
330
1F
100
AcDbEntity
  8
SPOJOVACÍ
  6
Continuous
100
AcDbLine
 10
5651.324347140898
 20
-1481.105108521434
 30
0.0
 11
5650.834413375579
 21
-1483.51520854274
 31
0.0
  0
LINE
  5
79D3
330
1F
100
AcDbEntity
  8
SPOJOVACÍ
  6
Continuous
100
AcDbLine
 10
5656.105517950976
 20
-1480.193587110392
 30
0.0
 11
5655.038239329876
 21
-1484.462701594777
 31
0.0
  0
LINE
  5
79D4
330
1F
100
AcDbEntity
  8
SPOJOVACÍ
  6
Continuous
100
AcDbLine
 10
5656.105517950976
 20
-1480.193587110392
 30
0.0
 11
5655.911918573319
 21
-1480.529490306322
 31
0.0
  0
LINE
  5
79D5
330
1F
100
AcDbEntity
  8
SPOJOVACÍ
  6
Continuous
100
AcDbLine
 10
5656.105517950976
 20
-1480.193587110392
 30
0.0
 11
5656.442248492885
 21
-1480.529490306322
 31
0.0
  0
LINE
  5
79D6
330
1F
100
AcDbEntity
  8
SPOJOVACÍ
  6
Continuous
100
AcDbLine
 10
5655.038239329876
 20
-1484.462701594777
 30
0.0
 11
5654.702336135892
 21
-1484.126798402727
 31
0.0
  0
LINE
  5
79D7
330
1F
100
AcDbEntity
  8
SPOJOVACÍ
  6
Continuous
100
AcDbLine
 10
5655.038239329876
 20
-1484.462701594777
 30
0.0
 11
5655.232666055458
 21
-1484.126798402727
 31
0.0
  0
LINE
  5
79D8
330
1F
100
AcDbEntity
  8
SPOJOVACÍ
  6
Continuous
100
AcDbLine
 10
5655.911918573319
 20
-1480.529490306322
 30
0.0
 11
5654.702336135892
 21
-1484.126798402727
 31
0.0
  0
LINE
  5
79D9
330
1F
100
AcDbEntity
  8
SPOJOVACÍ
  6
Continuous
100
AcDbLine
 10
5656.442248492885
 20
-1480.529490306322
 30
0.0
 11
5655.232666055458
 21
-1484.126798402727
 31
0.0
  0
LINE
  5
79DA
330
1F
100
AcDbEntity
  8
SPOJOVACÍ
  6
Continuous
100
AcDbLine
 10
5658.989240928573
 20
-1480.529490306322
 30
0.0
 11
5657.779658491146
 21
-1484.126798402727
 31
0.0
  0
LINE
  5
79DB
330
1F
100
AcDbEntity
  8
SPOJOVACÍ
  6
Continuous
100
AcDbLine
 10
5658.458911009006
 20
-1480.529490306322
 30
0.0
 11
5657.24932857158
 21
-1484.126798402727
 31
0.0
  0
LINE
  5
79DC
330
1F
100
AcDbEntity
  8
SPOJOVACÍ
  6
Continuous
100
AcDbLine
 10
5657.585231765564
 20
-1484.462701594777
 30
0.0
 11
5657.779658491146
 21
-1484.126798402727
 31
0.0
  0
LINE
  5
79DD
330
1F
100
AcDbEntity
  8
SPOJOVACÍ
  6
Continuous
100
AcDbLine
 10
5657.585231765564
 20
-1484.462701594777
 30
0.0
 11
5657.24932857158
 21
-1484.126798402727
 31
0.0
  0
LINE
  5
79DE
330
1F
100
AcDbEntity
  8
SPOJOVACÍ
  6
Continuous
100
AcDbLine
 10
5658.652510386663
 20
-1480.193587110392
 30
0.0
 11
5658.989240928573
 21
-1480.529490306322
 31
0.0
  0
LINE
  5
79DF
330
1F
100
AcDbEntity
  8
SPOJOVACÍ
  6
Continuous
100
AcDbLine
 10
5658.652510386663
 20
-1480.193587110392
 30
0.0
 11
5658.458911009006
 21
-1480.529490306322
 31
0.0
  0
LINE
  5
79E0
330
1F
100
AcDbEntity
  8
SPOJOVACÍ
  6
Continuous
100
AcDbLine
 10
5658.652510386663
 20
-1480.193587110392
 30
0.0
 11
5657.585231765564
 21
-1484.462701594777
 31
0.0
  0
LINE
  5
79E1
330
1F
100
AcDbEntity
  8
SPOJOVACÍ
  6
Continuous
100
AcDbLine
 10
5661.199502822351
 20
-1480.193587110392
 30
0.0
 11
5660.132224201252
 21
-1484.462701594777
 31
0.0
  0
LINE
  5
79E2
330
1F
100
AcDbEntity
  8
SPOJOVACÍ
  6
Continuous
100
AcDbLine
 10
5661.199502822351
 20
-1480.193587110392
 30
0.0
 11
5661.005903444694
 21
-1480.529490306322
 31
0.0
  0
LINE
  5
79E3
330
1F
100
AcDbEntity
  8
SPOJOVACÍ
  6
Continuous
100
AcDbLine
 10
5661.199502822351
 20
-1480.193587110392
 30
0.0
 11
5661.53623336426
 21
-1480.529490306322
 31
0.0
  0
LINE
  5
79E4
330
1F
100
AcDbEntity
  8
SPOJOVACÍ
  6
Continuous
100
AcDbLine
 10
5660.132224201252
 20
-1484.462701594777
 30
0.0
 11
5659.796321007267
 21
-1484.126798402727
 31
0.0
  0
LINE
  5
79E5
330
1F
100
AcDbEntity
  8
SPOJOVACÍ
  6
Continuous
100
AcDbLine
 10
5660.132224201252
 20
-1484.462701594777
 30
0.0
 11
5660.326650926833
 21
-1484.126798402727
 31
0.0
  0
LINE
  5
79E6
330
1F
100
AcDbEntity
  8
SPOJOVACÍ
  6
Continuous
100
AcDbLine
 10
5661.005903444694
 20
-1480.529490306322
 30
0.0
 11
5659.796321007267
 21
-1484.126798402727
 31
0.0
  0
LINE
  5
79E7
330
1F
100
AcDbEntity
  8
SPOJOVACÍ
  6
Continuous
100
AcDbLine
 10
5661.53623336426
 20
-1480.529490306322
 30
0.0
 11
5660.326650926833
 21
-1484.126798402727
 31
0.0
  0
LINE
  5
79E8
330
1F
100
AcDbEntity
  8
SPOJOVACÍ
  6
Continuous
100
AcDbLine
 10
5663.746495258038
 20
-1480.193587110392
 30
0.0
 11
5662.679216636939
 21
-1484.462701594777
 31
0.0
  0
LINE
  5
79E9
330
1F
100
AcDbEntity
  8
SPOJOVACÍ
  6
Continuous
100
AcDbLine
 10
5663.746495258038
 20
-1480.193587110392
 30
0.0
 11
5663.552895880382
 21
-1480.529490306322
 31
0.0
  0
LINE
  5
79EA
330
1F
100
AcDbEntity
  8
SPOJOVACÍ
  6
Continuous
100
AcDbLine
 10
5663.746495258038
 20
-1480.193587110392
 30
0.0
 11
5664.083225799948
 21
-1480.529490306322
 31
0.0
  0
LINE
  5
79EB
330
1F
100
AcDbEntity
  8
SPOJOVACÍ
  6
Continuous
100
AcDbLine
 10
5662.679216636939
 20
-1484.462701594777
 30
0.0
 11
5662.343313442955
 21
-1484.126798402727
 31
0.0
  0
LINE
  5
79EC
330
1F
100
AcDbEntity
  8
SPOJOVACÍ
  6
Continuous
100
AcDbLine
 10
5662.679216636939
 20
-1484.462701594777
 30
0.0
 11
5662.87364336252
 21
-1484.126798402727
 31
0.0
  0
LINE
  5
79ED
330
1F
100
AcDbEntity
  8
SPOJOVACÍ
  6
Continuous
100
AcDbLine
 10
5663.552895880382
 20
-1480.529490306322
 30
0.0
 11
5662.343313442955
 21
-1484.126798402727
 31
0.0
  0
LINE
  5
79EE
330
1F
100
AcDbEntity
  8
SPOJOVACÍ
  6
Continuous
100
AcDbLine
 10
5664.083225799948
 20
-1480.529490306322
 30
0.0
 11
5662.87364336252
 21
-1484.126798402727
 31
0.0
  0
LINE
  5
79EF
330
1F
100
AcDbEntity
  8
NOSNÉ KONSTRUKCE
100
AcDbLine
 10
5691.664734065813
 20
-1469.626573267769
 30
0.0
 11
5689.664734065814
 21
-1469.626573267769
 31
0.0
  0
LWPOLYLINE
  5
79F0
330
1F
100
AcDbEntity
  8
STAVBA OBRYS
100
AcDbPolyline
 90
        2
 70
     0
 43
0.0
 10
5684.696509924591
 20
-1473.373327065669
 10
5688.03953353434
 20
-1475.046062347044
  0
LINE
  5
79F1
330
1F
100
AcDbEntity
  8
SPOJOVACÍ
  6
Continuous
100
AcDbLine
 10
5679.365180414073
 20
-1480.529490306322
 30
0.0
 11
5678.155597976647
 21
-1484.126798402727
 31
0.0
  0
LINE
  5
79F2
330
1F
100
AcDbEntity
  8
SPOJOVACÍ
  6
Continuous
100
AcDbLine
 10
5678.834850494506
 20
-1480.529490306322
 30
0.0
 11
5677.625268057081
 21
-1484.126798402727
 31
0.0
  0
LINE
  5
79F3
330
1F
100
AcDbEntity
  8
SPOJOVACÍ
  6
Continuous
100
AcDbLine
 10
5677.961171251064
 20
-1484.462701594777
 30
0.0
 11
5678.155597976647
 21
-1484.126798402727
 31
0.0
  0
LINE
  5
79F4
330
1F
100
AcDbEntity
  8
SPOJOVACÍ
  6
Continuous
100
AcDbLine
 10
5677.961171251064
 20
-1484.462701594777
 30
0.0
 11
5677.625268057081
 21
-1484.126798402727
 31
0.0
  0
LINE
  5
79F5
330
1F
100
AcDbEntity
  8
SPOJOVACÍ
  6
Continuous
100
AcDbLine
 10
5679.028449872164
 20
-1480.193587110392
 30
0.0
 11
5679.365180414073
 21
-1480.529490306322
 31
0.0
  0
LINE
  5
79F6
330
1F
100
AcDbEntity
  8
SPOJOVACÍ
  6
Continuous
100
AcDbLine
 10
5679.028449872164
 20
-1480.193587110392
 30
0.0
 11
5678.834850494506
 21
-1480.529490306322
 31
0.0
  0
LINE
  5
79F7
330
1F
100
AcDbEntity
  8
SPOJOVACÍ
  6
Continuous
100
AcDbLine
 10
5679.028449872164
 20
-1480.193587110392
 30
0.0
 11
5677.961171251064
 21
-1484.462701594777
 31
0.0
  0
LINE
  5
79F8
330
1F
100
AcDbEntity
  8
SPOJOVACÍ
  6
Continuous
100
AcDbLine
 10
5676.818187978385
 20
-1480.529490306322
 30
0.0
 11
5675.608605540959
 21
-1484.126798402727
 31
0.0
  0
LINE
  5
79F9
330
1F
100
AcDbEntity
  8
SPOJOVACÍ
  6
Continuous
100
AcDbLine
 10
5676.287858058819
 20
-1480.529490306322
 30
0.0
 11
5675.078275621393
 21
-1484.126798402727
 31
0.0
  0
LINE
  5
79FA
330
1F
100
AcDbEntity
  8
SPOJOVACÍ
  6
Continuous
100
AcDbLine
 10
5675.414178815376
 20
-1484.462701594777
 30
0.0
 11
5675.608605540959
 21
-1484.126798402727
 31
0.0
  0
LINE
  5
79FB
330
1F
100
AcDbEntity
  8
SPOJOVACÍ
  6
Continuous
100
AcDbLine
 10
5675.414178815376
 20
-1484.462701594777
 30
0.0
 11
5675.078275621393
 21
-1484.126798402727
 31
0.0
  0
LINE
  5
79FC
330
1F
100
AcDbEntity
  8
SPOJOVACÍ
  6
Continuous
100
AcDbLine
 10
5676.481457436477
 20
-1480.193587110392
 30
0.0
 11
5676.818187978385
 21
-1480.529490306322
 31
0.0
  0
LINE
  5
79FD
330
1F
100
AcDbEntity
  8
SPOJOVACÍ
  6
Continuous
100
AcDbLine
 10
5676.481457436477
 20
-1480.193587110392
 30
0.0
 11
5676.287858058819
 21
-1480.529490306322
 31
0.0
  0
LINE
  5
79FE
330
1F
100
AcDbEntity
  8
SPOJOVACÍ
  6
Continuous
100
AcDbLine
 10
5676.481457436477
 20
-1480.193587110392
 30
0.0
 11
5675.414178815376
 21
-1484.462701594777
 31
0.0
  0
LINE
  5
79FF
330
1F
100
AcDbEntity
  8
SPOJOVACÍ
  6
Continuous
100
AcDbLine
 10
5674.271195542697
 20
-1480.529490306322
 30
0.0
 11
5673.061613105272
 21
-1484.126798402727
 31
0.0
  0
LINE
  5
7A00
330
1F
100
AcDbEntity
  8
SPOJOVACÍ
  6
Continuous
100
AcDbLine
 10
5673.740865623131
 20
-1480.529490306322
 30
0.0
 11
5672.531283185705
 21
-1484.126798402727
 31
0.0
  0
LINE
  5
7A01
330
1F
100
AcDbEntity
  8
SPOJOVACÍ
  6
Continuous
100
AcDbLine
 10
5672.867186379689
 20
-1484.462701594777
 30
0.0
 11
5673.061613105272
 21
-1484.126798402727
 31
0.0
  0
LINE
  5
7A02
330
1F
100
AcDbEntity
  8
SPOJOVACÍ
  6
Continuous
100
AcDbLine
 10
5672.867186379689
 20
-1484.462701594777
 30
0.0
 11
5672.531283185705
 21
-1484.126798402727
 31
0.0
  0
LINE
  5
7A03
330
1F
100
AcDbEntity
  8
SPOJOVACÍ
  6
Continuous
100
AcDbLine
 10
5673.934465000789
 20
-1480.193587110392
 30
0.0
 11
5674.271195542697
 21
-1480.529490306322
 31
0.0
  0
LINE
  5
7A04
330
1F
100
AcDbEntity
  8
SPOJOVACÍ
  6
Continuous
100
AcDbLine
 10
5673.934465000789
 20
-1480.193587110392
 30
0.0
 11
5673.740865623131
 21
-1480.529490306322
 31
0.0
  0
LINE
  5
7A05
330
1F
100
AcDbEntity
  8
SPOJOVACÍ
  6
Continuous
100
AcDbLine
 10
5673.934465000789
 20
-1480.193587110392
 30
0.0
 11
5672.867186379689
 21
-1484.462701594777
 31
0.0
  0
LINE
  5
7A06
330
1F
100
AcDbEntity
  8
SPOJOVACÍ
100
AcDbLine
 10
5691.241225757561
 20
-1477.265644352584
 30
0.0
 11
5690.58354279096
 21
-1477.265644352584
 31
0.0
  0
LINE
  5
7A07
330
1F
100
AcDbEntity
  8
SPOJOVACÍ
100
AcDbLine
 10
5690.58354279096
 20
-1477.265644352584
 30
0.0
 11
5691.241225757561
 21
-1477.265644352584
 31
0.0
  0
LINE
  5
7A08
330
1F
100
AcDbEntity
  8
SPOJOVACÍ
  6
DASHED
100
AcDbLine
 10
5690.58354279096
 20
-1477.265644352584
 30
0.0
 11
5688.196567064025
 21
-1481.044941227584
 31
0.0
  0
LINE
  5
7A09
330
1F
100
AcDbEntity
  8
SPOJOVACÍ
100
AcDbLine
 10
5691.664734065813
 20
-1477.265644352584
 30
0.0
 11
5690.58354279096
 21
-1477.265644352584
 31
0.0
  0
LINE
  5
7A0A
330
1F
100
AcDbEntity
  8
SPOJOVACÍ
100
AcDbLine
 10
5690.58354279096
 20
-1487.390644352585
 30
0.0
 11
5688.196567064032
 21
-1483.611347477584
 31
0.0
  0
LINE
  5
7A0B
330
1F
100
AcDbEntity
  8
SPOJOVACÍ
100
AcDbLine
 10
5690.58354279096
 20
-1487.390644352585
 30
0.0
 11
5691.241225757561
 21
-1487.390644352585
 31
0.0
  0
LINE
  5
7A0C
330
1F
100
AcDbEntity
  8
SPOJOVACÍ
100
AcDbLine
 10
5691.664734065813
 20
-1487.390644352585
 30
0.0
 11
5690.58354279096
 21
-1487.390644352585
 31
0.0
  0
LINE
  5
7A0D
330
1F
100
AcDbEntity
  8
SPOJOVACÍ
100
AcDbLine
 10
5691.664734065813
 20
-1477.265644352584
 30
0.0
 11
5691.664734065813
 21
-1487.390644352585
 31
0.0
  0
LINE
  5
7A0E
330
1F
100
AcDbEntity
  8
SPOJOVACÍ
100
AcDbLine
 10
5690.58354279096
 20
-1477.265644352584
 30
0.0
 11
5690.58354279096
 21
-1487.390644352585
 31
0.0
  0
LINE
  5
7A0F
330
1F
100
AcDbEntity
  8
SPOJOVACÍ
  6
Continuous
100
AcDbLine
 10
5666.293487693726
 20
-1480.193587110392
 30
0.0
 11
5665.226209072626
 21
-1484.462701594777
 31
0.0
  0
LINE
  5
7A10
330
1F
100
AcDbEntity
  8
SPOJOVACÍ
  6
Continuous
100
AcDbLine
 10
5666.293487693726
 20
-1480.193587110392
 30
0.0
 11
5666.099888316069
 21
-1480.529490306322
 31
0.0
  0
LINE
  5
7A11
330
1F
100
AcDbEntity
  8
SPOJOVACÍ
  6
Continuous
100
AcDbLine
 10
5666.293487693726
 20
-1480.193587110392
 30
0.0
 11
5666.630218235635
 21
-1480.529490306322
 31
0.0
  0
LINE
  5
7A12
330
1F
100
AcDbEntity
  8
SPOJOVACÍ
  6
Continuous
100
AcDbLine
 10
5665.226209072626
 20
-1484.462701594777
 30
0.0
 11
5664.890305878643
 21
-1484.126798402727
 31
0.0
  0
LINE
  5
7A13
330
1F
100
AcDbEntity
  8
SPOJOVACÍ
  6
Continuous
100
AcDbLine
 10
5665.226209072626
 20
-1484.462701594777
 30
0.0
 11
5665.420635798208
 21
-1484.126798402727
 31
0.0
  0
LINE
  5
7A14
330
1F
100
AcDbEntity
  8
SPOJOVACÍ
  6
Continuous
100
AcDbLine
 10
5666.099888316069
 20
-1480.529490306322
 30
0.0
 11
5664.890305878643
 21
-1484.126798402727
 31
0.0
  0
LINE
  5
7A15
330
1F
100
AcDbEntity
  8
SPOJOVACÍ
  6
Continuous
100
AcDbLine
 10
5666.630218235635
 20
-1480.529490306322
 30
0.0
 11
5665.420635798208
 21
-1484.126798402727
 31
0.0
  0
LINE
  5
7A16
330
1F
100
AcDbEntity
  8
SPOJOVACÍ
  6
Continuous
100
AcDbLine
 10
5668.840480129414
 20
-1480.193587110392
 30
0.0
 11
5667.773201508314
 21
-1484.462701594777
 31
0.0
  0
LINE
  5
7A17
330
1F
100
AcDbEntity
  8
SPOJOVACÍ
  6
Continuous
100
AcDbLine
 10
5668.840480129414
 20
-1480.193587110392
 30
0.0
 11
5668.646880751757
 21
-1480.529490306322
 31
0.0
  0
LINE
  5
7A18
330
1F
100
AcDbEntity
  8
SPOJOVACÍ
  6
Continuous
100
AcDbLine
 10
5668.840480129414
 20
-1480.193587110392
 30
0.0
 11
5669.177210671322
 21
-1480.529490306322
 31
0.0
  0
LINE
  5
7A19
330
1F
100
AcDbEntity
  8
SPOJOVACÍ
  6
Continuous
100
AcDbLine
 10
5667.773201508314
 20
-1484.462701594777
 30
0.0
 11
5667.437298314331
 21
-1484.126798402727
 31
0.0
  0
LINE
  5
7A1A
330
1F
100
AcDbEntity
  8
SPOJOVACÍ
  6
Continuous
100
AcDbLine
 10
5667.773201508314
 20
-1484.462701594777
 30
0.0
 11
5667.967628233895
 21
-1484.126798402727
 31
0.0
  0
LINE
  5
7A1B
330
1F
100
AcDbEntity
  8
SPOJOVACÍ
  6
Continuous
100
AcDbLine
 10
5668.646880751757
 20
-1480.529490306322
 30
0.0
 11
5667.437298314331
 21
-1484.126798402727
 31
0.0
  0
LINE
  5
7A1C
330
1F
100
AcDbEntity
  8
SPOJOVACÍ
  6
Continuous
100
AcDbLine
 10
5669.177210671322
 20
-1480.529490306322
 30
0.0
 11
5667.967628233895
 21
-1484.126798402727
 31
0.0
  0
LINE
  5
7A1D
330
1F
100
AcDbEntity
  8
SPOJOVACÍ
  6
Continuous
100
AcDbLine
 10
5671.387472565101
 20
-1480.193587110392
 30
0.0
 11
5670.320193944001
 21
-1484.462701594777
 31
0.0
  0
LINE
  5
7A1E
330
1F
100
AcDbEntity
  8
SPOJOVACÍ
  6
Continuous
100
AcDbLine
 10
5671.387472565101
 20
-1480.193587110392
 30
0.0
 11
5671.193873187444
 21
-1480.529490306322
 31
0.0
  0
LINE
  5
7A1F
330
1F
100
AcDbEntity
  8
SPOJOVACÍ
  6
Continuous
100
AcDbLine
 10
5671.387472565101
 20
-1480.193587110392
 30
0.0
 11
5671.72420310701
 21
-1480.529490306322
 31
0.0
  0
LINE
  5
7A20
330
1F
100
AcDbEntity
  8
SPOJOVACÍ
  6
Continuous
100
AcDbLine
 10
5670.320193944001
 20
-1484.462701594777
 30
0.0
 11
5669.984290750018
 21
-1484.126798402727
 31
0.0
  0
LINE
  5
7A21
330
1F
100
AcDbEntity
  8
SPOJOVACÍ
  6
Continuous
100
AcDbLine
 10
5670.320193944001
 20
-1484.462701594777
 30
0.0
 11
5670.514620669584
 21
-1484.126798402727
 31
0.0
  0
LINE
  5
7A22
330
1F
100
AcDbEntity
  8
SPOJOVACÍ
  6
Continuous
100
AcDbLine
 10
5671.193873187444
 20
-1480.529490306322
 30
0.0
 11
5669.984290750018
 21
-1484.126798402727
 31
0.0
  0
LINE
  5
7A23
330
1F
100
AcDbEntity
  8
SPOJOVACÍ
  6
Continuous
100
AcDbLine
 10
5671.72420310701
 20
-1480.529490306322
 30
0.0
 11
5670.514620669584
 21
-1484.126798402727
 31
0.0
  0
LINE
  5
7A24
330
1F
100
AcDbEntity
  8
SPOJOVACÍ
  6
DASHED
100
AcDbLine
 10
5672.131497000902
 20
-1481.044941227584
 30
0.0
 11
5688.196567064025
 21
-1481.044941227584
 31
0.0
  0
LINE
  5
7A25
330
1F
100
AcDbEntity
  8
SPOJOVACÍ
  6
DASHED
100
AcDbLine
 10
5672.131497000902
 20
-1483.611347477584
 30
0.0
 11
5688.196567064032
 21
-1483.611347477584
 31
0.0
  0
LWPOLYLINE
  5
7A26
330
1F
100
AcDbEntity
  8
STAVBA OBRYS
100
AcDbPolyline
 90
        3
 70
     0
 43
0.0
 10
5659.240703633882
 20
-1443.968766489827
 10
5683.236206552273
 20
-1455.02800135045
 10
5688.036131712729
 20
-1455.802478320862
  0
LWPOLYLINE
  5
7A27
330
1F
100
AcDbEntity
  8
STAVBA OBRYS
100
AcDbPolyline
 90
        3
 70
     0
 43
0.0
 10
5659.240703633882
 20
-1428.370759523614
 10
5683.236206552273
 20
-1417.311524662991
 10
5688.036131712729
 20
-1416.53704769258
  0
INSERT
  5
7A28
330
1F
100
AcDbEntity
  8
POPIS
100
AcDbBlockReference
  2
E_PUNKT
 10
5884.099936331248
 20
-1560.882276023258
 30
0.0
  0
LINE
  5
7A29
330
1F
100
AcDbEntity
  8
POPIS
100
AcDbLine
 10
6031.687521408954
 20
-1642.648157442047
 30
0.0
 11
6031.687521408954
 21
-1761.576946901679
 31
0.0
  0
TEXT
  5
7A2A
330
1F
100
AcDbEntity
  8
POPIS
100
AcDbText
 10
6015.956443027565
 20
-1793.183824118551
 30
0.0
 40
25.0
  1
01
 41
0.85
  7
SIMPLEX7
100
AcDbText
  0
INSERT
  5
7A2B
330
1F
100
AcDbEntity
  8
POPIS
100
AcDbBlockReference
  2
E_PUNKT
 10
6031.740310378243
 20
-1643.924637471333
 30
0.0
  0
LINE
  5
7A2C
330
1F
100
AcDbEntity
  8
NOSNÉ KONSTRUKCE
100
AcDbLine
 10
6046.855626653344
 20
-1651.571888656917
 30
0.0
 11
6046.855626653344
 21
-1639.571888656917
 31
0.0
  0
TEXT
  5
9B1B
330
1F
100
AcDbEntity
  8
POPIS
100
AcDbText
 10
5372.546475643197
 20
-1967.833045998818
 30
0.0
 40
25.0
  1
v exteriéru vrut s viditelnou hlavou a těsnící podložkou
 41
0.6
 51
10.0
  7
SIMPLEX7
100
AcDbText
  0
ENDSEC
  0
SECTION
  2
OBJECTS
  0
DICTIONARY
  5
C
330
0
100
AcDbDictionary
281
     1
  3
ACAD_GROUP
350
D
  3
ACAD_LAYOUT
350
1A
  3
ACAD_MLINESTYLE
350
17
  3
ACAD_PLOTSETTINGS
350
19
  3
ACAD_PLOTSTYLENAME
350
E
  3
AcDbVariableDictionary
350
5B50
  0
DICTIONARY
  5
D
102
{ACAD_REACTORS
330
C
102
}
330
C
100
AcDbDictionary
281
     1
  0
DICTIONARY
  5
1A
102
{ACAD_REACTORS
330
C
102
}
330
C
100
AcDbDictionary
281
     1
  3
Model
350
22
  3
Rozvržení1
350
1E
  3
Rozvržení2
350
26
  0
DICTIONARY
  5
17
102
{ACAD_REACTORS
330
C
102
}
330
C
100
AcDbDictionary
281
     1
  3
Standard
350
18
  0
DICTIONARY
  5
19
102
{ACAD_REACTORS
330
C
102
}
330
C
100
AcDbDictionary
281
     1
  0
ACDBDICTIONARYWDFLT
  5
E
102
{ACAD_REACTORS
330
C
102
}
330
C
100
AcDbDictionary
281
     1
  3
Normal
350
F
100
AcDbDictionaryWithDefault
340
F
  0
DICTIONARY
  5
5B50
102
{ACAD_REACTORS
330
C
102
}
330
C
100
AcDbDictionary
281
     1
  3
DIMASSOC
350
8518
  3
SORTENTS
350
5B51
  0
LAYOUT
  5
22
102
{ACAD_REACTORS
330
1A
102
}
330
1A
100
AcDbPlotSettings
  1

  2
HP DeskJet 690C
  4
A4
  6

 40
3.757083177566528
 41
5.450418472290039
 42
16.28775024414062
 43
7.56707763671875
 44
296.9259948730469
 45
210.0579986572265
 46
0.0
 47
0.0
 48
0.0
 49
0.0
140
0.0
141
0.0
142
1.0
143
1.0
 70
 11952
 72
     1
 73
     0
 74
     0
  7
monochrome.ctb
 75
     0
147
1.0
148
-323.9392076651195
149
-131.8860906043446
100
AcDbLayout
  1
Model
 70
     1
 71
     0
 10
0.0
 20
0.0
 11
12.0
 21
9.0
 12
0.0
 22
0.0
 32
0.0
 14
0.0
 24
0.0
 34
0.0
 15
0.0
 25
0.0
 35
0.0
146
0.0
 13
0.0
 23
0.0
 33
0.0
 16
1.0
 26
0.0
 36
0.0
 17
0.0
 27
1.0
 37
0.0
 76
     0
330
1F
  0
LAYOUT
  5
1E
102
{ACAD_REACTORS
330
1A
102
}
330
1A
100
AcDbPlotSettings
  1

  2
HP DeskJet 690C
  4

  6

 40
0.0
 41
0.0
 42
0.0
 43
0.0
 44
0.0
 45
0.0
 46
0.0
 47
0.0
 48
0.0
 49
0.0
140
0.0
141
0.0
142
1.0
143
1.0
 70
   688
 72
     0
 73
     0
 74
     5
  7
monochrome.ctb
 75
    16
147
1.0
148
0.0
149
0.0
100
AcDbLayout
  1
Rozvržení1
 70
     1
 71
     1
 10
0.0
 20
0.0
 11
420.0
 21
297.0
 12
0.0
 22
0.0
 32
0.0
 14
1.000000000000000E+20
 24
1.000000000000000E+20
 34
1.000000000000000E+20
 15
-1.000000000000000E+20
 25
-1.000000000000000E+20
 35
-1.000000000000000E+20
146
0.0
 13
0.0
 23
0.0
 33
0.0
 16
1.0
 26
0.0
 36
0.0
 17
0.0
 27
1.0
 37
0.0
 76
     0
330
1B
  0
LAYOUT
  5
26
102
{ACAD_REACTORS
330
1A
102
}
330
1A
100
AcDbPlotSettings
  1

  2
HP DeskJet 690C
  4

  6

 40
0.0
 41
0.0
 42
0.0
 43
0.0
 44
0.0
 45
0.0
 46
0.0
 47
0.0
 48
0.0
 49
0.0
140
0.0
141
0.0
142
1.0
143
1.0
 70
   688
 72
     0
 73
     0
 74
     5
  7
monochrome.ctb
 75
    16
147
1.0
148
0.0
149
0.0
100
AcDbLayout
  1
Rozvržení2
 70
     1
 71
     2
 10
0.0
 20
0.0
 11
12.0
 21
9.0
 12
0.0
 22
0.0
 32
0.0
 14
0.0
 24
0.0
 34
0.0
 15
0.0
 25
0.0
 35
0.0
146
0.0
 13
0.0
 23
0.0
 33
0.0
 16
1.0
 26
0.0
 36
0.0
 17
0.0
 27
1.0
 37
0.0
 76
     0
330
23
  0
MLINESTYLE
  5
18
102
{ACAD_REACTORS
330
17
102
}
330
17
100
AcDbMlineStyle
  2
STANDARD
 70
     0
  3

 62
   256
 51
90.0
 52
90.0
 71
     2
 49
0.5
 62
   256
  6
BYLAYER
 49
-0.5
 62
   256
  6
BYLAYER
  0
ACDBPLACEHOLDER
  5
F
102
{ACAD_REACTORS
330
E
102
}
330
E
  0
DICTIONARYVAR
  5
8518
102
{ACAD_REACTORS
330
5B50
102
}
330
5B50
100
DictionaryVariables
280
     0
  1
1
  0
DICTIONARYVAR
  5
5B51
102
{ACAD_REACTORS
330
5B50
102
}
330
5B50
100
DictionaryVariables
280
     0
  1
96
  0
ENDSEC
  0
EOF
