  0
SECTION
  2
HEADER
  9
$ACADVER
  1
AC1015
  9
$ACADMAINTVER
 70
    13
  9
$DWGCODEPAGE
  3
ANSI_1250
  9
$INSBASE
 10
0.0
 20
0.0
 30
0.0
  9
$EXTMIN
 10
1330.303063808031
 20
-575.108868746935
 30
-0.0015258207003583
  9
$EXTMAX
 10
2137.77900105204
 20
734.6679148869966
 30
0.0000000349246037
  9
$LIMMIN
 10
0.0
 20
0.0
  9
$LIMMAX
 10
420.0
 20
297.0
  9
$ORTHOMODE
 70
     0
  9
$REGENMODE
 70
     1
  9
$FILLMODE
 70
     1
  9
$QTEXTMODE
 70
     0
  9
$MIRRTEXT
 70
     1
  9
$LTSCALE
 40
1.0
  9
$ATTMODE
 70
     1
  9
$TEXTSIZE
 40
2.5
  9
$TRACEWID
 40
1.0
  9
$TEXTSTYLE
  7
Standard
  9
$CLAYER
  8
0
  9
$CELTYPE
  6
ByLayer
  9
$CECOLOR
 62
   256
  9
$CELTSCALE
 40
1.0
  9
$DISPSILH
 70
     0
  9
$DIMSCALE
 40
1.0
  9
$DIMASZ
 40
2.5
  9
$DIMEXO
 40
0.625
  9
$DIMDLI
 40
3.75
  9
$DIMRND
 40
0.0
  9
$DIMDLE
 40
0.0
  9
$DIMEXE
 40
1.25
  9
$DIMTP
 40
0.0
  9
$DIMTM
 40
0.0
  9
$DIMTXT
 40
2.5
  9
$DIMCEN
 40
2.5
  9
$DIMTSZ
 40
0.0
  9
$DIMTOL
 70
     0
  9
$DIMLIM
 70
     0
  9
$DIMTIH
 70
     0
  9
$DIMTOH
 70
     0
  9
$DIMSE1
 70
     0
  9
$DIMSE2
 70
     0
  9
$DIMTAD
 70
     1
  9
$DIMZIN
 70
     8
  9
$DIMBLK
  1

  9
$DIMASO
 70
     1
  9
$DIMSHO
 70
     1
  9
$DIMPOST
  1

  9
$DIMAPOST
  1

  9
$DIMALT
 70
     0
  9
$DIMALTD
 70
     3
  9
$DIMALTF
 40
0.03937007874016
  9
$DIMLFAC
 40
1.0
  9
$DIMTOFL
 70
     1
  9
$DIMTVP
 40
0.0
  9
$DIMTIX
 70
     0
  9
$DIMSOXD
 70
     0
  9
$DIMSAH
 70
     0
  9
$DIMBLK1
  1

  9
$DIMBLK2
  1

  9
$DIMSTYLE
  2
ISO-25
  9
$DIMCLRD
 70
     0
  9
$DIMCLRE
 70
     0
  9
$DIMCLRT
 70
     0
  9
$DIMTFAC
 40
1.0
  9
$DIMGAP
 40
0.625
  9
$DIMJUST
 70
     0
  9
$DIMSD1
 70
     0
  9
$DIMSD2
 70
     0
  9
$DIMTOLJ
 70
     0
  9
$DIMTZIN
 70
     8
  9
$DIMALTZ
 70
     0
  9
$DIMALTTZ
 70
     0
  9
$DIMUPT
 70
     0
  9
$DIMDEC
 70
     2
  9
$DIMTDEC
 70
     2
  9
$DIMALTU
 70
     2
  9
$DIMALTTD
 70
     3
  9
$DIMTXSTY
  7
Standard
  9
$DIMAUNIT
 70
     0
  9
$DIMADEC
 70
     0
  9
$DIMALTRND
 40
0.0
  9
$DIMAZIN
 70
     0
  9
$DIMDSEP
 70
    44
  9
$DIMATFIT
 70
     3
  9
$DIMFRAC
 70
     0
  9
$DIMLDRBLK
  1

  9
$DIMLUNIT
 70
     2
  9
$DIMLWD
 70
    -2
  9
$DIMLWE
 70
    -2
  9
$DIMTMOVE
 70
     0
  9
$LUNITS
 70
     2
  9
$LUPREC
 70
     4
  9
$SKETCHINC
 40
1.0
  9
$FILLETRAD
 40
10.0
  9
$AUNITS
 70
     0
  9
$AUPREC
 70
     0
  9
$MENU
  1
.
  9
$ELEVATION
 40
0.0
  9
$PELEVATION
 40
0.0
  9
$THICKNESS
 40
0.0
  9
$LIMCHECK
 70
     0
  9
$CHAMFERA
 40
10.0
  9
$CHAMFERB
 40
10.0
  9
$CHAMFERC
 40
20.0
  9
$CHAMFERD
 40
0.0
  9
$SKPOLY
 70
     0
  9
$TDCREATE
 40
2452334.465307870
  9
$TDUCREATE
 40
2452334.423641203
  9
$TDUPDATE
 40
2455595.895258241
  9
$TDUUPDATE
 40
2455595.853591574
  9
$TDINDWG
 40
0.0059754514
  9
$TDUSRTIMER
 40
0.0059754514
  9
$USRTIMER
 70
     1
  9
$ANGBASE
 50
0.0
  9
$ANGDIR
 70
     0
  9
$PDMODE
 70
     0
  9
$PDSIZE
 40
0.0
  9
$PLINEWID
 40
0.0
  9
$SPLFRAME
 70
     0
  9
$SPLINETYPE
 70
     6
  9
$SPLINESEGS
 70
     8
  9
$HANDSEED
  5
1156
  9
$SURFTAB1
 70
     6
  9
$SURFTAB2
 70
     6
  9
$SURFTYPE
 70
     6
  9
$SURFU
 70
     6
  9
$SURFV
 70
     6
  9
$UCSBASE
  2

  9
$UCSNAME
  2

  9
$UCSORG
 10
0.0
 20
0.0
 30
0.0
  9
$UCSXDIR
 10
1.0
 20
0.0
 30
0.0
  9
$UCSYDIR
 10
0.0
 20
1.0
 30
0.0
  9
$UCSORTHOREF
  2

  9
$UCSORTHOVIEW
 70
     0
  9
$UCSORGTOP
 10
0.0
 20
0.0
 30
0.0
  9
$UCSORGBOTTOM
 10
0.0
 20
0.0
 30
0.0
  9
$UCSORGLEFT
 10
0.0
 20
0.0
 30
0.0
  9
$UCSORGRIGHT
 10
0.0
 20
0.0
 30
0.0
  9
$UCSORGFRONT
 10
0.0
 20
0.0
 30
0.0
  9
$UCSORGBACK
 10
0.0
 20
0.0
 30
0.0
  9
$PUCSBASE
  2

  9
$PUCSNAME
  2

  9
$PUCSORG
 10
0.0
 20
0.0
 30
0.0
  9
$PUCSXDIR
 10
1.0
 20
0.0
 30
0.0
  9
$PUCSYDIR
 10
0.0
 20
1.0
 30
0.0
  9
$PUCSORTHOREF
  2

  9
$PUCSORTHOVIEW
 70
     0
  9
$PUCSORGTOP
 10
0.0
 20
0.0
 30
0.0
  9
$PUCSORGBOTTOM
 10
0.0
 20
0.0
 30
0.0
  9
$PUCSORGLEFT
 10
0.0
 20
0.0
 30
0.0
  9
$PUCSORGRIGHT
 10
0.0
 20
0.0
 30
0.0
  9
$PUCSORGFRONT
 10
0.0
 20
0.0
 30
0.0
  9
$PUCSORGBACK
 10
0.0
 20
0.0
 30
0.0
  9
$USERI1
 70
     0
  9
$USERI2
 70
     0
  9
$USERI3
 70
     0
  9
$USERI4
 70
     0
  9
$USERI5
 70
     0
  9
$USERR1
 40
0.0
  9
$USERR2
 40
0.0
  9
$USERR3
 40
0.0
  9
$USERR4
 40
0.0
  9
$USERR5
 40
0.0
  9
$WORLDVIEW
 70
     1
  9
$SHADEDGE
 70
     3
  9
$SHADEDIF
 70
    70
  9
$TILEMODE
 70
     1
  9
$MAXACTVP
 70
    48
  9
$PINSBASE
 10
0.0
 20
0.0
 30
0.0
  9
$PLIMCHECK
 70
     0
  9
$PEXTMIN
 10
1.000000000000000E+20
 20
1.000000000000000E+20
 30
1.000000000000000E+20
  9
$PEXTMAX
 10
-1.000000000000000E+20
 20
-1.000000000000000E+20
 30
-1.000000000000000E+20
  9
$PLIMMIN
 10
0.0
 20
0.0
  9
$PLIMMAX
 10
420.0
 20
297.0
  9
$UNITMODE
 70
     0
  9
$VISRETAIN
 70
     1
  9
$PLINEGEN
 70
     0
  9
$PSLTSCALE
 70
     1
  9
$TREEDEPTH
 70
  3020
  9
$CMLSTYLE
  2
Standard
  9
$CMLJUST
 70
     0
  9
$CMLSCALE
 40
20.0
  9
$PROXYGRAPHICS
 70
     1
  9
$MEASUREMENT
 70
     1
  9
$CELWEIGHT
370
    -1
  9
$ENDCAPS
280
     0
  9
$JOINSTYLE
280
     0
  9
$LWDISPLAY
290
     0
  9
$INSUNITS
 70
     4
  9
$HYPERLINKBASE
  1

  9
$STYLESHEET
  1

  9
$XEDIT
290
     1
  9
$CEPSNTYPE
380
     0
  9
$PSTYLEMODE
290
     1
  9
$FINGERPRINTGUID
  2
{4216A968-507C-4CB8-873B-AD6C9E89F3B1}
  9
$VERSIONGUID
  2
{579C7C60-A0CF-43A8-939A-B988EA1CCF42}
  9
$EXTNAMES
290
     1
  9
$PSVPSCALE
 40
0.0
  9
$OLESTARTUP
290
     0
  0
ENDSEC
  0
SECTION
  2
CLASSES
  0
CLASS
  1
ACDBDICTIONARYWDFLT
  2
AcDbDictionaryWithDefault
  3
AutoCAD 2000
 90
        0
280
     0
281
     0
  0
CLASS
  1
ACDBPLACEHOLDER
  2
AcDbPlaceHolder
  3
AutoCAD 2000
 90
        0
280
     0
281
     0
  0
CLASS
  1
LAYOUT
  2
AcDbLayout
  3
AutoCAD 2000
 90
        0
280
     0
281
     0
  0
CLASS
  1
LONG_TRANSACTION
  2
AcDbLongTransaction
  3
AutoCAD 2000
 90
    32768
280
     0
281
     0
  0
CLASS
  1
LWPOLYLINE
  2
AcDbPolyline
  3
AutoCAD 2000
 90
    32768
280
     0
281
     1
  0
CLASS
  1
HATCH
  2
AcDbHatch
  3
AutoCAD 2000
 90
    32768
280
     0
281
     1
  0
CLASS
  1
XRECORD
  2
AcDbXrecord
  3
AutoCAD 2000
 90
    32768
280
     0
281
     0
  0
CLASS
  1
LONG_TRANSACTION
  2
AcDbLongTransaction
  3
AutoCAD 2000
 90
    32768
280
     0
281
     0
  0
CLASS
  1
LWPOLYLINE
  2
AcDbPolyline
  3
AutoCAD 2000
 90
    32768
280
     0
281
     1
  0
CLASS
  1
HATCH
  2
AcDbHatch
  3
AutoCAD 2000
 90
    32768
280
     0
281
     1
  0
CLASS
  1
XRECORD
  2
AcDbXrecord
  3
AutoCAD 2000
 90
    32768
280
     0
281
     0
  0
CLASS
  1
DICTIONARYVAR
  2
AcDbDictionaryVar
  3
AutoCAD 2000
 90
        0
280
     0
281
     0
  0
ENDSEC
  0
SECTION
  2
TABLES
  0
TABLE
  2
VPORT
  5
8
330
0
100
AcDbSymbolTable
 70
     2
  0
VPORT
  5
1155
330
8
100
AcDbSymbolTableRecord
100
AcDbViewportTableRecord
  2
*Active
 70
     0
 10
0.0
 20
0.0
 11
1.0
 21
1.0
 12
1734.041032430035
 22
79.77952307003079
 13
0.0
 23
0.0
 14
10.0
 24
10.0
 15
10.0
 25
10.0
 16
0.0
 26
0.0
 36
1.0
 17
0.0
 27
0.0
 37
0.0
 40
1322.113770606935
 41
2.229559748427672
 42
50.0
 43
0.0
 44
0.0
 50
0.0
 51
0.0
 71
     0
 72
   100
 73
     1
 74
     3
 75
     0
 76
     0
 77
     0
 78
     0
281
     0
 65
     1
110
0.0
120
0.0
130
0.0
111
1.0
121
0.0
131
0.0
112
0.0
122
1.0
132
0.0
 79
     0
146
0.0
  0
ENDTAB
  0
TABLE
  2
LTYPE
  5
5
330
0
100
AcDbSymbolTable
 70
     4
  0
LTYPE
  5
14
330
5
100
AcDbSymbolTableRecord
100
AcDbLinetypeTableRecord
  2
ByBlock
 70
     0
  3

 72
    65
 73
     0
 40
0.0
  0
LTYPE
  5
15
330
5
100
AcDbSymbolTableRecord
100
AcDbLinetypeTableRecord
  2
ByLayer
 70
     0
  3

 72
    65
 73
     0
 40
0.0
  0
LTYPE
  5
16
330
5
100
AcDbSymbolTableRecord
100
AcDbLinetypeTableRecord
  2
Continuous
 70
     0
  3
Solid line
 72
    65
 73
     0
 40
0.0
  0
LTYPE
  5
33
330
5
100
AcDbSymbolTableRecord
100
AcDbLinetypeTableRecord
  2
IZOLACE
 70
     0
  3
Izolace SSSSSSSSSSSSSSSSSSSSSSSSSSSSSSSSSSSSSSS
 72
    65
 73
     4
 40
10.16253999999999
 49
0.00254
 74
     0
 49
-2.54
 74
     4
 75
   134
340
3D
 46
2.54
 50
0.0
 44
-2.54
 45
0.0
 49
-5.08
 74
     4
 75
   134
340
3D
 46
2.54
 50
180.0
 44
2.54
 45
0.0
 49
-2.54
 74
     0
  0
LTYPE
  5
34
330
5
100
AcDbSymbolTableRecord
100
AcDbLinetypeTableRecord
  2
DASHED
 70
     0
  3
Dashed __ __ __ __ __ __ __ __ __ __ __ __ __ _
 72
    65
 73
     2
 40
19.04999999999999
 49
12.7
 74
     0
 49
-6.349999999999999
 74
     0
  0
LTYPE
  5
35
330
5
100
AcDbSymbolTableRecord
100
AcDbLinetypeTableRecord
  2
DASHDOT2
 70
     0
  3
Dash dot (.5x) _._._._._._._._._._._._._._._.
 72
    65
 73
     4
 40
12.7
 49
6.349999999999999
 74
     0
 49
-3.174999999999999
 74
     0
 49
0.0
 74
     0
 49
-3.174999999999999
 74
     0
  0
ENDTAB
  0
TABLE
  2
LAYER
  5
2
330
0
100
AcDbSymbolTable
 70
     8
  0
LAYER
  5
10
330
2
100
AcDbSymbolTableRecord
100
AcDbLayerTableRecord
  2
0
 70
     0
 62
     7
  6
Continuous
370
    -3
390
F
  0
LAYER
  5
36
330
2
100
AcDbSymbolTableRecord
100
AcDbLayerTableRecord
  2
POPIS
 70
     0
 62
    30
  6
Continuous
370
    -3
390
F
  0
LAYER
  5
37
330
2
100
AcDbSymbolTableRecord
100
AcDbLayerTableRecord
  2
SPOJOVACÍ
 70
     0
 62
   180
  6
Continuous
370
    -3
390
F
  0
LAYER
  5
38
330
2
100
AcDbSymbolTableRecord
100
AcDbLayerTableRecord
  2
CETRIS
 70
     0
 62
     1
  6
Continuous
370
    -3
390
F
  0
LAYER
  5
39
330
2
100
AcDbSymbolTableRecord
100
AcDbLayerTableRecord
  2
NOSNÉ KONSTRUKCE
 70
     0
 62
    33
  6
Continuous
370
    -3
390
F
  0
LAYER
  5
3A
330
2
100
AcDbSymbolTableRecord
100
AcDbLayerTableRecord
  2
PROFILY
 70
     0
 62
    73
  6
Continuous
370
    -3
390
F
  0
LAYER
  5
3B
330
2
100
AcDbSymbolTableRecord
100
AcDbLayerTableRecord
  2
STAVBA OBRYS
 70
     0
 62
     6
  6
Continuous
370
    -3
390
F
  0
LAYER
  5
5FD
330
2
100
AcDbSymbolTableRecord
100
AcDbLayerTableRecord
  2
Defpoints
 70
     0
 62
     7
  6
Continuous
290
     0
370
    -3
390
F
  0
ENDTAB
  0
TABLE
  2
STYLE
  5
3
330
0
100
AcDbSymbolTable
 70
     3
  0
STYLE
  5
11
330
3
100
AcDbSymbolTableRecord
100
AcDbTextStyleTableRecord
  2
Standard
 70
     0
 40
0.0
 41
1.0
 50
0.0
 71
     0
 42
2.5
  3
txt
  4

  0
STYLE
  5
3C
330
3
100
AcDbSymbolTableRecord
100
AcDbTextStyleTableRecord
  2
SIMPLEX7
 70
     0
 40
0.0
 41
0.85
 50
0.0
 71
     0
 42
102.0
  3
ARIAL.TTF
  4

1001
ACAD
1000
Arial CE
1071
    60962
  0
STYLE
  5
3D
330
3
100
AcDbSymbolTableRecord
100
AcDbTextStyleTableRecord
  2

 70
     1
 40
0.0
 41
1.0
 50
0.0
 71
     0
 42
2.5
  3
ltypeshp.shx
  4

  0
ENDTAB
  0
TABLE
  2
VIEW
  5
6
330
0
100
AcDbSymbolTable
 70
     0
  0
ENDTAB
  0
TABLE
  2
UCS
  5
7
330
0
100
AcDbSymbolTable
 70
     0
  0
ENDTAB
  0
TABLE
  2
APPID
  5
9
330
0
100
AcDbSymbolTable
 70
     1
  0
APPID
  5
12
330
9
100
AcDbSymbolTableRecord
100
AcDbRegAppTableRecord
  2
ACAD
 70
     0
  0
ENDTAB
  0
TABLE
  2
DIMSTYLE
  5
A
330
0
100
AcDbSymbolTable
 70
     1
100
AcDbDimStyleTable
 71
     0
  0
DIMSTYLE
105
27
330
A
100
AcDbSymbolTableRecord
100
AcDbDimStyleTableRecord
  2
ISO-25
 70
     0
 41
2.5
 42
0.625
 43
3.75
 44
1.25
 73
     0
 74
     0
 77
     1
 78
     8
140
2.5
141
2.5
143
0.03937007874016
147
0.625
171
     3
172
     1
271
     2
272
     2
274
     3
278
    44
283
     0
284
     8
340
11
  0
ENDTAB
  0
TABLE
  2
BLOCK_RECORD
  5
1
330
0
100
AcDbSymbolTable
 70
     3
  0
BLOCK_RECORD
  5
1F
102
{ACAD_XDICTIONARY
360
109C
102
}
330
1
100
AcDbSymbolTableRecord
100
AcDbBlockTableRecord
  2
*Model_Space
340
22
  0
BLOCK_RECORD
  5
1B
102
{ACAD_XDICTIONARY
360
109E
102
}
330
1
100
AcDbSymbolTableRecord
100
AcDbBlockTableRecord
  2
*Paper_Space
340
1E
  0
BLOCK_RECORD
  5
23
102
{ACAD_XDICTIONARY
360
10A0
102
}
330
1
100
AcDbSymbolTableRecord
100
AcDbBlockTableRecord
  2
*Paper_Space0
340
26
  0
BLOCK_RECORD
  5
2B
330
1
100
AcDbSymbolTableRecord
100
AcDbBlockTableRecord
  2
E_PUNKT
340
0
102
{BLKREFS
331
F7F
331
F80
331
F82
331
F84
331
1013
331
1036
331
103A
331
1149
331
114B
102
}
  0
BLOCK_RECORD
  5
1126
330
1
100
AcDbSymbolTableRecord
100
AcDbBlockTableRecord
  2
_ArchTick
340
0
102
{BLKREFS
331
113F
331
1142
102
}
  0
ENDTAB
  0
ENDSEC
  0
SECTION
  2
BLOCKS
  0
BLOCK
  5
20
330
1F
100
AcDbEntity
  8
0
100
AcDbBlockBegin
  2
*Model_Space
 70
     0
 10
0.0
 20
0.0
 30
0.0
  3
*Model_Space
  1

  0
ENDBLK
  5
21
330
1F
100
AcDbEntity
  8
0
100
AcDbBlockEnd
  0
BLOCK
  5
1C
330
1B
100
AcDbEntity
 67
     1
  8
0
100
AcDbBlockBegin
  2
*Paper_Space
 70
     0
 10
0.0
 20
0.0
 30
0.0
  3
*Paper_Space
  1

  0
ENDBLK
  5
1D
330
1B
100
AcDbEntity
 67
     1
  8
0
100
AcDbBlockEnd
  0
BLOCK
  5
24
330
23
100
AcDbEntity
  8
0
100
AcDbBlockBegin
  2
*Paper_Space0
 70
     0
 10
0.0
 20
0.0
 30
0.0
  3
*Paper_Space0
  1

  0
ENDBLK
  5
25
330
23
100
AcDbEntity
  8
0
100
AcDbBlockEnd
  0
BLOCK
  5
2D
330
2B
100
AcDbEntity
  8
0
100
AcDbBlockBegin
  2
E_PUNKT
 70
     0
 10
0.0
 20
0.0
 30
0.0
  3
E_PUNKT
  1

  0
LWPOLYLINE
  5
2C
330
2B
100
AcDbEntity
  8
POPIS
100
AcDbPolyline
 90
        2
 70
     1
 43
2.5
 10
1.27761037562675
 20
0.0290683308725193
 42
-1.0
 10
-1.222389624373249
 20
0.0290683308725193
 42
-1.0
  0
ENDBLK
  5
2E
330
2B
100
AcDbEntity
  8
0
100
AcDbBlockEnd
  0
BLOCK
  5
1128
330
1126
100
AcDbEntity
  8
0
100
AcDbBlockBegin
  2
_ArchTick
 70
     0
 10
0.0
 20
0.0
 30
0.0
  3
_ArchTick
  1

  0
LWPOLYLINE
  5
1127
330
1126
100
AcDbEntity
  8
0
  6
ByBlock
 62
     0
100
AcDbPolyline
 90
        2
 70
     0
 43
0.15
 10
-0.5
 20
-0.5
 10
0.5
 20
0.5
  0
ENDBLK
  5
1129
330
1126
100
AcDbEntity
  8
0
100
AcDbBlockEnd
  0
ENDSEC
  0
SECTION
  2
ENTITIES
  0
HATCH
  5
E20
330
1F
100
AcDbEntity
  8
STAVBA OBRYS
100
AcDbHatch
 10
0.0
 20
0.0
 30
0.0
210
0.0
220
0.0
230
1.0
  2
BRICK
 70
     0
 71
     0
 91
        1
 92
        7
 72
     0
 73
     1
 93
       23
 10
1828.991234482112
 20
510.5939405072998
 10
1699.233048034624
 20
510.5939405072998
 10
1699.233048034624
 20
410.7030615772877
 10
1776.778721277319
 20
410.7030615772868
 10
1780.567582418878
 20
404.1405615772877
 10
1776.778721277319
 20
397.5780615772849
 10
1743.741812026646
 20
397.5780615772868
 10
1699.233048034627
 20
371.4256251376258
 10
1699.233048034627
 20
304.8109508951714
 10
1781.30524766036
 20
304.8109508951705
 10
1785.094108801914
 20
298.2484508951696
 10
1781.30524766036
 20
291.6859508951714
 10
1699.233048034627
 20
291.6859508951714
 10
1699.233048034629
 20
225.3706365710162
 10
1699.233048034632
 20
-17.65693575870011
 10
1935.825918609276
 20
9.655854378060553
 10
1936.000251825951
 20
107.4880659495396
 10
1828.991234482112
 20
107.4880659495387
 10
1773.486615869216
 20
107.4880659495387
 10
1773.486615869216
 20
213.3285855949828
 10
1828.991234482112
 20
213.3285855949828
 10
1828.991234482112
 20
257.7227083173151
 10
1828.991234482112
 20
317.443231366927
 97
        0
 75
     0
 76
     1
 52
0.0
 41
10.0
 77
     0
 78
     3
 53
0.0
 43
-13438.90893491489
 44
-5488.97376573608
 45
0.0
 46
63.5
 79
     0
 53
90.0
 43
-13438.90893491489
 44
-5488.97376573608
 45
-127.0
 46
0.0000000000000078
 79
     2
 49
63.5
 49
-63.5
 53
90.0
 43
-13375.40893491489
 44
-5488.97376573608
 45
-127.0
 46
0.0000000000000078
 79
     2
 49
-63.5
 49
63.5
 47
1.108486931296917
 98
        1
 10
1792.800802026769
 20
348.8828508078362
  0
TEXT
  5
E21
330
1F
100
AcDbEntity
  8
POPIS
100
AcDbText
 10
1353.419031236043
 20
227.6269208774559
 30
0.0
 40
25.0
  1
09
 41
0.7
  7
SIMPLEX7
100
AcDbText
  0
LINE
  5
E22
330
1F
100
AcDbEntity
  8
POPIS
100
AcDbLine
 10
1393.396517579312
 20
241.0702623268265
 30
0.0
 11
1543.609569292023
 21
241.0702623268265
 31
0.0
  0
LINE
  5
E23
330
1F
100
AcDbEntity
  8
CETRIS
100
AcDbLine
 10
1547.097873263402
 20
507.9147665820031
 30
0.0
 11
1559.077658028166
 21
507.2185216610518
 31
0.0
  0
LINE
  5
E24
330
1F
100
AcDbEntity
  8
SPOJOVACÍ
  6
Continuous
100
AcDbLine
 10
1577.53710724541
 20
466.3518664842452
 30
0.0
 11
1580.595034141383
 21
465.7681533704957
 31
0.0
  0
LINE
  5
E25
330
1F
100
AcDbEntity
  8
SPOJOVACÍ
  6
Continuous
100
AcDbLine
 10
1580.595034141383
 20
465.7681533704957
 30
0.0
 11
1577.742017316111
 21
465.5967198108505
 31
0.0
  0
LINE
  5
E26
330
1F
100
AcDbEntity
  8
SPOJOVACÍ
  6
Continuous
100
AcDbLine
 10
1567.888148804449
 20
468.612701493835
 30
0.0
 11
1568.985386593903
 21
464.48927450394
 31
0.0
  0
LINE
  5
E27
330
1F
100
AcDbEntity
  8
SPOJOVACÍ
  6
Continuous
100
AcDbLine
 10
1568.483159400729
 20
468.5743905304637
 30
0.0
 11
1569.580397190187
 21
464.4509635405678
 31
0.0
  0
LINE
  5
E28
330
1F
100
AcDbEntity
  8
SPOJOVACÍ
  6
Continuous
100
AcDbLine
 10
1569.179260601838
 20
464.0983581590283
 30
0.0
 11
1568.985386593903
 21
464.48927450394
 31
0.0
  0
LINE
  5
E29
330
1F
100
AcDbEntity
  8
SPOJOVACÍ
  6
Continuous
100
AcDbLine
 10
1569.179260601838
 20
464.0983581590283
 30
0.0
 11
1569.580397190187
 21
464.4509635405678
 31
0.0
  0
LINE
  5
E2A
330
1F
100
AcDbEntity
  8
SPOJOVACÍ
  6
Continuous
100
AcDbLine
 10
1568.290213646923
 20
468.9652471122257
 30
0.0
 11
1567.888148804449
 21
468.612701493835
 31
0.0
  0
LINE
  5
E2B
330
1F
100
AcDbEntity
  8
SPOJOVACÍ
  6
Continuous
100
AcDbLine
 10
1568.290213646923
 20
468.9652471122257
 30
0.0
 11
1568.483159400729
 21
468.5743905304637
 31
0.0
  0
LINE
  5
E2C
330
1F
100
AcDbEntity
  8
SPOJOVACÍ
  6
Continuous
100
AcDbLine
 10
1568.290213646923
 20
468.9652471122257
 30
0.0
 11
1569.179260601838
 21
464.0983581590283
 31
0.0
  0
LINE
  5
E2D
330
1F
100
AcDbEntity
  8
SPOJOVACÍ
  6
Continuous
100
AcDbLine
 10
1564.774786028053
 20
468.8131616672084
 30
0.0
 11
1565.872023817507
 21
464.6897346773124
 31
0.0
  0
LINE
  5
E2E
330
1F
100
AcDbEntity
  8
SPOJOVACÍ
  6
Continuous
100
AcDbLine
 10
1565.369796624322
 20
468.7748507038371
 30
0.0
 11
1566.467034413511
 21
464.6514237139585
 31
0.0
  0
LINE
  5
E2F
330
1F
100
AcDbEntity
  8
SPOJOVACÍ
  6
Continuous
100
AcDbLine
 10
1566.064969571601
 20
464.298878099907
 30
0.0
 11
1565.872023817507
 21
464.6897346773124
 31
0.0
  0
LINE
  5
E30
330
1F
100
AcDbEntity
  8
SPOJOVACÍ
  6
Continuous
100
AcDbLine
 10
1566.064969571601
 20
464.298878099907
 30
0.0
 11
1566.467034413511
 21
464.6514237139585
 31
0.0
  0
LINE
  5
E31
330
1F
100
AcDbEntity
  8
SPOJOVACÍ
  6
Continuous
100
AcDbLine
 10
1565.175922616682
 20
469.1657670531043
 30
0.0
 11
1564.774786028053
 21
468.8131616672084
 31
0.0
  0
LINE
  5
E32
330
1F
100
AcDbEntity
  8
SPOJOVACÍ
  6
Continuous
100
AcDbLine
 10
1565.175922616682
 20
469.1657670531043
 30
0.0
 11
1565.369796624322
 21
468.7748507038371
 31
0.0
  0
LINE
  5
E33
330
1F
100
AcDbEntity
  8
SPOJOVACÍ
  6
Continuous
100
AcDbLine
 10
1565.175922616682
 20
469.1657670531043
 30
0.0
 11
1566.064969571601
 21
464.298878099907
 31
0.0
  0
LINE
  5
E34
330
1F
100
AcDbEntity
  8
SPOJOVACÍ
  6
Continuous
100
AcDbLine
 10
1561.661423251643
 20
469.0136218405817
 30
0.0
 11
1562.758661040835
 21
464.890194850703
 31
0.0
  0
LINE
  5
E35
330
1F
100
AcDbEntity
  8
SPOJOVACÍ
  6
Continuous
100
AcDbLine
 10
1562.256433847927
 20
468.9753108772105
 30
0.0
 11
1563.353671637108
 21
464.8518838873318
 31
0.0
  0
LINE
  5
E36
330
1F
100
AcDbEntity
  8
SPOJOVACÍ
  6
Continuous
100
AcDbLine
 10
1562.951606795194
 20
464.4993382732804
 30
0.0
 11
1562.758661040835
 21
464.890194850703
 31
0.0
  0
LINE
  5
E37
330
1F
100
AcDbEntity
  8
SPOJOVACÍ
  6
Continuous
100
AcDbLine
 10
1562.951606795194
 20
464.4993382732804
 30
0.0
 11
1563.353671637108
 21
464.8518838873318
 31
0.0
  0
LINE
  5
E38
330
1F
100
AcDbEntity
  8
SPOJOVACÍ
  6
Continuous
100
AcDbLine
 10
1562.062559840276
 20
469.3662272264776
 30
0.0
 11
1561.661423251643
 21
469.0136218405817
 31
0.0
  0
LINE
  5
E39
330
1F
100
AcDbEntity
  8
SPOJOVACÍ
  6
Continuous
100
AcDbLine
 10
1562.062559840276
 20
469.3662272264776
 30
0.0
 11
1562.256433847927
 21
468.9753108772105
 31
0.0
  0
LINE
  5
E3A
330
1F
100
AcDbEntity
  8
SPOJOVACÍ
  6
Continuous
100
AcDbLine
 10
1562.062559840276
 20
469.3662272264776
 30
0.0
 11
1562.951606795194
 21
464.4993382732804
 31
0.0
  0
LINE
  5
E3B
330
1F
100
AcDbEntity
  8
SPOJOVACÍ
  6
Continuous
100
AcDbLine
 10
1577.288014464072
 20
466.9998699223673
 30
0.0
 11
1577.459629671611
 21
464.8300721039471
 31
0.0
  0
LINE
  5
E3C
330
1F
100
AcDbEntity
  8
SPOJOVACÍ
  6
Continuous
100
AcDbLine
 10
1576.886877875727
 20
466.6472645408279
 30
0.0
 11
1577.266683917251
 21
465.2209286813699
 31
0.0
  0
LINE
  5
E3D
330
1F
100
AcDbEntity
  8
SPOJOVACÍ
  6
Continuous
100
AcDbLine
 10
1577.481888471996
 20
466.6089535774566
 30
0.0
 11
1577.861694513524
 21
465.1826177179994
 31
0.0
  0
LINE
  5
E3E
330
1F
100
AcDbEntity
  8
SPOJOVACÍ
  6
Continuous
100
AcDbLine
 10
1577.459629671611
 20
464.8300721039471
 30
0.0
 11
1577.266683917251
 21
465.2209286813699
 31
0.0
  0
LINE
  5
E3F
330
1F
100
AcDbEntity
  8
SPOJOVACÍ
  6
Continuous
100
AcDbLine
 10
1577.459629671611
 20
464.8300721039471
 30
0.0
 11
1577.861694513524
 21
465.1826177179994
 31
0.0
  0
LINE
  5
E40
330
1F
100
AcDbEntity
  8
SPOJOVACÍ
  6
Continuous
100
AcDbLine
 10
1577.288014464072
 20
466.9998699223673
 30
0.0
 11
1576.886877875727
 21
466.6472645408279
 31
0.0
  0
LINE
  5
E41
330
1F
100
AcDbEntity
  8
SPOJOVACÍ
  6
Continuous
100
AcDbLine
 10
1577.288014464072
 20
466.9998699223673
 30
0.0
 11
1577.481888471996
 21
466.6089535774566
 31
0.0
  0
LINE
  5
E42
330
1F
100
AcDbEntity
  8
SPOJOVACÍ
  6
Continuous
100
AcDbLine
 10
1574.316751473611
 20
467.7569665756804
 30
0.0
 11
1574.748671112643
 21
464.606615150173
 31
0.0
  0
LINE
  5
E43
330
1F
100
AcDbEntity
  8
SPOJOVACÍ
  6
Continuous
100
AcDbLine
 10
1573.914686631137
 20
467.4044209572897
 30
0.0
 11
1574.555725358553
 21
464.9974717275794
 31
0.0
  0
LINE
  5
E44
330
1F
100
AcDbEntity
  8
SPOJOVACÍ
  6
Continuous
100
AcDbLine
 10
1574.509697227417
 20
467.3661099939184
 30
0.0
 11
1575.15073595456
 21
464.9591607642244
 31
0.0
  0
LINE
  5
E45
330
1F
100
AcDbEntity
  8
SPOJOVACÍ
  6
Continuous
100
AcDbLine
 10
1574.748671112643
 20
464.606615150173
 30
0.0
 11
1574.555725358553
 21
464.9974717275794
 31
0.0
  0
LINE
  5
E46
330
1F
100
AcDbEntity
  8
SPOJOVACÍ
  6
Continuous
100
AcDbLine
 10
1574.748671112643
 20
464.606615150173
 30
0.0
 11
1575.15073595456
 21
464.9591607642244
 31
0.0
  0
LINE
  5
E47
330
1F
100
AcDbEntity
  8
SPOJOVACÍ
  6
Continuous
100
AcDbLine
 10
1574.316751473611
 20
467.7569665756804
 30
0.0
 11
1573.914686631137
 21
467.4044209572897
 31
0.0
  0
LINE
  5
E48
330
1F
100
AcDbEntity
  8
SPOJOVACÍ
  6
Continuous
100
AcDbLine
 10
1574.316751473611
 20
467.7569665756804
 30
0.0
 11
1574.509697227417
 21
467.3661099939184
 31
0.0
  0
LINE
  5
E49
330
1F
100
AcDbEntity
  8
SPOJOVACÍ
  6
Continuous
100
AcDbLine
 10
1571.344560229026
 20
468.5141229921422
 30
0.0
 11
1572.050444723757
 21
464.3348012122163
 31
0.0
  0
LINE
  5
E4A
330
1F
100
AcDbEntity
  8
SPOJOVACÍ
  6
Continuous
100
AcDbLine
 10
1570.943363873083
 20
468.1605893554027
 30
0.0
 11
1571.857498969667
 21
464.7256577896217
 31
0.0
  0
LINE
  5
E4B
330
1F
100
AcDbEntity
  8
SPOJOVACÍ
  6
Continuous
100
AcDbLine
 10
1571.538374469364
 20
468.1222783920305
 30
0.0
 11
1572.452509565947
 21
464.6873468262505
 31
0.0
  0
LINE
  5
E4C
330
1F
100
AcDbEntity
  8
SPOJOVACÍ
  6
Continuous
100
AcDbLine
 10
1572.050444723757
 20
464.3348012122163
 30
0.0
 11
1571.857498969667
 21
464.7256577896217
 31
0.0
  0
LINE
  5
E4D
330
1F
100
AcDbEntity
  8
SPOJOVACÍ
  6
Continuous
100
AcDbLine
 10
1572.050444723757
 20
464.3348012122163
 30
0.0
 11
1572.452509565947
 21
464.6873468262505
 31
0.0
  0
LINE
  5
E4E
330
1F
100
AcDbEntity
  8
SPOJOVACÍ
  6
Continuous
100
AcDbLine
 10
1571.344560229026
 20
468.5141229921422
 30
0.0
 11
1570.943363873083
 21
468.1605893554027
 31
0.0
  0
LINE
  5
E4F
330
1F
100
AcDbEntity
  8
SPOJOVACÍ
  6
Continuous
100
AcDbLine
 10
1571.344560229026
 20
468.5141229921422
 30
0.0
 11
1571.538374469364
 21
468.1222783920305
 31
0.0
  0
LINE
  5
E50
330
1F
100
AcDbEntity
  8
SPOJOVACÍ
  6
Continuous
100
AcDbLine
 10
1558.548060474971
 20
469.2140820139724
 30
0.0
 11
1559.64437001086
 21
465.0907147915635
 31
0.0
  0
LINE
  5
E51
330
1F
100
AcDbEntity
  8
SPOJOVACÍ
  6
Continuous
100
AcDbLine
 10
1559.143071071255
 20
469.1757710506002
 30
0.0
 11
1560.239380606864
 21
465.0524038282104
 31
0.0
  0
LINE
  5
E52
330
1F
100
AcDbEntity
  8
SPOJOVACÍ
  6
Continuous
100
AcDbLine
 10
1559.838244018799
 20
464.6997984466528
 30
0.0
 11
1559.64437001086
 21
465.0907147915635
 31
0.0
  0
LINE
  5
E53
330
1F
100
AcDbEntity
  8
SPOJOVACÍ
  6
Continuous
100
AcDbLine
 10
1559.838244018799
 20
464.6997984466528
 30
0.0
 11
1560.239380606864
 21
465.0524038282104
 31
0.0
  0
LINE
  5
E54
330
1F
100
AcDbEntity
  8
SPOJOVACÍ
  6
Continuous
100
AcDbLine
 10
1558.949197063603
 20
469.5666873998683
 30
0.0
 11
1558.548060474971
 21
469.2140820139724
 31
0.0
  0
LINE
  5
E55
330
1F
100
AcDbEntity
  8
SPOJOVACÍ
  6
Continuous
100
AcDbLine
 10
1558.949197063603
 20
469.5666873998683
 30
0.0
 11
1559.143071071255
 21
469.1757710506002
 31
0.0
  0
LINE
  5
E56
330
1F
100
AcDbEntity
  8
SPOJOVACÍ
  6
Continuous
100
AcDbLine
 10
1558.949197063603
 20
469.5666873998683
 30
0.0
 11
1559.838244018799
 21
464.6997984466528
 31
0.0
  0
LINE
  5
E57
330
1F
100
AcDbEntity
  8
SPOJOVACÍ
  6
Continuous
100
AcDbLine
 10
1571.713106383146
 20
465.2336293221082
 30
0.0
 11
1569.73035825866
 21
465.1152176732652
 31
0.0
  0
LINE
  5
E58
330
1F
100
AcDbEntity
  8
SPOJOVACÍ
  6
Continuous
100
AcDbLine
 10
1574.436079902493
 20
465.3975902510795
 30
0.0
 11
1572.286727974179
 21
465.2684673813313
 31
0.0
  0
LINE
  5
E59
330
1F
100
AcDbEntity
  8
SPOJOVACÍ
  6
Continuous
100
AcDbLine
 10
1577.169323978923
 20
465.561821984122
 30
0.0
 11
1575.011558000376
 21
465.4323087709703
 31
0.0
  0
LINE
  5
E5A
330
1F
100
AcDbEntity
  8
SPOJOVACÍ
  6
Continuous
100
AcDbLine
 10
1574.625577331589
 20
466.9075114930077
 30
0.0
 11
1576.922922756009
 21
466.4687764577242
 31
0.0
  0
LINE
  5
E5B
330
1F
100
AcDbEntity
  8
SPOJOVACÍ
  6
Continuous
100
AcDbLine
 10
1571.703027909064
 20
467.4657302220915
 30
0.0
 11
1574.001301586776
 21
467.0269354149626
 31
0.0
  0
LINE
  5
E5C
330
1F
100
AcDbEntity
  8
SPOJOVACÍ
  6
Continuous
100
AcDbLine
 10
1569.903803525168
 20
467.809009798689
 30
0.0
 11
1571.088843419659
 21
467.5826401955695
 31
0.0
  0
LINE
  5
E5D
330
1F
100
AcDbEntity
  8
SPOJOVACÍ
  6
Continuous
100
AcDbLine
 10
1569.394330433838
 20
465.1368535059194
 30
0.0
 11
1569.73035825866
 21
465.1152176732652
 31
0.0
  0
LINE
  5
E5E
330
1F
100
AcDbEntity
  8
SPOJOVACÍ
  6
Continuous
100
AcDbLine
 10
1566.278182896199
 20
465.3374929817895
 30
0.0
 11
1568.791893808214
 21
465.1756426092437
 31
0.0
  0
LINE
  5
E5F
330
1F
100
AcDbEntity
  8
SPOJOVACÍ
  6
Continuous
100
AcDbLine
 10
1568.659015367021
 20
467.8891580075282
 30
0.0
 11
1569.903803525168
 21
467.809009798689
 31
0.0
  0
LINE
  5
E60
330
1F
100
AcDbEntity
  8
SPOJOVACÍ
  6
Continuous
100
AcDbLine
 10
1565.551222112294
 20
468.0892595759582
 30
0.0
 11
1568.064004770745
 21
467.9274689708994
 31
0.0
  0
LINE
  5
E61
330
1F
100
AcDbEntity
  8
SPOJOVACÍ
  6
Continuous
100
AcDbLine
 10
1563.16296361239
 20
465.5380726901561
 30
0.0
 11
1565.678531031818
 21
465.3761027826162
 31
0.0
  0
LINE
  5
E62
330
1F
100
AcDbEntity
  8
SPOJOVACÍ
  6
Continuous
100
AcDbLine
 10
1560.046816075016
 20
465.7387121660089
 30
0.0
 11
1562.569809523519
 21
465.576264118535
 31
0.0
  0
LINE
  5
E63
330
1F
100
AcDbEntity
  8
SPOJOVACÍ
  6
Continuous
100
AcDbLine
 10
1562.424863784598
 20
468.2905564942442
 30
0.0
 11
1564.947857233105
 21
468.1281084467704
 31
0.0
  0
LINE
  5
E64
330
1F
100
AcDbEntity
  8
SPOJOVACÍ
  6
Continuous
100
AcDbLine
 10
1559.316142276303
 20
468.4907178301631
 30
0.0
 11
1561.831709695732
 21
468.3287479226232
 31
0.0
  0
LINE
  5
E65
330
1F
100
AcDbEntity
  8
SPOJOVACÍ
  6
Continuous
100
AcDbLine
 10
1555.433769445007
 20
469.4146019548328
 30
0.0
 11
1556.531007234188
 21
465.291174964955
 31
0.0
  0
LINE
  5
E66
330
1F
100
AcDbEntity
  8
SPOJOVACÍ
  6
Continuous
100
AcDbLine
 10
1556.028780041014
 20
469.3762909914788
 30
0.0
 11
1557.126017830468
 21
465.2528640015828
 31
0.0
  0
LINE
  5
E67
330
1F
100
AcDbEntity
  8
SPOJOVACÍ
  6
Continuous
100
AcDbLine
 10
1556.724881242123
 20
464.9002586200435
 30
0.0
 11
1556.531007234188
 21
465.291174964955
 31
0.0
  0
LINE
  5
E68
330
1F
100
AcDbEntity
  8
SPOJOVACÍ
  6
Continuous
100
AcDbLine
 10
1556.724881242123
 20
464.9002586200435
 30
0.0
 11
1557.126017830468
 21
465.2528640015828
 31
0.0
  0
LINE
  5
E69
330
1F
100
AcDbEntity
  8
SPOJOVACÍ
  6
Continuous
100
AcDbLine
 10
1555.835834287204
 20
469.7671475732416
 30
0.0
 11
1555.433769445007
 21
469.4146019548328
 31
0.0
  0
LINE
  5
E6A
330
1F
100
AcDbEntity
  8
SPOJOVACÍ
  6
Continuous
100
AcDbLine
 10
1555.835834287204
 20
469.7671475732416
 30
0.0
 11
1556.028780041014
 21
469.3762909914788
 31
0.0
  0
LINE
  5
E6B
330
1F
100
AcDbEntity
  8
SPOJOVACÍ
  6
Continuous
100
AcDbLine
 10
1555.835834287204
 20
469.7671475732416
 30
0.0
 11
1556.724881242123
 21
464.9002586200435
 31
0.0
  0
LINE
  5
E6C
330
1F
100
AcDbEntity
  8
SPOJOVACÍ
  6
Continuous
100
AcDbLine
 10
1556.938094566721
 20
465.9388735019269
 30
0.0
 11
1559.451805478739
 21
465.7770231293802
 31
0.0
  0
LINE
  5
E6D
330
1F
100
AcDbEntity
  8
SPOJOVACÍ
  6
Continuous
100
AcDbLine
 10
1556.199994738929
 20
468.6913573060158
 30
0.0
 11
1558.713705650948
 21
468.5295069334691
 31
0.0
  0
LINE
  5
E6E
330
1F
100
AcDbEntity
  8
SPOJOVACÍ
  6
Continuous
100
AcDbLine
 10
1551.576363257146
 20
468.9890591914103
 30
0.0
 11
1555.60591239649
 21
468.7296085018819
 31
0.0
  0
LINE
  5
E6F
330
1F
100
AcDbEntity
  8
SPOJOVACÍ
  6
Continuous
100
AcDbLine
 10
1551.402917990638
 20
466.2952670659864
 30
0.0
 11
1556.335657941366
 21
465.9776626052338
 31
0.0
  0
LINE
  5
E70
330
1F
100
AcDbEntity
  8
SPOJOVACÍ
  6
Continuous
100
AcDbLine
 10
1546.428833293596
 20
473.0787282504728
 30
0.0
 11
1547.084713588253
 21
471.6840181907494
 31
0.0
  0
LINE
  5
E71
330
1F
100
AcDbEntity
  8
SPOJOVACÍ
  6
Continuous
100
AcDbLine
 10
1547.084713588253
 20
471.6840181907494
 30
0.0
 11
1548.07991465663
 21
470.5070104701157
 31
0.0
  0
LINE
  5
E72
330
1F
100
AcDbEntity
  8
SPOJOVACÍ
  6
Continuous
100
AcDbLine
 10
1548.07991465663
 20
470.5070104701157
 30
0.0
 11
1549.345017372386
 21
469.6276750329555
 31
0.0
  0
LINE
  5
E73
330
1F
100
AcDbEntity
  8
SPOJOVACÍ
  6
Continuous
100
AcDbLine
 10
1549.345017372386
 20
469.6276750329555
 30
0.0
 11
1550.79530415275
 21
469.1055285012474
 31
0.0
  0
LINE
  5
E74
330
1F
100
AcDbEntity
  8
SPOJOVACÍ
  6
Continuous
100
AcDbLine
 10
1550.79530415275
 20
469.1055285012474
 30
0.0
 11
1551.576363257146
 21
468.9890591914103
 31
0.0
  0
LINE
  5
E75
330
1F
100
AcDbEntity
  8
SPOJOVACÍ
  6
Continuous
100
AcDbLine
 10
1547.151089115693
 20
464.7672766952186
 30
0.0
 11
1546.155411986557
 21
463.5916898427106
 31
0.0
  0
LINE
  5
E76
330
1F
100
AcDbEntity
  8
SPOJOVACÍ
  6
Continuous
100
AcDbLine
 10
1546.155411986557
 20
463.5916898427106
 30
0.0
 11
1545.773422959241
 21
462.8994986114179
 31
0.0
  0
LINE
  5
E77
330
1F
100
AcDbEntity
  8
SPOJOVACÍ
  6
Continuous
100
AcDbLine
 10
1546.428833293596
 20
473.0787282504728
 30
0.0
 11
1545.773422959241
 21
462.8994986114179
 31
0.0
  0
LINE
  5
E78
330
1F
100
AcDbEntity
  8
SPOJOVACÍ
  6
Continuous
100
AcDbLine
 10
1545.2313860717
 20
473.1558283171684
 30
0.0
 11
1546.428833293596
 21
473.0787282504728
 31
0.0
  0
LINE
  5
E79
330
1F
100
AcDbEntity
  8
SPOJOVACÍ
  6
Continuous
100
AcDbLine
 10
1545.2313860717
 20
473.1558283171684
 30
0.0
 11
1544.575975737348
 21
462.9765986781134
 31
0.0
  0
LINE
  5
E7A
330
1F
100
AcDbEntity
  8
SPOJOVACÍ
  6
Continuous
100
AcDbLine
 10
1544.575975737348
 20
462.9765986781134
 30
0.0
 11
1545.773422959241
 21
462.8994986114179
 31
0.0
  0
LINE
  5
E7B
330
1F
100
AcDbEntity
  8
SPOJOVACÍ
  6
Continuous
100
AcDbLine
 10
1551.402917990638
 20
466.2952670659864
 30
0.0
 11
1549.867855226987
 21
466.1666723306019
 31
0.0
  0
LINE
  5
E7C
330
1F
100
AcDbEntity
  8
SPOJOVACÍ
  6
Continuous
100
AcDbLine
 10
1549.867855226987
 20
466.1666723306019
 30
0.0
 11
1548.417522885057
 21
465.6457997589763
 31
0.0
  0
LINE
  5
E7D
330
1F
100
AcDbEntity
  8
SPOJOVACÍ
  6
Continuous
100
AcDbLine
 10
1548.417522885057
 20
465.6457997589763
 30
0.0
 11
1547.151089115693
 21
464.7672766952186
 31
0.0
  0
LINE
  5
E7E
330
1F
100
AcDbEntity
  8
CETRIS
100
AcDbLine
 10
1547.600370502506
 20
262.4847919066172
 30
0.0
 11
1559.578074110252
 21
261.7536173140064
 31
0.0
  0
LINE
  5
E7F
330
1F
100
AcDbEntity
  8
SPOJOVACÍ
  6
Continuous
100
AcDbLine
 10
1568.388564886535
 20
223.1477971467906
 30
0.0
 11
1569.485802675989
 21
219.0243701568946
 31
0.0
  0
LINE
  5
E80
330
1F
100
AcDbEntity
  8
SPOJOVACÍ
  6
Continuous
100
AcDbLine
 10
1568.983575482815
 20
223.1094861834184
 30
0.0
 11
1570.080813272273
 21
218.9860591935224
 31
0.0
  0
LINE
  5
E81
330
1F
100
AcDbEntity
  8
SPOJOVACÍ
  6
Continuous
100
AcDbLine
 10
1569.679676683924
 20
218.6334538119839
 30
0.0
 11
1569.485802675989
 21
219.0243701568946
 31
0.0
  0
LINE
  5
E82
330
1F
100
AcDbEntity
  8
SPOJOVACÍ
  6
Continuous
100
AcDbLine
 10
1569.679676683924
 20
218.6334538119839
 30
0.0
 11
1570.080813272273
 21
218.9860591935224
 31
0.0
  0
LINE
  5
E83
330
1F
100
AcDbEntity
  8
SPOJOVACÍ
  6
Continuous
100
AcDbLine
 10
1568.790629729009
 20
223.5003427651812
 30
0.0
 11
1568.388564886535
 21
223.1477971467906
 31
0.0
  0
LINE
  5
E84
330
1F
100
AcDbEntity
  8
SPOJOVACÍ
  6
Continuous
100
AcDbLine
 10
1568.790629729009
 20
223.5003427651812
 30
0.0
 11
1568.983575482815
 21
223.1094861834184
 31
0.0
  0
LINE
  5
E85
330
1F
100
AcDbEntity
  8
SPOJOVACÍ
  6
Continuous
100
AcDbLine
 10
1568.790629729009
 20
223.5003427651812
 30
0.0
 11
1569.679676683924
 21
218.6334538119839
 31
0.0
  0
LINE
  5
E86
330
1F
100
AcDbEntity
  8
SPOJOVACÍ
  6
Continuous
100
AcDbLine
 10
1565.275202110139
 20
223.348257320163
 30
0.0
 11
1566.372439899594
 21
219.224830330267
 31
0.0
  0
LINE
  5
E87
330
1F
100
AcDbEntity
  8
SPOJOVACÍ
  6
Continuous
100
AcDbLine
 10
1565.870212706409
 20
223.3099463567917
 30
0.0
 11
1566.967450495597
 21
219.186519366914
 31
0.0
  0
LINE
  5
E88
330
1F
100
AcDbEntity
  8
SPOJOVACÍ
  6
Continuous
100
AcDbLine
 10
1566.565385653687
 20
218.8339737528616
 30
0.0
 11
1566.372439899594
 21
219.224830330267
 31
0.0
  0
LINE
  5
E89
330
1F
100
AcDbEntity
  8
SPOJOVACÍ
  6
Continuous
100
AcDbLine
 10
1566.565385653687
 20
218.8339737528616
 30
0.0
 11
1566.967450495597
 21
219.186519366914
 31
0.0
  0
LINE
  5
E8A
330
1F
100
AcDbEntity
  8
SPOJOVACÍ
  6
Continuous
100
AcDbLine
 10
1565.676338698769
 20
223.7008627060598
 30
0.0
 11
1565.275202110139
 21
223.348257320163
 31
0.0
  0
LINE
  5
E8B
330
1F
100
AcDbEntity
  8
SPOJOVACÍ
  6
Continuous
100
AcDbLine
 10
1565.676338698769
 20
223.7008627060598
 30
0.0
 11
1565.870212706409
 21
223.3099463567917
 31
0.0
  0
LINE
  5
E8C
330
1F
100
AcDbEntity
  8
SPOJOVACÍ
  6
Continuous
100
AcDbLine
 10
1565.676338698769
 20
223.7008627060598
 30
0.0
 11
1566.565385653687
 21
218.8339737528616
 31
0.0
  0
LINE
  5
E8D
330
1F
100
AcDbEntity
  8
SPOJOVACÍ
  6
Continuous
100
AcDbLine
 10
1577.788430546158
 20
221.5349655753228
 30
0.0
 11
1577.960045753697
 21
219.3651677569017
 31
0.0
  0
LINE
  5
E8E
330
1F
100
AcDbEntity
  8
SPOJOVACÍ
  6
Continuous
100
AcDbLine
 10
1577.387293957813
 20
221.1823601937825
 30
0.0
 11
1577.767099999338
 21
219.7560243343253
 31
0.0
  0
LINE
  5
E8F
330
1F
100
AcDbEntity
  8
SPOJOVACÍ
  6
Continuous
100
AcDbLine
 10
1577.982304554082
 20
221.1440492304121
 30
0.0
 11
1578.362110595611
 21
219.717713370955
 31
0.0
  0
LINE
  5
E90
330
1F
100
AcDbEntity
  8
SPOJOVACÍ
  6
Continuous
100
AcDbLine
 10
1577.960045753697
 20
219.3651677569017
 30
0.0
 11
1577.767099999338
 21
219.7560243343253
 31
0.0
  0
LINE
  5
E91
330
1F
100
AcDbEntity
  8
SPOJOVACÍ
  6
Continuous
100
AcDbLine
 10
1577.960045753697
 20
219.3651677569017
 30
0.0
 11
1578.362110595611
 21
219.717713370955
 31
0.0
  0
LINE
  5
E92
330
1F
100
AcDbEntity
  8
SPOJOVACÍ
  6
Continuous
100
AcDbLine
 10
1577.788430546158
 20
221.5349655753228
 30
0.0
 11
1577.387293957813
 21
221.1823601937825
 31
0.0
  0
LINE
  5
E93
330
1F
100
AcDbEntity
  8
SPOJOVACÍ
  6
Continuous
100
AcDbLine
 10
1577.788430546158
 20
221.5349655753228
 30
0.0
 11
1577.982304554082
 21
221.1440492304121
 31
0.0
  0
LINE
  5
E94
330
1F
100
AcDbEntity
  8
SPOJOVACÍ
  6
Continuous
100
AcDbLine
 10
1574.817167555698
 20
222.2920622286359
 30
0.0
 11
1575.249087194729
 21
219.1417108031286
 31
0.0
  0
LINE
  5
E95
330
1F
100
AcDbEntity
  8
SPOJOVACÍ
  6
Continuous
100
AcDbLine
 10
1574.415102713224
 20
221.9395166102452
 30
0.0
 11
1575.056141440639
 21
219.532567380534
 31
0.0
  0
LINE
  5
E96
330
1F
100
AcDbEntity
  8
SPOJOVACÍ
  6
Continuous
100
AcDbLine
 10
1575.010113309504
 20
221.9012056468731
 30
0.0
 11
1575.651152036646
 21
219.49425641718
 31
0.0
  0
LINE
  5
E97
330
1F
100
AcDbEntity
  8
SPOJOVACÍ
  6
Continuous
100
AcDbLine
 10
1575.249087194729
 20
219.1417108031286
 30
0.0
 11
1575.056141440639
 21
219.532567380534
 31
0.0
  0
LINE
  5
E98
330
1F
100
AcDbEntity
  8
SPOJOVACÍ
  6
Continuous
100
AcDbLine
 10
1575.249087194729
 20
219.1417108031286
 30
0.0
 11
1575.651152036646
 21
219.49425641718
 31
0.0
  0
LINE
  5
E99
330
1F
100
AcDbEntity
  8
SPOJOVACÍ
  6
Continuous
100
AcDbLine
 10
1574.817167555698
 20
222.2920622286359
 30
0.0
 11
1574.415102713224
 21
221.9395166102452
 31
0.0
  0
LINE
  5
E9A
330
1F
100
AcDbEntity
  8
SPOJOVACÍ
  6
Continuous
100
AcDbLine
 10
1574.817167555698
 20
222.2920622286359
 30
0.0
 11
1575.010113309504
 21
221.9012056468731
 31
0.0
  0
LINE
  5
E9B
330
1F
100
AcDbEntity
  8
SPOJOVACÍ
  6
Continuous
100
AcDbLine
 10
1571.844976311112
 20
223.0492186450977
 30
0.0
 11
1572.550860805843
 21
218.8698968651709
 31
0.0
  0
LINE
  5
E9C
330
1F
100
AcDbEntity
  8
SPOJOVACÍ
  6
Continuous
100
AcDbLine
 10
1571.44377995517
 20
222.6956850083573
 30
0.0
 11
1572.357915051753
 21
219.2607534425764
 31
0.0
  0
LINE
  5
E9D
330
1F
100
AcDbEntity
  8
SPOJOVACÍ
  6
Continuous
100
AcDbLine
 10
1572.03879055145
 20
222.6573740449861
 30
0.0
 11
1572.952925648033
 21
219.2224424792051
 31
0.0
  0
LINE
  5
E9E
330
1F
100
AcDbEntity
  8
SPOJOVACÍ
  6
Continuous
100
AcDbLine
 10
1572.550860805843
 20
218.8698968651709
 30
0.0
 11
1572.357915051753
 21
219.2607534425764
 31
0.0
  0
LINE
  5
E9F
330
1F
100
AcDbEntity
  8
SPOJOVACÍ
  6
Continuous
100
AcDbLine
 10
1572.550860805843
 20
218.8698968651709
 30
0.0
 11
1572.952925648033
 21
219.2224424792051
 31
0.0
  0
LINE
  5
EA0
330
1F
100
AcDbEntity
  8
SPOJOVACÍ
  6
Continuous
100
AcDbLine
 10
1571.844976311112
 20
223.0492186450977
 30
0.0
 11
1571.44377995517
 21
222.6956850083573
 31
0.0
  0
LINE
  5
EA1
330
1F
100
AcDbEntity
  8
SPOJOVACÍ
  6
Continuous
100
AcDbLine
 10
1571.844976311112
 20
223.0492186450977
 30
0.0
 11
1572.03879055145
 21
222.6573740449861
 31
0.0
  0
LINE
  5
EA2
330
1F
100
AcDbEntity
  8
SPOJOVACÍ
  6
Continuous
100
AcDbLine
 10
1572.213522465233
 20
219.7687249750637
 30
0.0
 11
1570.230774340746
 21
219.6503133262198
 31
0.0
  0
LINE
  5
EA3
330
1F
100
AcDbEntity
  8
SPOJOVACÍ
  6
Continuous
100
AcDbLine
 10
1574.93649598458
 20
219.9326859040342
 30
0.0
 11
1572.787144056266
 21
219.8035630342868
 31
0.0
  0
LINE
  5
EA4
330
1F
100
AcDbEntity
  8
SPOJOVACÍ
  6
Continuous
100
AcDbLine
 10
1577.669740061009
 20
220.0969176370775
 30
0.0
 11
1575.511974082462
 21
219.9674044239258
 31
0.0
  0
LINE
  5
EA5
330
1F
100
AcDbEntity
  8
SPOJOVACÍ
  6
Continuous
100
AcDbLine
 10
1578.037523327496
 20
220.8869621372008
 30
0.0
 11
1581.09545022347
 21
220.3032490234512
 31
0.0
  0
LINE
  5
EA6
330
1F
100
AcDbEntity
  8
SPOJOVACÍ
  6
Continuous
100
AcDbLine
 10
1575.125993413675
 20
221.4426071459632
 30
0.0
 11
1577.423338838095
 21
221.0038721106788
 31
0.0
  0
LINE
  5
EA7
330
1F
100
AcDbEntity
  8
SPOJOVACÍ
  6
Continuous
100
AcDbLine
 10
1572.20344399115
 20
222.0008258750461
 30
0.0
 11
1574.501717668862
 21
221.5620310679181
 31
0.0
  0
LINE
  5
EA8
330
1F
100
AcDbEntity
  8
SPOJOVACÍ
  6
Continuous
100
AcDbLine
 10
1581.09545022347
 20
220.3032490234512
 30
0.0
 11
1578.242433398197
 21
220.131815463805
 31
0.0
  0
LINE
  5
EA9
330
1F
100
AcDbEntity
  8
SPOJOVACÍ
  6
Continuous
100
AcDbLine
 10
1570.404219607254
 20
222.3441054516437
 30
0.0
 11
1571.589259501746
 21
222.117735848525
 31
0.0
  0
LINE
  5
EAA
330
1F
100
AcDbEntity
  8
SPOJOVACÍ
  6
Continuous
100
AcDbLine
 10
1569.894746515924
 20
219.6719491588741
 30
0.0
 11
1570.230774340746
 21
219.6503133262198
 31
0.0
  0
LINE
  5
EAB
330
1F
100
AcDbEntity
  8
SPOJOVACÍ
  6
Continuous
100
AcDbLine
 10
1566.778598978285
 20
219.872588634745
 30
0.0
 11
1569.2923098903
 21
219.7107382621983
 31
0.0
  0
LINE
  5
EAC
330
1F
100
AcDbEntity
  8
SPOJOVACÍ
  6
Continuous
100
AcDbLine
 10
1569.159431449107
 20
222.4242536604827
 30
0.0
 11
1570.404219607254
 21
222.3441054516437
 31
0.0
  0
LINE
  5
EAD
330
1F
100
AcDbEntity
  8
SPOJOVACÍ
  6
Continuous
100
AcDbLine
 10
1566.05163819438
 20
222.6243552289137
 30
0.0
 11
1568.564420852831
 21
222.4625646238549
 31
0.0
  0
LINE
  5
EAE
330
1F
100
AcDbEntity
  8
SPOJOVACÍ
  6
Continuous
100
AcDbLine
 10
1563.663379694476
 20
220.0731683431107
 30
0.0
 11
1566.178947113904
 21
219.9111984355716
 31
0.0
  0
LINE
  5
EAF
330
1F
100
AcDbEntity
  8
SPOJOVACÍ
  6
Continuous
100
AcDbLine
 10
1562.925279866685
 20
222.8256521471997
 30
0.0
 11
1565.448273315191
 21
222.663204099725
 31
0.0
  0
LINE
  5
EB0
330
1F
100
AcDbEntity
  8
SPOJOVACÍ
  6
Continuous
100
AcDbLine
 10
1562.161839333729
 20
223.5487174935363
 30
0.0
 11
1563.259077122921
 21
219.4252905036586
 31
0.0
  0
LINE
  5
EB1
330
1F
100
AcDbEntity
  8
SPOJOVACÍ
  6
Continuous
100
AcDbLine
 10
1562.756849930013
 20
223.5104065301651
 30
0.0
 11
1563.854087719194
 21
219.3869795402873
 31
0.0
  0
LINE
  5
EB2
330
1F
100
AcDbEntity
  8
SPOJOVACÍ
  6
Continuous
100
AcDbLine
 10
1563.452022877281
 20
219.034433926235
 30
0.0
 11
1563.259077122921
 21
219.4252905036586
 31
0.0
  0
LINE
  5
EB3
330
1F
100
AcDbEntity
  8
SPOJOVACÍ
  6
Continuous
100
AcDbLine
 10
1563.452022877281
 20
219.034433926235
 30
0.0
 11
1563.854087719194
 21
219.3869795402873
 31
0.0
  0
LINE
  5
EB4
330
1F
100
AcDbEntity
  8
SPOJOVACÍ
  6
Continuous
100
AcDbLine
 10
1562.562975922362
 20
223.9013228794332
 30
0.0
 11
1562.161839333729
 21
223.5487174935363
 31
0.0
  0
LINE
  5
EB5
330
1F
100
AcDbEntity
  8
SPOJOVACÍ
  6
Continuous
100
AcDbLine
 10
1562.562975922362
 20
223.9013228794332
 30
0.0
 11
1562.756849930013
 21
223.5104065301651
 31
0.0
  0
LINE
  5
EB6
330
1F
100
AcDbEntity
  8
SPOJOVACÍ
  6
Continuous
100
AcDbLine
 10
1562.562975922362
 20
223.9013228794332
 30
0.0
 11
1563.452022877281
 21
219.034433926235
 31
0.0
  0
LINE
  5
EB7
330
1F
100
AcDbEntity
  8
SPOJOVACÍ
  6
Continuous
100
AcDbLine
 10
1559.048476557057
 20
223.7491776669279
 30
0.0
 11
1560.144786092946
 21
219.625810444519
 31
0.0
  0
LINE
  5
EB8
330
1F
100
AcDbEntity
  8
SPOJOVACÍ
  6
Continuous
100
AcDbLine
 10
1559.643487153341
 20
223.7108667035557
 30
0.0
 11
1560.73979668895
 21
219.587499481165
 31
0.0
  0
LINE
  5
EB9
330
1F
100
AcDbEntity
  8
SPOJOVACÍ
  6
Continuous
100
AcDbLine
 10
1560.338660100885
 20
219.2348940996083
 30
0.0
 11
1560.144786092946
 21
219.625810444519
 31
0.0
  0
LINE
  5
EBA
330
1F
100
AcDbEntity
  8
SPOJOVACÍ
  6
Continuous
100
AcDbLine
 10
1560.338660100885
 20
219.2348940996083
 30
0.0
 11
1560.73979668895
 21
219.587499481165
 31
0.0
  0
LINE
  5
EBB
330
1F
100
AcDbEntity
  8
SPOJOVACÍ
  6
Continuous
100
AcDbLine
 10
1559.44961314569
 20
224.1017830528229
 30
0.0
 11
1559.048476557057
 21
223.7491776669279
 31
0.0
  0
LINE
  5
EBC
330
1F
100
AcDbEntity
  8
SPOJOVACÍ
  6
Continuous
100
AcDbLine
 10
1559.44961314569
 20
224.1017830528229
 30
0.0
 11
1559.643487153341
 21
223.7108667035557
 31
0.0
  0
LINE
  5
EBD
330
1F
100
AcDbEntity
  8
SPOJOVACÍ
  6
Continuous
100
AcDbLine
 10
1559.44961314569
 20
224.1017830528229
 30
0.0
 11
1560.338660100885
 21
219.2348940996083
 31
0.0
  0
LINE
  5
EBE
330
1F
100
AcDbEntity
  8
SPOJOVACÍ
  6
Continuous
100
AcDbLine
 10
1560.547232157102
 20
220.2738078189644
 30
0.0
 11
1563.070225605605
 21
220.1113597714897
 31
0.0
  0
LINE
  5
EBF
330
1F
100
AcDbEntity
  8
SPOJOVACÍ
  6
Continuous
100
AcDbLine
 10
1559.816558358389
 20
223.0258134831177
 30
0.0
 11
1562.332125777818
 21
222.8638435755787
 31
0.0
  0
LINE
  5
EC0
102
{ACAD_REACTORS
330
ECA
102
}
330
1F
100
AcDbEntity
  8
PROFILY
100
AcDbLine
 10
1548.135048342991
 20
247.9706224363338
 30
0.0
 11
1543.14817169191
 21
248.4140095813385
 31
0.0
  0
LWPOLYLINE
  5
EC1
330
1F
100
AcDbEntity
  8
PROFILY
100
AcDbPolyline
 90
        2
 70
     1
 43
2.5
 10
1546.870117405476
 20
248.0652443048323
 42
-1.0
 10
1544.370117405476
 20
248.0652443048323
 42
-1.0
  0
LINE
  5
EC2
330
1F
100
AcDbEntity
  8
CETRIS
100
AcDbLine
 10
1559.077658028166
 20
507.2185216610518
 30
0.0
 11
1541.671535004406
 21
207.7239025419734
 31
0.0
  0
LINE
  5
EC3
330
1F
100
AcDbEntity
  8
CETRIS
100
AcDbLine
 10
1547.097873263402
 20
507.9147665820031
 30
0.0
 11
1529.865811469884
 21
211.4150936541149
 31
0.0
  0
HATCH
  5
EC4
330
1F
100
AcDbEntity
  8
CETRIS
100
AcDbHatch
 10
0.0
 20
0.0
 30
0.0
210
0.0
220
0.0
230
1.0
  2
ANSI31
 70
     0
 71
     0
 91
        2
 92
        7
 72
     0
 73
     1
 93
        7
 10
1556.650059249124
 20
465.4485783652066
 10
1547.230689952345
 20
465.5544501898606
 10
1544.92835432992
 20
462.338865663681
 10
1544.450692053545
 20
462.3666265909763
 10
1529.865811469884
 20
211.4150936541149
 10
1532.686696430834
 20
208.2460862326874
 10
1541.671535004406
 20
207.7239025419743
 97
        0
 92
        7
 72
     0
 73
     1
 93
        6
 10
1559.077658028166
 20
507.2185216610509
 10
1547.097873263409
 20
507.9147665820022
 10
1545.103421666935
 20
473.5976748079423
 10
1545.581083943324
 20
473.5699138806451
 10
1547.49540807334
 20
470.1092641889621
 10
1556.864672485963
 20
469.1412737194099
 97
        0
 75
     0
 76
     1
 52
-0.4644399208049363
 41
1.0
 77
     0
 78
     1
 53
44.53556007919505
 43
-8615.779263726464
 44
3627.576213511995
 45
-2.226791969343653
 46
2.263188574835647
 79
     0
 47
1.163336804849115
 98
        2
 10
1543.802631181202
 20
347.8100958563294
 10
1550.744439182631
 20
486.1954517147308
  0
LINE
  5
EC5
330
1F
100
AcDbEntity
  8
CETRIS
100
AcDbLine
 10
1532.686696430834
 20
208.2460862326864
 30
0.0
 11
1541.671535004406
 21
207.7239025419734
 31
0.0
  0
LINE
  5
EC6
330
1F
100
AcDbEntity
  8
CETRIS
100
AcDbLine
 10
1532.686696430834
 20
208.2460862326864
 30
0.0
 11
1529.865811469884
 21
211.4150936541149
 31
0.0
  0
LINE
  5
EC7
102
{ACAD_REACTORS
330
ECA
102
}
330
1F
100
AcDbEntity
  8
PROFILY
100
AcDbLine
 10
1547.220774487348
 20
235.7483602498626
 30
0.0
 11
1542.233897836267
 21
236.1917473948682
 31
0.0
  0
LINE
  5
EC8
102
{ACAD_REACTORS
330
ECA
102
}
330
1F
100
AcDbEntity
  8
PROFILY
100
AcDbLine
 10
1548.135048342991
 20
247.9706224363338
 30
0.0
 11
1547.220774487348
 21
235.7483602498626
 31
0.0
  0
LINE
  5
EC9
102
{ACAD_REACTORS
330
ECA
102
}
330
1F
100
AcDbEntity
  8
PROFILY
100
AcDbLine
 10
1543.14817169191
 20
248.4140095813385
 30
0.0
 11
1542.233897836267
 21
236.1917473948682
 31
0.0
  0
HATCH
  5
ECA
330
1F
100
AcDbEntity
  8
PROFILY
100
AcDbHatch
 10
0.0
 20
0.0
 30
0.0
210
0.0
220
0.0
230
1.0
  2
SOLID
 70
     1
 71
     1
 91
        1
 92
        1
 93
        4
 72
     1
 10
1548.135048342991
 20
247.9706224363338
 11
1543.14817169191
 21
248.4140095813385
 72
     1
 10
1543.14817169191
 20
248.4140095813385
 11
1542.233897836267
 21
236.1917473948682
 72
     1
 10
1542.233897836267
 20
236.1917473948682
 11
1547.220774487348
 21
235.7483602498626
 72
     1
 10
1547.220774487348
 20
235.7483602498626
 11
1548.135048342991
 21
247.9706224363338
 97
        4
330
EC0
330
EC9
330
EC7
330
EC8
 75
     0
 76
     1
 98
        1
 10
-18184.83356720575
 20
-2528.369948301941
  0
LWPOLYLINE
  5
ECB
330
1F
100
AcDbEntity
  8
PROFILY
100
AcDbPolyline
 90
        2
 70
     1
 43
2.5
 10
1546.015644148195
 20
235.966647829014
 42
-1.0
 10
1543.515644148195
 20
235.966647829014
 42
-1.0
  0
LINE
  5
ECC
330
1F
100
AcDbEntity
  8
SPOJOVACÍ
  6
Continuous
100
AcDbLine
 10
1555.934185527093
 20
223.9496976077874
 30
0.0
 11
1557.031423316274
 21
219.8262706179097
 31
0.0
  0
LINE
  5
ECD
330
1F
100
AcDbEntity
  8
SPOJOVACÍ
  6
Continuous
100
AcDbLine
 10
1556.5291961231
 20
223.9113866444343
 30
0.0
 11
1557.626433912554
 21
219.7879596545384
 31
0.0
  0
LINE
  5
ECE
330
1F
100
AcDbEntity
  8
SPOJOVACÍ
  6
Continuous
100
AcDbLine
 10
1557.225297324209
 20
219.435354272999
 30
0.0
 11
1557.031423316274
 21
219.8262706179097
 31
0.0
  0
LINE
  5
ECF
330
1F
100
AcDbEntity
  8
SPOJOVACÍ
  6
Continuous
100
AcDbLine
 10
1557.225297324209
 20
219.435354272999
 30
0.0
 11
1557.626433912554
 21
219.7879596545384
 31
0.0
  0
LINE
  5
ED0
330
1F
100
AcDbEntity
  8
SPOJOVACÍ
  6
Continuous
100
AcDbLine
 10
1556.336250369291
 20
224.3022432261962
 30
0.0
 11
1555.934185527093
 21
223.9496976077874
 31
0.0
  0
LINE
  5
ED1
330
1F
100
AcDbEntity
  8
SPOJOVACÍ
  6
Continuous
100
AcDbLine
 10
1556.336250369291
 20
224.3022432261962
 30
0.0
 11
1556.5291961231
 21
223.9113866444343
 31
0.0
  0
LINE
  5
ED2
330
1F
100
AcDbEntity
  8
SPOJOVACÍ
  6
Continuous
100
AcDbLine
 10
1556.336250369291
 20
224.3022432261962
 30
0.0
 11
1557.225297324209
 21
219.435354272999
 31
0.0
  0
LINE
  5
ED3
330
1F
100
AcDbEntity
  8
SPOJOVACÍ
  6
Continuous
100
AcDbLine
 10
1557.438510648807
 20
220.4739691548815
 30
0.0
 11
1559.952221560826
 21
220.3121187823356
 31
0.0
  0
LINE
  5
ED4
330
1F
100
AcDbEntity
  8
SPOJOVACÍ
  6
Continuous
100
AcDbLine
 10
1556.700410821016
 20
223.2264529589705
 30
0.0
 11
1559.214121733034
 21
223.0646025864237
 31
0.0
  0
LINE
  5
ED5
330
1F
100
AcDbEntity
  8
SPOJOVACÍ
  6
Continuous
100
AcDbLine
 10
1552.076779339232
 20
223.5241548443658
 30
0.0
 11
1556.106328478577
 21
223.2647041548365
 31
0.0
  0
LINE
  5
ED6
330
1F
100
AcDbEntity
  8
SPOJOVACÍ
  6
Continuous
100
AcDbLine
 10
1551.903334072725
 20
220.8303627189419
 30
0.0
 11
1556.836074023452
 21
220.5127582581884
 31
0.0
  0
LINE
  5
ED7
330
1F
100
AcDbEntity
  8
SPOJOVACÍ
  6
Continuous
100
AcDbLine
 10
1546.929249375683
 20
227.6138239034275
 30
0.0
 11
1547.58512967034
 21
226.2191138437041
 31
0.0
  0
LINE
  5
ED8
330
1F
100
AcDbEntity
  8
SPOJOVACÍ
  6
Continuous
100
AcDbLine
 10
1547.58512967034
 20
226.2191138437041
 30
0.0
 11
1548.580330738717
 21
225.0421061230712
 31
0.0
  0
LINE
  5
ED9
330
1F
100
AcDbEntity
  8
SPOJOVACÍ
  6
Continuous
100
AcDbLine
 10
1548.580330738717
 20
225.0421061230712
 30
0.0
 11
1549.845433454472
 21
224.1627706859102
 31
0.0
  0
LINE
  5
EDA
330
1F
100
AcDbEntity
  8
SPOJOVACÍ
  6
Continuous
100
AcDbLine
 10
1549.845433454472
 20
224.1627706859102
 30
0.0
 11
1551.295720234836
 21
223.640624154203
 31
0.0
  0
LINE
  5
EDB
330
1F
100
AcDbEntity
  8
SPOJOVACÍ
  6
Continuous
100
AcDbLine
 10
1551.295720234836
 20
223.640624154203
 30
0.0
 11
1552.076779339232
 21
223.5241548443658
 31
0.0
  0
LINE
  5
EDC
330
1F
100
AcDbEntity
  8
SPOJOVACÍ
  6
Continuous
100
AcDbLine
 10
1547.651505197779
 20
219.3023723481732
 30
0.0
 11
1546.655828068643
 21
218.1267854956662
 31
0.0
  0
LINE
  5
EDD
330
1F
100
AcDbEntity
  8
SPOJOVACÍ
  6
Continuous
100
AcDbLine
 10
1546.655828068643
 20
218.1267854956662
 30
0.0
 11
1546.273839041328
 21
217.4345942643725
 31
0.0
  0
LINE
  5
EDE
330
1F
100
AcDbEntity
  8
SPOJOVACÍ
  6
Continuous
100
AcDbLine
 10
1546.929249375683
 20
227.6138239034275
 30
0.0
 11
1546.273839041328
 21
217.4345942643725
 31
0.0
  0
LINE
  5
EDF
330
1F
100
AcDbEntity
  8
SPOJOVACÍ
  6
Continuous
100
AcDbLine
 10
1545.731802153786
 20
227.6909239701229
 30
0.0
 11
1546.929249375683
 21
227.6138239034275
 31
0.0
  0
LINE
  5
EE0
330
1F
100
AcDbEntity
  8
SPOJOVACÍ
  6
Continuous
100
AcDbLine
 10
1545.731802153786
 20
227.6909239701229
 30
0.0
 11
1545.076391819434
 21
217.511694331068
 31
0.0
  0
LINE
  5
EE1
330
1F
100
AcDbEntity
  8
SPOJOVACÍ
  6
Continuous
100
AcDbLine
 10
1545.076391819434
 20
217.511694331068
 30
0.0
 11
1546.273839041328
 21
217.4345942643725
 31
0.0
  0
LINE
  5
EE2
330
1F
100
AcDbEntity
  8
SPOJOVACÍ
  6
Continuous
100
AcDbLine
 10
1551.903334072725
 20
220.8303627189419
 30
0.0
 11
1550.368271309074
 21
220.7017679835574
 31
0.0
  0
LINE
  5
EE3
330
1F
100
AcDbEntity
  8
SPOJOVACÍ
  6
Continuous
100
AcDbLine
 10
1550.368271309074
 20
220.7017679835574
 30
0.0
 11
1548.917938967143
 21
220.1808954119318
 31
0.0
  0
LINE
  5
EE4
330
1F
100
AcDbEntity
  8
SPOJOVACÍ
  6
Continuous
100
AcDbLine
 10
1548.917938967143
 20
220.1808954119318
 30
0.0
 11
1547.651505197779
 21
219.3023723481732
 31
0.0
  0
LINE
  5
EE5
330
1F
100
AcDbEntity
  8
SPOJOVACÍ
  6
Continuous
100
AcDbLine
 10
1568.468566511735
 20
-22.04689136098079
 30
0.0
 11
1569.565804301189
 21
-26.17031835087675
 31
0.0
  0
LINE
  5
EE6
330
1F
100
AcDbEntity
  8
SPOJOVACÍ
  6
Continuous
100
AcDbLine
 10
1569.063577108015
 20
-22.08520232435296
 30
0.0
 11
1570.160814897473
 21
-26.20862931424892
 31
0.0
  0
LINE
  5
EE7
330
1F
100
AcDbEntity
  8
SPOJOVACÍ
  6
Continuous
100
AcDbLine
 10
1569.759678309124
 20
-26.56123469578835
 30
0.0
 11
1569.565804301189
 21
-26.17031835087675
 31
0.0
  0
LINE
  5
EE8
330
1F
100
AcDbEntity
  8
SPOJOVACÍ
  6
Continuous
100
AcDbLine
 10
1569.759678309124
 20
-26.56123469578835
 30
0.0
 11
1570.160814897473
 21
-26.20862931424892
 31
0.0
  0
LINE
  5
EE9
330
1F
100
AcDbEntity
  8
SPOJOVACÍ
  6
Continuous
100
AcDbLine
 10
1568.870631354209
 20
-21.69434574259014
 30
0.0
 11
1568.468566511735
 21
-22.04689136098079
 31
0.0
  0
LINE
  5
EEA
330
1F
100
AcDbEntity
  8
SPOJOVACÍ
  6
Continuous
100
AcDbLine
 10
1568.870631354209
 20
-21.69434574259014
 30
0.0
 11
1569.063577108015
 21
-22.08520232435296
 31
0.0
  0
LINE
  5
EEB
330
1F
100
AcDbEntity
  8
SPOJOVACÍ
  6
Continuous
100
AcDbLine
 10
1568.870631354209
 20
-21.69434574259014
 30
0.0
 11
1569.759678309124
 21
-26.56123469578835
 31
0.0
  0
LINE
  5
EEC
330
1F
100
AcDbEntity
  8
SPOJOVACÍ
  6
Continuous
100
AcDbLine
 10
1565.355203735339
 20
-21.84643118760834
 30
0.0
 11
1566.452441524793
 21
-25.96985817750431
 31
0.0
  0
LINE
  5
EED
330
1F
100
AcDbEntity
  8
SPOJOVACÍ
  6
Continuous
100
AcDbLine
 10
1565.950214331608
 20
-21.8847421509796
 30
0.0
 11
1567.047452120797
 21
-26.00816914085828
 31
0.0
  0
LINE
  5
EEE
330
1F
100
AcDbEntity
  8
SPOJOVACÍ
  6
Continuous
100
AcDbLine
 10
1566.645387278887
 20
-26.36071475490973
 30
0.0
 11
1566.452441524793
 21
-25.96985817750431
 31
0.0
  0
LINE
  5
EEF
330
1F
100
AcDbEntity
  8
SPOJOVACÍ
  6
Continuous
100
AcDbLine
 10
1566.645387278887
 20
-26.36071475490973
 30
0.0
 11
1567.047452120797
 21
-26.00816914085828
 31
0.0
  0
LINE
  5
EF0
330
1F
100
AcDbEntity
  8
SPOJOVACÍ
  6
Continuous
100
AcDbLine
 10
1565.756340323968
 20
-21.49382580171243
 30
0.0
 11
1565.355203735339
 21
-21.84643118760834
 31
0.0
  0
LINE
  5
EF1
330
1F
100
AcDbEntity
  8
SPOJOVACÍ
  6
Continuous
100
AcDbLine
 10
1565.756340323968
 20
-21.49382580171243
 30
0.0
 11
1565.950214331608
 21
-21.8847421509796
 31
0.0
  0
LINE
  5
EF2
330
1F
100
AcDbEntity
  8
SPOJOVACÍ
  6
Continuous
100
AcDbLine
 10
1565.756340323968
 20
-21.49382580171243
 30
0.0
 11
1566.645387278887
 21
-26.36071475490973
 31
0.0
  0
LINE
  5
EF3
330
1F
100
AcDbEntity
  8
SPOJOVACÍ
  6
Continuous
100
AcDbLine
 10
1562.241840958929
 20
-21.64597101423499
 30
0.0
 11
1563.339078748121
 21
-25.76939800411366
 31
0.0
  0
LINE
  5
EF4
330
1F
100
AcDbEntity
  8
SPOJOVACÍ
  6
Continuous
100
AcDbLine
 10
1562.836851555213
 20
-21.68428197760715
 30
0.0
 11
1563.934089344394
 21
-25.80770896748493
 31
0.0
  0
LINE
  5
EF5
330
1F
100
AcDbEntity
  8
SPOJOVACÍ
  6
Continuous
100
AcDbLine
 10
1563.53202450248
 20
-26.16025458153728
 30
0.0
 11
1563.339078748121
 21
-25.76939800411366
 31
0.0
  0
LINE
  5
EF6
330
1F
100
AcDbEntity
  8
SPOJOVACÍ
  6
Continuous
100
AcDbLine
 10
1563.53202450248
 20
-26.16025458153728
 30
0.0
 11
1563.934089344394
 21
-25.80770896748493
 31
0.0
  0
LINE
  5
EF7
330
1F
100
AcDbEntity
  8
SPOJOVACÍ
  6
Continuous
100
AcDbLine
 10
1562.642977547562
 20
-21.29336562833907
 30
0.0
 11
1562.241840958929
 21
-21.64597101423499
 31
0.0
  0
LINE
  5
EF8
330
1F
100
AcDbEntity
  8
SPOJOVACÍ
  6
Continuous
100
AcDbLine
 10
1562.642977547562
 20
-21.29336562833907
 30
0.0
 11
1562.836851555213
 21
-21.68428197760715
 31
0.0
  0
LINE
  5
EF9
330
1F
100
AcDbEntity
  8
SPOJOVACÍ
  6
Continuous
100
AcDbLine
 10
1562.642977547562
 20
-21.29336562833907
 30
0.0
 11
1563.53202450248
 21
-26.16025458153728
 31
0.0
  0
LINE
  5
EFA
330
1F
100
AcDbEntity
  8
SPOJOVACÍ
  6
Continuous
100
AcDbLine
 10
1577.868432171358
 20
-23.65972293244942
 30
0.0
 11
1578.040047378897
 21
-25.82952075086962
 31
0.0
  0
LINE
  5
EFB
330
1F
100
AcDbEntity
  8
SPOJOVACÍ
  6
Continuous
100
AcDbLine
 10
1577.467295583013
 20
-24.01232831398885
 30
0.0
 11
1577.847101624537
 21
-25.438664173446
 31
0.0
  0
LINE
  5
EFC
330
1F
100
AcDbEntity
  8
SPOJOVACÍ
  6
Continuous
100
AcDbLine
 10
1578.062306179282
 20
-24.05063927736012
 30
0.0
 11
1578.44211222081
 21
-25.47697513681725
 31
0.0
  0
LINE
  5
EFD
330
1F
100
AcDbEntity
  8
SPOJOVACÍ
  6
Continuous
100
AcDbLine
 10
1578.040047378897
 20
-25.82952075086962
 30
0.0
 11
1577.847101624537
 21
-25.438664173446
 31
0.0
  0
LINE
  5
EFE
330
1F
100
AcDbEntity
  8
SPOJOVACÍ
  6
Continuous
100
AcDbLine
 10
1578.040047378897
 20
-25.82952075086962
 30
0.0
 11
1578.44211222081
 21
-25.47697513681725
 31
0.0
  0
LINE
  5
EFF
330
1F
100
AcDbEntity
  8
SPOJOVACÍ
  6
Continuous
100
AcDbLine
 10
1577.868432171358
 20
-23.65972293244942
 30
0.0
 11
1577.467295583013
 21
-24.01232831398885
 31
0.0
  0
LINE
  5
F00
330
1F
100
AcDbEntity
  8
SPOJOVACÍ
  6
Continuous
100
AcDbLine
 10
1577.868432171358
 20
-23.65972293244942
 30
0.0
 11
1578.062306179282
 21
-24.05063927736012
 31
0.0
  0
LINE
  5
F01
330
1F
100
AcDbEntity
  8
SPOJOVACÍ
  6
Continuous
100
AcDbLine
 10
1574.897169180897
 20
-22.90262627913637
 30
0.0
 11
1575.329088819929
 21
-26.05297770464369
 31
0.0
  0
LINE
  5
F02
330
1F
100
AcDbEntity
  8
SPOJOVACÍ
  6
Continuous
100
AcDbLine
 10
1574.495104338423
 20
-23.25517189752702
 30
0.0
 11
1575.136143065839
 21
-25.66212112723826
 31
0.0
  0
LINE
  5
F03
330
1F
100
AcDbEntity
  8
SPOJOVACÍ
  6
Continuous
100
AcDbLine
 10
1575.090114934704
 20
-23.29348286089828
 30
0.0
 11
1575.731153661846
 21
-25.70043209059133
 31
0.0
  0
LINE
  5
F04
330
1F
100
AcDbEntity
  8
SPOJOVACÍ
  6
Continuous
100
AcDbLine
 10
1575.329088819929
 20
-26.05297770464369
 30
0.0
 11
1575.136143065839
 21
-25.66212112723826
 31
0.0
  0
LINE
  5
F05
330
1F
100
AcDbEntity
  8
SPOJOVACÍ
  6
Continuous
100
AcDbLine
 10
1575.329088819929
 20
-26.05297770464369
 30
0.0
 11
1575.731153661846
 21
-25.70043209059133
 31
0.0
  0
LINE
  5
F06
330
1F
100
AcDbEntity
  8
SPOJOVACÍ
  6
Continuous
100
AcDbLine
 10
1574.897169180897
 20
-22.90262627913637
 30
0.0
 11
1574.495104338423
 21
-23.25517189752702
 31
0.0
  0
LINE
  5
F07
330
1F
100
AcDbEntity
  8
SPOJOVACÍ
  6
Continuous
100
AcDbLine
 10
1574.897169180897
 20
-22.90262627913637
 30
0.0
 11
1575.090114934704
 21
-23.29348286089828
 31
0.0
  0
LINE
  5
F08
330
1F
100
AcDbEntity
  8
SPOJOVACÍ
  6
Continuous
100
AcDbLine
 10
1571.924977936312
 20
-22.14546986267453
 30
0.0
 11
1572.630862431043
 21
-26.32479164260132
 31
0.0
  0
LINE
  5
F09
330
1F
100
AcDbEntity
  8
SPOJOVACÍ
  6
Continuous
100
AcDbLine
 10
1571.523781580369
 20
-22.49900349941401
 30
0.0
 11
1572.437916676953
 21
-25.93393506519499
 31
0.0
  0
LINE
  5
F0A
330
1F
100
AcDbEntity
  8
SPOJOVACÍ
  6
Continuous
100
AcDbLine
 10
1572.11879217665
 20
-22.53731446278618
 30
0.0
 11
1573.032927273233
 21
-25.97224602856715
 31
0.0
  0
LINE
  5
F0B
330
1F
100
AcDbEntity
  8
SPOJOVACÍ
  6
Continuous
100
AcDbLine
 10
1572.630862431043
 20
-26.32479164260132
 30
0.0
 11
1572.437916676953
 21
-25.93393506519499
 31
0.0
  0
LINE
  5
F0C
330
1F
100
AcDbEntity
  8
SPOJOVACÍ
  6
Continuous
100
AcDbLine
 10
1572.630862431043
 20
-26.32479164260132
 30
0.0
 11
1573.032927273233
 21
-25.97224602856715
 31
0.0
  0
LINE
  5
F0D
330
1F
100
AcDbEntity
  8
SPOJOVACÍ
  6
Continuous
100
AcDbLine
 10
1571.924977936312
 20
-22.14546986267453
 30
0.0
 11
1571.523781580369
 21
-22.49900349941401
 31
0.0
  0
LINE
  5
F0E
330
1F
100
AcDbEntity
  8
SPOJOVACÍ
  6
Continuous
100
AcDbLine
 10
1571.924977936312
 20
-22.14546986267453
 30
0.0
 11
1572.11879217665
 21
-22.53731446278618
 31
0.0
  0
LINE
  5
F0F
330
1F
100
AcDbEntity
  8
SPOJOVACÍ
  6
Continuous
100
AcDbLine
 10
1559.128478182257
 20
-21.44551084084434
 30
0.0
 11
1560.224787718146
 21
-25.56887806325232
 31
0.0
  0
LINE
  5
F10
330
1F
100
AcDbEntity
  8
SPOJOVACÍ
  6
Continuous
100
AcDbLine
 10
1559.723488778541
 20
-21.48382180421561
 30
0.0
 11
1560.81979831415
 21
-25.6071890266063
 31
0.0
  0
LINE
  5
F11
330
1F
100
AcDbEntity
  8
SPOJOVACÍ
  6
Continuous
100
AcDbLine
 10
1560.418661726085
 20
-25.95979440816392
 30
0.0
 11
1560.224787718146
 21
-25.56887806325232
 31
0.0
  0
LINE
  5
F12
330
1F
100
AcDbEntity
  8
SPOJOVACÍ
  6
Continuous
100
AcDbLine
 10
1560.418661726085
 20
-25.95979440816392
 30
0.0
 11
1560.81979831415
 21
-25.6071890266063
 31
0.0
  0
LINE
  5
F13
330
1F
100
AcDbEntity
  8
SPOJOVACÍ
  6
Continuous
100
AcDbLine
 10
1559.529614770889
 20
-21.09290545494843
 30
0.0
 11
1559.128478182257
 21
-21.44551084084434
 31
0.0
  0
LINE
  5
F14
330
1F
100
AcDbEntity
  8
SPOJOVACÍ
  6
Continuous
100
AcDbLine
 10
1559.529614770889
 20
-21.09290545494843
 30
0.0
 11
1559.723488778541
 21
-21.48382180421561
 31
0.0
  0
LINE
  5
F15
330
1F
100
AcDbEntity
  8
SPOJOVACÍ
  6
Continuous
100
AcDbLine
 10
1559.529614770889
 20
-21.09290545494843
 30
0.0
 11
1560.418661726085
 21
-25.95979440816392
 31
0.0
  0
LINE
  5
F16
330
1F
100
AcDbEntity
  8
SPOJOVACÍ
  6
Continuous
100
AcDbLine
 10
1556.6091977483
 20
-21.28330186333789
 30
0.0
 11
1557.706435537754
 21
-25.40672885323385
 31
0.0
  0
LINE
  5
F17
330
1F
100
AcDbEntity
  8
SPOJOVACÍ
  6
Continuous
100
AcDbLine
 10
1557.305298949409
 20
-25.75933423477329
 30
0.0
 11
1557.111424941474
 21
-25.36841788986169
 31
0.0
  0
LINE
  5
F18
330
1F
100
AcDbEntity
  8
SPOJOVACÍ
  6
Continuous
100
AcDbLine
 10
1557.305298949409
 20
-25.75933423477329
 30
0.0
 11
1557.706435537754
 21
-25.40672885323385
 31
0.0
  0
LINE
  5
F19
330
1F
100
AcDbEntity
  8
SPOJOVACÍ
  6
Continuous
100
AcDbLine
 10
1556.41625199449
 20
-20.89244528157507
 30
0.0
 11
1556.6091977483
 21
-21.28330186333789
 31
0.0
  0
LINE
  5
F1A
330
1F
100
AcDbEntity
  8
SPOJOVACÍ
  6
Continuous
100
AcDbLine
 10
1556.41625199449
 20
-20.89244528157507
 30
0.0
 11
1557.305298949409
 21
-25.75933423477329
 31
0.0
  0
LINE
  5
F1B
330
1F
100
AcDbEntity
  8
SPOJOVACÍ
  6
Continuous
100
AcDbLine
 10
1572.293524090432
 20
-25.42596353270766
 30
0.0
 11
1570.310775965946
 21
-25.54437518155157
 31
0.0
  0
LINE
  5
F1C
330
1F
100
AcDbEntity
  8
SPOJOVACÍ
  6
Continuous
100
AcDbLine
 10
1575.016497609779
 20
-25.26200260373718
 30
0.0
 11
1572.867145681465
 21
-25.39112547348543
 31
0.0
  0
LINE
  5
F1D
330
1F
100
AcDbEntity
  8
SPOJOVACÍ
  6
Continuous
100
AcDbLine
 10
1577.749741686209
 20
-25.09777087069471
 30
0.0
 11
1575.591975707662
 21
-25.22728408384557
 31
0.0
  0
LINE
  5
F1E
330
1F
100
AcDbEntity
  8
SPOJOVACÍ
  6
Continuous
100
AcDbLine
 10
1578.117524952696
 20
-24.30772637057145
 30
0.0
 11
1581.175451848669
 21
-24.89143948432013
 31
0.0
  0
LINE
  5
F1F
330
1F
100
AcDbEntity
  8
SPOJOVACÍ
  6
Continuous
100
AcDbLine
 10
1575.205995038874
 20
-23.75208136180901
 30
0.0
 11
1577.503340463295
 21
-24.19081639709259
 31
0.0
  0
LINE
  5
F20
330
1F
100
AcDbEntity
  8
SPOJOVACÍ
  6
Continuous
100
AcDbLine
 10
1572.28344561635
 20
-23.19386263272519
 30
0.0
 11
1574.581719294062
 21
-23.63265743985414
 31
0.0
  0
LINE
  5
F21
330
1F
100
AcDbEntity
  8
SPOJOVACÍ
  6
Continuous
100
AcDbLine
 10
1581.175451848669
 20
-24.89143948432013
 30
0.0
 11
1578.322435023397
 21
-25.0628730439663
 31
0.0
  0
LINE
  5
F22
330
1F
100
AcDbEntity
  8
SPOJOVACÍ
  6
Continuous
100
AcDbLine
 10
1570.484221232454
 20
-22.85058305612767
 30
0.0
 11
1571.669261126945
 21
-23.07695265924724
 31
0.0
  0
LINE
  5
F23
330
1F
100
AcDbEntity
  8
SPOJOVACÍ
  6
Continuous
100
AcDbLine
 10
1569.974748141124
 20
-25.52273934889729
 30
0.0
 11
1570.310775965946
 21
-25.54437518155157
 31
0.0
  0
LINE
  5
F24
330
1F
100
AcDbEntity
  8
SPOJOVACÍ
  6
Continuous
100
AcDbLine
 10
1566.858600603485
 20
-25.32209987302724
 30
0.0
 11
1569.3723115155
 21
-25.48395024557305
 31
0.0
  0
LINE
  5
F25
330
1F
100
AcDbEntity
  8
SPOJOVACÍ
  6
Continuous
100
AcDbLine
 10
1569.239433074307
 20
-22.77043484728949
 30
0.0
 11
1570.484221232454
 21
-22.85058305612767
 31
0.0
  0
LINE
  5
F26
330
1F
100
AcDbEntity
  8
SPOJOVACÍ
  6
Continuous
100
AcDbLine
 10
1566.13163981958
 20
-22.57033327885858
 30
0.0
 11
1568.644422478031
 21
-22.73212388391732
 31
0.0
  0
LINE
  5
F27
330
1F
100
AcDbEntity
  8
SPOJOVACÍ
  6
Continuous
100
AcDbLine
 10
1563.743381319676
 20
-25.12152016466155
 30
0.0
 11
1566.258948739104
 21
-25.2834900722006
 31
0.0
  0
LINE
  5
F28
330
1F
100
AcDbEntity
  8
SPOJOVACÍ
  6
Continuous
100
AcDbLine
 10
1560.627233782302
 20
-24.92088068880787
 30
0.0
 11
1563.150227230805
 21
-25.08332873628262
 31
0.0
  0
LINE
  5
F29
330
1F
100
AcDbEntity
  8
SPOJOVACÍ
  6
Continuous
100
AcDbLine
 10
1557.518512274007
 20
-24.72071935288989
 30
0.0
 11
1560.032223186025
 21
-24.88256972543661
 31
0.0
  0
LINE
  5
F2A
330
1F
100
AcDbEntity
  8
SPOJOVACÍ
  6
Continuous
100
AcDbLine
 10
1563.005281491884
 20
-22.36903636057252
 30
0.0
 11
1565.528274940391
 21
-22.53148440804636
 31
0.0
  0
LINE
  5
F2B
330
1F
100
AcDbEntity
  8
SPOJOVACÍ
  6
Continuous
100
AcDbLine
 10
1559.896559983589
 20
-22.16887502465453
 30
0.0
 11
1562.412127403018
 21
-22.33084493219359
 31
0.0
  0
LINE
  5
F2C
330
1F
100
AcDbEntity
  8
SPOJOVACÍ
  6
Continuous
100
AcDbLine
 10
1556.780412446215
 20
-21.96823554880086
 30
0.0
 11
1559.294123358234
 21
-22.13008592134758
 31
0.0
  0
LINE
  5
F2D
330
1F
100
AcDbEntity
  8
SPOJOVACÍ
  6
Continuous
100
AcDbLine
 10
1556.014187152293
 20
-21.24499089998391
 30
0.0
 11
1557.111424941474
 21
-25.36841788986169
 31
0.0
  0
LINE
  5
F2E
330
1F
100
AcDbEntity
  8
SPOJOVACÍ
  6
Continuous
100
AcDbLine
 10
1556.41625199449
 20
-20.89244528157507
 30
0.0
 11
1556.014187152293
 21
-21.24499089998391
 31
0.0
  0
LINE
  5
F2F
330
1F
100
AcDbEntity
  8
SPOJOVACÍ
  6
Continuous
100
AcDbLine
 10
1551.983335697924
 20
-24.36432578883034
 30
0.0
 11
1556.916075648651
 21
-24.68193024958293
 31
0.0
  0
LINE
  5
F30
330
1F
100
AcDbEntity
  8
SPOJOVACÍ
  6
Continuous
100
AcDbLine
 10
1552.156780964432
 20
-21.67053366340644
 30
0.0
 11
1556.186330103776
 21
-21.92998435293486
 31
0.0
  0
LINE
  5
F31
330
1F
100
AcDbEntity
  8
SPOJOVACÍ
  6
Continuous
100
AcDbLine
 10
1547.009251000883
 20
-17.5808646043439
 30
0.0
 11
1547.665131295539
 21
-18.97557466406726
 31
0.0
  0
LINE
  5
F32
330
1F
100
AcDbEntity
  8
SPOJOVACÍ
  6
Continuous
100
AcDbLine
 10
1547.665131295539
 20
-18.97557466406726
 30
0.0
 11
1548.660332363916
 21
-20.15258238470107
 31
0.0
  0
LINE
  5
F33
330
1F
100
AcDbEntity
  8
SPOJOVACÍ
  6
Continuous
100
AcDbLine
 10
1548.660332363916
 20
-20.15258238470107
 30
0.0
 11
1549.925435079672
 21
-21.03191782186115
 31
0.0
  0
LINE
  5
F34
330
1F
100
AcDbEntity
  8
SPOJOVACÍ
  6
Continuous
100
AcDbLine
 10
1549.925435079672
 20
-21.03191782186115
 30
0.0
 11
1551.375721860036
 21
-21.55406435356837
 31
0.0
  0
LINE
  5
F35
330
1F
100
AcDbEntity
  8
SPOJOVACÍ
  6
Continuous
100
AcDbLine
 10
1551.375721860036
 20
-21.55406435356837
 30
0.0
 11
1552.156780964432
 21
-21.67053366340644
 31
0.0
  0
LINE
  5
F36
330
1F
100
AcDbEntity
  8
SPOJOVACÍ
  6
Continuous
100
AcDbLine
 10
1545.811803778985
 20
-17.50376453764931
 30
0.0
 11
1547.009251000883
 21
-17.5808646043439
 31
0.0
  0
LINE
  5
F37
330
1F
100
AcDbEntity
  8
SPOJOVACÍ
  6
Continuous
100
AcDbLine
 10
1551.983335697924
 20
-24.36432578883034
 30
0.0
 11
1550.448272934273
 21
-24.4929205242139
 31
0.0
  0
LINE
  5
F38
330
1F
100
AcDbEntity
  8
SPOJOVACÍ
  6
Continuous
100
AcDbLine
 10
1550.448272934273
 20
-24.4929205242139
 30
0.0
 11
1548.997940592343
 21
-25.01379309583956
 31
0.0
  0
LINE
  5
F39
330
1F
100
AcDbEntity
  8
CETRIS
100
AcDbLine
 10
1559.809376667024
 20
16.55136548713232
 30
0.0
 11
1557.280172004833
 21
-34.04428125602737
 31
0.0
  0
LINE
  5
F3A
330
1F
100
AcDbEntity
  8
CETRIS
100
AcDbLine
 10
1547.824341776383
 20
17.15048039272585
 30
0.0
 11
1559.809376667024
 21
16.55136548713232
 31
0.0
  0
LWPOLYLINE
  5
F3B
330
1F
100
AcDbEntity
  8
PROFILY
100
AcDbPolyline
 90
        2
 70
     1
 43
2.5
 10
1545.727260007802
 20
-13.47099432484958
 42
-1.0
 10
1543.228041218389
 20
-13.53348786558183
 42
-1.0
  0
HATCH
  5
F3C
330
1F
100
AcDbEntity
  8
PROFILY
100
AcDbHatch
 10
0.0
 20
0.0
 30
0.0
210
0.0
220
0.0
230
1.0
  2
SOLID
 70
     1
 71
     0
 91
        1
 92
        1
 93
        4
 72
     1
 10
1547.545933571778
 20
-1.417791141388647
 11
1542.549531707983
 21
-1.099201579524219
 72
     1
 10
1542.549531707987
 20
-1.099201579524219
 11
1541.941068524421
 21
-13.34049898593423
 72
     1
 10
1541.941068524421
 20
-13.34049898593423
 11
1546.937470388216
 21
-13.65908854779957
 72
     1
 10
1546.937470388219
 20
-13.65908854779866
 11
1547.545933571785
 21
-1.417791141387738
 97
        0
 75
     0
 76
     1
 98
        1
 10
-18109.85509938064
 20
-3270.1640303958
  0
LWPOLYLINE
  5
F3D
330
1F
100
AcDbEntity
  8
PROFILY
100
AcDbPolyline
 90
        2
 70
     1
 43
2.5
 10
1546.279032603004
 20
-1.354818845957765
 42
-1.0
 10
1543.779813813583
 20
-1.417312386690014
 42
-1.0
  0
LINE
  5
F3E
330
1F
100
AcDbEntity
  8
CETRIS
100
AcDbLine
 10
1559.578074110252
 20
261.7536173140064
 30
0.0
 11
1541.298709294991
 21
-37.68897287975835
 31
0.0
  0
LINE
  5
F3F
330
1F
100
AcDbEntity
  8
CETRIS
100
AcDbLine
 10
1547.600370502506
 20
262.4847919066172
 30
0.0
 11
1529.503799335397
 21
-33.96337238520994
 31
0.0
  0
LINE
  5
F40
330
1F
100
AcDbEntity
  8
CETRIS
100
AcDbLine
 10
1530.939578347285
 20
-35.58584102066072
 30
0.0
 11
1529.503799335397
 21
-33.96337238520994
 31
0.0
  0
LINE
  5
F41
330
1F
100
AcDbEntity
  8
CETRIS
100
AcDbLine
 10
1547.824341776383
 20
17.15048039272585
 30
0.0
 11
1545.223391887141
 21
-34.88039862617336
 31
0.0
  0
HATCH
  5
F42
330
1F
100
AcDbEntity
  8
CETRIS
100
AcDbHatch
 10
0.0
 20
0.0
 30
0.0
210
0.0
220
0.0
230
1.0
  2
ANSI31
 70
     0
 71
     0
 91
        2
 92
        7
 72
     0
 73
     1
 93
        7
 10
1559.658075735452
 20
13.52465570753645
 10
1559.658075735452
 20
16.55892880623503
 10
1547.824341776383
 20
17.15048039272494
 10
1546.108127203067
 20
-17.18165080442361
 10
1546.585998814352
 20
-17.20553892889859
 10
1548.528311791414
 20
-20.65055757362063
 10
1557.905114841475
 20
-21.54256976139515
 97
        0
 92
        7
 72
     0
 73
     1
 93
        7
 10
1557.720441337572
 20
-25.23688343477863
 10
1548.514031701113
 20
-25.20803670677253
 10
1548.521156075813
 20
-22.93429835150584
 10
1545.827292091023
 20
-22.79963590941008
 10
1545.546456979016
 20
-28.41762101439837
 10
1545.220721826415
 20
-34.93381203766023
 10
1557.27750194411
 20
-34.09769466751242
 97
        0
 75
     0
 76
     1
 52
90.0
 41
1.0
 77
     0
 78
     1
 53
135.0
 43
-22463.83811631795
 44
-2493.728616040055
 45
-2.245064030267288
 46
-2.245064030267287
 79
     0
 47
0.5099526698904395
 98
        2
 10
1551.817795661419
 20
-2.741372642104238
 10
1552.838251311015
 20
-30.27882530318732
  0
HATCH
  5
F43
330
1F
100
AcDbEntity
  8
CETRIS
100
AcDbHatch
 10
0.0
 20
0.0
 30
0.0
210
0.0
220
0.0
230
1.0
  2
ANSI31
 70
     0
 71
     0
 91
        4
 92
        7
 72
     0
 73
     1
 93
        4
 10
1559.578074110252
 20
261.7536173140064
 10
1547.600370502502
 20
262.4847919066172
 10
1545.730341719866
 20
231.8509997552968
 10
1557.744595709078
 20
231.7185735878405
 97
        0
 92
        7
 72
     0
 73
     1
 93
        6
 10
1557.744595709074
 20
231.7185735878386
 10
1545.730341719874
 20
231.8509997552959
 10
1545.505859950756
 20
228.1736617802483
 10
1545.983439246504
 20
228.1445081245514
 10
1547.887664104916
 20
224.6782910436526
 10
1557.254066058506
 20
223.6829842434284
 97
        0
 92
        7
 72
     0
 73
     1
 93
        6
 10
1557.028685964101
 20
219.9909303931375
 10
1547.609665431681
 20
220.1242683177901
 10
1545.29796306592
 20
216.9154109922859
 10
1544.820383770187
 20
216.9445646479829
 10
1543.706822812836
 20
198.7028160546409
 10
1555.72107680204
 20
198.5703898871846
 97
        0
 92
        7
 72
     0
 73
     1
 93
        5
 10
1555.721076802037
 20
198.5703898871837
 10
1543.706822812836
 20
198.7028160546409
 10
1529.503799335393
 20
-33.96337238520811
 10
1530.939578347285
 20
-35.58584102066072
 10
1541.464539543368
 20
-34.97243214606863
 97
        0
 75
     0
 76
     1
 52
-0.6315126386698318
 41
1.0
 77
     0
 78
     1
 53
44.36848736133017
 43
-22492.31710990641
 44
-2228.94243706678
 45
-2.220183123871582
 46
2.269672200225358
 79
     0
 47
0.5099526698904395
 98
        4
 10
1554.640184625211
 20
247.0324381510593
 10
1553.406209226195
 20
227.6666601068431
 10
1551.106875545948
 20
204.232751898315
 10
1550.062705752104
 20
155.7958125756153
  0
LINE
  5
F44
330
1F
100
AcDbEntity
  8
SPOJOVACÍ
  6
Continuous
100
AcDbLine
 10
1547.731506822979
 20
-25.89231615959818
 30
0.0
 11
1546.735829693843
 21
-27.06790301210515
 31
0.0
  0
LINE
  5
F45
330
1F
100
AcDbEntity
  8
SPOJOVACÍ
  6
Continuous
100
AcDbLine
 10
1546.735829693843
 20
-27.06790301210515
 30
0.0
 11
1546.353840666527
 21
-27.76009424339884
 31
0.0
  0
LINE
  5
F46
330
1F
100
AcDbEntity
  8
SPOJOVACÍ
  6
Continuous
100
AcDbLine
 10
1547.009251000883
 20
-17.5808646043439
 30
0.0
 11
1546.353840666527
 21
-27.76009424339884
 31
0.0
  0
LINE
  5
F47
330
1F
100
AcDbEntity
  8
SPOJOVACÍ
  6
Continuous
100
AcDbLine
 10
1545.811803778985
 20
-17.50376453764931
 30
0.0
 11
1545.156393444634
 21
-27.68299417670334
 31
0.0
  0
LINE
  5
F48
330
1F
100
AcDbEntity
  8
SPOJOVACÍ
  6
Continuous
100
AcDbLine
 10
1545.156393444634
 20
-27.68299417670334
 30
0.0
 11
1546.353840666527
 21
-27.76009424339884
 31
0.0
  0
LINE
  5
F49
330
1F
100
AcDbEntity
  8
SPOJOVACÍ
  6
Continuous
100
AcDbLine
 10
1548.997940592343
 20
-25.01379309583956
 30
0.0
 11
1547.731506822979
 21
-25.89231615959818
 31
0.0
  0
TEXT
  5
F4A
330
1F
100
AcDbEntity
  8
POPIS
100
AcDbText
 10
1342.878752463989
 20
-534.8295367083307
 30
0.0
 40
25.0
  1
09
 41
0.85
  7
SIMPLEX7
100
AcDbText
  0
TEXT
  5
F4B
330
1F
100
AcDbEntity
  8
POPIS
100
AcDbText
 10
1397.222455623735
 20
-534.8295367083307
 30
0.0
 40
25.0
  1
Silikonový tmel
 41
0.7
  7
SIMPLEX7
100
AcDbText
  0
LWPOLYLINE
  5
F4C
330
1F
100
AcDbEntity
  8
STAVBA OBRYS
  6
DASHED
100
AcDbPolyline
 90
        4
 70
     1
 43
0.0
 10
1615.561635102881
 20
273.1886648856583
 10
1620.934916427734
 20
273.1886648856583
 10
1620.934916427734
 20
323.3082369046809
 10
1615.561635102881
 20
323.3082369046809
  0
LINE
  5
F4D
330
1F
100
AcDbEntity
  8
STAVBA OBRYS
  6
DASHED
100
AcDbLine
 10
1785.094108801916
 20
298.2484508951705
 30
0.0
 11
1781.30524766036
 21
291.6859508951705
 31
0.0
  0
LINE
  5
F4E
330
1F
100
AcDbEntity
  8
STAVBA OBRYS
  6
DASHED
100
AcDbLine
 10
1785.094108801916
 20
298.2484508951705
 30
0.0
 11
1781.30524766036
 21
304.8109508951705
 31
0.0
  0
LINE
  5
F4F
330
1F
100
AcDbEntity
  8
STAVBA OBRYS
  6
DASHED
100
AcDbLine
 10
1781.30524766036
 20
291.6859508951705
 30
0.0
 11
1620.934916427734
 21
291.6859508951723
 31
0.0
  0
LINE
  5
F50
330
1F
100
AcDbEntity
  8
STAVBA OBRYS
  6
DASHDOT2
100
AcDbLine
 10
1587.17667192606
 20
298.2484508951714
 30
0.0
 11
1799.953160992159
 21
298.2484508951705
 31
0.0
  0
LINE
  5
F51
330
1F
100
AcDbEntity
  8
STAVBA OBRYS
  6
DASHED
100
AcDbLine
 10
1781.30524766036
 20
304.8109508951705
 30
0.0
 11
1620.934916427734
 21
304.8109508951723
 31
0.0
  0
LINE
  5
F52
330
1F
100
AcDbEntity
  8
NOSNÉ KONSTRUKCE
100
AcDbLine
 10
1596.733048034609
 20
376.3723526841771
 30
0.0
 11
1596.733048034616
 21
378.7471979077567
 31
0.0
  0
LINE
  5
F53
330
1F
100
AcDbEntity
  8
NOSNÉ KONSTRUKCE
100
AcDbLine
 10
1596.733048034618
 20
429.5339252468269
 30
0.0
 11
1596.733048034609
 21
431.9087704704064
 31
0.0
  0
LINE
  5
F54
330
1F
100
AcDbEntity
  8
NOSNÉ KONSTRUKCE
100
AcDbLine
 10
1626.613320833078
 20
409.3309688520816
 30
0.0
 11
1626.613320833078
 21
399.7737200908626
 31
0.0
  0
LINE
  5
F55
330
1F
100
AcDbEntity
  8
NOSNÉ KONSTRUKCE
100
AcDbLine
 10
1626.613320833078
 20
398.950154302502
 30
0.0
 11
1626.613320833078
 21
408.5074030637209
 31
0.0
  0
LINE
  5
F56
330
1F
100
AcDbEntity
  8
NOSNÉ KONSTRUKCE
100
AcDbLine
 10
1594.167476280209
 20
439.5032322001255
 30
0.0
 11
1596.733048034609
 21
431.9087704704064
 31
0.0
  0
ARC
  5
F57
330
1F
100
AcDbEntity
  8
NOSNÉ KONSTRUKCE
100
AcDbCircle
 10
1584.024979501352
 20
416.628078159077
 30
0.0
 40
1.75
100
AcDbArc
 50
180.0
 51
0.0
  0
ARC
  5
F58
330
1F
100
AcDbEntity
  8
NOSNÉ KONSTRUKCE
100
AcDbCircle
 10
1584.024979501352
 20
421.5163268647168
 30
0.0
 40
1.75
100
AcDbArc
 50
0.0
 51
180.0
  0
LINE
  5
F59
330
1F
100
AcDbEntity
  8
NOSNÉ KONSTRUKCE
100
AcDbLine
 10
1582.274979501352
 20
421.5163268647168
 30
0.0
 11
1582.274979501352
 21
416.628078159077
 31
0.0
  0
LINE
  5
F5A
330
1F
100
AcDbEntity
  8
NOSNÉ KONSTRUKCE
100
AcDbLine
 10
1585.774979501352
 20
416.628078159077
 30
0.0
 11
1585.774979501352
 21
421.5163268647168
 31
0.0
  0
ARC
  5
F5B
330
1F
100
AcDbEntity
  8
NOSNÉ KONSTRUKCE
100
AcDbCircle
 10
1584.02497950135
 20
433.1784520226941
 30
0.0
 40
1.3125
100
AcDbArc
 50
0.0
 51
180.0
  0
LINE
  5
F5C
330
1F
100
AcDbEntity
  8
NOSNÉ KONSTRUKCE
100
AcDbLine
 10
1582.71247950135
 20
433.1784520226941
 30
0.0
 11
1582.71247950135
 21
433.156639402668
 31
0.0
  0
LINE
  5
F5D
330
1F
100
AcDbEntity
  8
NOSNÉ KONSTRUKCE
100
AcDbLine
 10
1585.33747950135
 20
433.1566394026643
 30
0.0
 11
1585.33747950135
 21
433.1784520226941
 31
0.0
  0
LINE
  5
F5E
330
1F
100
AcDbEntity
  8
NOSNÉ KONSTRUKCE
100
AcDbLine
 10
1588.149979501348
 20
430.4589841708033
 30
0.0
 11
1579.899979501349
 21
430.4589841708015
 31
0.0
  0
ARC
  5
F5F
330
1F
100
AcDbEntity
  8
NOSNÉ KONSTRUKCE
100
AcDbCircle
 10
1584.02497950135
 20
427.7395163189088
 30
0.0
 40
1.3125
100
AcDbArc
 50
180.0
 51
0.0
  0
LINE
  5
F60
330
1F
100
AcDbEntity
  8
NOSNÉ KONSTRUKCE
100
AcDbLine
 10
1582.71247950135
 20
427.7613289389385
 30
0.0
 11
1582.71247950135
 21
427.7395163189088
 31
0.0
  0
LINE
  5
F61
330
1F
100
AcDbEntity
  8
NOSNÉ KONSTRUKCE
100
AcDbLine
 10
1585.33747950135
 20
427.7395163189088
 30
0.0
 11
1585.33747950135
 21
427.7613289389404
 31
0.0
  0
CIRCLE
  5
F62
330
1F
100
AcDbEntity
  8
NOSNÉ KONSTRUKCE
100
AcDbCircle
 10
1584.024979501348
 20
430.4589841708033
 30
0.0
 40
3.0
  0
LINE
  5
F63
330
1F
100
AcDbEntity
  8
NOSNÉ KONSTRUKCE
100
AcDbLine
 10
1584.024979501348
 20
426.3339841708033
 30
0.0
 11
1584.02497950135
 21
434.5839841708033
 31
0.0
  0
LINE
  5
F64
330
1F
100
AcDbEntity
  8
NOSNÉ KONSTRUKCE
100
AcDbLine
 10
1583.906587785655
 20
409.3309688520816
 30
0.0
 11
1626.613320833078
 21
409.3309688520816
 31
0.0
  0
LINE
  5
F65
330
1F
100
AcDbEntity
  8
NOSNÉ KONSTRUKCE
100
AcDbLine
 10
1585.33747950135
 20
380.5416068356747
 30
0.0
 11
1585.33747950135
 21
380.5197942156431
 31
0.0
  0
LINE
  5
F66
330
1F
100
AcDbEntity
  8
NOSNÉ KONSTRUKCE
100
AcDbLine
 10
1582.71247950135
 20
380.5197942156459
 30
0.0
 11
1582.71247950135
 21
380.5416068356747
 31
0.0
  0
ARC
  5
F67
330
1F
100
AcDbEntity
  8
NOSNÉ KONSTRUKCE
100
AcDbCircle
 10
1584.02497950135
 20
380.5416068356747
 30
0.0
 40
1.3125
100
AcDbArc
 50
0.0
 51
180.0
  0
LINE
  5
F68
330
1F
100
AcDbEntity
  8
NOSNÉ KONSTRUKCE
100
AcDbLine
 10
1588.149979501348
 20
377.8221389837812
 30
0.0
 11
1579.899979501349
 21
377.822138983782
 31
0.0
  0
LINE
  5
F69
330
1F
100
AcDbEntity
  8
NOSNÉ KONSTRUKCE
100
AcDbLine
 10
1585.774979501352
 20
391.6530449955065
 30
0.0
 11
1585.774979501352
 21
386.7647962898666
 31
0.0
  0
LINE
  5
F6A
330
1F
100
AcDbEntity
  8
NOSNÉ KONSTRUKCE
100
AcDbLine
 10
1582.274979501352
 20
386.7647962898666
 30
0.0
 11
1582.274979501352
 21
391.6530449955065
 31
0.0
  0
ARC
  5
F6B
330
1F
100
AcDbEntity
  8
NOSNÉ KONSTRUKCE
100
AcDbCircle
 10
1584.024979501352
 20
386.7647962898666
 30
0.0
 40
1.75
100
AcDbArc
 50
180.0
 51
0.0
  0
ARC
  5
F6C
330
1F
100
AcDbEntity
  8
NOSNÉ KONSTRUKCE
100
AcDbCircle
 10
1584.024979501352
 20
391.6530449955065
 30
0.0
 40
1.75
100
AcDbArc
 50
0.0
 51
180.0
  0
LINE
  5
F6D
330
1F
100
AcDbEntity
  8
NOSNÉ KONSTRUKCE
100
AcDbLine
 10
1571.210106916004
 20
406.3409395454031
 30
0.0
 11
1580.311656713343
 21
406.3409395454031
 31
0.0
  0
LINE
  5
F6E
330
1F
100
AcDbEntity
  8
NOSNÉ KONSTRUKCE
100
AcDbLine
 10
1580.311656713343
 20
401.9401836091814
 30
0.0
 11
1583.906587785655
 21
398.950154302502
 31
0.0
  0
LINE
  5
F6F
330
1F
100
AcDbEntity
  8
NOSNÉ KONSTRUKCE
100
AcDbLine
 10
1571.210106916004
 20
401.9401836091814
 30
0.0
 11
1580.311656713343
 21
401.9401836091814
 31
0.0
  0
LINE
  5
F70
330
1F
100
AcDbEntity
  8
NOSNÉ KONSTRUKCE
100
AcDbLine
 10
1583.906587785655
 20
398.950154302502
 30
0.0
 11
1626.613320833078
 21
398.950154302502
 31
0.0
  0
LINE
  5
F71
330
1F
100
AcDbEntity
  8
NOSNÉ KONSTRUKCE
100
AcDbLine
 10
1580.311656713343
 20
406.3409395454031
 30
0.0
 11
1583.906587785655
 21
409.3309688520816
 31
0.0
  0
LWPOLYLINE
  5
F72
330
1F
100
AcDbEntity
  8
NOSNÉ KONSTRUKCE
100
AcDbPolyline
 90
        3
 70
     0
 43
0.0
 10
1571.210106916004
 20
406.3409395454031
 10
1571.210106916004
 20
439.5032322001255
 10
1594.167476280209
 20
439.5032322001255
  0
LINE
  5
F73
330
1F
100
AcDbEntity
  8
NOSNÉ KONSTRUKCE
100
AcDbLine
 10
1594.167476280209
 20
368.7778909544589
 30
0.0
 11
1596.733048034609
 21
376.3723526841771
 31
0.0
  0
LINE
  5
F74
330
1F
100
AcDbEntity
  8
NOSNÉ KONSTRUKCE
100
AcDbLine
 10
1584.024979501348
 20
381.9471389837811
 30
0.0
 11
1584.02497950135
 21
373.6971389837812
 31
0.0
  0
CIRCLE
  5
F75
330
1F
100
AcDbEntity
  8
NOSNÉ KONSTRUKCE
100
AcDbCircle
 10
1584.024979501348
 20
377.8221389837812
 30
0.0
 40
3.0
  0
LINE
  5
F76
330
1F
100
AcDbEntity
  8
NOSNÉ KONSTRUKCE
100
AcDbLine
 10
1585.33747950135
 20
375.1244837519183
 30
0.0
 11
1585.33747950135
 21
375.1026711318894
 31
0.0
  0
LINE
  5
F77
330
1F
100
AcDbEntity
  8
NOSNÉ KONSTRUKCE
100
AcDbLine
 10
1582.71247950135
 20
375.1026711318894
 30
0.0
 11
1582.71247950135
 21
375.1244837519164
 31
0.0
  0
ARC
  5
F78
330
1F
100
AcDbEntity
  8
NOSNÉ KONSTRUKCE
100
AcDbCircle
 10
1584.02497950135
 20
375.1026711318894
 30
0.0
 40
1.3125
100
AcDbArc
 50
180.0
 51
0.0
  0
LWPOLYLINE
  5
F79
330
1F
100
AcDbEntity
  8
NOSNÉ KONSTRUKCE
100
AcDbPolyline
 90
        3
 70
     0
 43
0.0
 10
1594.167476280209
 20
368.7778909544589
 10
1571.210106916004
 20
368.7778909544589
 10
1571.210106916004
 20
401.9401836091814
  0
LINE
  5
F7A
330
1F
100
AcDbEntity
  8
NOSNÉ KONSTRUKCE
100
AcDbLine
 10
1610.233048034629
 20
384.1544953025762
 30
0.0
 11
1693.233048034625
 21
384.1544953025799
 31
0.0
  0
LINE
  5
F7B
330
1F
100
AcDbEntity
  8
NOSNÉ KONSTRUKCE
100
AcDbLine
 10
1610.233048034629
 20
424.185199794156
 30
0.0
 11
1693.233048034627
 21
424.1851997941524
 31
0.0
  0
ARC
  5
F7C
330
1F
100
AcDbEntity
  8
NOSNÉ KONSTRUKCE
100
AcDbCircle
 10
1693.23304803462
 20
426.8888484915672
 30
0.0
 40
2.703648697414791
100
AcDbArc
 50
90.0
 51
270.0
  0
ARC
  5
F7D
330
1F
100
AcDbEntity
  8
NOSNÉ KONSTRUKCE
100
AcDbCircle
 10
1693.23304803462
 20
381.450846605165
 30
0.0
 40
2.703648697414791
100
AcDbArc
 50
90.0
 51
270.0
  0
LINE
  5
F7E
330
1F
100
AcDbEntity
  8
NOSNÉ KONSTRUKCE
100
AcDbLine
 10
1610.233048034638
 20
134.2434099268133
 30
0.0
 11
1610.233048034643
 21
-27.93128729037164
 31
0.0
  0
INSERT
  5
F7F
330
1F
100
AcDbEntity
  8
POPIS
100
AcDbBlockReference
  2
E_PUNKT
 10
1748.317201177652
 20
399.8765547447595
 30
0.0
  0
INSERT
  5
F80
330
1F
100
AcDbEntity
  8
POPIS
100
AcDbBlockReference
  2
E_PUNKT
 10
1544.8717805113
 20
-22.30592776999821
 30
0.0
  0
LINE
  5
F81
330
1F
100
AcDbEntity
  8
POPIS
100
AcDbLine
 10
1748.116488204462
 20
400.1485315347312
 30
0.0
 11
1680.668615169713
 21
360.5175453126042
 31
0.0
  0
INSERT
  5
F82
330
1F
100
AcDbEntity
  8
POPIS
100
AcDbBlockReference
  2
E_PUNKT
 10
1643.910092486055
 20
414.5333866833865
 30
0.0
  0
LINE
  5
F83
330
1F
100
AcDbEntity
  8
POPIS
100
AcDbLine
 10
1643.702473592459
 20
414.7795902275369
 30
0.0
 11
1601.46752678346
 21
448.9797002120079
 31
0.0
  0
INSERT
  5
F84
330
1F
100
AcDbEntity
  8
POPIS
100
AcDbBlockReference
  2
E_PUNKT
 10
1582.678609593843
 20
277.3841715636084
 30
0.0
  0
TEXT
  5
F85
330
1F
100
AcDbEntity
  8
POPIS
100
AcDbText
 10
1353.012020159683
 20
70.43373374299642
 30
0.0
 40
25.0
  1
01
 41
0.7
  7
SIMPLEX7
100
AcDbText
  0
LINE
  5
F86
330
1F
100
AcDbEntity
  8
POPIS
100
AcDbLine
 10
1393.396517579312
 20
83.87707519236698
 30
0.0
 11
1544.215334599469
 21
83.87707519236608
 31
0.0
  0
TEXT
  5
F87
330
1F
100
AcDbEntity
  8
POPIS
100
AcDbText
 10
1352.861082284761
 20
-35.7202008884966
 30
0.0
 40
25.0
  1
02
 41
0.7
  7
SIMPLEX7
100
AcDbText
  0
TEXT
  5
F88
330
1F
100
AcDbEntity
  8
POPIS
100
AcDbText
 10
1352.016907541317
 20
349.8172143003588
 30
0.0
 40
25.0
  1
04
 41
0.7
  7
SIMPLEX7
100
AcDbText
  0
TEXT
  5
F89
330
1F
100
AcDbEntity
  8
POPIS
100
AcDbText
 10
1352.016907541317
 20
435.5363587626392
 30
0.0
 40
25.0
  1
05
 41
0.7
  7
SIMPLEX7
100
AcDbText
  0
TEXT
  5
F8A
330
1F
100
AcDbEntity
  8
POPIS
100
AcDbText
 10
1353.419031236043
 20
263.6048376282764
 30
0.0
 40
25.0
  1
06
 41
0.7
  7
SIMPLEX7
100
AcDbText
  0
LINE
  5
F8B
330
1F
100
AcDbEntity
  8
POPIS
100
AcDbLine
 10
1393.396517579312
 20
360.5175453126051
 30
0.0
 11
1680.668615169713
 21
360.5175453126042
 31
0.0
  0
LINE
  5
F8C
330
1F
100
AcDbEntity
  8
POPIS
100
AcDbLine
 10
1393.396517579312
 20
277.0481790776469
 30
0.0
 11
1582.706219969469
 21
277.048179077646
 31
0.0
  0
LINE
  5
F8D
330
1F
100
AcDbEntity
  8
POPIS
100
AcDbLine
 10
1393.396517579312
 20
448.9797002120089
 30
0.0
 11
1601.46752678346
 21
448.9797002120079
 31
0.0
  0
LINE
  5
F8E
330
1F
100
AcDbEntity
  8
POPIS
100
AcDbLine
 10
1393.396517579312
 20
-22.27685943912604
 30
0.0
 11
1545.90354515186
 21
-22.27685943912604
 31
0.0
  0
LINE
  5
F8F
330
1F
100
AcDbEntity
  8
NOSNÉ KONSTRUKCE
100
AcDbLine
 10
1560.233048034627
 20
509.4285979408445
 30
0.0
 11
1565.438864354003
 21
509.4285979408445
 31
0.0
  0
LINE
  5
F90
330
1F
100
AcDbEntity
  8
STAVBA OBRYS
100
AcDbLine
 10
1935.825918609276
 20
9.655854378059643
 30
0.0
 11
1936.000251825949
 21
107.4880659495387
 31
0.0
  0
LINE
  5
F91
330
1F
100
AcDbEntity
  8
NOSNÉ KONSTRUKCE
100
AcDbLine
 10
1565.438864354012
 20
27.72244885164343
 30
0.0
 11
1565.438864354012
 21
47.19549925163789
 31
0.0
  0
LINE
  5
F92
330
1F
100
AcDbEntity
  8
POPIS
100
AcDbLine
 10
1393.396517579312
 20
525.2382428061959
 30
0.0
 11
1519.292327008278
 21
525.238242806195
 31
0.0
  0
TEXT
  5
F93
330
1F
100
AcDbEntity
  8
POPIS
100
AcDbText
 10
1352.016907541317
 20
511.7949013568253
 30
0.0
 40
25.0
  1
07
 41
0.7
  7
SIMPLEX7
100
AcDbText
  0
LINE
  5
F94
330
1F
100
AcDbEntity
  8
SPOJOVACÍ
100
AcDbLine
 10
1690.009234838541
 20
414.4530615772886
 30
0.0
 11
1685.321734838541
 21
414.4530615772886
 31
0.0
  0
LINE
  5
F95
330
1F
100
AcDbEntity
  8
SPOJOVACÍ
100
AcDbLine
 10
1690.009234838541
 20
414.4530615772886
 30
0.0
 11
1689.999859838541
 21
414.4530615772886
 31
0.0
  0
LINE
  5
F96
330
1F
100
AcDbEntity
  8
SPOJOVACÍ
100
AcDbLine
 10
1692.867126333646
 20
418.2030615772886
 30
0.0
 11
1690.009234838541
 21
418.2030615772886
 31
0.0
  0
LINE
  5
F97
330
1F
100
AcDbEntity
  8
SPOJOVACÍ
100
AcDbLine
 10
1762.740925752822
 20
402.7647166721729
 30
0.0
 11
1763.506578696869
 21
405.6221723603206
 31
0.0
  0
LINE
  5
F98
330
1F
100
AcDbEntity
  8
SPOJOVACÍ
100
AcDbLine
 10
1764.65797457773
 20
402.9216450231291
 30
0.0
 11
1765.330873692322
 21
405.4329387071569
 31
0.0
  0
LINE
  5
F99
330
1F
100
AcDbEntity
  8
SPOJOVACÍ
100
AcDbLine
 10
1766.577905983676
 20
403.0893313129757
 30
0.0
 11
1767.162135520221
 21
405.2697056266528
 31
0.0
  0
LINE
  5
F9A
330
1F
100
AcDbEntity
  8
SPOJOVACÍ
100
AcDbLine
 10
1768.500737158313
 20
403.2678396869126
 30
0.0
 11
1768.9908907912
 21
405.0971179483561
 31
0.0
  0
LINE
  5
F9B
330
1F
100
AcDbEntity
  8
SPOJOVACÍ
100
AcDbLine
 10
1772.355169738191
 20
403.6575873809791
 30
0.0
 11
1772.640907833664
 21
404.7239764709368
 31
0.0
  0
LINE
  5
F9C
330
1F
100
AcDbEntity
  8
SPOJOVACÍ
100
AcDbLine
 10
1774.286807724208
 20
403.8689632224262
 30
0.0
 11
1774.462182118518
 21
404.5234693723426
 31
0.0
  0
LINE
  5
F9D
330
1F
100
AcDbEntity
  8
SPOJOVACÍ
100
AcDbLine
 10
1776.221418662443
 20
404.0914342726104
 30
0.0
 11
1776.280974878539
 21
404.3137010969925
 31
0.0
  0
LINE
  5
F9E
330
1F
100
AcDbEntity
  8
SPOJOVACÍ
100
AcDbLine
 10
1770.426485722003
 20
403.4572359050083
 30
0.0
 11
1770.817146105574
 21
404.9152003049997
 31
0.0
  0
LINE
  5
F9F
330
1F
100
AcDbEntity
  8
SPOJOVACÍ
  6
DASHED
100
AcDbLine
 10
1771.192582418877
 20
404.1405615772868
 30
0.0
 11
1767.944987154686
 21
409.7655615772867
 31
0.0
  0
LINE
  5
FA0
330
1F
100
AcDbEntity
  8
SPOJOVACÍ
  6
DASHED
100
AcDbLine
 10
1771.192582418877
 20
404.1405615772868
 30
0.0
 11
1767.944987154686
 21
398.5155615772868
 31
0.0
  0
LINE
  5
FA1
330
1F
100
AcDbEntity
  8
SPOJOVACÍ
  6
DASHED
100
AcDbLine
 10
1780.567582418878
 20
404.1405615772868
 30
0.0
 11
1776.778721277321
 21
410.7030615772868
 31
0.0
  0
LINE
  5
FA2
330
1F
100
AcDbEntity
  8
SPOJOVACÍ
  6
DASHED
100
AcDbLine
 10
1780.567582418878
 20
404.1405615772868
 30
0.0
 11
1776.778721277321
 21
397.5780615772868
 31
0.0
  0
LINE
  5
FA3
330
1F
100
AcDbEntity
  8
SPOJOVACÍ
100
AcDbLine
 10
1699.178078732136
 20
403.4631810997519
 30
0.0
 11
1699.587235025977
 21
404.9901731766116
 31
0.0
  0
LINE
  5
FA4
330
1F
100
AcDbEntity
  8
SPOJOVACÍ
100
AcDbLine
 10
1701.004788171841
 20
403.2829582752068
 30
0.0
 11
1701.512451744936
 21
405.1775845231516
 31
0.0
  0
LINE
  5
FA5
330
1F
100
AcDbEntity
  8
SPOJOVACÍ
100
AcDbLine
 10
1702.833998751196
 20
403.1120698309145
 30
0.0
 11
1703.434754311677
 21
405.3541201055644
 31
0.0
  0
LINE
  5
FA6
330
1F
100
AcDbEntity
  8
SPOJOVACÍ
100
AcDbLine
 10
1704.665717112649
 20
402.9505405568264
 30
0.0
 11
1705.354160267116
 21
405.5198453874212
 31
0.0
  0
LINE
  5
FA7
330
1F
100
AcDbEntity
  8
SPOJOVACÍ
100
AcDbLine
 10
1706.499950132028
 20
402.7983961138719
 30
0.0
 11
1707.270686721308
 21
405.6748242243178
 31
0.0
  0
LINE
  5
FA8
330
1F
100
AcDbEntity
  8
SPOJOVACÍ
100
AcDbLine
 10
1710.175988832793
 20
402.522368787338
 30
0.0
 11
1711.095167471209
 21
405.9527901671393
 31
0.0
  0
LINE
  5
FA9
330
1F
100
AcDbEntity
  8
SPOJOVACÍ
100
AcDbLine
 10
1712.017809460215
 20
402.3985416831123
 30
0.0
 11
1713.003153920495
 21
406.0758972718371
 31
0.0
  0
LINE
  5
FAA
330
1F
100
AcDbEntity
  8
SPOJOVACÍ
100
AcDbLine
 10
1708.336704921522
 20
402.6556630451162
 30
0.0
 11
1709.184350363396
 21
405.8191189009979
 31
0.0
  0
LINE
  5
FAB
330
1F
100
AcDbEntity
  8
SPOJOVACÍ
100
AcDbLine
 10
1715.709092474801
 20
402.1794069102819
 30
0.0
 11
1716.81069638924
 21
406.2906486887817
 31
0.0
  0
LINE
  5
FAC
330
1F
100
AcDbEntity
  8
SPOJOVACÍ
100
AcDbLine
 10
1717.558571295137
 20
402.0841605711024
 30
0.0
 11
1718.710282228431
 21
406.3824042897971
 31
0.0
  0
LINE
  5
FAD
330
1F
100
AcDbEntity
  8
SPOJOVACÍ
100
AcDbLine
 10
1719.410619705352
 20
401.9985040719178
 30
0.0
 11
1720.60709706485
 21
406.4638183676655
 31
0.0
  0
LINE
  5
FAE
330
1F
100
AcDbEntity
  8
SPOJOVACÍ
100
AcDbLine
 10
1721.265246566444
 20
401.9224704823986
 30
0.0
 11
1722.501154891351
 21
406.5349431444459
 31
0.0
  0
LINE
  5
FAF
330
1F
100
AcDbEntity
  8
SPOJOVACÍ
100
AcDbLine
 10
1713.862174644221
 20
402.2842109933402
 30
0.0
 11
1714.908325193836
 21
406.1884979968702
 31
0.0
  0
LINE
  5
FB0
330
1F
100
AcDbEntity
  8
SPOJOVACÍ
100
AcDbLine
 10
1743.785619705352
 20
401.9985040719178
 30
0.0
 11
1745.019433746077
 21
406.6031607589869
 31
0.0
  0
LINE
  5
FB1
330
1F
100
AcDbEntity
  8
SPOJOVACÍ
100
AcDbLine
 10
1741.839128145674
 20
401.7316939388851
 30
0.0
 11
1743.157490433584
 21
406.6518889801476
 31
0.0
  0
LINE
  5
FB2
330
1F
100
AcDbEntity
  8
SPOJOVACÍ
100
AcDbLine
 10
1739.955474509986
 20
401.6993981308254
 30
0.0
 11
1741.292932363779
 21
406.6908587941664
 31
0.0
  0
LINE
  5
FB3
330
1F
100
AcDbEntity
  8
SPOJOVACÍ
100
AcDbLine
 10
1738.074515289301
 20
401.6771580164526
 30
0.0
 11
1739.425749359131
 21
406.720032217979
 31
0.0
  0
LINE
  5
FB4
330
1F
100
AcDbEntity
  8
SPOJOVACÍ
100
AcDbLine
 10
1736.196238449173
 20
401.6649286826107
 30
0.0
 11
1737.555930955403
 21
406.7393701985359
 31
0.0
  0
LINE
  5
FB5
330
1F
100
AcDbEntity
  8
SPOJOVACÍ
100
AcDbLine
 10
1734.320632269925
 20
401.6626663908586
 30
0.0
 11
1735.68346639665
 21
406.7488325940907
 31
0.0
  0
LINE
  5
FB6
330
1F
100
AcDbEntity
  8
SPOJOVACÍ
100
AcDbLine
 10
1732.447685340811
 20
401.6703285557135
 30
0.0
 11
1733.808344630005
 21
406.7483781547765
 31
0.0
  0
LINE
  5
FB7
330
1F
100
AcDbEntity
  8
SPOJOVACÍ
100
AcDbLine
 10
1723.12246100432
 20
401.856093860912
 30
0.0
 11
1724.39246934765
 21
406.5958295242611
 31
0.0
  0
LINE
  5
FB8
330
1F
100
AcDbEntity
  8
SPOJOVACÍ
100
AcDbLine
 10
1724.952386554395
 20
401.6878737236642
 30
0.0
 11
1726.28105372751
 21
406.6465271200844
 31
0.0
  0
LINE
  5
FB9
330
1F
100
AcDbEntity
  8
SPOJOVACÍ
100
AcDbLine
 10
1726.844690464103
 20
401.752452793867
 30
0.0
 11
1728.166920985647
 21
406.6870842795837
 31
0.0
  0
LINE
  5
FBA
330
1F
100
AcDbEntity
  8
SPOJOVACÍ
100
AcDbLine
 10
1728.702386554395
 20
401.6878737236642
 30
0.0
 11
1730.05008374442
 21
406.7175481100597
 31
0.0
  0
LINE
  5
FBB
330
1F
100
AcDbEntity
  8
SPOJOVACÍ
100
AcDbLine
 10
1730.577386554395
 20
401.6878737236642
 30
0.0
 11
1731.930554300285
 21
406.7379645024951
 31
0.0
  0
LINE
  5
FBC
330
1F
100
AcDbEntity
  8
SPOJOVACÍ
100
AcDbLine
 10
1730.874950132028
 20
402.7983961138719
 30
0.0
 11
1731.513348106134
 21
405.1809297886933
 31
0.0
  0
LINE
  5
FBD
330
1F
100
AcDbEntity
  8
SPOJOVACÍ
100
AcDbLine
 10
1729.040717112649
 20
402.9505405568264
 30
0.0
 11
1729.606886943854
 21
405.0635151325945
 31
0.0
  0
LINE
  5
FBE
330
1F
100
AcDbEntity
  8
SPOJOVACÍ
100
AcDbLine
 10
1727.208998751196
 20
403.1120698309145
 30
0.0
 11
1727.699662141883
 21
404.9432505343751
 31
0.0
  0
LINE
  5
FBF
330
1F
100
AcDbEntity
  8
SPOJOVACÍ
100
AcDbLine
 10
1747.49746100432
 20
401.856093860912
 30
0.0
 11
1748.735515404602
 21
406.476575785305
 31
0.0
  0
LINE
  5
FC0
330
1F
100
AcDbEntity
  8
SPOJOVACÍ
100
AcDbLine
 10
1755.101227104372
 20
402.2433542184111
 30
0.0
 11
1756.136718718941
 21
406.1078615347945
 31
0.0
  0
LINE
  5
FC1
330
1F
100
AcDbEntity
  8
SPOJOVACÍ
100
AcDbLine
 10
1753.198347833383
 20
402.1393073626034
 30
0.0
 11
1754.290265688883
 21
406.2144002770131
 31
0.0
  0
LINE
  5
FC2
330
1F
100
AcDbEntity
  8
SPOJOVACÍ
100
AcDbLine
 10
1751.298256568058
 20
402.0456654855856
 30
0.0
 11
1752.434336345042
 21
406.2855729347332
 31
0.0
  0
LINE
  5
FC3
330
1F
100
AcDbEntity
  8
SPOJOVACÍ
100
AcDbLine
 10
1749.40093888857
 20
401.9623747718318
 30
0.0
 11
1750.5896727149
 21
406.3987898083654
 31
0.0
  0
LINE
  5
FC4
330
1F
100
AcDbEntity
  8
SPOJOVACÍ
100
AcDbLine
 10
1757.086704921518
 20
402.6556630451162
 30
0.0
 11
1757.980620592278
 21
405.9918017460725
 31
0.0
  0
LINE
  5
FC5
330
1F
100
AcDbEntity
  8
SPOJOVACÍ
100
AcDbLine
 10
1758.925988832793
 20
402.522368787338
 30
0.0
 11
1759.821979353241
 21
405.8662509327572
 31
0.0
  0
LINE
  5
FC6
330
1F
100
AcDbEntity
  8
SPOJOVACÍ
100
AcDbLine
 10
1745.640246566444
 20
401.9224704823986
 30
0.0
 11
1746.737679500182
 21
406.0181459490134
 31
0.0
  0
LINE
  5
FC7
330
1F
100
AcDbEntity
  8
SPOJOVACÍ
100
AcDbLine
 10
1695.532137851684
 20
403.8515350209066
 30
0.0
 11
1695.688103814626
 21
404.4336079188518
 31
0.0
  0
LINE
  5
FC8
330
1F
100
AcDbEntity
  8
SPOJOVACÍ
100
AcDbLine
 10
1697.353864020143
 20
403.6527143748766
 30
0.0
 11
1697.598394556001
 21
404.5653147587012
 31
0.0
  0
LINE
  5
FC9
330
1F
100
AcDbEntity
  8
SPOJOVACÍ
100
AcDbLine
 10
1690.009234838541
 20
390.0780615772886
 30
0.0
 11
1692.867126333646
 21
390.0780615772886
 31
0.0
  0
LINE
  5
FCA
330
1F
100
AcDbEntity
  8
SPOJOVACÍ
100
AcDbLine
 10
1685.321734838541
 20
393.8280615772886
 30
0.0
 11
1690.009234838541
 21
393.8280615772886
 31
0.0
  0
LINE
  5
FCB
330
1F
100
AcDbEntity
  8
SPOJOVACÍ
100
AcDbLine
 10
1690.009234838541
 20
399.4530615772886
 30
0.0
 11
1685.321734838541
 21
399.4530615772886
 31
0.0
  0
ARC
  5
FCC
330
1F
100
AcDbEntity
  8
SPOJOVACÍ
100
AcDbCircle
 10
1685.321734838541
 20
397.5780615772886
 30
0.0
 40
1.875
100
AcDbArc
 50
90.0
 51
180.0
  0
ARC
  5
FCD
330
1F
100
AcDbEntity
  8
SPOJOVACÍ
100
AcDbCircle
 10
1685.321734838541
 20
395.7030615772886
 30
0.0
 40
1.875
100
AcDbArc
 50
180.0
 51
270.0
  0
LINE
  5
FCE
330
1F
100
AcDbEntity
  8
SPOJOVACÍ
100
AcDbLine
 10
1690.009234838541
 20
408.8280615772886
 30
0.0
 11
1685.321734838541
 21
408.8280615772886
 31
0.0
  0
ARC
  5
FCF
330
1F
100
AcDbEntity
  8
SPOJOVACÍ
100
AcDbCircle
 10
1685.321734838541
 20
410.7030615772885
 30
0.0
 40
1.875
100
AcDbArc
 50
180.0
 51
270.0
  0
LINE
  5
FD0
330
1F
100
AcDbEntity
  8
SPOJOVACÍ
100
AcDbLine
 10
1683.446734838541
 20
412.5780615772886
 30
0.0
 11
1683.446734838541
 21
395.7030615772886
 31
0.0
  0
ARC
  5
FD1
330
1F
100
AcDbEntity
  8
SPOJOVACÍ
100
AcDbCircle
 10
1690.111305533283
 20
404.1405615772886
 30
0.0
 40
6.701689614562111
100
AcDbArc
 50
135.6170676673795
 51
224.3829323326205
  0
LINE
  5
FD2
330
1F
100
AcDbEntity
  8
SPOJOVACÍ
100
AcDbLine
 10
1692.867126333646
 20
404.1405615772886
 30
0.0
 11
1692.867126333646
 21
390.0780615772886
 31
0.0
  0
LINE
  5
FD3
330
1F
100
AcDbEntity
  8
SPOJOVACÍ
100
AcDbLine
 10
1690.009234838541
 20
411.7177826677846
 30
0.0
 11
1690.009234838541
 21
390.0780615772886
 31
0.0
  0
LINE
  5
FD4
330
1F
100
AcDbEntity
  8
SPOJOVACÍ
100
AcDbLine
 10
1692.867126333646
 20
404.1405615772886
 30
0.0
 11
1692.867126333646
 21
390.0780615772886
 31
0.0
  0
LINE
  5
FD5
330
1F
100
AcDbEntity
  8
SPOJOVACÍ
  6
DASHED
100
AcDbLine
 10
1776.778721277321
 20
397.5780615772868
 30
0.0
 11
1695.679626333646
 21
397.5780615772886
 31
0.0
  0
LINE
  5
FD6
330
1F
100
AcDbEntity
  8
SPOJOVACÍ
  6
DASHED
100
AcDbLine
 10
1776.778721277321
 20
410.7030615772868
 30
0.0
 11
1695.679626333646
 21
410.7030615772885
 31
0.0
  0
LINE
  5
FD7
330
1F
100
AcDbEntity
  8
SPOJOVACÍ
  6
DASHDOT2
100
AcDbLine
 10
1680.506524865213
 20
404.1405615772886
 30
0.0
 11
1795.42663460912
 21
404.1405615772868
 31
0.0
  0
LINE
  5
FD8
330
1F
100
AcDbEntity
  8
SPOJOVACÍ
100
AcDbLine
 10
1760.826742743986
 20
402.6184836924079
 30
0.0
 11
1761.660802797262
 21
405.7312381877994
 31
0.0
  0
LINE
  5
FD9
330
1F
100
AcDbEntity
  8
NOSNÉ KONSTRUKCE
100
AcDbLine
 10
1693.233048034625
 20
384.1544953025799
 30
0.0
 11
1693.233048034627
 21
424.1851997941524
 31
0.0
  0
LINE
  5
FDA
330
1F
100
AcDbEntity
  8
NOSNÉ KONSTRUKCE
100
AcDbLine
 10
1696.233048034623
 20
378.7471979077503
 30
0.0
 11
1696.233048034627
 21
429.533925246825
 31
0.0
  0
ARC
  5
FDB
330
1F
100
AcDbEntity
  8
SPOJOVACÍ
100
AcDbCircle
 10
1685.321734838541
 20
412.5780615772886
 30
0.0
 40
1.875
100
AcDbArc
 50
90.0
 51
180.0
  0
LINE
  5
FDC
330
1F
100
AcDbEntity
  8
SPOJOVACÍ
100
AcDbLine
 10
1689.999859838541
 20
414.4530615772886
 30
0.0
 11
1689.999859838541
 21
393.8280615772886
 31
0.0
  0
LINE
  5
FDD
330
1F
100
AcDbEntity
  8
SPOJOVACÍ
100
AcDbLine
 10
1692.867126333646
 20
418.2030615772886
 30
0.0
 11
1692.867126333646
 21
404.1405615772886
 31
0.0
  0
LINE
  5
FDE
330
1F
100
AcDbEntity
  8
SPOJOVACÍ
100
AcDbLine
 10
1692.867126333646
 20
418.2030615772886
 30
0.0
 11
1692.867126333646
 21
404.1405615772886
 31
0.0
  0
LINE
  5
FDF
330
1F
100
AcDbEntity
  8
SPOJOVACÍ
100
AcDbLine
 10
1690.009234838541
 20
404.1405615772886
 30
0.0
 11
1690.009234838541
 21
418.2030615772886
 31
0.0
  0
LINE
  5
FE0
330
1F
100
AcDbEntity
  8
NOSNÉ KONSTRUKCE
100
AcDbLine
 10
1596.733048034618
 20
429.5339252468269
 30
0.0
 11
1699.233048034625
 21
429.5339252468214
 31
0.0
  0
LINE
  5
FE1
330
1F
100
AcDbEntity
  8
NOSNÉ KONSTRUKCE
100
AcDbLine
 10
1596.733048034616
 20
378.7471979077567
 30
0.0
 11
1699.233048034627
 21
378.7471979077503
 31
0.0
  0
LINE
  5
FE2
330
1F
100
AcDbEntity
  8
NOSNÉ KONSTRUKCE
100
AcDbLine
 10
1596.733048034618
 20
389.533925246825
 30
0.0
 11
1596.733048034618
 21
429.5339252468269
 31
0.0
  0
LINE
  5
FE3
330
1F
100
AcDbEntity
  8
NOSNÉ KONSTRUKCE
100
AcDbLine
 10
1596.733048034616
 20
378.7471979077567
 30
0.0
 11
1596.733048034618
 21
429.5339252468269
 31
0.0
  0
HATCH
  5
FE4
330
1F
100
AcDbEntity
  8
STAVBA OBRYS
100
AcDbHatch
 10
0.0
 20
0.0
 30
0.0
210
0.0
220
0.0
230
1.0
  2
AR-SAND
 70
     0
 71
     0
 91
        1
 92
        7
 72
     0
 73
     1
 93
        4
 10
2082.301139005591
 20
257.722708317316
 10
1828.991234482112
 20
257.7227083173151
 10
1828.991234482112
 20
213.3285855949828
 10
2070.936688325516
 20
213.3285855949828
 97
        0
 75
     0
 76
     1
 52
0.0
 41
0.35
 77
     0
 78
     4
 53
37.5
 43
678.4353918455155
 44
-1436.179279728742
 45
-0.560010953594416
 46
17.12946330652698
 79
     6
 49
0.0
 49
-13.5128
 49
0.0
 49
-15.113
 49
0.0
 49
-14.44625
 53
7.499999999999999
 43
678.4353918455155
 44
-1436.179279728742
 45
15.73331490983009
 46
25.08887851989239
 79
     6
 49
0.0
 49
-7.2898
 49
0.0
 49
-12.17929999999999
 49
0.0
 49
-4.66725
 53
327.4999999999999
 43
667.5006918455157
 44
-1436.179279728742
 45
27.68473295845102
 46
0.0503014637490992
 79
     6
 49
0.0
 49
-4.444999999999999
 49
0.0
 49
-16.002
 49
0.0
 49
-20.89149999999999
 53
317.5
 43
667.5006918455157
 44
-1436.179279728742
 45
26.7244758365304
 46
7.802526314002567
 79
     6
 49
0.0
 49
-2.222499999999999
 49
0.0
 49
-10.49019999999999
 49
0.0
 49
-12.00149999999999
 47
0.9960938612785552
 98
        1
 10
2000.71528417602
 20
235.1843716133511
  0
HATCH
  5
FE5
330
1F
100
AcDbEntity
  8
STAVBA OBRYS
100
AcDbHatch
 10
0.0
 20
0.0
 30
0.0
210
0.0
220
0.0
230
1.0
  2
AR-CONC
 70
     0
 71
     0
 91
        1
 92
        7
 72
     0
 73
     1
 93
        5
 10
2070.936688325516
 20
213.3285855949828
 10
1773.486615869216
 20
213.3285855949828
 10
1773.486615869216
 20
107.4880659495387
 10
1828.991234482112
 20
107.4880659495387
 10
2043.842575598307
 20
107.4880659495387
 97
        0
 75
     0
 76
     1
 52
0.0
 41
0.35
 77
     0
 78
    13
 53
50.0
 43
678.4353918455155
 44
-1436.179279728742
 45
63.7646341486014
 46
-5.57867993861608
 79
     2
 49
6.667499999999999
 49
-73.3425
 53
355.0
 43
678.4353918455155
 44
-1436.179279728742
 45
-12.33498909148344
 46
66.86982500876299
 79
     2
 49
5.333999999999999
 49
-58.67399999999999
 53
100.451
 43
683.7490918455162
 44
-1436.644167228742
 45
51.42987558308573
 46
61.29084073710215
 79
     2
 49
5.6665
 49
-62.3315
 53
46.1842
 43
678.4353918455155
 44
-1418.399279728742
 45
94.87766431224546
 46
-14.7148147764545
 79
     2
 49
10.00124999999999
 49
-110.0137499999999
 53
96.63559999999998
 43
686.3418568455156
 44
-1419.625504728742
 45
83.09148206318299
 46
86.59894456151723
 79
     2
 49
8.49974999999997
 49
-93.49724999999976
 53
351.184
 43
678.4353918455155
 44
-1418.399279728742
 45
83.09161203487688
 46
86.59879125120918
 79
     2
 49
8.000999999999999
 49
-88.01099999999999
 53
21.0
 43
687.325391845515
 44
-1422.844279728742
 45
53.06520794238414
 46
-35.79293148086687
 79
     2
 49
6.667499999999999
 49
-73.3425
 53
326.0
 43
687.325391845515
 44
-1422.844279728742
 45
21.63070992167647
 46
64.46578814281174
 79
     2
 49
5.333999999999999
 49
-58.67399999999999
 53
71.45140000000001
 43
691.7474668455154
 44
-1425.827014728742
 45
74.69577176954356
 46
28.6730002006201
 79
     2
 49
5.6665
 49
-62.3315
 53
37.5
 43
678.4353918455155
 44
-1436.179279728742
 45
1.081011137707135
 46
29.59426360560359
 79
     6
 49
0.0
 49
-57.96279999999999
 49
0.0
 49
-59.56299999999999
 49
0.0
 49
-58.89624999999999
 53
7.499999999999999
 43
678.4353918455155
 44
-1436.179279728742
 45
23.38688187860701
 46
35.06320118634183
 79
     6
 49
0.0
 49
-33.95979999999999
 49
0.0
 49
-56.62929999999999
 49
0.0
 49
-22.44725
 53
327.4999999999999
 43
658.6106918455145
 44
-1436.179279728742
 45
47.45670830840498
 46
-2.005060397435712
 79
     6
 49
0.0
 49
-22.22499999999999
 49
0.0
 49
-69.342
 49
0.0
 49
-92.01149999999998
 53
317.5
 43
649.7206918455151
 44
-1436.179279728742
 45
51.84521348510632
 46
8.899271861666553
 79
     6
 49
0.0
 49
-28.8925
 49
0.0
 49
-46.05019999999999
 49
0.0
 49
-65.3415
 47
1.943322863705773
 98
        1
 10
1888.073362733557
 20
170.9433540444509
  0
LINE
  5
FE6
330
1F
100
AcDbEntity
  8
STAVBA OBRYS
100
AcDbLine
 10
1828.991234482112
 20
257.7227083173151
 30
0.0
 11
1828.991234482112
 21
213.3285855949828
 31
0.0
  0
LINE
  5
FE7
330
1F
100
AcDbEntity
  8
STAVBA OBRYS
100
AcDbLine
 10
1828.991234482112
 20
257.7227083173151
 30
0.0
 11
2082.301139005591
 21
257.722708317316
 31
0.0
  0
LINE
  5
FE8
330
1F
100
AcDbEntity
  8
STAVBA OBRYS
  6
IZOLACE
 48
1.399999999999999
100
AcDbLine
 10
1828.991234482112
 20
272.6528390797188
 30
0.0
 11
2086.123102911887
 21
272.6528390797178
 31
0.0
  0
LINE
  5
FE9
330
1F
100
AcDbEntity
  8
STAVBA OBRYS
  6
IZOLACE
 48
1.399999999999999
100
AcDbLine
 10
1828.991234482112
 20
302.5131006045242
 30
0.0
 11
2093.76703072448
 21
302.5131006045242
 31
0.0
  0
LINE
  5
FEA
330
1F
100
AcDbEntity
  8
STAVBA OBRYS
100
AcDbLine
 10
1828.991234482112
 20
317.443231366927
 30
0.0
 11
1828.991234482112
 21
257.7227083173151
 31
0.0
  0
LINE
  5
FEB
330
1F
100
AcDbEntity
  8
STAVBA OBRYS
100
AcDbLine
 10
1828.991234482112
 20
287.5829698421215
 30
0.0
 11
2089.945066818184
 21
287.5829698421215
 31
0.0
  0
LINE
  5
FEC
330
1F
100
AcDbEntity
  8
STAVBA OBRYS
100
AcDbLine
 10
1773.486615869216
 20
213.3285855949828
 30
0.0
 11
2070.936688325516
 21
213.3285855949828
 31
0.0
  0
LINE
  5
FED
330
1F
100
AcDbEntity
  8
STAVBA OBRYS
100
AcDbLine
 10
1773.486615869216
 20
107.4880659495387
 30
0.0
 11
1773.486615869216
 21
213.3285855949828
 31
0.0
  0
LINE
  5
FEE
330
1F
100
AcDbEntity
  8
STAVBA OBRYS
100
AcDbLine
 10
1828.991234482112
 20
107.4880659495387
 30
0.0
 11
1773.486615869216
 21
107.4880659495387
 31
0.0
  0
LINE
  5
FEF
330
1F
100
AcDbEntity
  8
STAVBA OBRYS
100
AcDbLine
 10
1699.233048034624
 20
513.8672759495379
 30
0.0
 11
1831.005394605369
 21
513.8672759495379
 31
0.0
  0
LINE
  5
FF0
330
1F
100
AcDbEntity
  8
STAVBA OBRYS
100
AcDbLine
 10
1831.005394605369
 20
319.5471907233144
 30
0.0
 11
1831.005394605369
 21
513.8672759495379
 31
0.0
  0
LINE
  5
FF1
330
1F
100
AcDbEntity
  8
STAVBA OBRYS
100
AcDbLine
 10
1831.005394605369
 20
319.5471907233144
 30
0.0
 11
2099.603154754032
 21
319.5471907233144
 31
0.0
  0
LINE
  5
FF2
330
1F
100
AcDbEntity
  8
STAVBA OBRYS
100
AcDbLine
 10
1828.991234482112
 20
317.443231366927
 30
0.0
 11
1828.991234482112
 21
510.5939405072998
 31
0.0
  0
LINE
  5
FF3
330
1F
100
AcDbEntity
  8
STAVBA OBRYS
100
AcDbLine
 10
1828.991234482112
 20
107.4880659495387
 30
0.0
 11
2043.842575598307
 21
107.4880659495387
 31
0.0
  0
CIRCLE
  5
FF4
330
1F
100
AcDbEntity
  8
NOSNÉ KONSTRUKCE
100
AcDbCircle
 10
1586.269146158806
 20
340.1522094206278
 30
0.0
 40
5.0
  0
CIRCLE
  5
FF5
330
1F
100
AcDbEntity
  8
NOSNÉ KONSTRUKCE
100
AcDbCircle
 10
1586.269146158806
 20
296.082958087852
 30
0.0
 40
5.0
  0
CIRCLE
  5
FF6
330
1F
100
AcDbEntity
  8
NOSNÉ KONSTRUKCE
100
AcDbCircle
 10
1586.269146158806
 20
70.52311806727209
 30
0.0
 40
5.0
  0
CIRCLE
  5
FF7
330
1F
100
AcDbEntity
  8
NOSNÉ KONSTRUKCE
100
AcDbCircle
 10
1586.269146158806
 20
483.1198358522064
 30
0.0
 40
5.0
  0
CIRCLE
  5
FF8
330
1F
100
AcDbEntity
  8
NOSNÉ KONSTRUKCE
100
AcDbCircle
 10
1586.269146158806
 20
448.5732383147928
 30
0.0
 40
5.0
  0
LINE
  5
FF9
330
1F
100
AcDbEntity
  8
PROFILY
100
AcDbLine
 10
1846.838355374401
 20
527.2386520637986
 30
0.0
 11
1846.838355374401
 21
505.5078619134122
 31
0.0
  0
LINE
  5
FFA
330
1F
100
AcDbEntity
  8
PROFILY
100
AcDbLine
 10
1849.275855374401
 20
529.618865821339
 30
0.0
 11
1849.275855374401
 21
501.5542321448887
 31
0.0
  0
ARC
  5
FFB
330
1F
100
AcDbEntity
  8
PROFILY
100
AcDbCircle
 10
1848.463355374401
 20
501.5542321448887
 30
0.0
 40
0.8125
100
AcDbArc
 50
224.6867669083391
 51
0.0
  0
LINE
  5
FFC
330
1F
100
AcDbEntity
  8
PROFILY
100
AcDbLine
 10
1846.838355374401
 20
505.5078619134122
 30
0.0
 11
1840.446325034102
 21
511.9701669468607
 31
0.0
  0
LINE
  5
FFD
330
1F
100
AcDbEntity
  8
PROFILY
100
AcDbLine
 10
1838.713355374401
 20
510.2560425614823
 30
0.0
 11
1840.446325034102
 21
511.9701669468607
 31
0.0
  0
LINE
  5
FFE
330
1F
100
AcDbEntity
  8
PROFILY
100
AcDbLine
 10
1847.885698821169
 20
500.9828573497583
 30
0.0
 11
1838.713355374401
 21
510.2560425614823
 31
0.0
  0
LINE
  5
FFF
330
1F
100
AcDbEntity
  8
PROFILY
100
AcDbLine
 10
1845.030523234486
 20
512.1246648435811
 30
0.0
 11
1842.599338273604
 21
511.9493196526604
 31
0.0
  0
LINE
  5
1000
330
1F
100
AcDbEntity
  8
PROFILY
100
AcDbLine
 10
1844.116748773081
 20
524.7942722422789
 30
0.0
 11
1845.030523234486
 21
512.1246648435811
 31
0.0
  0
LINE
  5
1001
330
1F
100
AcDbEntity
  8
PROFILY
100
AcDbLine
 10
1841.844141969918
 20
522.4202192900914
 30
0.0
 11
1842.599338273604
 21
511.9493196526604
 31
0.0
  0
LINE
  5
1002
330
1F
100
AcDbEntity
  8
STAVBA OBRYS
100
AcDbLine
 10
1828.991234482112
 20
317.443231366927
 30
0.0
 11
2097.588994630775
 21
317.443231366927
 31
0.0
  0
LINE
  5
1003
330
1F
100
AcDbEntity
  8
PROFILY
100
AcDbLine
 10
1521.963492626942
 20
517.0769734779026
 30
0.0
 11
1524.394677587824
 21
516.9016282869819
 31
0.0
  0
LINE
  5
1004
330
1F
100
AcDbEntity
  8
PROFILY
100
AcDbLine
 10
1844.116748773081
 20
524.7942722422789
 30
0.0
 11
1522.871483480057
 21
529.6663903596985
 31
0.0
  0
LINE
  5
1005
330
1F
100
AcDbEntity
  8
PROFILY
100
AcDbLine
 10
1841.844141969918
 20
522.4202192900914
 30
0.0
 11
1525.158919805429
 21
527.4979507533074
 31
0.0
  0
LINE
  5
1006
330
1F
100
AcDbEntity
  8
PROFILY
100
AcDbLine
 10
1525.158919805429
 20
527.4979507533074
 30
0.0
 11
1524.394677587824
 21
516.9016282869819
 31
0.0
  0
LINE
  5
1007
330
1F
100
AcDbEntity
  8
PROFILY
100
AcDbLine
 10
1522.871483480057
 20
529.6663903596985
 30
0.0
 11
1521.963492626942
 21
517.0769734779026
 31
0.0
  0
LINE
  5
1008
330
1F
100
AcDbEntity
  8
STAVBA OBRYS
100
AcDbLine
 10
1699.233048034624
 20
511.7633165931505
 30
0.0
 11
1828.991234482112
 21
511.7633165931505
 31
0.0
  0
LINE
  5
1009
330
1F
100
AcDbEntity
  8
NOSNÉ KONSTRUKCE
100
AcDbLine
 10
1610.23304803462
 20
493.378623699525
 30
0.0
 11
1565.438864354003
 21
493.378623699525
 31
0.0
  0
LINE
  5
100A
330
1F
100
AcDbEntity
  8
STAVBA OBRYS
100
AcDbLine
 10
1699.233048034624
 20
500.8884416106824
 30
0.0
 11
1615.561635102877
 21
500.8884416106806
 31
0.0
  0
LINE
  5
100B
330
1F
100
AcDbEntity
  8
NOSNÉ KONSTRUKCE
100
AcDbLine
 10
1565.438864354009
 20
221.0785548566285
 30
0.0
 11
1565.438864354014
 21
-33.10242425339458
 31
0.0
  0
LINE
  5
100C
330
1F
100
AcDbEntity
  8
NOSNÉ KONSTRUKCE
100
AcDbLine
 10
1560.233048034631
 20
220.9838765835169
 30
0.0
 11
1560.233048034631
 21
-33.70339489243599
 31
0.0
  0
LINE
  5
100D
330
1F
100
AcDbEntity
  8
STAVBA OBRYS
100
AcDbLine
 10
1699.233048034629
 20
225.3706365710162
 30
0.0
 11
1699.233048034632
 21
-17.65693575870011
 31
0.0
  0
LINE
  5
100E
330
1F
100
AcDbEntity
  8
STAVBA OBRYS
100
AcDbLine
 10
1615.561635102883
 20
222.730014942624
 30
0.0
 11
1615.561635102885
 21
-27.31614373187278
 31
0.0
  0
LINE
  5
100F
330
1F
100
AcDbEntity
  8
NOSNÉ KONSTRUKCE
100
AcDbLine
 10
1610.233048034634
 20
222.5618478020418
 30
0.0
 11
1610.233048034638
 21
134.2434099268133
 31
0.0
  0
LINE
  5
1010
330
1F
100
AcDbEntity
  8
STAVBA OBRYS
100
AcDbLine
 10
1699.233048034624
 20
510.5939405072998
 30
0.0
 11
1828.991234482112
 21
510.5939405072998
 31
0.0
  0
LINE
  5
1011
330
1F
100
AcDbEntity
  8
PROFILY
100
AcDbLine
 10
1846.838355374401
 20
527.2386520637986
 30
0.0
 11
1520.155660487026
 21
532.4766830239426
 31
0.0
  0
LINE
  5
1012
330
1F
100
AcDbEntity
  8
PROFILY
100
AcDbLine
 10
1849.275855374401
 20
529.618865821339
 30
0.0
 11
1517.718160487026
 21
534.6473858549546
 31
0.0
  0
INSERT
  5
1013
330
1F
100
AcDbEntity
  8
POPIS
100
AcDbBlockReference
  2
E_PUNKT
 10
1519.359048570367
 20
524.6646713724406
 30
0.0
  0
LINE
  5
1014
330
1F
100
AcDbEntity
  8
PROFILY
100
AcDbLine
 10
1519.108317040259
 20
505.9351659840798
 30
0.0
 11
1528.280660487026
 21
515.2083511958038
 31
0.0
  0
LINE
  5
1015
330
1F
100
AcDbEntity
  8
PROFILY
100
AcDbLine
 10
1528.280660487026
 20
515.2083511958038
 30
0.0
 11
1526.547690827326
 21
516.9224755811823
 31
0.0
  0
LINE
  5
1016
330
1F
100
AcDbEntity
  8
PROFILY
100
AcDbLine
 10
1520.155660487026
 20
510.4601705477338
 30
0.0
 11
1526.547690827326
 21
516.9224755811823
 31
0.0
  0
ARC
  5
1017
330
1F
100
AcDbEntity
  8
PROFILY
100
AcDbCircle
 10
1518.530660487027
 20
506.5065407792102
 30
0.0
 40
0.8125
100
AcDbArc
 50
180.0
 51
315.3132330916608
  0
LINE
  5
1018
330
1F
100
AcDbEntity
  8
PROFILY
100
AcDbLine
 10
1517.718160487026
 20
534.6473858549546
 30
0.0
 11
1517.718160487026
 21
506.5065407792102
 31
0.0
  0
LINE
  5
1019
330
1F
100
AcDbEntity
  8
PROFILY
100
AcDbLine
 10
1520.155660487026
 20
532.4766830239426
 30
0.0
 11
1520.155660487026
 21
510.4601705477338
 31
0.0
  0
LINE
  5
101A
330
1F
100
AcDbEntity
  8
STAVBA OBRYS
100
AcDbLine
 10
1699.233048034625
 20
510.5939405072998
 30
0.0
 11
1699.233048034629
 21
225.3706365710162
 31
0.0
  0
LINE
  5
101B
330
1F
100
AcDbEntity
  8
STAVBA OBRYS
  6
IZOLACE
 48
4.0
100
AcDbLine
 10
1657.51078289638
 20
500.8884416106815
 30
0.0
 11
1656.739621374777
 21
-22.56246837992114
 31
0.0
  0
LINE
  5
101C
330
1F
100
AcDbEntity
  8
NOSNÉ KONSTRUKCE
100
AcDbLine
 10
1560.233048034627
 20
509.4285979408445
 30
0.0
 11
1560.233048034631
 21
220.9838765835169
 31
0.0
  0
LINE
  5
101D
330
1F
100
AcDbEntity
  8
NOSNÉ KONSTRUKCE
100
AcDbLine
 10
1565.438864354003
 20
509.4285979408445
 30
0.0
 11
1565.438864354009
 21
221.0785548566285
 31
0.0
  0
LINE
  5
101E
330
1F
100
AcDbEntity
  8
STAVBA OBRYS
100
AcDbLine
 10
1615.561635102877
 20
500.8884416106806
 30
0.0
 11
1615.561635102883
 21
222.730014942624
 31
0.0
  0
LINE
  5
101F
330
1F
100
AcDbEntity
  8
NOSNÉ KONSTRUKCE
100
AcDbLine
 10
1610.233048034627
 20
493.378623699525
 30
0.0
 11
1610.233048034634
 21
222.5618478020418
 31
0.0
  0
TEXT
  5
1020
330
1F
100
AcDbEntity
  8
POPIS
100
AcDbText
 10
1330.437303292662
 20
616.7691159759009
 30
0.0
 40
35.0
  1
ŘEZ-ATIKA, PL. STŘECHA
 41
0.85
  7
SIMPLEX7
100
AcDbText
  0
TEXT
  5
1021
330
1F
100
AcDbEntity
  8
POPIS
100
AcDbText
 10
1330.437303292662
 20
671.3938590017018
 30
0.0
 40
50.0
  1
HORNÍ ZAKONČENÍ
 41
0.85
  7
SIMPLEX7
100
AcDbText
  0
CIRCLE
  5
1022
330
1F
100
AcDbEntity
  8
POPIS
100
AcDbCircle
 10
1569.607669917962
 20
-142.4948895499052
 30
0.0
 40
11.13656048292026
  0
TEXT
  5
1023
330
1F
100
AcDbEntity
  8
POPIS
100
AcDbText
 10
1565.22538640764
 20
-148.6050509178509
 30
0.0
 40
12.0
  1
R
 41
0.85
  7
SIMPLEX7
100
AcDbText
  0
TEXT
  5
1024
330
1F
100
AcDbEntity
  8
POPIS
100
AcDbText
 10
1342.878752463989
 20
-350.6906166669629
 30
0.0
 40
25.0
  1
06
 41
0.85
  7
SIMPLEX7
100
AcDbText
  0
TEXT
  5
1025
330
1F
100
AcDbEntity
  8
POPIS
100
AcDbText
 10
1397.222455623735
 20
-350.6906166669629
 30
0.0
 40
25.0
  1
Nosný profil systému - úhelník (np. SPIDI, EuroFox, SPEEDY...)
 41
0.7
  7
SIMPLEX7
100
AcDbText
  0
TEXT
  5
1026
330
1F
100
AcDbEntity
  8
POPIS
100
AcDbText
 10
1342.878752463989
 20
-315.0717279688739
 30
0.0
 40
25.0
  1
05
 41
0.85
  7
SIMPLEX7
100
AcDbText
  0
TEXT
  5
1027
330
1F
100
AcDbEntity
  8
POPIS
100
AcDbText
 10
1397.222455623735
 20
-315.0717279688739
 30
0.0
 40
25.0
  1
Upevňovací prvek systému - kotva (np. SPIDI, EuroFox, SPEEDY...)
 41
0.7
  7
SIMPLEX7
100
AcDbText
  0
TEXT
  5
1028
330
1F
100
AcDbEntity
  8
POPIS
100
AcDbText
 10
1397.222455623735
 20
-495.8610017872712
 30
0.0
 40
25.0
  1
Tepelná izolace (np. ORSIL, ROCKWOOL, ISOVER, NOBASIL)
 41
0.7
  7
SIMPLEX7
100
AcDbText
  0
TEXT
  5
1029
330
1F
100
AcDbEntity
  8
POPIS
100
AcDbText
 10
1342.878752463989
 20
-495.8610017872712
 30
0.0
 40
25.0
  1
08
 41
0.85
  7
SIMPLEX7
100
AcDbText
  0
TEXT
  5
102A
330
1F
100
AcDbEntity
  8
POPIS
100
AcDbText
 10
1397.222455623735
 20
-388.873956509488
 30
0.0
 40
25.0
  1
Oplechování - klempířský výrobek
 41
0.7
  7
SIMPLEX7
100
AcDbText
  0
TEXT
  5
102B
330
1F
100
AcDbEntity
  8
POPIS
100
AcDbText
 10
1342.878752463989
 20
-388.873956509488
 30
0.0
 40
25.0
  1
07
 41
0.85
  7
SIMPLEX7
100
AcDbText
  0
TEXT
  5
102C
330
1F
100
AcDbEntity
  8
POPIS
100
AcDbText
 10
1397.222455623735
 20
-278.9649064816854
 30
0.0
 40
25.0
  1
Kotevní prvek
 41
0.7
  7
SIMPLEX7
100
AcDbText
  0
TEXT
  5
102D
330
1F
100
AcDbEntity
  8
POPIS
100
AcDbText
 10
1342.878752463989
 20
-278.9649064816854
 30
0.0
 40
25.0
  1
04
 41
0.85
  7
SIMPLEX7
100
AcDbText
  0
TEXT
  5
102E
330
1F
100
AcDbEntity
  8
POPIS
100
AcDbText
 10
1397.222455623735
 20
-243.5607452635228
 30
0.0
 40
25.0
  1
Vzduchová mezera - min. 25 mm
 41
0.7
  7
SIMPLEX7
100
AcDbText
  0
TEXT
  5
102F
330
1F
100
AcDbEntity
  8
POPIS
100
AcDbText
 10
1342.878752463989
 20
-243.5607452635228
 30
0.0
 40
25.0
  1
03
 41
0.85
  7
SIMPLEX7
100
AcDbText
  0
TEXT
  5
1030
330
1F
100
AcDbEntity
  8
POPIS
100
AcDbText
 10
1397.222455623735
 20
-209.6105570188007
 30
0.0
 40
25.0
  1
Vrut se zápustnou hlavou
 41
0.7
  7
SIMPLEX7
100
AcDbText
  0
TEXT
  5
1031
330
1F
100
AcDbEntity
  8
POPIS
100
AcDbText
 10
1342.878752463989
 20
-209.6105570188007
 30
0.0
 40
25.0
  1
02
 41
0.85
  7
SIMPLEX7
100
AcDbText
  0
TEXT
  5
1032
330
1F
100
AcDbEntity
  8
POPIS
100
AcDbText
 10
1397.222455623735
 20
-173.0155454031724
 30
0.0
 40
25.0
  1
Deska CETRIS   (BASIC,FINISH,LASUR)
 41
0.7
  7
SIMPLEX7
100
AcDbText
  0
TEXT
  5
1033
330
1F
100
AcDbEntity
  8
POPIS
100
AcDbText
 10
1342.878752463989
 20
-173.0155454031724
 30
0.0
 40
25.0
  1
01
 41
0.85
  7
SIMPLEX7
100
AcDbText
  0
LINE
  5
1034
330
1F
100
AcDbEntity
  8
POPIS
100
AcDbLine
 10
1393.396517579312
 20
129.8338773893741
 30
0.0
 11
1642.782646472376
 21
129.8338773893732
 31
0.0
  0
TEXT
  5
1035
330
1F
100
AcDbEntity
  8
POPIS
100
AcDbText
 10
1353.419031236043
 20
116.3905359400035
 30
0.0
 40
25.0
  1
08
 41
0.7
  7
SIMPLEX7
100
AcDbText
  0
INSERT
  5
1036
330
1F
100
AcDbEntity
  8
POPIS
100
AcDbBlockReference
  2
E_PUNKT
 10
1643.950540425481
 20
130.1698698753356
 30
0.0
  0
LINE
  5
1037
330
1F
100
AcDbEntity
  8
POPIS
100
AcDbLine
 10
1393.396517579312
 20
16.54464941795311
 30
0.0
 11
1588.609565924323
 21
16.54464941795185
 31
0.0
  0
TEXT
  5
1038
330
1F
100
AcDbEntity
  8
POPIS
100
AcDbText
 10
1352.016907541317
 20
3.101307968583455
 30
0.0
 40
25.0
  1
03
 41
0.7
  7
SIMPLEX7
100
AcDbText
  0
INSERT
  5
103A
330
1F
100
AcDbEntity
  8
POPIS
100
AcDbBlockReference
  2
E_PUNKT
 10
1589.215696006699
 20
38.79902070638479
 30
0.0
  0
LINE
  5
103B
330
1F
100
AcDbEntity
  8
STAVBA OBRYS
100
AcDbLine
 10
2097.588994630775
 20
317.443231366927
 30
0.0
 11
2099.603154754032
 21
319.5471907233144
 31
0.0
  0
LINE
  5
103C
330
1F
100
AcDbEntity
  8
STAVBA OBRYS
100
AcDbLine
 10
2089.238591602482
 20
317.443231366927
 30
0.0
 11
2089.238591602482
 21
319.5471907233144
 31
0.0
  0
LINE
  5
103D
330
1F
100
AcDbEntity
  8
STAVBA OBRYS
100
AcDbLine
 10
2068.509465299382
 20
317.443231366927
 30
0.0
 11
2068.509465299382
 21
319.5471907233144
 31
0.0
  0
LINE
  5
103E
330
1F
100
AcDbEntity
  8
STAVBA OBRYS
100
AcDbLine
 10
2047.780338996282
 20
317.443231366927
 30
0.0
 11
2047.780338996282
 21
319.5471907233144
 31
0.0
  0
LINE
  5
103F
330
1F
100
AcDbEntity
  8
STAVBA OBRYS
100
AcDbLine
 10
2006.322086390081
 20
317.443231366927
 30
0.0
 11
2006.322086390081
 21
319.5471907233144
 31
0.0
  0
LINE
  5
1040
330
1F
100
AcDbEntity
  8
STAVBA OBRYS
100
AcDbLine
 10
2027.051212693181
 20
317.443231366927
 30
0.0
 11
2027.051212693181
 21
319.5471907233144
 31
0.0
  0
LINE
  5
1041
330
1F
100
AcDbEntity
  8
STAVBA OBRYS
100
AcDbLine
 10
1964.863833783881
 20
317.443231366927
 30
0.0
 11
1964.863833783881
 21
319.5471907233144
 31
0.0
  0
LINE
  5
1042
330
1F
100
AcDbEntity
  8
STAVBA OBRYS
100
AcDbLine
 10
1985.592960086981
 20
317.443231366927
 30
0.0
 11
1985.592960086981
 21
319.5471907233144
 31
0.0
  0
LINE
  5
1043
330
1F
100
AcDbEntity
  8
STAVBA OBRYS
100
AcDbLine
 10
1923.33634744571
 20
317.443231366927
 30
0.0
 11
1923.33634744571
 21
319.5471907233144
 31
0.0
  0
LINE
  5
1044
330
1F
100
AcDbEntity
  8
STAVBA OBRYS
100
AcDbLine
 10
1944.06547374881
 20
317.443231366927
 30
0.0
 11
1944.06547374881
 21
319.5471907233144
 31
0.0
  0
LINE
  5
1045
330
1F
100
AcDbEntity
  8
STAVBA OBRYS
100
AcDbLine
 10
1923.40558117768
 20
317.443231366927
 30
0.0
 11
1923.40558117768
 21
319.5471907233144
 31
0.0
  0
LINE
  5
1046
330
1F
100
AcDbEntity
  8
STAVBA OBRYS
100
AcDbLine
 10
1944.134707480781
 20
317.443231366927
 30
0.0
 11
1944.134707480781
 21
319.5471907233144
 31
0.0
  0
LINE
  5
1047
330
1F
100
AcDbEntity
  8
STAVBA OBRYS
100
AcDbLine
 10
1881.878094839509
 20
317.443231366927
 30
0.0
 11
1881.878094839509
 21
319.5471907233144
 31
0.0
  0
LINE
  5
1048
330
1F
100
AcDbEntity
  8
STAVBA OBRYS
100
AcDbLine
 10
1902.60722114261
 20
317.443231366927
 30
0.0
 11
1902.60722114261
 21
319.5471907233144
 31
0.0
  0
LINE
  5
1049
330
1F
100
AcDbEntity
  8
STAVBA OBRYS
100
AcDbLine
 10
1840.419842233309
 20
317.443231366927
 30
0.0
 11
1840.419842233309
 21
319.5471907233144
 31
0.0
  0
LINE
  5
104A
330
1F
100
AcDbEntity
  8
STAVBA OBRYS
100
AcDbLine
 10
1861.14896853641
 20
317.443231366927
 30
0.0
 11
1861.14896853641
 21
319.5471907233144
 31
0.0
  0
LINE
  5
104B
330
1F
100
AcDbEntity
  8
STAVBA OBRYS
100
AcDbLine
 10
1831.005394605369
 20
319.5471907233144
 30
0.0
 11
1828.991234482112
 21
319.5471907233144
 31
0.0
  0
LINE
  5
104C
330
1F
100
AcDbEntity
  8
STAVBA OBRYS
100
AcDbLine
 10
1831.005394605369
 20
338.4635360098285
 30
0.0
 11
1828.991234482112
 21
338.4635360098285
 31
0.0
  0
LINE
  5
104D
330
1F
100
AcDbEntity
  8
STAVBA OBRYS
100
AcDbLine
 10
1831.005394605369
 20
357.3798812963426
 30
0.0
 11
1828.991234482112
 21
357.3798812963426
 31
0.0
  0
LINE
  5
104E
330
1F
100
AcDbEntity
  8
STAVBA OBRYS
100
AcDbLine
 10
1831.005394605369
 20
376.2962265828567
 30
0.0
 11
1828.991234482112
 21
376.2962265828567
 31
0.0
  0
LINE
  5
104F
330
1F
100
AcDbEntity
  8
STAVBA OBRYS
100
AcDbLine
 10
1831.005394605369
 20
414.128917155885
 30
0.0
 11
1828.991234482112
 21
414.128917155885
 31
0.0
  0
LINE
  5
1050
330
1F
100
AcDbEntity
  8
STAVBA OBRYS
100
AcDbLine
 10
1831.005394605369
 20
433.045262442399
 30
0.0
 11
1828.991234482112
 21
433.045262442399
 31
0.0
  0
LINE
  5
1051
330
1F
100
AcDbEntity
  8
STAVBA OBRYS
100
AcDbLine
 10
1831.005394605369
 20
451.9616077289132
 30
0.0
 11
1828.991234482112
 21
451.9616077289132
 31
0.0
  0
LINE
  5
1052
330
1F
100
AcDbEntity
  8
STAVBA OBRYS
100
AcDbLine
 10
1810.639648394989
 20
511.7633165931505
 30
0.0
 11
1810.639648394989
 21
513.8672759495379
 31
0.0
  0
LINE
  5
1053
330
1F
100
AcDbEntity
  8
STAVBA OBRYS
100
AcDbLine
 10
1792.288062307866
 20
511.7633165931505
 30
0.0
 11
1792.288062307866
 21
513.8672759495379
 31
0.0
  0
LINE
  5
1054
330
1F
100
AcDbEntity
  8
STAVBA OBRYS
100
AcDbLine
 10
1773.936476220743
 20
511.7633165931505
 30
0.0
 11
1773.936476220743
 21
513.8672759495379
 31
0.0
  0
LINE
  5
1055
330
1F
100
AcDbEntity
  8
STAVBA OBRYS
100
AcDbLine
 10
1755.58489013362
 20
511.7633165931505
 30
0.0
 11
1755.58489013362
 21
513.8672759495379
 31
0.0
  0
LINE
  5
1056
330
1F
100
AcDbEntity
  8
STAVBA OBRYS
100
AcDbLine
 10
1737.233304046497
 20
511.7633165931505
 30
0.0
 11
1737.233304046497
 21
513.8672759495379
 31
0.0
  0
LINE
  5
1057
330
1F
100
AcDbEntity
  8
STAVBA OBRYS
100
AcDbLine
 10
1718.881717959374
 20
511.7633165931505
 30
0.0
 11
1718.881717959374
 21
513.8672759495379
 31
0.0
  0
HATCH
  5
1058
330
1F
100
AcDbEntity
  8
STAVBA OBRYS
100
AcDbHatch
 10
0.0
 20
0.0
 30
0.0
210
0.0
220
0.0
230
1.0
  2
SOLID
 70
     1
 71
     0
 91
        8
 92
        7
 72
     0
 73
     1
 93
        4
 10
1718.876198574588
 20
513.841863172481
 10
1699.22752864984
 20
513.841863172481
 10
1699.227528649838
 20
511.7379038160938
 10
1718.876198574591
 20
511.7379038160938
 97
        0
 92
        7
 72
     0
 73
     1
 93
        4
 10
1755.579370748836
 20
513.841863172481
 10
1737.227784661713
 20
513.841863172481
 10
1737.227784661712
 20
511.7379038160938
 10
1755.579370748836
 20
511.7379038160938
 97
        0
 92
        7
 72
     0
 73
     1
 93
        4
 10
1792.282542923084
 20
513.841863172481
 10
1773.930956835959
 20
513.841863172481
 10
1773.930956835958
 20
511.7379038160938
 10
1792.28254292308
 20
511.7379038160938
 97
        0
 92
        7
 72
     0
 73
     1
 93
        4
 10
1828.985715097328
 20
513.841863172481
 10
1810.634129010205
 20
513.841863172481
 10
1810.634129010205
 20
511.7379038160938
 10
1828.985715097326
 20
511.7379038160938
 97
        0
 92
        7
 72
     0
 73
     1
 93
        4
 10
1830.999875220584
 20
513.841863172481
 10
1828.985715097328
 20
513.841863172481
 10
1828.985715097328
 20
510.0503385470905
 10
1830.999875220586
 20
510.0503385470905
 97
        0
 92
        7
 72
     0
 73
     1
 93
        4
 10
1830.999875220586
 20
491.1339932605764
 10
1828.985715097328
 20
491.1339932605764
 10
1828.985715097328
 20
472.2176479740623
 10
1830.999875220586
 20
472.2176479740623
 97
        0
 92
        7
 72
     0
 73
     1
 93
        4
 10
1830.999875220584
 20
453.3013026875481
 10
1828.985715097326
 20
453.3013026875481
 10
1828.985715097326
 20
434.3849574010341
 10
1830.999875220584
 20
434.3849574010341
 97
        0
 92
        7
 72
     0
 73
     1
 93
        4
 10
1830.999875220586
 20
415.4686121145199
 10
1828.985715097328
 20
415.4686121145199
 10
1828.985715097328
 20
396.5522668280058
 10
1830.999875220586
 20
396.5522668280058
 97
        0
 75
     0
 76
     1
 47
0.2980317030967905
 98
        8
 10
1708.568123928525
 20
512.6022695994464
 10
1746.737026878122
 20
512.3042444007945
 10
1781.029363421664
 20
512.006219202139
 10
1820.689225806796
 20
512.3042444007945
 10
1830.231474004721
 20
511.4101502962543
 10
1829.933258159726
 20
479.5207507143453
 10
1830.231474004721
 20
445.2470940174747
 10
1829.933258159726
 20
405.3108474947179
  0
HATCH
  5
1059
330
1F
100
AcDbEntity
  8
STAVBA OBRYS
100
AcDbHatch
 10
0.0
 20
0.0
 30
0.0
210
0.0
220
0.0
230
1.0
  2
SOLID
 70
     1
 71
     0
 91
        8
 92
        7
 72
     0
 73
     1
 93
        4
 10
1831.005394605369
 20
338.4635360098285
 10
1828.991234482112
 20
338.4635360098285
 10
1828.991234482114
 20
319.5471907233144
 10
1831.005394605371
 20
319.5471907233144
 97
        0
 92
        7
 72
     0
 73
     1
 93
        4
 10
1861.14896853641
 20
319.5471907233144
 10
1840.419842233309
 20
319.5471907233144
 10
1840.419842233309
 20
317.443231366927
 10
1861.14896853641
 20
317.443231366927
 97
        0
 92
        7
 72
     0
 73
     1
 93
        4
 10
1902.607221142608
 20
319.5471907233144
 10
1881.878094839509
 20
319.5471907233144
 10
1881.878094839509
 20
317.443231366927
 10
1902.607221142611
 20
317.443231366927
 97
        0
 92
        7
 72
     0
 73
     1
 93
        4
 10
1944.065473748809
 20
319.5471907233144
 10
1923.40558117768
 20
319.5471907233144
 10
1923.40558117768
 20
317.443231366927
 10
1944.065473748812
 20
317.443231366927
 97
        0
 92
        7
 72
     0
 73
     1
 93
        4
 10
1985.592960086979
 20
319.5471907233144
 10
1964.863833783879
 20
319.5471907233144
 10
1964.863833783879
 20
317.443231366927
 10
1985.592960086981
 20
317.443231366927
 97
        0
 92
        7
 72
     0
 73
     1
 93
        4
 10
2027.05121269318
 20
319.5471907233144
 10
2006.322086390081
 20
319.5471907233144
 10
2006.322086390081
 20
317.443231366927
 10
2027.051212693181
 20
317.4432313669261
 97
        0
 92
        7
 72
     0
 73
     1
 93
        4
 10
2068.509465299382
 20
319.5471907233144
 10
2047.780338996282
 20
319.5471907233144
 10
2047.780338996282
 20
317.443231366927
 10
2068.509465299384
 20
317.443231366927
 97
        0
 92
        7
 72
     0
 73
     1
 93
        4
 10
2099.603154754034
 20
319.5471907233144
 10
2089.238591602484
 20
319.5471907233144
 10
2089.238591602482
 20
317.443231366927
 10
2097.588994630773
 20
317.443231366927
 97
        0
 75
     0
 76
     1
 47
0.3390471718564263
 98
        8
 10
1829.953002542136
 20
325.9813155057594
 10
1850.735574338966
 20
318.7109406263838
 10
1892.121932172983
 20
318.7109406263838
 10
1938.257522583287
 20
318.3719004084663
 10
1971.841514139715
 20
318.7109406263838
 10
2023.74406832499
 20
318.3719004084663
 10
2052.239553624861
 20
319.0499808443013
 10
2095.446830944641
 20
318.3728628547681
  0
HATCH
  5
105A
330
1F
100
AcDbEntity
  8
NOSNÉ KONSTRUKCE
100
AcDbHatch
 10
0.0
 20
0.0
 30
0.0
210
0.0
220
0.0
230
1.0
  2
SOLID
 70
     1
 71
     0
 91
        5
 92
        7
 72
     0
 73
     1
 93
        4
 10
1699.233048034625
 20
429.5339252468214
 10
1696.233048034627
 20
429.5339252468214
 10
1696.233048034627
 20
423.8864588667387
 10
1699.233048034627
 20
423.8864588667396
 97
        0
 92
        7
 72
     0
 73
     1
 93
        4
 10
1699.233048034627
 20
423.8864588667396
 10
1696.233048034627
 20
423.8864588667387
 10
1696.233048034625
 20
410.7030615772885
 10
1699.233048034625
 20
410.7030615772885
 97
        0
 92
        7
 72
     0
 73
     1
 93
        4
 10
1699.233048034625
 20
410.7030615772885
 10
1696.233048034623
 20
410.7030615772885
 10
1696.233048034623
 20
404.1405615772886
 10
1699.233048034625
 20
404.1405615772886
 97
        0
 92
        7
 72
     0
 73
     1
 93
        4
 10
1699.233048034627
 20
404.1405615772886
 10
1696.233048034625
 20
404.1405615772886
 10
1696.233048034625
 20
397.5780615772886
 10
1699.233048034625
 20
397.5780615772886
 97
        0
 92
        7
 72
     0
 73
     1
 93
        4
 10
1699.233048034627
 20
397.5780615772886
 10
1696.233048034623
 20
397.5780615772868
 10
1696.233048034623
 20
378.7471979077503
 10
1699.233048034627
 20
378.7471979077503
 97
        0
 75
     0
 76
     1
 47
0.1874983414428997
 98
        5
 10
1698.317509866039
 20
424.4896007412092
 10
1698.317509866039
 20
419.802135594927
 10
1698.317509866039
 20
407.9897360121353
 10
1698.692720382404
 20
401.6147878552541
 10
1698.505130097898
 20
392.4273680140389
  0
LINE
  5
105B
330
1F
100
AcDbEntity
  8
STAVBA OBRYS
100
AcDbLine
 10
1945.825902732383
 20
9.638034793171186
 30
0.0
 11
1945.98244808969
 21
97.48806594953874
 31
0.0
  0
LINE
  5
105C
330
1F
100
AcDbEntity
  8
STAVBA OBRYS
100
AcDbLine
 10
1945.98244808969
 20
97.48806594953874
 30
0.0
 11
2043.842575598307
 21
97.48806594953874
 31
0.0
  0
HATCH
  5
105D
330
1F
100
AcDbEntity
  8
STAVBA OBRYS
100
AcDbHatch
 10
0.0
 20
0.0
 30
0.0
210
0.0
220
0.0
230
1.0
  2
AR-SAND
 70
     0
 71
     0
 91
        1
 92
        7
 72
     0
 73
     1
 93
        6
 10
2043.842575598309
 20
107.4880659495387
 10
1936.000251825949
 20
107.4880659495387
 10
1935.825918609273
 20
9.655854378058734
 10
1945.825902732383
 20
9.638034793172096
 10
1945.982448089688
 20
97.48806594953874
 10
2043.842575598307
 20
97.48806594953874
 97
        0
 75
     0
 76
     1
 52
0.0
 41
0.1
 77
     0
 78
     4
 53
37.5
 43
-11153.61794467789
 44
3610.793477239315
 45
-0.1600031295984046
 46
4.894132373293423
 79
     6
 49
0.0
 49
-3.8608
 49
0.0
 49
-4.318
 49
0.0
 49
-4.1275
 53
7.499999999999999
 43
-11153.61794467789
 44
3610.793477239315
 45
4.495232831380026
 46
7.168251005683543
 79
     6
 49
0.0
 49
-2.0828
 49
0.0
 49
-3.4798
 49
0.0
 49
-1.3335
 53
327.4999999999999
 43
-11156.74214467789
 44
3610.793477239315
 45
7.909923702414579
 46
0.0143718467854569
 79
     6
 49
0.0
 49
-1.27
 49
0.0
 49
-4.572
 49
0.0
 49
-5.969
 53
317.5
 43
-11156.74214467789
 44
3610.793477239315
 45
7.635564524722972
 46
2.229293232572162
 79
     6
 49
0.0
 49
-0.635
 49
0.0
 49
-2.997199999999999
 49
0.0
 49
-3.429
 47
0.5527599474937909
 98
        1
 10
1943.107627051652
 20
103.3377357181556
  0
LINE
  5
105E
330
1F
100
AcDbEntity
  8
PROFILY
100
AcDbLine
 10
1701.428324013442
 20
-430.0459705002983
 30
0.0
 11
1382.536144403841
 21
-425.2095401038474
 31
0.0
  0
LINE
  5
105F
330
1F
100
AcDbEntity
  8
PROFILY
100
AcDbLine
 10
1698.990824013442
 20
-432.4261842578386
 30
0.0
 11
1384.973644403842
 21
-427.3912321940957
 31
0.0
  0
LINE
  5
1060
330
1F
100
AcDbEntity
  8
PROFILY
100
AcDbLine
 10
1693.996610608959
 20
-437.2446170315457
 30
0.0
 11
1389.962273911292
 21
-432.369729890314
 31
0.0
  0
LINE
  5
1061
330
1F
100
AcDbEntity
  8
PROFILY
100
AcDbLine
 10
1696.269217412121
 20
-434.8705640793583
 30
0.0
 11
1387.675628387532
 21
-430.1903257118453
 31
0.0
  0
HATCH
  5
1062
330
1F
100
AcDbEntity
  8
PROFILY
100
AcDbHatch
 10
0.0
 20
0.0
 30
0.0
210
0.0
220
0.0
230
1.0
  2
SOLID
 70
     1
 71
     0
 91
        2
 92
        7
 72
     1
 73
     1
 93
       18
 10
1698.990824013442
 20
-432.4261842578386
 42
0.0
 10
1698.990824013442
 20
-454.156974408225
 42
0.0
 10
1692.598793673142
 20
-447.6946693747764
 42
0.0
 10
1690.865824013442
 20
-449.4087937601549
 42
0.0
 10
1700.038167460207
 20
-458.6819789718771
 42
0.6701573805495633
 10
1701.428324013442
 20
-458.1106041767513
 42
0.0
 10
1701.428324013442
 20
-430.0459705002983
 42
0.0
 10
1385.225917287674
 20
-425.2503341407251
 42
-0.1548638422138271
 10
1385.454642862808
 20
-425.9710966183234
 42
-1.0
 10
1382.954642862808
 20
-425.9710966183234
 42
-0.1626375651849663
 10
1383.205695797546
 20
-425.2196947546023
 42
0.0
 10
1382.536144403841
 20
-425.2095401038474
 42
0.0
 10
1382.536144403841
 20
-453.158295542427
 42
0.6701573805506788
 10
1383.926300957076
 20
-453.7296703375556
 42
0.0
 10
1393.098644403842
 20
-444.4564851258333
 42
0.0
 10
1391.365674744141
 20
-442.7423607404549
 42
0.0
 10
1384.973644403842
 20
-449.2046657739034
 42
0.0
 10
1384.973644403842
 20
-427.3912321940957
 42
0.0
 97
        0
 92
       23
 72
     0
 73
     1
 93
        8
 10
1693.996610608959
 20
-437.2446170315457
 10
1694.751806912645
 20
-447.7155166689768
 10
1697.182991873526
 20
-447.540171478056
 10
1696.269217412121
 20
-434.8705640793583
 10
1387.675628387532
 20
-430.1903257118461
 10
1386.781476543757
 20
-442.5878628437345
 10
1389.212661504639
 20
-442.7632080346553
 10
1389.962273911292
 20
-432.369729890314
 97
        0
 75
     0
 76
     1
 47
0.4153941033642652
 98
        2
 10
1547.544581125384
 20
-428.991261198426
 10
1546.713284247088
 20
-433.9759962322756
  0
LINE
  5
1063
330
1F
100
AcDbEntity
  8
PROFILY
100
AcDbLine
 10
1693.996610608959
 20
-437.2446170315457
 30
0.0
 11
1694.751806912645
 21
-447.7155166689768
 31
0.0
  0
LINE
  5
1064
330
1F
100
AcDbEntity
  8
PROFILY
100
AcDbLine
 10
1696.269217412121
 20
-434.8705640793583
 30
0.0
 11
1697.182991873526
 21
-447.540171478056
 31
0.0
  0
LINE
  5
1065
330
1F
100
AcDbEntity
  8
PROFILY
100
AcDbLine
 10
1697.182991873526
 20
-447.540171478056
 30
0.0
 11
1694.751806912645
 21
-447.7155166689768
 31
0.0
  0
LINE
  5
1066
330
1F
100
AcDbEntity
  8
PROFILY
100
AcDbLine
 10
1700.038167460209
 20
-458.6819789718789
 30
0.0
 11
1690.865824013442
 21
-449.4087937601549
 31
0.0
  0
LINE
  5
1067
330
1F
100
AcDbEntity
  8
PROFILY
100
AcDbLine
 10
1690.865824013442
 20
-449.4087937601549
 30
0.0
 11
1692.598793673142
 21
-447.6946693747764
 31
0.0
  0
LINE
  5
1068
330
1F
100
AcDbEntity
  8
PROFILY
100
AcDbLine
 10
1698.990824013442
 20
-454.156974408225
 30
0.0
 11
1692.598793673142
 21
-447.6946693747764
 31
0.0
  0
ARC
  5
1069
330
1F
100
AcDbEntity
  8
PROFILY
100
AcDbCircle
 10
1700.615824013442
 20
-458.1106041767485
 30
0.0
 40
0.8125
100
AcDbArc
 50
224.6867669083391
 51
0.0
  0
LINE
  5
106A
330
1F
100
AcDbEntity
  8
PROFILY
100
AcDbLine
 10
1701.428324013442
 20
-430.0459705002983
 30
0.0
 11
1701.428324013442
 21
-458.1106041767485
 31
0.0
  0
LINE
  5
106B
330
1F
100
AcDbEntity
  8
PROFILY
100
AcDbLine
 10
1698.990824013442
 20
-432.4261842578386
 30
0.0
 11
1698.990824013442
 21
-454.156974408225
 31
0.0
  0
LINE
  5
106C
330
1F
100
AcDbEntity
  8
PROFILY
100
AcDbLine
 10
1384.973644403842
 20
-427.3912321940957
 30
0.0
 11
1384.973644403842
 21
-449.2046657739034
 31
0.0
  0
LINE
  5
106D
330
1F
100
AcDbEntity
  8
PROFILY
100
AcDbLine
 10
1382.536144403841
 20
-425.2095401038474
 30
0.0
 11
1382.536144403841
 21
-453.158295542427
 31
0.0
  0
ARC
  5
106E
330
1F
100
AcDbEntity
  8
PROFILY
100
AcDbCircle
 10
1383.348644403842
 20
-453.158295542427
 30
0.0
 40
0.8125
100
AcDbArc
 50
180.0
 51
315.3132330916608
  0
LINE
  5
106F
330
1F
100
AcDbEntity
  8
PROFILY
100
AcDbLine
 10
1384.973644403842
 20
-449.2046657739034
 30
0.0
 11
1391.365674744141
 21
-442.7423607404549
 31
0.0
  0
LINE
  5
1070
330
1F
100
AcDbEntity
  8
PROFILY
100
AcDbLine
 10
1393.098644403842
 20
-444.4564851258333
 30
0.0
 11
1391.365674744141
 21
-442.7423607404549
 31
0.0
  0
LINE
  5
1071
330
1F
100
AcDbEntity
  8
PROFILY
100
AcDbLine
 10
1383.926300957074
 20
-453.7296703375574
 30
0.0
 11
1393.098644403842
 21
-444.4564851258333
 31
0.0
  0
LINE
  5
1072
330
1F
100
AcDbEntity
  8
PROFILY
100
AcDbLine
 10
1387.675628387532
 20
-430.1903257118453
 30
0.0
 11
1386.781476543757
 21
-442.5878628437345
 31
0.0
  0
LINE
  5
1073
330
1F
100
AcDbEntity
  8
PROFILY
100
AcDbLine
 10
1389.962273911292
 20
-432.369729890314
 30
0.0
 11
1389.212661504639
 21
-442.7632080346553
 31
0.0
  0
LINE
  5
1074
330
1F
100
AcDbEntity
  8
PROFILY
100
AcDbLine
 10
1386.781476543757
 20
-442.5878628437345
 30
0.0
 11
1389.212661504639
 21
-442.7632080346553
 31
0.0
  0
LINE
  5
1075
330
1F
100
AcDbEntity
  8
PROFILY
100
AcDbLine
 10
1791.226677756847
 20
533.6072486202132
 30
0.0
 11
1791.226677756847
 21
488.8670843117973
 31
0.0
  0
LINE
  5
1076
330
1F
100
AcDbEntity
  8
PROFILY
100
AcDbLine
 10
1736.997604759889
 20
533.6072486202132
 30
0.0
 11
1736.997604759889
 21
488.8670843117973
 31
0.0
  0
LINE
  5
1077
330
1F
100
AcDbEntity
  8
POPIS
100
AcDbLine
 10
1584.856817761904
 20
157.5066136536019
 30
0.0
 11
1588.276291549641
 21
162.8879103010798
 31
0.0
  0
LINE
  5
1078
330
1F
100
AcDbEntity
  8
POPIS
100
AcDbLine
 10
1591.695765337385
 20
157.5066136536019
 30
0.0
 11
1588.276291549648
 21
162.8879103010798
 31
0.0
  0
HATCH
  5
1079
330
1F
100
AcDbEntity
  8
POPIS
100
AcDbHatch
 10
0.0
 20
0.0
 30
0.0
210
0.0
220
0.0
230
1.0
  2
SOLID
 70
     1
 71
     0
 91
        1
 92
        7
 72
     0
 73
     1
 93
        8
 10
1590.170019389426
 20
170.4422575526854
 10
1593.848860727026
 20
170.4422575526854
 10
1588.276291549643
 20
178.2431096355816
 10
1582.703722372263
 20
170.4422575526854
 10
1586.382563709863
 20
170.4422575526854
 10
1584.856817761906
 20
157.5066136536091
 10
1588.276291549647
 20
162.8879103010871
 10
1591.695765337387
 20
157.5066136536019
 97
        0
 75
     0
 76
     1
 47
0.3835833255279223
 98
        1
 10
1588.6844742969
 20
167.5340743721857
  0
LINE
  5
107A
330
1F
100
AcDbEntity
  8
POPIS
100
AcDbLine
 10
1588.276291549645
 20
178.2431096355825
 30
0.0
 11
1582.703722372264
 21
170.4422575526854
 31
0.0
  0
LINE
  5
107B
330
1F
100
AcDbEntity
  8
POPIS
100
AcDbLine
 10
1582.703722372264
 20
170.4422575526854
 30
0.0
 11
1586.382563709863
 21
170.4422575526854
 31
0.0
  0
LINE
  5
107C
330
1F
100
AcDbEntity
  8
POPIS
100
AcDbLine
 10
1586.382563709863
 20
170.4422575526854
 30
0.0
 11
1584.856817761904
 21
157.5066136536019
 31
0.0
  0
LINE
  5
107D
330
1F
100
AcDbEntity
  8
POPIS
100
AcDbLine
 10
1590.170019389427
 20
170.4422575526854
 30
0.0
 11
1591.695765337385
 21
157.5066136536019
 31
0.0
  0
LINE
  5
107E
330
1F
100
AcDbEntity
  8
POPIS
100
AcDbLine
 10
1593.848860727026
 20
170.4422575526854
 30
0.0
 11
1590.170019389427
 21
170.4422575526854
 31
0.0
  0
LINE
  5
107F
330
1F
100
AcDbEntity
  8
POPIS
100
AcDbLine
 10
1588.276291549645
 20
178.2431096355825
 30
0.0
 11
1593.848860727026
 21
170.4422575526854
 31
0.0
  0
HATCH
  5
1080
330
1F
100
AcDbEntity
  8
POPIS
100
AcDbHatch
 10
0.0
 20
0.0
 30
0.0
210
0.0
220
0.0
230
1.0
  2
SOLID
 70
     1
 71
     0
 91
        1
 92
        7
 72
     0
 73
     1
 93
        8
 10
1590.170019389426
 20
35.94676037939768
 10
1593.848860727026
 20
35.94676037939768
 10
1588.276291549643
 20
43.74761246229389
 10
1582.703722372263
 20
35.94676037939768
 10
1586.382563709863
 20
35.94676037939768
 10
1584.856817761906
 20
23.01111648032144
 10
1588.276291549647
 20
28.39241312779938
 10
1591.695765337387
 20
23.01111648031417
 97
        0
 75
     0
 76
     1
 47
0.3835833255279223
 98
        1
 10
1588.6844742969
 20
33.038577198898
  0
LINE
  5
1081
330
1F
100
AcDbEntity
  8
POPIS
100
AcDbLine
 10
1588.276291549645
 20
43.74761246229479
 30
0.0
 11
1582.703722372264
 21
35.94676037939768
 31
0.0
  0
LINE
  5
1082
330
1F
100
AcDbEntity
  8
POPIS
100
AcDbLine
 10
1582.703722372264
 20
35.94676037939768
 30
0.0
 11
1586.382563709863
 21
35.94676037939768
 31
0.0
  0
LINE
  5
1083
330
1F
100
AcDbEntity
  8
POPIS
100
AcDbLine
 10
1586.382563709863
 20
35.94676037939768
 30
0.0
 11
1584.856817761904
 21
23.01111648031417
 31
0.0
  0
LINE
  5
1084
330
1F
100
AcDbEntity
  8
POPIS
100
AcDbLine
 10
1590.170019389427
 20
35.94676037939768
 30
0.0
 11
1591.695765337385
 21
23.01111648031417
 31
0.0
  0
LINE
  5
1085
330
1F
100
AcDbEntity
  8
POPIS
100
AcDbLine
 10
1593.848860727026
 20
35.94676037939768
 30
0.0
 11
1590.170019389427
 21
35.94676037939768
 31
0.0
  0
LINE
  5
1086
330
1F
100
AcDbEntity
  8
POPIS
100
AcDbLine
 10
1588.276291549645
 20
43.74761246229479
 30
0.0
 11
1593.848860727026
 21
35.94676037939768
 31
0.0
  0
LINE
  5
1087
330
1F
100
AcDbEntity
  8
POPIS
100
AcDbLine
 10
1584.856817761904
 20
23.01111648031417
 30
0.0
 11
1588.276291549641
 21
28.39241312779211
 31
0.0
  0
LINE
  5
1088
330
1F
100
AcDbEntity
  8
POPIS
100
AcDbLine
 10
1591.695765337385
 20
23.01111648031417
 30
0.0
 11
1588.276291549648
 21
28.39241312779211
 31
0.0
  0
LINE
  5
1089
330
1F
100
AcDbEntity
  8
POPIS
100
AcDbLine
 10
1585.3021110254
 20
453.5608671117346
 30
0.0
 11
1588.721584813137
 21
458.9421637592125
 31
0.0
  0
LINE
  5
108A
330
1F
100
AcDbEntity
  8
POPIS
100
AcDbLine
 10
1592.141058600881
 20
453.5608671117346
 30
0.0
 11
1588.721584813145
 21
458.9421637592125
 31
0.0
  0
HATCH
  5
108B
330
1F
100
AcDbEntity
  8
POPIS
100
AcDbHatch
 10
0.0
 20
0.0
 30
0.0
210
0.0
220
0.0
230
1.0
  2
SOLID
 70
     1
 71
     0
 91
        1
 92
        7
 72
     0
 73
     1
 93
        8
 10
1590.615312652925
 20
466.4965110108181
 10
1594.294153990523
 20
466.4965110108181
 10
1588.721584813139
 20
474.2973630937143
 10
1583.14901563576
 20
466.4965110108181
 10
1586.827856973358
 20
466.4965110108181
 10
1585.302111025398
 20
453.5608671117301
 10
1588.721584813141
 20
458.9421637592198
 10
1592.141058600881
 20
453.5608671117328
 97
        0
 75
     0
 76
     1
 47
0.3835833255279223
 98
        1
 10
1589.129767560395
 20
463.5883278303184
  0
LINE
  5
108C
330
1F
100
AcDbEntity
  8
POPIS
100
AcDbLine
 10
1588.721584813141
 20
474.2973630937152
 30
0.0
 11
1583.14901563576
 21
466.4965110108181
 31
0.0
  0
LINE
  5
108D
330
1F
100
AcDbEntity
  8
POPIS
100
AcDbLine
 10
1583.14901563576
 20
466.4965110108181
 30
0.0
 11
1586.827856973358
 21
466.4965110108181
 31
0.0
  0
LINE
  5
108E
330
1F
100
AcDbEntity
  8
POPIS
100
AcDbLine
 10
1586.827856973358
 20
466.4965110108181
 30
0.0
 11
1585.3021110254
 21
453.5608671117346
 31
0.0
  0
LINE
  5
108F
330
1F
100
AcDbEntity
  8
POPIS
100
AcDbLine
 10
1590.615312652923
 20
466.4965110108181
 30
0.0
 11
1592.141058600881
 21
453.5608671117346
 31
0.0
  0
LINE
  5
1090
330
1F
100
AcDbEntity
  8
POPIS
100
AcDbLine
 10
1594.294153990521
 20
466.4965110108181
 30
0.0
 11
1590.615312652923
 21
466.4965110108181
 31
0.0
  0
LINE
  5
1091
330
1F
100
AcDbEntity
  8
POPIS
100
AcDbLine
 10
1588.721584813141
 20
474.2973630937152
 30
0.0
 11
1594.294153990521
 21
466.4965110108181
 31
0.0
  0
HATCH
  5
1092
330
1F
100
AcDbEntity
  8
POPIS
100
AcDbHatch
 10
0.0
 20
0.0
 30
0.0
210
0.0
220
0.0
230
1.0
  2
SOLID
 70
     1
 71
     0
 91
        1
 92
        7
 72
     0
 73
     1
 93
        8
 10
1590.615312652921
 20
327.2447433569699
 10
1594.294153990521
 20
327.2447433569699
 10
1588.721584813139
 20
335.0455954398661
 10
1583.149015635759
 20
327.2447433569699
 10
1586.827856973358
 20
327.2447433569699
 10
1585.302111025402
 20
314.3090994578936
 10
1588.721584813143
 20
319.6903961053716
 10
1592.141058600883
 20
314.3090994578864
 97
        0
 75
     0
 76
     1
 47
0.3835833255279223
 98
        1
 10
1589.129767560395
 20
324.3365601764702
  0
LINE
  5
1093
330
1F
100
AcDbEntity
  8
POPIS
100
AcDbLine
 10
1588.721584813141
 20
335.045595439867
 30
0.0
 11
1583.14901563576
 21
327.2447433569699
 31
0.0
  0
LINE
  5
1094
330
1F
100
AcDbEntity
  8
POPIS
100
AcDbLine
 10
1583.14901563576
 20
327.2447433569699
 30
0.0
 11
1586.827856973358
 21
327.2447433569699
 31
0.0
  0
LINE
  5
1095
330
1F
100
AcDbEntity
  8
POPIS
100
AcDbLine
 10
1586.827856973358
 20
327.2447433569699
 30
0.0
 11
1585.3021110254
 21
314.3090994578864
 31
0.0
  0
LINE
  5
1096
330
1F
100
AcDbEntity
  8
POPIS
100
AcDbLine
 10
1590.615312652923
 20
327.2447433569699
 30
0.0
 11
1592.141058600881
 21
314.3090994578864
 31
0.0
  0
LINE
  5
1097
330
1F
100
AcDbEntity
  8
POPIS
100
AcDbLine
 10
1594.294153990521
 20
327.2447433569699
 30
0.0
 11
1590.615312652923
 21
327.2447433569699
 31
0.0
  0
LINE
  5
1098
330
1F
100
AcDbEntity
  8
POPIS
100
AcDbLine
 10
1588.721584813141
 20
335.045595439867
 30
0.0
 11
1594.294153990521
 21
327.2447433569699
 31
0.0
  0
LINE
  5
1099
330
1F
100
AcDbEntity
  8
POPIS
100
AcDbLine
 10
1585.3021110254
 20
314.3090994578864
 30
0.0
 11
1588.721584813137
 21
319.6903961053643
 31
0.0
  0
LINE
  5
109A
330
1F
100
AcDbEntity
  8
POPIS
100
AcDbLine
 10
1592.141058600881
 20
314.3090994578864
 30
0.0
 11
1588.721584813145
 21
319.6903961053643
 31
0.0
  0
TEXT
  5
113C
330
1F
100
AcDbEntity
  8
POPIS
100
AcDbText
 10
1394.462098808769
 20
-567.6101550158964
 30
0.0
 40
25.0
  1
Podkladní EPDM páska tl.1 mm
 41
0.7
  7
SIMPLEX7
100
AcDbText
  0
TEXT
  5
113D
330
1F
100
AcDbEntity
  8
POPIS
100
AcDbText
 10
1340.118395649027
 20
-567.6101550158964
 30
0.0
 40
25.0
  1
10
 41
0.85
  7
SIMPLEX7
100
AcDbText
  0
LINE
  5
113E
330
1F
100
AcDbEntity
  8
POPIS
100
AcDbLine
 10
1488.711279814961
 20
517.5977544399388
 30
0.0
 11
1488.711279814961
 21
453.2034696934419
 31
0.0
  0
INSERT
  5
113F
330
1F
100
AcDbEntity
  8
POPIS
100
AcDbBlockReference
  2
_ArchTick
 10
1488.711279814961
 20
508.3065383570692
 30
0.0
 41
15.0
 42
15.0
 43
15.0
 50
90.0
  0
LINE
  5
1140
330
1F
100
AcDbEntity
  8
POPIS
100
AcDbLine
 10
1517.505347437862
 20
467.5392935722406
 30
0.0
 11
1476.211279814961
 21
467.5392935722406
 31
0.0
  0
TEXT
  5
1141
330
1F
100
AcDbEntity
  8
POPIS
100
AcDbText
 10
1483.101369422669
 20
473.4242902512973
 30
0.0
 40
25.0
  1
40
 50
90.0
 41
0.7
  7
SIMPLEX7
100
AcDbText
  0
INSERT
  5
1142
330
1F
100
AcDbEntity
  8
POPIS
100
AcDbBlockReference
  2
_ArchTick
 10
1488.711279814961
 20
467.5392935722406
 30
0.0
 41
15.0
 42
15.0
 43
15.0
 50
270.0
  0
LINE
  5
1143
330
1F
100
AcDbEntity
  8
POPIS
100
AcDbLine
 10
1519.694289670864
 20
508.3065383570692
 30
0.0
 11
1476.211279814961
 21
508.3065383570692
 31
0.0
  0
LINE
  5
1144
330
1F
100
AcDbEntity
  8
PROFILY
100
AcDbLine
 10
1559.456157512095
 20
-33.96626949889767
 30
0.0
 11
1559.456157512095
 21
507.2157386343483
 31
0.0
  0
LINE
  5
1145
330
1F
100
AcDbEntity
  8
PROFILY
  6
DASHED
370
    40
100
AcDbLine
 10
1559.656157512095
 20
-33.95909925287634
 30
0.0
 11
1559.656157512095
 21
507.2157386343483
 31
0.0
  0
LINE
  5
1146
330
1F
100
AcDbEntity
  8
PROFILY
100
AcDbLine
 10
1559.856157512094
 20
-33.95192900685501
 30
0.0
 11
1559.856157512094
 21
507.2157386343483
 31
0.0
  0
LINE
  5
1147
330
1F
100
AcDbEntity
  8
POPIS
100
AcDbLine
 10
1391.855318570842
 20
187.4161093212915
 30
0.0
 11
1559.656157512095
 21
187.4161093212896
 31
0.0
  0
TEXT
  5
1148
330
1F
100
AcDbEntity
  8
POPIS
100
AcDbText
 10
1349.843318471847
 20
173.9727678719209
 30
0.0
 40
25.0
  1
10
 41
0.7
  7
SIMPLEX7
100
AcDbText
  0
INSERT
  5
1149
330
1F
100
AcDbEntity
  8
POPIS
100
AcDbBlockReference
  2
E_PUNKT
 10
1559.716474174239
 20
187.8368523875024
 30
0.0
  0
INSERT
  5
114B
330
1F
100
AcDbEntity
  8
POPIS
100
AcDbBlockReference
  2
E_PUNKT
 10
1589.215696006699
 20
17.5930192671575
 30
0.0
  0
ENDSEC
  0
SECTION
  2
OBJECTS
  0
DICTIONARY
  5
C
330
0
100
AcDbDictionary
281
     1
  3
ACAD_GROUP
350
D
  3
ACAD_LAYOUT
350
1A
  3
ACAD_MLINESTYLE
350
17
  3
ACAD_PLOTSETTINGS
350
19
  3
ACAD_PLOTSTYLENAME
350
E
  3
AcDbVariableDictionary
350
114E
  0
DICTIONARY
  5
109C
330
1F
100
AcDbDictionary
280
     1
281
     1
  3
ACAD_LAYOUTSELFREF
360
111D
  0
DICTIONARY
  5
109E
330
1B
100
AcDbDictionary
280
     1
281
     1
  3
ACAD_LAYOUTSELFREF
360
111C
  0
DICTIONARY
  5
10A0
330
23
100
AcDbDictionary
280
     1
281
     1
  3
ACAD_LAYOUTSELFREF
360
111E
  0
DICTIONARY
  5
D
102
{ACAD_REACTORS
330
C
102
}
330
C
100
AcDbDictionary
281
     1
  0
DICTIONARY
  5
1A
102
{ACAD_REACTORS
330
C
102
}
330
C
100
AcDbDictionary
281
     1
  3
Model
350
22
  3
Rozvržení1
350
1E
  3
Rozvržení2
350
26
  0
DICTIONARY
  5
17
102
{ACAD_REACTORS
330
C
102
}
330
C
100
AcDbDictionary
281
     1
  3
Standard
350
18
  0
DICTIONARY
  5
19
102
{ACAD_REACTORS
330
C
102
}
330
C
100
AcDbDictionary
281
     1
  0
ACDBDICTIONARYWDFLT
  5
E
102
{ACAD_REACTORS
330
C
102
}
330
C
100
AcDbDictionary
281
     1
  3
Normal
350
F
100
AcDbDictionaryWithDefault
340
F
  0
DICTIONARY
  5
114E
102
{ACAD_REACTORS
330
C
102
}
330
C
100
AcDbDictionary
281
     1
  3
DIMASSOC
350
114F
  0
XRECORD
  5
111D
102
{ACAD_REACTORS
330
109C
102
}
330
109C
100
AcDbXrecord
280
     1
340
1F
  0
XRECORD
  5
111C
102
{ACAD_REACTORS
330
109E
102
}
330
109E
100
AcDbXrecord
280
     1
340
1B
  0
XRECORD
  5
111E
102
{ACAD_REACTORS
330
10A0
102
}
330
10A0
100
AcDbXrecord
280
     1
340
23
  0
LAYOUT
  5
22
102
{ACAD_REACTORS
330
1A
102
}
330
1A
100
AcDbPlotSettings
  1

  2
HP DeskJet 690C
  4

  6

 40
0.0
 41
0.0
 42
0.0
 43
0.0
 44
0.0
 45
0.0
 46
0.0
 47
0.0
 48
0.0
 49
0.0
140
0.0
141
0.0
142
1.0
143
1.0
 70
  1712
 72
     0
 73
     0
 74
     0
  7
monochrome.ctb
 75
     0
147
1.0
148
0.0
149
0.0
100
AcDbLayout
  1
Model
 70
     1
 71
     0
 10
0.0
 20
0.0
 11
12.0
 21
9.0
 12
0.0
 22
0.0
 32
0.0
 14
0.0
 24
0.0
 34
0.0
 15
0.0
 25
0.0
 35
0.0
146
0.0
 13
0.0
 23
0.0
 33
0.0
 16
1.0
 26
0.0
 36
0.0
 17
0.0
 27
1.0
 37
0.0
 76
     0
330
1F
  0
LAYOUT
  5
1E
102
{ACAD_REACTORS
330
1A
102
}
330
1A
100
AcDbPlotSettings
  1

  2
HP DeskJet 690C
  4

  6

 40
0.0
 41
0.0
 42
0.0
 43
0.0
 44
0.0
 45
0.0
 46
0.0
 47
0.0
 48
0.0
 49
0.0
140
0.0
141
0.0
142
1.0
143
1.0
 70
   688
 72
     0
 73
     0
 74
     5
  7
monochrome.ctb
 75
    16
147
1.0
148
0.0
149
0.0
100
AcDbLayout
  1
Rozvržení1
 70
     1
 71
     1
 10
0.0
 20
0.0
 11
420.0
 21
297.0
 12
0.0
 22
0.0
 32
0.0
 14
1.000000000000000E+20
 24
1.000000000000000E+20
 34
1.000000000000000E+20
 15
-1.000000000000000E+20
 25
-1.000000000000000E+20
 35
-1.000000000000000E+20
146
0.0
 13
0.0
 23
0.0
 33
0.0
 16
1.0
 26
0.0
 36
0.0
 17
0.0
 27
1.0
 37
0.0
 76
     0
330
1B
  0
LAYOUT
  5
26
102
{ACAD_REACTORS
330
1A
102
}
330
1A
100
AcDbPlotSettings
  1

  2
HP DeskJet 690C
  4

  6

 40
0.0
 41
0.0
 42
0.0
 43
0.0
 44
0.0
 45
0.0
 46
0.0
 47
0.0
 48
0.0
 49
0.0
140
0.0
141
0.0
142
1.0
143
1.0
 70
   688
 72
     0
 73
     0
 74
     5
  7
monochrome.ctb
 75
    16
147
1.0
148
0.0
149
0.0
100
AcDbLayout
  1
Rozvržení2
 70
     1
 71
     2
 10
0.0
 20
0.0
 11
12.0
 21
9.0
 12
0.0
 22
0.0
 32
0.0
 14
0.0
 24
0.0
 34
0.0
 15
0.0
 25
0.0
 35
0.0
146
0.0
 13
0.0
 23
0.0
 33
0.0
 16
1.0
 26
0.0
 36
0.0
 17
0.0
 27
1.0
 37
0.0
 76
     0
330
23
  0
MLINESTYLE
  5
18
102
{ACAD_REACTORS
330
17
102
}
330
17
100
AcDbMlineStyle
  2
STANDARD
 70
     0
  3

 62
   256
 51
90.0
 52
90.0
 71
     2
 49
0.5
 62
   256
  6
BYLAYER
 49
-0.5
 62
   256
  6
BYLAYER
  0
ACDBPLACEHOLDER
  5
F
102
{ACAD_REACTORS
330
E
102
}
330
E
  0
DICTIONARYVAR
  5
114F
102
{ACAD_REACTORS
330
114E
102
}
330
114E
100
DictionaryVariables
280
     0
  1
1
  0
ENDSEC
  0
EOF
