  0
SECTION
  2
HEADER
  9
$ACADVER
  1
AC1015
  9
$ACADMAINTVER
 70
    13
  9
$DWGCODEPAGE
  3
ANSI_1250
  9
$INSBASE
 10
0.0
 20
0.0
 30
0.0
  9
$EXTMIN
 10
2284.052707285755
 20
-591.4341724365167
 30
0.0
  9
$EXTMAX
 10
3160.885383348735
 20
960.52424916904
 30
0.0
  9
$LIMMIN
 10
0.0
 20
0.0
  9
$LIMMAX
 10
420.0
 20
297.0
  9
$ORTHOMODE
 70
     0
  9
$REGENMODE
 70
     1
  9
$FILLMODE
 70
     1
  9
$QTEXTMODE
 70
     0
  9
$MIRRTEXT
 70
     1
  9
$LTSCALE
 40
1.0
  9
$ATTMODE
 70
     1
  9
$TEXTSIZE
 40
2.5
  9
$TRACEWID
 40
1.0
  9
$TEXTSTYLE
  7
Standard
  9
$CLAYER
  8
0
  9
$CELTYPE
  6
ByLayer
  9
$CECOLOR
 62
   256
  9
$CELTSCALE
 40
1.0
  9
$DISPSILH
 70
     0
  9
$DIMSCALE
 40
1.0
  9
$DIMASZ
 40
2.5
  9
$DIMEXO
 40
0.625
  9
$DIMDLI
 40
3.75
  9
$DIMRND
 40
0.0
  9
$DIMDLE
 40
0.0
  9
$DIMEXE
 40
1.25
  9
$DIMTP
 40
0.0
  9
$DIMTM
 40
0.0
  9
$DIMTXT
 40
2.5
  9
$DIMCEN
 40
2.5
  9
$DIMTSZ
 40
0.0
  9
$DIMTOL
 70
     0
  9
$DIMLIM
 70
     0
  9
$DIMTIH
 70
     0
  9
$DIMTOH
 70
     0
  9
$DIMSE1
 70
     0
  9
$DIMSE2
 70
     0
  9
$DIMTAD
 70
     1
  9
$DIMZIN
 70
     8
  9
$DIMBLK
  1

  9
$DIMASO
 70
     1
  9
$DIMSHO
 70
     1
  9
$DIMPOST
  1

  9
$DIMAPOST
  1

  9
$DIMALT
 70
     0
  9
$DIMALTD
 70
     3
  9
$DIMALTF
 40
0.03937007874016
  9
$DIMLFAC
 40
1.0
  9
$DIMTOFL
 70
     1
  9
$DIMTVP
 40
0.0
  9
$DIMTIX
 70
     0
  9
$DIMSOXD
 70
     0
  9
$DIMSAH
 70
     0
  9
$DIMBLK1
  1

  9
$DIMBLK2
  1

  9
$DIMSTYLE
  2
ISO-25
  9
$DIMCLRD
 70
     0
  9
$DIMCLRE
 70
     0
  9
$DIMCLRT
 70
     0
  9
$DIMTFAC
 40
1.0
  9
$DIMGAP
 40
0.625
  9
$DIMJUST
 70
     0
  9
$DIMSD1
 70
     0
  9
$DIMSD2
 70
     0
  9
$DIMTOLJ
 70
     0
  9
$DIMTZIN
 70
     8
  9
$DIMALTZ
 70
     0
  9
$DIMALTTZ
 70
     0
  9
$DIMUPT
 70
     0
  9
$DIMDEC
 70
     2
  9
$DIMTDEC
 70
     2
  9
$DIMALTU
 70
     2
  9
$DIMALTTD
 70
     3
  9
$DIMTXSTY
  7
Standard
  9
$DIMAUNIT
 70
     0
  9
$DIMADEC
 70
     0
  9
$DIMALTRND
 40
0.0
  9
$DIMAZIN
 70
     0
  9
$DIMDSEP
 70
    44
  9
$DIMATFIT
 70
     3
  9
$DIMFRAC
 70
     0
  9
$DIMLDRBLK
  1

  9
$DIMLUNIT
 70
     2
  9
$DIMLWD
 70
    -2
  9
$DIMLWE
 70
    -2
  9
$DIMTMOVE
 70
     0
  9
$LUNITS
 70
     2
  9
$LUPREC
 70
     4
  9
$SKETCHINC
 40
1.0
  9
$FILLETRAD
 40
10.0
  9
$AUNITS
 70
     0
  9
$AUPREC
 70
     0
  9
$MENU
  1
.
  9
$ELEVATION
 40
0.0
  9
$PELEVATION
 40
0.0
  9
$THICKNESS
 40
0.0
  9
$LIMCHECK
 70
     0
  9
$CHAMFERA
 40
10.0
  9
$CHAMFERB
 40
10.0
  9
$CHAMFERC
 40
20.0
  9
$CHAMFERD
 40
0.0
  9
$SKPOLY
 70
     0
  9
$TDCREATE
 40
2452334.465307870
  9
$TDUCREATE
 40
2452334.423641203
  9
$TDUPDATE
 40
2455595.894579525
  9
$TDUUPDATE
 40
2455595.852912858
  9
$TDINDWG
 40
0.0052663542
  9
$TDUSRTIMER
 40
0.0052663542
  9
$USRTIMER
 70
     1
  9
$ANGBASE
 50
0.0
  9
$ANGDIR
 70
     0
  9
$PDMODE
 70
     0
  9
$PDSIZE
 40
0.0
  9
$PLINEWID
 40
0.0
  9
$SPLFRAME
 70
     0
  9
$SPLINETYPE
 70
     6
  9
$SPLINESEGS
 70
     8
  9
$HANDSEED
  5
637
  9
$SURFTAB1
 70
     6
  9
$SURFTAB2
 70
     6
  9
$SURFTYPE
 70
     6
  9
$SURFU
 70
     6
  9
$SURFV
 70
     6
  9
$UCSBASE
  2

  9
$UCSNAME
  2

  9
$UCSORG
 10
0.0
 20
0.0
 30
0.0
  9
$UCSXDIR
 10
1.0
 20
0.0
 30
0.0
  9
$UCSYDIR
 10
0.0
 20
1.0
 30
0.0
  9
$UCSORTHOREF
  2

  9
$UCSORTHOVIEW
 70
     0
  9
$UCSORGTOP
 10
0.0
 20
0.0
 30
0.0
  9
$UCSORGBOTTOM
 10
0.0
 20
0.0
 30
0.0
  9
$UCSORGLEFT
 10
0.0
 20
0.0
 30
0.0
  9
$UCSORGRIGHT
 10
0.0
 20
0.0
 30
0.0
  9
$UCSORGFRONT
 10
0.0
 20
0.0
 30
0.0
  9
$UCSORGBACK
 10
0.0
 20
0.0
 30
0.0
  9
$PUCSBASE
  2

  9
$PUCSNAME
  2

  9
$PUCSORG
 10
0.0
 20
0.0
 30
0.0
  9
$PUCSXDIR
 10
1.0
 20
0.0
 30
0.0
  9
$PUCSYDIR
 10
0.0
 20
1.0
 30
0.0
  9
$PUCSORTHOREF
  2

  9
$PUCSORTHOVIEW
 70
     0
  9
$PUCSORGTOP
 10
0.0
 20
0.0
 30
0.0
  9
$PUCSORGBOTTOM
 10
0.0
 20
0.0
 30
0.0
  9
$PUCSORGLEFT
 10
0.0
 20
0.0
 30
0.0
  9
$PUCSORGRIGHT
 10
0.0
 20
0.0
 30
0.0
  9
$PUCSORGFRONT
 10
0.0
 20
0.0
 30
0.0
  9
$PUCSORGBACK
 10
0.0
 20
0.0
 30
0.0
  9
$USERI1
 70
     0
  9
$USERI2
 70
     0
  9
$USERI3
 70
     0
  9
$USERI4
 70
     0
  9
$USERI5
 70
     0
  9
$USERR1
 40
0.0
  9
$USERR2
 40
0.0
  9
$USERR3
 40
0.0
  9
$USERR4
 40
0.0
  9
$USERR5
 40
0.0
  9
$WORLDVIEW
 70
     1
  9
$SHADEDGE
 70
     3
  9
$SHADEDIF
 70
    70
  9
$TILEMODE
 70
     1
  9
$MAXACTVP
 70
    48
  9
$PINSBASE
 10
0.0
 20
0.0
 30
0.0
  9
$PLIMCHECK
 70
     0
  9
$PEXTMIN
 10
1.000000000000000E+20
 20
1.000000000000000E+20
 30
1.000000000000000E+20
  9
$PEXTMAX
 10
-1.000000000000000E+20
 20
-1.000000000000000E+20
 30
-1.000000000000000E+20
  9
$PLIMMIN
 10
0.0
 20
0.0
  9
$PLIMMAX
 10
420.0
 20
297.0
  9
$UNITMODE
 70
     0
  9
$VISRETAIN
 70
     1
  9
$PLINEGEN
 70
     0
  9
$PSLTSCALE
 70
     1
  9
$TREEDEPTH
 70
  3020
  9
$CMLSTYLE
  2
Standard
  9
$CMLJUST
 70
     0
  9
$CMLSCALE
 40
20.0
  9
$PROXYGRAPHICS
 70
     1
  9
$MEASUREMENT
 70
     1
  9
$CELWEIGHT
370
    -1
  9
$ENDCAPS
280
     0
  9
$JOINSTYLE
280
     0
  9
$LWDISPLAY
290
     0
  9
$INSUNITS
 70
     4
  9
$HYPERLINKBASE
  1

  9
$STYLESHEET
  1

  9
$XEDIT
290
     1
  9
$CEPSNTYPE
380
     0
  9
$PSTYLEMODE
290
     1
  9
$FINGERPRINTGUID
  2
{4216A968-507C-4CB8-873B-AD6C9E89F3B1}
  9
$VERSIONGUID
  2
{9FB4F6D0-DB57-47E9-B588-ADA7FCD3E4C4}
  9
$EXTNAMES
290
     1
  9
$PSVPSCALE
 40
0.0
  9
$OLESTARTUP
290
     0
  0
ENDSEC
  0
SECTION
  2
CLASSES
  0
CLASS
  1
ACDBDICTIONARYWDFLT
  2
AcDbDictionaryWithDefault
  3
AutoCAD 2000
 90
        0
280
     0
281
     0
  0
CLASS
  1
ACDBPLACEHOLDER
  2
AcDbPlaceHolder
  3
AutoCAD 2000
 90
        0
280
     0
281
     0
  0
CLASS
  1
LAYOUT
  2
AcDbLayout
  3
AutoCAD 2000
 90
        0
280
     0
281
     0
  0
CLASS
  1
LONG_TRANSACTION
  2
AcDbLongTransaction
  3
AutoCAD 2000
 90
    32768
280
     0
281
     0
  0
CLASS
  1
LWPOLYLINE
  2
AcDbPolyline
  3
AutoCAD 2000
 90
    32768
280
     0
281
     1
  0
CLASS
  1
HATCH
  2
AcDbHatch
  3
AutoCAD 2000
 90
    32768
280
     0
281
     1
  0
CLASS
  1
XRECORD
  2
AcDbXrecord
  3
AutoCAD 2000
 90
    32768
280
     0
281
     0
  0
CLASS
  1
DICTIONARYVAR
  2
AcDbDictionaryVar
  3
AutoCAD 2000
 90
        0
280
     0
281
     0
  0
ENDSEC
  0
SECTION
  2
TABLES
  0
TABLE
  2
VPORT
  5
8
330
0
100
AcDbSymbolTable
 70
     2
  0
VPORT
  5
636
330
8
100
AcDbSymbolTableRecord
100
AcDbViewportTableRecord
  2
*Active
 70
     0
 10
0.0
 20
0.0
 11
1.0
 21
1.0
 12
2722.469045317245
 22
184.5450383662616
 13
0.0
 23
0.0
 14
10.0
 24
10.0
 15
10.0
 25
10.0
 16
0.0
 26
0.0
 36
1.0
 17
0.0
 27
0.0
 37
0.0
 40
1566.576554305138
 41
2.229559748427672
 42
50.0
 43
0.0
 44
0.0
 50
0.0
 51
0.0
 71
     0
 72
   100
 73
     1
 74
     3
 75
     0
 76
     0
 77
     0
 78
     0
281
     0
 65
     1
110
0.0
120
0.0
130
0.0
111
1.0
121
0.0
131
0.0
112
0.0
122
1.0
132
0.0
 79
     0
146
0.0
  0
ENDTAB
  0
TABLE
  2
LTYPE
  5
5
330
0
100
AcDbSymbolTable
 70
     4
  0
LTYPE
  5
14
330
5
100
AcDbSymbolTableRecord
100
AcDbLinetypeTableRecord
  2
ByBlock
 70
     0
  3

 72
    65
 73
     0
 40
0.0
  0
LTYPE
  5
15
330
5
100
AcDbSymbolTableRecord
100
AcDbLinetypeTableRecord
  2
ByLayer
 70
     0
  3

 72
    65
 73
     0
 40
0.0
  0
LTYPE
  5
16
330
5
100
AcDbSymbolTableRecord
100
AcDbLinetypeTableRecord
  2
Continuous
 70
     0
  3
Solid line
 72
    65
 73
     0
 40
0.0
  0
LTYPE
  5
33
330
5
100
AcDbSymbolTableRecord
100
AcDbLinetypeTableRecord
  2
IZOLACE
 70
     0
  3
Izolace SSSSSSSSSSSSSSSSSSSSSSSSSSSSSSSSSSSSSSS
 72
    65
 73
     4
 40
10.16253999999999
 49
0.00254
 74
     0
 49
-2.54
 74
     4
 75
   134
340
3D
 46
2.54
 50
0.0
 44
-2.54
 45
0.0
 49
-5.08
 74
     4
 75
   134
340
3D
 46
2.54
 50
180.0
 44
2.54
 45
0.0
 49
-2.54
 74
     0
  0
LTYPE
  5
34
330
5
100
AcDbSymbolTableRecord
100
AcDbLinetypeTableRecord
  2
DASHED
 70
     0
  3
Dashed __ __ __ __ __ __ __ __ __ __ __ __ __ _
 72
    65
 73
     2
 40
19.04999999999999
 49
12.7
 74
     0
 49
-6.349999999999999
 74
     0
  0
LTYPE
  5
35
330
5
100
AcDbSymbolTableRecord
100
AcDbLinetypeTableRecord
  2
DASHDOT2
 70
     0
  3
Dash dot (.5x) _._._._._._._._._._._._._._._.
 72
    65
 73
     4
 40
12.7
 49
6.349999999999999
 74
     0
 49
-3.174999999999999
 74
     0
 49
0.0
 74
     0
 49
-3.174999999999999
 74
     0
  0
ENDTAB
  0
TABLE
  2
LAYER
  5
2
330
0
100
AcDbSymbolTable
 70
     7
  0
LAYER
  5
10
330
2
100
AcDbSymbolTableRecord
100
AcDbLayerTableRecord
  2
0
 70
     0
 62
     7
  6
Continuous
370
    -3
390
F
  0
LAYER
  5
36
330
2
100
AcDbSymbolTableRecord
100
AcDbLayerTableRecord
  2
POPIS
 70
     0
 62
    30
  6
Continuous
370
    -3
390
F
  0
LAYER
  5
37
330
2
100
AcDbSymbolTableRecord
100
AcDbLayerTableRecord
  2
SPOJOVACÍ
 70
     0
 62
   180
  6
Continuous
370
    -3
390
F
  0
LAYER
  5
38
330
2
100
AcDbSymbolTableRecord
100
AcDbLayerTableRecord
  2
CETRIS
 70
     0
 62
     1
  6
Continuous
370
    -3
390
F
  0
LAYER
  5
39
330
2
100
AcDbSymbolTableRecord
100
AcDbLayerTableRecord
  2
NOSNÉ KONSTRUKCE
 70
     0
 62
    33
  6
Continuous
370
    -3
390
F
  0
LAYER
  5
3A
330
2
100
AcDbSymbolTableRecord
100
AcDbLayerTableRecord
  2
PROFILY
 70
     0
 62
    73
  6
Continuous
370
    -3
390
F
  0
LAYER
  5
3B
330
2
100
AcDbSymbolTableRecord
100
AcDbLayerTableRecord
  2
STAVBA OBRYS
 70
     0
 62
     6
  6
Continuous
370
    -3
390
F
  0
ENDTAB
  0
TABLE
  2
STYLE
  5
3
330
0
100
AcDbSymbolTable
 70
     3
  0
STYLE
  5
11
330
3
100
AcDbSymbolTableRecord
100
AcDbTextStyleTableRecord
  2
Standard
 70
     0
 40
0.0
 41
1.0
 50
0.0
 71
     0
 42
2.5
  3
txt
  4

  0
STYLE
  5
3C
330
3
100
AcDbSymbolTableRecord
100
AcDbTextStyleTableRecord
  2
SIMPLEX7
 70
     0
 40
0.0
 41
0.85
 50
0.0
 71
     0
 42
102.0
  3
ARIAL.TTF
  4

1001
ACAD
1000
Arial CE
1071
    60962
  0
STYLE
  5
3D
330
3
100
AcDbSymbolTableRecord
100
AcDbTextStyleTableRecord
  2

 70
     1
 40
0.0
 41
1.0
 50
0.0
 71
     0
 42
2.5
  3
ltypeshp.shx
  4

  0
ENDTAB
  0
TABLE
  2
VIEW
  5
6
330
0
100
AcDbSymbolTable
 70
     0
  0
ENDTAB
  0
TABLE
  2
UCS
  5
7
330
0
100
AcDbSymbolTable
 70
     0
  0
ENDTAB
  0
TABLE
  2
APPID
  5
9
330
0
100
AcDbSymbolTable
 70
     1
  0
APPID
  5
12
330
9
100
AcDbSymbolTableRecord
100
AcDbRegAppTableRecord
  2
ACAD
 70
     0
  0
ENDTAB
  0
TABLE
  2
DIMSTYLE
  5
A
330
0
100
AcDbSymbolTable
 70
     1
100
AcDbDimStyleTable
 71
     0
  0
DIMSTYLE
105
27
330
A
100
AcDbSymbolTableRecord
100
AcDbDimStyleTableRecord
  2
ISO-25
 70
     0
 41
2.5
 42
0.625
 43
3.75
 44
1.25
 73
     0
 74
     0
 77
     1
 78
     8
140
2.5
141
2.5
143
0.03937007874016
147
0.625
171
     3
172
     1
271
     2
272
     2
274
     3
278
    44
283
     0
284
     8
340
11
  0
ENDTAB
  0
TABLE
  2
BLOCK_RECORD
  5
1
330
0
100
AcDbSymbolTable
 70
     3
  0
BLOCK_RECORD
  5
1F
102
{ACAD_XDICTIONARY
360
5B1
102
}
330
1
100
AcDbSymbolTableRecord
100
AcDbBlockTableRecord
  2
*Model_Space
340
22
  0
BLOCK_RECORD
  5
1B
102
{ACAD_XDICTIONARY
360
5B3
102
}
330
1
100
AcDbSymbolTableRecord
100
AcDbBlockTableRecord
  2
*Paper_Space
340
1E
  0
BLOCK_RECORD
  5
23
102
{ACAD_XDICTIONARY
360
5B5
102
}
330
1
100
AcDbSymbolTableRecord
100
AcDbBlockTableRecord
  2
*Paper_Space0
340
26
  0
BLOCK_RECORD
  5
2B
330
1
100
AcDbSymbolTableRecord
100
AcDbBlockTableRecord
  2
E_PUNKT
340
0
102
{BLKREFS
331
30C
331
312
331
315
331
317
331
37D
331
4E6
331
540
331
55D
331
59E
331
629
102
}
  0
BLOCK_RECORD
  5
5FC
330
1
100
AcDbSymbolTableRecord
100
AcDbBlockTableRecord
  2
_ArchTick
340
0
102
{BLKREFS
331
621
331
622
331
624
331
625
102
}
  0
ENDTAB
  0
ENDSEC
  0
SECTION
  2
BLOCKS
  0
BLOCK
  5
20
330
1F
100
AcDbEntity
  8
0
100
AcDbBlockBegin
  2
*Model_Space
 70
     0
 10
0.0
 20
0.0
 30
0.0
  3
*Model_Space
  1

  0
ENDBLK
  5
21
330
1F
100
AcDbEntity
  8
0
100
AcDbBlockEnd
  0
BLOCK
  5
1C
330
1B
100
AcDbEntity
 67
     1
  8
0
100
AcDbBlockBegin
  2
*Paper_Space
 70
     0
 10
0.0
 20
0.0
 30
0.0
  3
*Paper_Space
  1

  0
ENDBLK
  5
1D
330
1B
100
AcDbEntity
 67
     1
  8
0
100
AcDbBlockEnd
  0
BLOCK
  5
24
330
23
100
AcDbEntity
  8
0
100
AcDbBlockBegin
  2
*Paper_Space0
 70
     0
 10
0.0
 20
0.0
 30
0.0
  3
*Paper_Space0
  1

  0
ENDBLK
  5
25
330
23
100
AcDbEntity
  8
0
100
AcDbBlockEnd
  0
BLOCK
  5
2D
330
2B
100
AcDbEntity
  8
0
100
AcDbBlockBegin
  2
E_PUNKT
 70
     0
 10
0.0
 20
0.0
 30
0.0
  3
E_PUNKT
  1

  0
LWPOLYLINE
  5
2C
330
2B
100
AcDbEntity
  8
POPIS
100
AcDbPolyline
 90
        2
 70
     1
 43
2.5
 10
1.27761037562675
 20
0.0290683308725193
 42
-1.0
 10
-1.222389624373249
 20
0.0290683308725193
 42
-1.0
  0
ENDBLK
  5
2E
330
2B
100
AcDbEntity
  8
0
100
AcDbBlockEnd
  0
BLOCK
  5
5FE
330
5FC
100
AcDbEntity
  8
0
100
AcDbBlockBegin
  2
_ArchTick
 70
     0
 10
0.0
 20
0.0
 30
0.0
  3
_ArchTick
  1

  0
LWPOLYLINE
  5
5FD
330
5FC
100
AcDbEntity
  8
0
  6
ByBlock
 62
     0
100
AcDbPolyline
 90
        2
 70
     0
 43
0.15
 10
-0.5
 20
-0.5
 10
0.5
 20
0.5
  0
ENDBLK
  5
5FF
330
5FC
100
AcDbEntity
  8
0
100
AcDbBlockEnd
  0
ENDSEC
  0
SECTION
  2
ENTITIES
  0
HATCH
  5
2FA
330
1F
100
AcDbEntity
  8
PROFILY
100
AcDbHatch
 10
0.0
 20
0.0
 30
0.0
210
0.0
220
0.0
230
1.0
  2
SOLID
 70
     1
 71
     0
 91
        1
 92
        7
 72
     1
 73
     1
 93
        9
 10
2531.542100636272
 20
166.1593035002965
 42
0.0
 10
2531.418736128
 20
166.1593035002965
 42
-0.0548691878434364
 10
2531.448661943519
 20
165.8874230406022
 42
-0.7748025562363708
 10
2529.104600636271
 20
165.2828323890203
 42
0.0
 10
2529.104600636271
 20
152.9866964789521
 42
0.6701573805512208
 10
2530.494757189504
 20
152.4153216838235
 42
0.0
 10
2539.66710063627
 20
161.6885068955448
 42
0.0
 10
2537.934130976569
 20
163.4026312809232
 42
0.0
 10
2531.54210063627
 20
156.9403262474756
 42
0.0
 97
        0
 75
     0
 76
     1
 47
0.1356088506912991
 98
        1
 10
2530.753906681257
 20
160.0257585967051
  0
HATCH
  5
2FB
330
1F
100
AcDbEntity
  8
PROFILY
100
AcDbHatch
 10
0.0
 20
0.0
 30
0.0
210
0.0
220
0.0
230
1.0
  2
SOLID
 70
     1
 71
     0
 91
        2
 92
        7
 72
     0
 73
     1
 93
        4
 10
2579.085912163975
 20
236.0846119925649
 10
2576.920628149059
 20
236.084611992564
 10
2576.920628149059
 20
228.516930429048
 10
2579.085912163973
 20
228.516930429047
 97
        0
 92
        7
 72
     1
 73
     1
 93
        9
 10
2579.085912163977
 20
224.0960878507571
 42
0.0
 10
2576.920628149061
 20
224.096087850758
 42
0.0
 10
2576.920628149061
 20
181.2719515904468
 42
0.0
 10
2529.104600636272
 20
174.0195353816357
 42
0.0
 10
2529.104600636272
 20
166.4920136921869
 42
-0.6905750964122231
 10
2531.418736128002
 20
166.1593035002974
 42
0.0
 10
2531.54210063627
 20
166.1593035002974
 42
0.0
 10
2531.54210063627
 20
171.9198572414366
 42
0.0
 10
2579.085912163977
 20
179.380720757123
 42
0.0
 97
        0
 75
     0
 76
     1
 47
0.1356088506912991
 98
        2
 10
2578.107266298317
 20
231.7628559429217
 10
2578.107266298317
 20
222.2702265492412
  0
LINE
  5
2FC
330
1F
100
AcDbEntity
  8
PROFILY
100
AcDbLine
 10
2577.687550777492
 20
195.5857531439091
 30
0.0
 11
2577.687550777492
 21
217.2584500812086
 31
0.0
  0
LINE
  5
2FD
330
1F
100
AcDbEntity
  8
PROFILY
100
AcDbLine
 10
2579.085912163975
 20
236.0846119925649
 30
0.0
 11
2576.920628149059
 21
236.0846119925631
 31
0.0
  0
ARC
  5
2FE
330
1F
100
AcDbEntity
  8
SPOJOVACÍ
100
AcDbCircle
 10
2575.392366584551
 20
226.3065091399016
 30
0.0
 40
7.016998426235272
100
AcDbArc
 50
307.8985698078477
 51
52.10143019215225
  0
LINE
  5
2FF
330
1F
100
AcDbEntity
  8
SPOJOVACÍ
100
AcDbLine
 10
2579.702666653348
 20
226.3065091399016
 30
0.0
 11
2579.702666653348
 21
220.7693997649016
 31
0.0
  0
LINE
  5
300
330
1F
100
AcDbEntity
  8
SPOJOVACÍ
100
AcDbLine
 10
2579.702666653348
 20
231.8436185149016
 30
0.0
 11
2579.702666653348
 21
226.3065091399016
 31
0.0
  0
LINE
  5
301
330
1F
100
AcDbEntity
  8
SPOJOVACÍ
100
AcDbLine
 10
2578.243641202629
 20
224.0960878507571
 30
0.0
 11
2577.059080003912
 21
228.516930429047
 31
0.0
  0
LINE
  5
302
330
1F
100
AcDbEntity
  8
SPOJOVACÍ
100
AcDbLine
 10
2579.474109952631
 20
224.0960878507571
 30
0.0
 11
2578.289548753912
 21
228.516930429047
 31
0.0
  0
LINE
  5
303
330
1F
100
AcDbEntity
  8
SPOJOVACÍ
100
AcDbLine
 10
2573.105051070017
 20
224.0960878507571
 30
0.0
 11
2579.702666653348
 21
224.0960878507571
 31
0.0
  0
LINE
  5
304
330
1F
100
AcDbEntity
  8
SPOJOVACÍ
100
AcDbLine
 10
2573.105051070017
 20
228.516930429047
 30
0.0
 11
2579.702666653348
 21
228.516930429047
 31
0.0
  0
LINE
  5
305
330
1F
100
AcDbEntity
  8
SPOJOVACÍ
100
AcDbLine
 10
2575.782703702629
 20
224.0960878507571
 30
0.0
 11
2574.598142503912
 21
228.516930429047
 31
0.0
  0
LINE
  5
306
330
1F
100
AcDbEntity
  8
SPOJOVACÍ
100
AcDbLine
 10
2574.552234952628
 20
224.0960878507571
 30
0.0
 11
2573.367673753912
 21
228.516930429047
 31
0.0
  0
LINE
  5
307
330
1F
100
AcDbEntity
  8
SPOJOVACÍ
100
AcDbLine
 10
2571.402034352437
 20
226.3065091399016
 30
0.0
 11
2573.105051070017
 21
224.0960878507571
 31
0.0
  0
LINE
  5
308
330
1F
100
AcDbEntity
  8
SPOJOVACÍ
100
AcDbLine
 10
2571.402034352437
 20
226.3065091399016
 30
0.0
 11
2573.105051070017
 21
228.516930429047
 31
0.0
  0
LINE
  5
309
330
1F
100
AcDbEntity
  8
SPOJOVACÍ
100
AcDbLine
 10
2573.321766202629
 20
224.0960878507571
 30
0.0
 11
2572.386948879745
 21
227.5848735955591
 31
0.0
  0
LINE
  5
30A
330
1F
100
AcDbEntity
  8
SPOJOVACÍ
100
AcDbLine
 10
2577.013172452629
 20
224.0960878507571
 30
0.0
 11
2575.82861125391
 21
228.516930429047
 31
0.0
  0
HATCH
  5
30B
330
1F
100
AcDbEntity
  8
STAVBA OBRYS
100
AcDbHatch
 10
0.0
 20
0.0
 30
0.0
210
0.0
220
0.0
230
1.0
  2
BRICK
 70
     0
 71
     0
 91
        3
 92
        7
 72
     0
 73
     1
 93
       22
 10
2947.746673762282
 20
730.9496001088723
 10
2710.202666653355
 20
749.80540049622
 10
2710.202666653353
 20
694.788498160638
 10
2792.274866279079
 20
694.7884981606371
 10
2796.063727420639
 20
688.225998160638
 10
2792.274866279084
 20
681.663498160638
 10
2710.202666653355
 20
681.663498160638
 10
2710.202666653357
 20
638.2657365155978
 10
2787.748339896043
 20
638.265736515596
 10
2791.537201037602
 20
631.7032365155978
 10
2787.748339896042
 20
625.1407365155942
 10
2752.200237291299
 20
625.1407365155951
 10
2710.202666653353
 20
585.6945700878573
 10
2710.20266665335
 20
320.1505689371265
 10
2787.748339896043
 20
320.1505689371238
 10
2791.5372010376
 20
313.5880689371265
 10
2787.748339896042
 20
307.0255689371247
 10
2710.202666653351
 20
307.0255689371265
 10
2710.202666653348
 20
228.5575456615929
 10
2784.456234487942
 20
228.557545661592
 10
2784.456234487944
 20
262.3021431291685
 10
2946.911562122174
 20
262.3021431291685
 97
        0
 92
        7
 72
     0
 73
     1
 93
        9
 10
2784.45623448794
 20
215.432545661592
 10
2710.20266665335
 20
215.4325456615929
 10
2710.202666653348
 20
161.2784880740214
 10
2603.224511591643
 20
161.2784880740214
 10
2545.336991657032
 20
130.1744830839229
 10
2545.336991657032
 20
101.5796859573579
 10
2946.795537227996
 20
108.7252621940356
 10
2946.880601577277
 20
156.4616234837235
 10
2784.456234487942
 20
156.4616234837235
 97
        0
 92
       22
 72
     0
 73
     1
 93
        3
 10
2603.224511591645
 20
161.2784880740214
 10
2545.336991657032
 20
161.2784880740214
 10
2545.336991657034
 20
130.1744830839238
 97
        0
 75
     0
 76
     1
 52
0.0
 41
10.0
 77
     0
 78
     3
 53
0.0
 43
-10196.27691996044
 44
-4596.657912529619
 45
0.0
 46
63.5
 79
     0
 53
90.0
 43
-10196.27691996044
 44
-4596.657912529619
 45
-127.0
 46
0.0000000000000078
 79
     2
 49
63.5
 49
-63.5
 53
90.0
 43
-10132.77691996044
 44
-4596.657912529619
 45
-127.0
 46
0.0000000000000078
 79
     2
 49
-63.5
 49
63.5
 47
2.175909612244239
 98
        3
 10
2889.964286778755
 20
440.0097980576215
 10
2733.213262552578
 20
161.4933732182475
 10
2561.222536872978
 20
144.086071769962
  0
INSERT
  5
30C
330
1F
100
AcDbEntity
  8
POPIS
100
AcDbBlockReference
  2
E_PUNKT
 10
2562.898375185949
 20
207.5370527660656
 30
0.0
  0
LINE
  5
30D
330
1F
100
AcDbEntity
  8
POPIS
100
AcDbLine
 10
2520.393096967375
 20
285.4585741469995
 30
0.0
 11
2404.366136198034
 21
285.4585741469986
 31
0.0
  0
LINE
  5
30E
330
1F
100
AcDbEntity
  8
POPIS
100
AcDbLine
 10
2555.905554532515
 20
228.3227702639574
 30
0.0
 11
2520.393096967375
 21
285.4585741469995
 31
0.0
  0
TEXT
  5
30F
330
1F
100
AcDbEntity
  8
POPIS
100
AcDbText
 10
2364.96626141384
 20
271.6501718807944
 30
0.0
 40
25.0
  1
10
 41
0.7
  7
SIMPLEX7
100
AcDbText
  0
TEXT
  5
310
330
1F
100
AcDbEntity
  8
POPIS
100
AcDbText
 10
2361.790237913021
 20
193.3180978036602
 30
0.0
 40
25.0
  1
11
 41
0.7
  7
SIMPLEX7
100
AcDbText
  0
LINE
  5
311
330
1F
100
AcDbEntity
  8
POPIS
100
AcDbLine
 10
2564.251935072942
 20
207.1265000698645
 30
0.0
 11
2404.366136198034
 21
207.1265000698645
 31
0.0
  0
INSERT
  5
312
330
1F
100
AcDbEntity
  8
POPIS
100
AcDbBlockReference
  2
E_PUNKT
 10
2609.970948900588
 20
516.3283276099386
 30
0.0
  0
TEXT
  5
313
330
1F
100
AcDbEntity
  8
POPIS
100
AcDbText
 10
2364.388649854765
 20
502.9140544914412
 30
0.0
 40
25.0
  1
03
 41
0.7
  7
SIMPLEX7
100
AcDbText
  0
LINE
  5
314
330
1F
100
AcDbEntity
  8
POPIS
100
AcDbLine
 10
2404.366136198034
 20
516.3573959408117
 30
0.0
 11
2611.248559276214
 21
516.3573959408108
 31
0.0
  0
INSERT
  5
315
330
1F
100
AcDbEntity
  8
POPIS
100
AcDbBlockReference
  2
E_PUNKT
 10
2757.795588176496
 20
630.3930276143741
 30
0.0
  0
LINE
  5
316
330
1F
100
AcDbEntity
  8
POPIS
100
AcDbLine
 10
2757.823198552122
 20
630.4220959452464
 30
0.0
 11
2690.147002168556
 21
566.8573119543703
 31
0.0
  0
INSERT
  5
317
330
1F
100
AcDbEntity
  8
POPIS
100
AcDbBlockReference
  2
E_PUNKT
 10
2653.388479484898
 20
620.8571234015185
 30
0.0
  0
LINE
  5
318
330
1F
100
AcDbEntity
  8
POPIS
100
AcDbLine
 10
2404.366136198032
 20
566.8573119543712
 30
0.0
 11
2690.147002168556
 21
566.8573119543703
 31
0.0
  0
TEXT
  5
319
330
1F
100
AcDbEntity
  8
POPIS
100
AcDbText
 10
2362.986526160039
 20
556.1569809421239
 30
0.0
 40
25.0
  1
04
 41
0.7
  7
SIMPLEX7
100
AcDbText
  0
TEXT
  5
31A
330
1F
100
AcDbEntity
  8
POPIS
100
AcDbText
 10
2362.986526160039
 20
606.4676249753797
 30
0.0
 40
25.0
  1
05
 41
0.7
  7
SIMPLEX7
100
AcDbText
  0
LINE
  5
31B
330
1F
100
AcDbEntity
  8
POPIS
100
AcDbLine
 10
2404.366136198032
 20
619.9109664247503
 30
0.0
 11
2652.634146384731
 21
619.9109664247494
 31
0.0
  0
LINE
  5
31C
330
1F
100
AcDbEntity
  8
CETRIS
100
AcDbLine
 10
2544.92605797511
 20
765.6110460165004
 30
0.0
 11
2540.754115516353
 21
682.1531392558267
 31
0.0
  0
LINE
  5
31D
330
1F
100
AcDbEntity
  8
CETRIS
100
AcDbLine
 10
2556.928417475672
 20
765.358502448817
 30
0.0
 11
2552.589371680591
 21
678.5577656275722
 31
0.0
  0
HATCH
  5
31E
330
1F
100
AcDbEntity
  8
CETRIS
100
AcDbHatch
 10
0.0
 20
0.0
 30
0.0
210
0.0
220
0.0
230
1.0
  2
ANSI31
 70
     0
 71
     0
 91
        1
 92
        7
 72
     0
 73
     1
 93
        5
 10
2556.928417475672
 20
765.358502448817
 10
2544.92605797511
 20
765.6110460165004
 10
2540.754115516353
 20
682.1531392558249
 10
2543.60059551262
 20
679.007101806767
 10
2552.589371680591
 20
678.5577656275732
 97
        0
 75
     0
 76
     1
 52
90.0
 41
1.0
 77
     0
 78
     1
 53
135.0
 43
-7631.329908266457
 44
3770.603469155491
 45
-2.245064030267288
 46
-2.245064030267287
 79
     0
 47
0.9552509132763578
 98
        1
 10
2550.238443760394
 20
735.5025569122176
  0
LINE
  5
31F
330
1F
100
AcDbEntity
  8
SPOJOVACÍ
  6
Continuous
100
AcDbLine
 10
2590.85469773343
 20
691.6095688871268
 30
0.0
 11
2588.001680908158
 21
691.4381353274816
 31
0.0
  0
LINE
  5
320
330
1F
100
AcDbEntity
  8
SPOJOVACÍ
  6
Continuous
100
AcDbLine
 10
2587.796770837456
 20
692.1932820008764
 30
0.0
 11
2590.85469773343
 21
691.6095688871268
 31
0.0
  0
LINE
  5
321
330
1F
100
AcDbEntity
  8
SPOJOVACÍ
  6
Continuous
100
AcDbLine
 10
2569.57580586835
 20
694.3321333467943
 30
0.0
 11
2572.091373287778
 21
694.1701634392543
 31
0.0
  0
LINE
  5
322
330
1F
100
AcDbEntity
  8
SPOJOVACÍ
  6
Continuous
100
AcDbLine
 10
2572.684527376645
 20
694.1319720108753
 30
0.0
 11
2575.207520825152
 21
693.9695239634016
 31
0.0
  0
LINE
  5
323
330
1F
100
AcDbEntity
  8
SPOJOVACÍ
  6
Continuous
100
AcDbLine
 10
2570.306479667062
 20
691.5801276826401
 30
0.0
 11
2572.829473115566
 21
691.4176796351662
 31
0.0
  0
LINE
  5
324
330
1F
100
AcDbEntity
  8
SPOJOVACÍ
  6
Continuous
100
AcDbLine
 10
2573.422627204436
 20
691.3794882067873
 30
0.0
 11
2575.938194623865
 21
691.2175182992473
 31
0.0
  0
LINE
  5
325
330
1F
100
AcDbEntity
  8
SPOJOVACÍ
  6
Continuous
100
AcDbLine
 10
2575.810885704341
 20
693.9306750925894
 30
0.0
 11
2578.323668362791
 21
693.7688844875306
 31
0.0
  0
LINE
  5
326
330
1F
100
AcDbEntity
  8
SPOJOVACÍ
  6
Continuous
100
AcDbLine
 10
2578.918678959068
 20
693.7305735241594
 30
0.0
 11
2580.163467117214
 21
693.6504253153202
 31
0.0
  0
LINE
  5
327
330
1F
100
AcDbEntity
  8
SPOJOVACÍ
  6
Continuous
100
AcDbLine
 10
2576.537846488245
 20
691.1789084984206
 30
0.0
 11
2579.05155740026
 21
691.0170581258748
 31
0.0
  0
LINE
  5
328
330
1F
100
AcDbEntity
  8
SPOJOVACÍ
  6
Continuous
100
AcDbLine
 10
2579.653994025885
 20
690.9782690225506
 30
0.0
 11
2579.990021850707
 21
690.9566331898964
 31
0.0
  0
LINE
  5
329
330
1F
100
AcDbEntity
  8
SPOJOVACÍ
  6
Continuous
100
AcDbLine
 10
2580.163467117214
 20
693.6504253153202
 30
0.0
 11
2581.348507011706
 21
693.4240557122007
 31
0.0
  0
LINE
  5
32A
330
1F
100
AcDbEntity
  8
SPOJOVACÍ
  6
Continuous
100
AcDbLine
 10
2581.962691501111
 20
693.3071457387227
 30
0.0
 11
2584.260965178823
 21
692.8683509315938
 31
0.0
  0
LINE
  5
32B
330
1F
100
AcDbEntity
  8
SPOJOVACÍ
  6
Continuous
100
AcDbLine
 10
2584.885240923636
 20
692.7489270096389
 30
0.0
 11
2587.182586348056
 21
692.3101919743553
 31
0.0
  0
LINE
  5
32C
330
1F
100
AcDbEntity
  8
SPOJOVACÍ
  6
Continuous
100
AcDbLine
 10
2587.428987570969
 20
691.4032375007532
 30
0.0
 11
2585.271221592422
 21
691.2737242876014
 31
0.0
  0
LINE
  5
32D
330
1F
100
AcDbEntity
  8
SPOJOVACÍ
  6
Continuous
100
AcDbLine
 10
2584.69574349454
 20
691.2390057677107
 30
0.0
 11
2582.546391566226
 21
691.1098828979625
 31
0.0
  0
LINE
  5
32E
330
1F
100
AcDbEntity
  8
SPOJOVACÍ
  6
Continuous
100
AcDbLine
 10
2581.972769975193
 20
691.0750448387394
 30
0.0
 11
2579.990021850707
 21
690.9566331898964
 31
0.0
  0
LINE
  5
32F
330
1F
100
AcDbEntity
  8
SPOJOVACÍ
  6
Continuous
100
AcDbLine
 10
2569.20886065565
 20
695.4081029164995
 30
0.0
 11
2570.097907610845
 21
690.541213963284
 31
0.0
  0
LINE
  5
330
330
1F
100
AcDbEntity
  8
SPOJOVACÍ
  6
Continuous
100
AcDbLine
 10
2570.097907610845
 20
690.541213963284
 30
0.0
 11
2570.499044198911
 21
690.8938193448416
 31
0.0
  0
LINE
  5
331
330
1F
100
AcDbEntity
  8
SPOJOVACÍ
  6
Continuous
100
AcDbLine
 10
2570.097907610845
 20
690.541213963284
 30
0.0
 11
2569.904033602907
 21
690.9321303081947
 31
0.0
  0
LINE
  5
332
330
1F
100
AcDbEntity
  8
SPOJOVACÍ
  6
Continuous
100
AcDbLine
 10
2569.402734663301
 20
695.0171865672314
 30
0.0
 11
2570.499044198911
 21
690.8938193448416
 31
0.0
  0
LINE
  5
333
330
1F
100
AcDbEntity
  8
SPOJOVACÍ
  6
Continuous
100
AcDbLine
 10
2581.604223821072
 20
694.3555385087734
 30
0.0
 11
2581.79803806141
 21
693.9636939086617
 31
0.0
  0
LINE
  5
334
330
1F
100
AcDbEntity
  8
SPOJOVACÍ
  6
Continuous
100
AcDbLine
 10
2581.604223821072
 20
694.3555385087734
 30
0.0
 11
2581.20302746513
 21
694.0020048720339
 31
0.0
  0
LINE
  5
335
330
1F
100
AcDbEntity
  8
SPOJOVACÍ
  6
Continuous
100
AcDbLine
 10
2582.310108315803
 20
690.1762167288475
 30
0.0
 11
2582.712173157994
 21
690.5287623428817
 31
0.0
  0
LINE
  5
336
330
1F
100
AcDbEntity
  8
SPOJOVACÍ
  6
Continuous
100
AcDbLine
 10
2582.310108315803
 20
690.1762167288475
 30
0.0
 11
2582.117162561714
 21
690.5670733062529
 31
0.0
  0
LINE
  5
337
330
1F
100
AcDbEntity
  8
SPOJOVACÍ
  6
Continuous
100
AcDbLine
 10
2581.79803806141
 20
693.9636939086617
 30
0.0
 11
2582.712173157994
 21
690.5287623428817
 31
0.0
  0
LINE
  5
338
330
1F
100
AcDbEntity
  8
SPOJOVACÍ
  6
Continuous
100
AcDbLine
 10
2581.20302746513
 20
694.0020048720339
 30
0.0
 11
2582.117162561714
 21
690.5670733062529
 31
0.0
  0
LINE
  5
339
330
1F
100
AcDbEntity
  8
SPOJOVACÍ
  6
Continuous
100
AcDbLine
 10
2581.604223821072
 20
694.3555385087734
 30
0.0
 11
2582.310108315803
 21
690.1762167288475
 31
0.0
  0
LINE
  5
33A
330
1F
100
AcDbEntity
  8
SPOJOVACÍ
  6
Continuous
100
AcDbLine
 10
2584.576415065658
 20
693.5983820923115
 30
0.0
 11
2584.769360819464
 21
693.2075255105496
 31
0.0
  0
LINE
  5
33B
330
1F
100
AcDbEntity
  8
SPOJOVACÍ
  6
Continuous
100
AcDbLine
 10
2584.576415065658
 20
693.5983820923115
 30
0.0
 11
2584.174350223184
 21
693.2458364739209
 31
0.0
  0
LINE
  5
33C
330
1F
100
AcDbEntity
  8
SPOJOVACÍ
  6
Continuous
100
AcDbLine
 10
2585.008334704689
 20
690.4480306668042
 30
0.0
 11
2585.410399546607
 21
690.8005762808556
 31
0.0
  0
LINE
  5
33D
330
1F
100
AcDbEntity
  8
SPOJOVACÍ
  6
Continuous
100
AcDbLine
 10
2585.008334704689
 20
690.4480306668042
 30
0.0
 11
2584.8153889506
 21
690.8388872442105
 31
0.0
  0
LINE
  5
33E
330
1F
100
AcDbEntity
  8
SPOJOVACÍ
  6
Continuous
100
AcDbLine
 10
2584.769360819464
 20
693.2075255105496
 30
0.0
 11
2585.410399546607
 21
690.8005762808556
 31
0.0
  0
LINE
  5
33F
330
1F
100
AcDbEntity
  8
SPOJOVACÍ
  6
Continuous
100
AcDbLine
 10
2584.174350223184
 20
693.2458364739209
 30
0.0
 11
2584.8153889506
 21
690.8388872442105
 31
0.0
  0
LINE
  5
340
330
1F
100
AcDbEntity
  8
SPOJOVACÍ
  6
Continuous
100
AcDbLine
 10
2584.576415065658
 20
693.5983820923115
 30
0.0
 11
2585.008334704689
 21
690.4480306668042
 31
0.0
  0
LINE
  5
341
330
1F
100
AcDbEntity
  8
SPOJOVACÍ
  6
Continuous
100
AcDbLine
 10
2587.547678056119
 20
692.8412854389985
 30
0.0
 11
2587.741552064043
 21
692.4503690940878
 31
0.0
  0
LINE
  5
342
330
1F
100
AcDbEntity
  8
SPOJOVACÍ
  6
Continuous
100
AcDbLine
 10
2587.547678056119
 20
692.8412854389985
 30
0.0
 11
2587.146541467773
 21
692.488680057459
 31
0.0
  0
LINE
  5
343
330
1F
100
AcDbEntity
  8
SPOJOVACÍ
  6
Continuous
100
AcDbLine
 10
2587.719293263657
 20
690.6714876205783
 30
0.0
 11
2588.121358105571
 21
691.0240332346306
 31
0.0
  0
LINE
  5
344
330
1F
100
AcDbEntity
  8
SPOJOVACÍ
  6
Continuous
100
AcDbLine
 10
2587.719293263657
 20
690.6714876205783
 30
0.0
 11
2587.526347509298
 21
691.062344198001
 31
0.0
  0
LINE
  5
345
330
1F
100
AcDbEntity
  8
SPOJOVACÍ
  6
Continuous
100
AcDbLine
 10
2587.741552064043
 20
692.4503690940878
 30
0.0
 11
2588.121358105571
 21
691.0240332346306
 31
0.0
  0
LINE
  5
346
330
1F
100
AcDbEntity
  8
SPOJOVACÍ
  6
Continuous
100
AcDbLine
 10
2587.146541467773
 20
692.488680057459
 30
0.0
 11
2587.526347509298
 21
691.062344198001
 31
0.0
  0
LINE
  5
347
330
1F
100
AcDbEntity
  8
SPOJOVACÍ
  6
Continuous
100
AcDbLine
 10
2587.547678056119
 20
692.8412854389985
 30
0.0
 11
2587.719293263657
 21
690.6714876205783
 31
0.0
  0
LINE
  5
348
330
1F
100
AcDbEntity
  8
SPOJOVACÍ
  6
Continuous
100
AcDbLine
 10
2572.322223432323
 20
695.2076427431088
 30
0.0
 11
2573.211270387241
 21
690.3407537899115
 31
0.0
  0
LINE
  5
349
330
1F
100
AcDbEntity
  8
SPOJOVACÍ
  6
Continuous
100
AcDbLine
 10
2572.322223432323
 20
695.2076427431088
 30
0.0
 11
2572.516097439974
 21
694.8167263938416
 31
0.0
  0
LINE
  5
34A
330
1F
100
AcDbEntity
  8
SPOJOVACÍ
  6
Continuous
100
AcDbLine
 10
2572.322223432323
 20
695.2076427431088
 30
0.0
 11
2571.92108684369
 21
694.8550373572129
 31
0.0
  0
LINE
  5
34B
330
1F
100
AcDbEntity
  8
SPOJOVACÍ
  6
Continuous
100
AcDbLine
 10
2573.211270387241
 20
690.3407537899115
 30
0.0
 11
2573.613335229155
 21
690.693299403963
 31
0.0
  0
LINE
  5
34C
330
1F
100
AcDbEntity
  8
SPOJOVACÍ
  6
Continuous
100
AcDbLine
 10
2573.211270387241
 20
690.3407537899115
 30
0.0
 11
2573.018324632882
 21
690.7316103673342
 31
0.0
  0
LINE
  5
34D
330
1F
100
AcDbEntity
  8
SPOJOVACÍ
  6
Continuous
100
AcDbLine
 10
2572.516097439974
 20
694.8167263938416
 30
0.0
 11
2573.613335229155
 21
690.693299403963
 31
0.0
  0
LINE
  5
34E
330
1F
100
AcDbEntity
  8
SPOJOVACÍ
  6
Continuous
100
AcDbLine
 10
2571.92108684369
 20
694.8550373572129
 30
0.0
 11
2573.018324632882
 21
690.7316103673342
 31
0.0
  0
LINE
  5
34F
330
1F
100
AcDbEntity
  8
SPOJOVACÍ
  6
Continuous
100
AcDbLine
 10
2575.435586208729
 20
695.0071825697355
 30
0.0
 11
2576.324633163648
 21
690.1402936165382
 31
0.0
  0
LINE
  5
350
330
1F
100
AcDbEntity
  8
SPOJOVACÍ
  6
Continuous
100
AcDbLine
 10
2575.435586208729
 20
695.0071825697355
 30
0.0
 11
2575.629460216369
 21
694.6162662204683
 31
0.0
  0
LINE
  5
351
330
1F
100
AcDbEntity
  8
SPOJOVACÍ
  6
Continuous
100
AcDbLine
 10
2575.435586208729
 20
695.0071825697355
 30
0.0
 11
2575.0344496201
 21
694.6545771838396
 31
0.0
  0
LINE
  5
352
330
1F
100
AcDbEntity
  8
SPOJOVACÍ
  6
Continuous
100
AcDbLine
 10
2576.324633163648
 20
690.1402936165382
 30
0.0
 11
2576.726698005558
 21
690.4928392305897
 31
0.0
  0
LINE
  5
353
330
1F
100
AcDbEntity
  8
SPOJOVACÍ
  6
Continuous
100
AcDbLine
 10
2576.324633163648
 20
690.1402936165382
 30
0.0
 11
2576.131687409554
 21
690.5311501939436
 31
0.0
  0
LINE
  5
354
330
1F
100
AcDbEntity
  8
SPOJOVACÍ
  6
Continuous
100
AcDbLine
 10
2575.629460216369
 20
694.6162662204683
 30
0.0
 11
2576.726698005558
 21
690.4928392305897
 31
0.0
  0
LINE
  5
355
330
1F
100
AcDbEntity
  8
SPOJOVACÍ
  6
Continuous
100
AcDbLine
 10
2575.0344496201
 20
694.6545771838396
 30
0.0
 11
2576.131687409554
 21
690.5311501939436
 31
0.0
  0
LINE
  5
356
330
1F
100
AcDbEntity
  8
SPOJOVACÍ
  6
Continuous
100
AcDbLine
 10
2578.54987723897
 20
694.8066626288569
 30
0.0
 11
2579.438924193885
 21
689.9397736756595
 31
0.0
  0
LINE
  5
357
330
1F
100
AcDbEntity
  8
SPOJOVACÍ
  6
Continuous
100
AcDbLine
 10
2578.54987723897
 20
694.8066626288569
 30
0.0
 11
2578.742822992776
 21
694.4158060470949
 31
0.0
  0
LINE
  5
358
330
1F
100
AcDbEntity
  8
SPOJOVACÍ
  6
Continuous
100
AcDbLine
 10
2578.54987723897
 20
694.8066626288569
 30
0.0
 11
2578.147812396496
 21
694.4541170104662
 31
0.0
  0
LINE
  5
359
330
1F
100
AcDbEntity
  8
SPOJOVACÍ
  6
Continuous
100
AcDbLine
 10
2579.438924193885
 20
689.9397736756595
 30
0.0
 11
2579.840060782233
 21
690.292379057199
 31
0.0
  0
LINE
  5
35A
330
1F
100
AcDbEntity
  8
SPOJOVACÍ
  6
Continuous
100
AcDbLine
 10
2579.438924193885
 20
689.9397736756595
 30
0.0
 11
2579.245050185949
 21
690.3306900205712
 31
0.0
  0
LINE
  5
35B
330
1F
100
AcDbEntity
  8
SPOJOVACÍ
  6
Continuous
100
AcDbLine
 10
2578.742822992776
 20
694.4158060470949
 30
0.0
 11
2579.840060782233
 21
690.292379057199
 31
0.0
  0
LINE
  5
35C
330
1F
100
AcDbEntity
  8
SPOJOVACÍ
  6
Continuous
100
AcDbLine
 10
2578.147812396496
 20
694.4541170104662
 30
0.0
 11
2579.245050185949
 21
690.3306900205712
 31
0.0
  0
LINE
  5
35D
330
1F
100
AcDbEntity
  8
SPOJOVACÍ
  6
Continuous
100
AcDbLine
 10
2558.677186477104
 20
691.4872152756075
 30
0.0
 11
2557.41075270774
 21
690.6086922118497
 31
0.0
  0
LINE
  5
35E
330
1F
100
AcDbEntity
  8
SPOJOVACÍ
  6
Continuous
100
AcDbLine
 10
2560.127518819034
 20
692.0080878472331
 30
0.0
 11
2558.677186477104
 21
691.4872152756075
 31
0.0
  0
LINE
  5
35F
330
1F
100
AcDbEntity
  8
SPOJOVACÍ
  6
Continuous
100
AcDbLine
 10
2561.662581582685
 20
692.1366825826176
 30
0.0
 11
2560.127518819034
 21
692.0080878472331
 31
0.0
  0
LINE
  5
360
330
1F
100
AcDbEntity
  8
SPOJOVACÍ
  6
Continuous
100
AcDbLine
 10
2554.835639329394
 20
688.8180141947445
 30
0.0
 11
2556.033086551288
 21
688.7409141280491
 31
0.0
  0
LINE
  5
361
330
1F
100
AcDbEntity
  8
SPOJOVACÍ
  6
Continuous
100
AcDbLine
 10
2555.491049663746
 20
698.9972438337995
 30
0.0
 11
2554.835639329394
 21
688.8180141947445
 31
0.0
  0
LINE
  5
362
330
1F
100
AcDbEntity
  8
SPOJOVACÍ
  6
Continuous
100
AcDbLine
 10
2555.491049663746
 20
698.9972438337995
 30
0.0
 11
2556.688496885643
 21
698.920143767104
 31
0.0
  0
LINE
  5
363
330
1F
100
AcDbEntity
  8
SPOJOVACÍ
  6
Continuous
100
AcDbLine
 10
2556.688496885643
 20
698.920143767104
 30
0.0
 11
2556.033086551288
 21
688.7409141280491
 31
0.0
  0
LINE
  5
364
330
1F
100
AcDbEntity
  8
SPOJOVACÍ
  6
Continuous
100
AcDbLine
 10
2556.415075578604
 20
689.4331053593418
 30
0.0
 11
2556.033086551288
 21
688.7409141280491
 31
0.0
  0
LINE
  5
365
330
1F
100
AcDbEntity
  8
SPOJOVACÍ
  6
Continuous
100
AcDbLine
 10
2557.41075270774
 20
690.6086922118497
 30
0.0
 11
2556.415075578604
 21
689.4331053593418
 31
0.0
  0
LINE
  5
366
330
1F
100
AcDbEntity
  8
SPOJOVACÍ
  6
Continuous
100
AcDbLine
 10
2561.054967744796
 20
694.9469440178786
 30
0.0
 11
2561.836026849193
 21
694.8304747080414
 31
0.0
  0
LINE
  5
367
330
1F
100
AcDbEntity
  8
SPOJOVACÍ
  6
Continuous
100
AcDbLine
 10
2559.604680964433
 20
695.4690905495867
 30
0.0
 11
2561.054967744796
 21
694.9469440178786
 31
0.0
  0
LINE
  5
368
330
1F
100
AcDbEntity
  8
SPOJOVACÍ
  6
Continuous
100
AcDbLine
 10
2558.339578248677
 20
696.3484259867469
 30
0.0
 11
2559.604680964433
 21
695.4690905495867
 31
0.0
  0
LINE
  5
369
330
1F
100
AcDbEntity
  8
SPOJOVACÍ
  6
Continuous
100
AcDbLine
 10
2557.344377180299
 20
697.5254337073806
 30
0.0
 11
2558.339578248677
 21
696.3484259867469
 31
0.0
  0
LINE
  5
36A
330
1F
100
AcDbEntity
  8
SPOJOVACÍ
  6
Continuous
100
AcDbLine
 10
2556.688496885643
 20
698.920143767104
 30
0.0
 11
2557.344377180299
 21
697.5254337073806
 31
0.0
  0
LINE
  5
36B
330
1F
100
AcDbEntity
  8
SPOJOVACÍ
  6
Continuous
100
AcDbLine
 10
2561.662581582685
 20
692.1366825826176
 30
0.0
 11
2566.595321533412
 21
691.8190781218649
 31
0.0
  0
LINE
  5
36C
330
1F
100
AcDbEntity
  8
SPOJOVACÍ
  6
Continuous
100
AcDbLine
 10
2561.836026849193
 20
694.8304747080414
 30
0.0
 11
2565.865575988537
 21
694.571024018513
 31
0.0
  0
LINE
  5
36D
330
1F
100
AcDbEntity
  8
SPOJOVACÍ
  6
Continuous
100
AcDbLine
 10
2566.459658330976
 20
694.532772822647
 30
0.0
 11
2568.973369242995
 21
694.3709224501003
 31
0.0
  0
LINE
  5
36E
330
1F
100
AcDbEntity
  8
SPOJOVACÍ
  6
Continuous
100
AcDbLine
 10
2567.197758158767
 20
691.780289018558
 30
0.0
 11
2569.711469070786
 21
691.6184386460113
 31
0.0
  0
LINE
  5
36F
330
1F
100
AcDbEntity
  8
SPOJOVACÍ
  6
Continuous
100
AcDbLine
 10
2566.095497879251
 20
695.6085630898728
 30
0.0
 11
2566.98454483417
 21
690.7416741366746
 31
0.0
  0
LINE
  5
370
330
1F
100
AcDbEntity
  8
SPOJOVACÍ
  6
Continuous
100
AcDbLine
 10
2566.095497879251
 20
695.6085630898728
 30
0.0
 11
2566.288443633061
 21
695.21770650811
 31
0.0
  0
LINE
  5
371
330
1F
100
AcDbEntity
  8
SPOJOVACÍ
  6
Continuous
100
AcDbLine
 10
2566.095497879251
 20
695.6085630898728
 30
0.0
 11
2565.693433037053
 21
695.256017471464
 31
0.0
  0
LINE
  5
372
330
1F
100
AcDbEntity
  8
SPOJOVACÍ
  6
Continuous
100
AcDbLine
 10
2566.98454483417
 20
690.7416741366746
 30
0.0
 11
2567.385681422515
 21
691.094279518214
 31
0.0
  0
LINE
  5
373
330
1F
100
AcDbEntity
  8
SPOJOVACÍ
  6
Continuous
100
AcDbLine
 10
2566.98454483417
 20
690.7416741366746
 30
0.0
 11
2566.790670826235
 21
691.1325904815862
 31
0.0
  0
LINE
  5
374
330
1F
100
AcDbEntity
  8
SPOJOVACÍ
  6
Continuous
100
AcDbLine
 10
2566.288443633061
 20
695.21770650811
 30
0.0
 11
2567.385681422515
 21
691.094279518214
 31
0.0
  0
LINE
  5
375
330
1F
100
AcDbEntity
  8
SPOJOVACÍ
  6
Continuous
100
AcDbLine
 10
2565.693433037053
 20
695.256017471464
 30
0.0
 11
2566.790670826235
 21
691.1325904815862
 31
0.0
  0
LINE
  5
376
330
1F
100
AcDbEntity
  8
SPOJOVACÍ
  6
Continuous
100
AcDbLine
 10
2569.20886065565
 20
695.4081029164995
 30
0.0
 11
2569.402734663301
 21
695.0171865672314
 31
0.0
  0
LINE
  5
377
330
1F
100
AcDbEntity
  8
SPOJOVACÍ
  6
Continuous
100
AcDbLine
 10
2569.20886065565
 20
695.4081029164995
 30
0.0
 11
2568.807724067017
 21
695.0554975306036
 31
0.0
  0
LINE
  5
378
330
1F
100
AcDbEntity
  8
SPOJOVACÍ
  6
Continuous
100
AcDbLine
 10
2568.807724067017
 20
695.0554975306036
 30
0.0
 11
2569.904033602907
 21
690.9321303081947
 31
0.0
  0
LWPOLYLINE
  5
379
330
1F
100
AcDbEntity
  8
PROFILY
100
AcDbPolyline
 90
        2
 70
     1
 43
2.5
 10
2556.447100078774
 20
708.2622923062185
 42
-1.0
 10
2553.947881289361
 20
708.1997987654872
 42
-1.0
  0
HATCH
  5
37A
330
1F
100
AcDbEntity
  8
PROFILY
100
AcDbHatch
 10
0.0
 20
0.0
 30
0.0
210
0.0
220
0.0
230
1.0
  2
SOLID
 70
     1
 71
     0
 91
        1
 92
        1
 93
        4
 72
     1
 10
2558.26577364275
 20
720.3154954896803
 11
2553.269371778955
 21
720.6340850515448
 72
     1
 10
2553.269371778959
 20
720.6340850515448
 11
2552.660908595393
 21
708.3927876451348
 72
     1
 10
2552.660908595393
 20
708.3927876451348
 11
2557.657310459188
 21
708.0741980832694
 72
     1
 10
2557.657310459192
 20
708.0741980832685
 11
2558.265773642757
 21
720.3154954896795
 97
        0
 75
     0
 76
     1
 98
        1
 10
-17099.13525930967
 20
-2548.430743764733
  0
LINE
  5
37B
330
1F
100
AcDbEntity
  8
PROFILY
100
AcDbLine
 10
2557.657310459192
 20
708.0741980832685
 30
0.0
 11
2552.660908595393
 21
708.3927876451348
 31
0.0
  0
LWPOLYLINE
  5
37C
330
1F
100
AcDbEntity
  8
PROFILY
100
AcDbPolyline
 90
        2
 70
     1
 43
2.5
 10
2556.998872673976
 20
720.3784677851094
 42
-1.0
 10
2554.499653884556
 20
720.3159742443781
 42
-1.0
  0
INSERT
  5
37D
330
1F
100
AcDbEntity
  8
POPIS
100
AcDbBlockReference
  2
E_PUNKT
 10
2556.978730997507
 20
696.1705811834986
 30
0.0
  0
LINE
  5
37E
330
1F
100
AcDbEntity
  8
CETRIS
100
AcDbLine
 10
2557.353736335747
 20
733.6873793901536
 30
0.0
 11
2569.337321620213
 21
733.059937177683
 31
0.0
  0
LINE
  5
37F
330
1F
100
AcDbEntity
  8
CETRIS
100
AcDbLine
 10
2543.600595512613
 20
679.007101806767
 30
0.0
 11
2552.589371680591
 21
678.5577656275722
 31
0.0
  0
LINE
  5
380
330
1F
100
AcDbEntity
  8
CETRIS
100
AcDbLine
 10
2543.600595512613
 20
679.007101806767
 30
0.0
 11
2540.754115516353
 21
682.1531392558267
 31
0.0
  0
LINE
  5
381
330
1F
100
AcDbEntity
  8
CETRIS
100
AcDbLine
 10
2557.353736335747
 20
733.6873793901536
 30
0.0
 11
2541.824541577098
 21
437.0936435996823
 31
0.0
  0
LINE
  5
382
330
1F
100
AcDbEntity
  8
SPOJOVACÍ
  6
Continuous
100
AcDbLine
 10
2567.279785147188
 20
449.1895725623813
 30
0.0
 11
2569.793496059207
 21
449.0277221898345
 31
0.0
  0
LINE
  5
383
330
1F
100
AcDbEntity
  8
SPOJOVACÍ
  6
Continuous
100
AcDbLine
 10
2570.395932684562
 20
448.9889330865285
 30
0.0
 11
2572.91150010399
 21
448.8269631789885
 31
0.0
  0
LINE
  5
384
330
1F
100
AcDbEntity
  8
SPOJOVACÍ
  6
Continuous
100
AcDbLine
 10
2573.504654192857
 20
448.7887717506096
 30
0.0
 11
2576.027647641364
 21
448.6263237031358
 31
0.0
  0
LINE
  5
385
330
1F
100
AcDbEntity
  8
SPOJOVACÍ
  6
Continuous
100
AcDbLine
 10
2568.017884974979
 20
446.4370887582922
 30
0.0
 11
2570.531595886998
 21
446.2752383857455
 31
0.0
  0
LINE
  5
386
330
1F
100
AcDbEntity
  8
SPOJOVACÍ
  6
Continuous
100
AcDbLine
 10
2571.126606483275
 20
446.2369274223743
 30
0.0
 11
2573.649599931778
 21
446.0744793749004
 31
0.0
  0
LINE
  5
387
330
1F
100
AcDbEntity
  8
SPOJOVACÍ
  6
Continuous
100
AcDbLine
 10
2574.242754020648
 20
446.0362879465215
 30
0.0
 11
2576.758321440077
 21
445.8743180389815
 31
0.0
  0
LINE
  5
388
330
1F
100
AcDbEntity
  8
SPOJOVACÍ
  6
Continuous
100
AcDbLine
 10
2576.631012520553
 20
448.5874748323235
 30
0.0
 11
2579.143795179003
 21
448.4256842272648
 31
0.0
  0
LINE
  5
389
330
1F
100
AcDbEntity
  8
SPOJOVACÍ
  6
Continuous
100
AcDbLine
 10
2579.73880577528
 20
448.3873732638935
 30
0.0
 11
2580.983593933426
 21
448.3072250550544
 31
0.0
  0
LINE
  5
38A
330
1F
100
AcDbEntity
  8
SPOJOVACÍ
  6
Continuous
100
AcDbLine
 10
2577.357973304458
 20
445.8357082381549
 30
0.0
 11
2579.871684216472
 21
445.673857865609
 31
0.0
  0
LINE
  5
38B
330
1F
100
AcDbEntity
  8
SPOJOVACÍ
  6
Continuous
100
AcDbLine
 10
2580.474120842097
 20
445.6350687622848
 30
0.0
 11
2580.810148666918
 21
445.6134329296305
 31
0.0
  0
LINE
  5
38C
330
1F
100
AcDbEntity
  8
SPOJOVACÍ
  6
Continuous
100
AcDbLine
 10
2580.983593933426
 20
448.3072250550544
 30
0.0
 11
2582.168633827918
 21
448.0808554519349
 31
0.0
  0
LINE
  5
38D
330
1F
100
AcDbEntity
  8
SPOJOVACÍ
  6
Continuous
100
AcDbLine
 10
2591.674824549642
 20
446.266368626861
 30
0.0
 11
2588.821807724369
 21
446.0949350672158
 31
0.0
  0
LINE
  5
38E
330
1F
100
AcDbEntity
  8
SPOJOVACÍ
  6
Continuous
100
AcDbLine
 10
2582.782818317323
 20
447.9639454784569
 30
0.0
 11
2585.081091995035
 21
447.525150671328
 31
0.0
  0
LINE
  5
38F
330
1F
100
AcDbEntity
  8
SPOJOVACÍ
  6
Continuous
100
AcDbLine
 10
2585.705367739847
 20
447.4057267493731
 30
0.0
 11
2588.002713164267
 21
446.9669917140895
 31
0.0
  0
LINE
  5
390
330
1F
100
AcDbEntity
  8
SPOJOVACÍ
  6
Continuous
100
AcDbLine
 10
2588.616897653668
 20
446.8500817406106
 30
0.0
 11
2591.674824549642
 21
446.266368626861
 31
0.0
  0
LINE
  5
391
330
1F
100
AcDbEntity
  8
SPOJOVACÍ
  6
Continuous
100
AcDbLine
 10
2588.249114387181
 20
446.0600372404874
 30
0.0
 11
2586.091348408634
 21
445.9305240273356
 31
0.0
  0
LINE
  5
392
330
1F
100
AcDbEntity
  8
SPOJOVACÍ
  6
Continuous
100
AcDbLine
 10
2585.515870310752
 20
445.8958055074449
 30
0.0
 11
2583.366518382438
 21
445.7666826376967
 31
0.0
  0
LINE
  5
393
330
1F
100
AcDbEntity
  8
SPOJOVACÍ
  6
Continuous
100
AcDbLine
 10
2582.792896791405
 20
445.7318445784735
 30
0.0
 11
2580.810148666918
 21
445.6134329296305
 31
0.0
  0
LINE
  5
394
330
1F
100
AcDbEntity
  8
SPOJOVACÍ
  6
Continuous
100
AcDbLine
 10
2570.028987471862
 20
450.0649026562337
 30
0.0
 11
2570.918034427057
 21
445.1980137030182
 31
0.0
  0
LINE
  5
395
330
1F
100
AcDbEntity
  8
SPOJOVACÍ
  6
Continuous
100
AcDbLine
 10
2570.028987471862
 20
450.0649026562337
 30
0.0
 11
2570.222861479513
 21
449.6739863069656
 31
0.0
  0
LINE
  5
396
330
1F
100
AcDbEntity
  8
SPOJOVACÍ
  6
Continuous
100
AcDbLine
 10
2570.028987471862
 20
450.0649026562337
 30
0.0
 11
2569.627850883229
 21
449.7122972703378
 31
0.0
  0
LINE
  5
397
330
1F
100
AcDbEntity
  8
SPOJOVACÍ
  6
Continuous
100
AcDbLine
 10
2570.918034427057
 20
445.1980137030182
 30
0.0
 11
2571.319171015122
 21
445.5506190845758
 31
0.0
  0
LINE
  5
398
330
1F
100
AcDbEntity
  8
SPOJOVACÍ
  6
Continuous
100
AcDbLine
 10
2570.918034427057
 20
445.1980137030182
 30
0.0
 11
2570.724160419119
 21
445.5889300479289
 31
0.0
  0
LINE
  5
399
330
1F
100
AcDbEntity
  8
SPOJOVACÍ
  6
Continuous
100
AcDbLine
 10
2570.222861479513
 20
449.6739863069656
 30
0.0
 11
2571.319171015122
 21
445.5506190845758
 31
0.0
  0
LINE
  5
39A
330
1F
100
AcDbEntity
  8
SPOJOVACÍ
  6
Continuous
100
AcDbLine
 10
2569.627850883229
 20
449.7122972703378
 30
0.0
 11
2570.724160419119
 21
445.5889300479289
 31
0.0
  0
LINE
  5
39B
330
1F
100
AcDbEntity
  8
SPOJOVACÍ
  6
Continuous
100
AcDbLine
 10
2582.424350637284
 20
449.0123382485076
 30
0.0
 11
2582.618164877622
 21
448.6204936483959
 31
0.0
  0
LINE
  5
39C
330
1F
100
AcDbEntity
  8
SPOJOVACÍ
  6
Continuous
100
AcDbLine
 10
2582.424350637284
 20
449.0123382485076
 30
0.0
 11
2582.023154281342
 21
448.6588046117681
 31
0.0
  0
LINE
  5
39D
330
1F
100
AcDbEntity
  8
SPOJOVACÍ
  6
Continuous
100
AcDbLine
 10
2583.130235132016
 20
444.8330164685817
 30
0.0
 11
2583.532299974206
 21
445.1855620826158
 31
0.0
  0
LINE
  5
39E
330
1F
100
AcDbEntity
  8
SPOJOVACÍ
  6
Continuous
100
AcDbLine
 10
2583.130235132016
 20
444.8330164685817
 30
0.0
 11
2582.937289377926
 21
445.2238730459871
 31
0.0
  0
LINE
  5
39F
330
1F
100
AcDbEntity
  8
SPOJOVACÍ
  6
Continuous
100
AcDbLine
 10
2582.618164877622
 20
448.6204936483959
 30
0.0
 11
2583.532299974206
 21
445.1855620826158
 31
0.0
  0
LINE
  5
3A0
330
1F
100
AcDbEntity
  8
SPOJOVACÍ
  6
Continuous
100
AcDbLine
 10
2582.023154281342
 20
448.6588046117681
 30
0.0
 11
2582.937289377926
 21
445.2238730459871
 31
0.0
  0
LINE
  5
3A1
330
1F
100
AcDbEntity
  8
SPOJOVACÍ
  6
Continuous
100
AcDbLine
 10
2582.424350637284
 20
449.0123382485076
 30
0.0
 11
2583.130235132016
 21
444.8330164685817
 31
0.0
  0
LINE
  5
3A2
330
1F
100
AcDbEntity
  8
SPOJOVACÍ
  6
Continuous
100
AcDbLine
 10
2585.39654188187
 20
448.2551818320457
 30
0.0
 11
2585.589487635676
 21
447.8643252502839
 31
0.0
  0
LINE
  5
3A3
330
1F
100
AcDbEntity
  8
SPOJOVACÍ
  6
Continuous
100
AcDbLine
 10
2585.39654188187
 20
448.2551818320457
 30
0.0
 11
2584.994477039396
 21
447.9026362136551
 31
0.0
  0
LINE
  5
3A4
330
1F
100
AcDbEntity
  8
SPOJOVACÍ
  6
Continuous
100
AcDbLine
 10
2585.828461520902
 20
445.1048304065384
 30
0.0
 11
2586.230526362819
 21
445.4573760205899
 31
0.0
  0
LINE
  5
3A5
330
1F
100
AcDbEntity
  8
SPOJOVACÍ
  6
Continuous
100
AcDbLine
 10
2585.828461520902
 20
445.1048304065384
 30
0.0
 11
2585.635515766812
 21
445.4956869839447
 31
0.0
  0
LINE
  5
3A6
330
1F
100
AcDbEntity
  8
SPOJOVACÍ
  6
Continuous
100
AcDbLine
 10
2585.589487635676
 20
447.8643252502839
 30
0.0
 11
2586.230526362819
 21
445.4573760205899
 31
0.0
  0
LINE
  5
3A7
330
1F
100
AcDbEntity
  8
SPOJOVACÍ
  6
Continuous
100
AcDbLine
 10
2584.994477039396
 20
447.9026362136551
 30
0.0
 11
2585.635515766812
 21
445.4956869839447
 31
0.0
  0
LINE
  5
3A8
330
1F
100
AcDbEntity
  8
SPOJOVACÍ
  6
Continuous
100
AcDbLine
 10
2585.39654188187
 20
448.2551818320457
 30
0.0
 11
2585.828461520902
 21
445.1048304065384
 31
0.0
  0
LINE
  5
3A9
330
1F
100
AcDbEntity
  8
SPOJOVACÍ
  6
Continuous
100
AcDbLine
 10
2588.367804872331
 20
447.4980851787327
 30
0.0
 11
2588.561678880255
 21
447.107168833822
 31
0.0
  0
LINE
  5
3AA
330
1F
100
AcDbEntity
  8
SPOJOVACÍ
  6
Continuous
100
AcDbLine
 10
2588.367804872331
 20
447.4980851787327
 30
0.0
 11
2587.966668283986
 21
447.1454797971932
 31
0.0
  0
LINE
  5
3AB
330
1F
100
AcDbEntity
  8
SPOJOVACÍ
  6
Continuous
100
AcDbLine
 10
2588.539420079869
 20
445.3282873603125
 30
0.0
 11
2588.941484921783
 21
445.6808329743648
 31
0.0
  0
LINE
  5
3AC
330
1F
100
AcDbEntity
  8
SPOJOVACÍ
  6
Continuous
100
AcDbLine
 10
2588.539420079869
 20
445.3282873603125
 30
0.0
 11
2588.34647432551
 21
445.7191439377352
 31
0.0
  0
LINE
  5
3AD
330
1F
100
AcDbEntity
  8
SPOJOVACÍ
  6
Continuous
100
AcDbLine
 10
2588.561678880255
 20
447.107168833822
 30
0.0
 11
2588.941484921783
 21
445.6808329743648
 31
0.0
  0
LINE
  5
3AE
330
1F
100
AcDbEntity
  8
SPOJOVACÍ
  6
Continuous
100
AcDbLine
 10
2587.966668283986
 20
447.1454797971932
 30
0.0
 11
2588.34647432551
 21
445.7191439377352
 31
0.0
  0
LINE
  5
3AF
330
1F
100
AcDbEntity
  8
SPOJOVACÍ
  6
Continuous
100
AcDbLine
 10
2588.367804872331
 20
447.4980851787327
 30
0.0
 11
2588.539420079869
 21
445.3282873603125
 31
0.0
  0
LINE
  5
3B0
330
1F
100
AcDbEntity
  8
SPOJOVACÍ
  6
Continuous
100
AcDbLine
 10
2573.142350248534
 20
449.864442482843
 30
0.0
 11
2574.031397203453
 21
444.9975535296458
 31
0.0
  0
LINE
  5
3B1
330
1F
100
AcDbEntity
  8
SPOJOVACÍ
  6
Continuous
100
AcDbLine
 10
2573.142350248534
 20
449.864442482843
 30
0.0
 11
2573.336224256185
 21
449.4735261335758
 31
0.0
  0
LINE
  5
3B2
330
1F
100
AcDbEntity
  8
SPOJOVACÍ
  6
Continuous
100
AcDbLine
 10
2573.142350248534
 20
449.864442482843
 30
0.0
 11
2572.741213659901
 21
449.5118370969471
 31
0.0
  0
LINE
  5
3B3
330
1F
100
AcDbEntity
  8
SPOJOVACÍ
  6
Continuous
100
AcDbLine
 10
2574.031397203453
 20
444.9975535296458
 30
0.0
 11
2574.433462045367
 21
445.3500991436972
 31
0.0
  0
LINE
  5
3B4
330
1F
100
AcDbEntity
  8
SPOJOVACÍ
  6
Continuous
100
AcDbLine
 10
2574.031397203453
 20
444.9975535296458
 30
0.0
 11
2573.838451449094
 21
445.3884101070684
 31
0.0
  0
LINE
  5
3B5
330
1F
100
AcDbEntity
  8
SPOJOVACÍ
  6
Continuous
100
AcDbLine
 10
2573.336224256185
 20
449.4735261335758
 30
0.0
 11
2574.433462045367
 21
445.3500991436972
 31
0.0
  0
LINE
  5
3B6
330
1F
100
AcDbEntity
  8
SPOJOVACÍ
  6
Continuous
100
AcDbLine
 10
2572.741213659901
 20
449.5118370969471
 30
0.0
 11
2573.838451449094
 21
445.3884101070684
 31
0.0
  0
LINE
  5
3B7
330
1F
100
AcDbEntity
  8
SPOJOVACÍ
  6
Continuous
100
AcDbLine
 10
2576.255713024941
 20
449.6639823094697
 30
0.0
 11
2577.14475997986
 21
444.7970933562723
 31
0.0
  0
LINE
  5
3B8
330
1F
100
AcDbEntity
  8
SPOJOVACÍ
  6
Continuous
100
AcDbLine
 10
2576.255713024941
 20
449.6639823094697
 30
0.0
 11
2576.449587032581
 21
449.2730659602025
 31
0.0
  0
LINE
  5
3B9
330
1F
100
AcDbEntity
  8
SPOJOVACÍ
  6
Continuous
100
AcDbLine
 10
2576.255713024941
 20
449.6639823094697
 30
0.0
 11
2575.854576436312
 21
449.3113769235738
 31
0.0
  0
LINE
  5
3BA
330
1F
100
AcDbEntity
  8
SPOJOVACÍ
  6
Continuous
100
AcDbLine
 10
2577.14475997986
 20
444.7970933562723
 30
0.0
 11
2577.546824821769
 21
445.1496389703238
 31
0.0
  0
LINE
  5
3BB
330
1F
100
AcDbEntity
  8
SPOJOVACÍ
  6
Continuous
100
AcDbLine
 10
2577.14475997986
 20
444.7970933562723
 30
0.0
 11
2576.951814225766
 21
445.1879499336778
 31
0.0
  0
LINE
  5
3BC
330
1F
100
AcDbEntity
  8
SPOJOVACÍ
  6
Continuous
100
AcDbLine
 10
2576.449587032581
 20
449.2730659602025
 30
0.0
 11
2577.546824821769
 21
445.1496389703238
 31
0.0
  0
LINE
  5
3BD
330
1F
100
AcDbEntity
  8
SPOJOVACÍ
  6
Continuous
100
AcDbLine
 10
2575.854576436312
 20
449.3113769235738
 30
0.0
 11
2576.951814225766
 21
445.1879499336778
 31
0.0
  0
LINE
  5
3BE
330
1F
100
AcDbEntity
  8
SPOJOVACÍ
  6
Continuous
100
AcDbLine
 10
2579.370004055181
 20
449.463462368591
 30
0.0
 11
2580.259051010097
 21
444.5965734153937
 31
0.0
  0
LINE
  5
3BF
330
1F
100
AcDbEntity
  8
SPOJOVACÍ
  6
Continuous
100
AcDbLine
 10
2579.370004055181
 20
449.463462368591
 30
0.0
 11
2579.562949808988
 21
449.0726057868291
 31
0.0
  0
LINE
  5
3C0
330
1F
100
AcDbEntity
  8
SPOJOVACÍ
  6
Continuous
100
AcDbLine
 10
2579.370004055181
 20
449.463462368591
 30
0.0
 11
2578.967939212708
 21
449.1109167502004
 31
0.0
  0
LINE
  5
3C1
330
1F
100
AcDbEntity
  8
SPOJOVACÍ
  6
Continuous
100
AcDbLine
 10
2580.259051010097
 20
444.5965734153937
 30
0.0
 11
2580.660187598445
 21
444.9491787969332
 31
0.0
  0
LINE
  5
3C2
330
1F
100
AcDbEntity
  8
SPOJOVACÍ
  6
Continuous
100
AcDbLine
 10
2580.259051010097
 20
444.5965734153937
 30
0.0
 11
2580.065177002162
 21
444.9874897603053
 31
0.0
  0
LINE
  5
3C3
330
1F
100
AcDbEntity
  8
SPOJOVACÍ
  6
Continuous
100
AcDbLine
 10
2579.562949808988
 20
449.0726057868291
 30
0.0
 11
2580.660187598445
 21
444.9491787969332
 31
0.0
  0
LINE
  5
3C4
330
1F
100
AcDbEntity
  8
SPOJOVACÍ
  6
Continuous
100
AcDbLine
 10
2578.967939212708
 20
449.1109167502004
 30
0.0
 11
2580.065177002162
 21
444.9874897603053
 31
0.0
  0
LINE
  5
3C5
330
1F
100
AcDbEntity
  8
CETRIS
100
AcDbLine
 10
2558.172413545785
 20
488.3158518230106
 30
0.0
 11
2570.157448436425
 21
487.7167369174172
 31
0.0
  0
LINE
  5
3C6
330
1F
100
AcDbEntity
  8
CETRIS
100
AcDbLine
 10
2569.337321620213
 20
733.059937177683
 30
0.0
 11
2553.65126630844
 21
433.470305066096
 31
0.0
  0
HATCH
  5
3C7
330
1F
100
AcDbEntity
  8
CETRIS
100
AcDbHatch
 10
0.0
 20
0.0
 30
0.0
210
0.0
220
0.0
230
1.0
  2
ANSI31
 70
     0
 71
     0
 91
        2
 92
        7
 72
     0
 73
     1
 93
        7
 10
2567.149617404237
 20
691.2767426009918
 10
2557.729795459392
 20
691.328524062716
 10
2555.445962569145
 20
688.0997719054999
 10
2554.968148757089
 20
688.1247895065166
 10
2541.824541577098
 20
437.0936435996823
 10
2544.663577345095
 20
433.9408867254491
 10
2553.65126630844
 20
433.470305066096
 97
        0
 92
        7
 72
     0
 73
     1
 93
        6
 10
2569.337321620213
 20
733.059937177682
 10
2557.353736335754
 20
733.6873793901527
 10
2555.556375831278
 20
699.3594007107017
 10
2556.03418964335
 20
699.3343831096831
 10
2557.968354217268
 20
695.8847830510799
 10
2567.343022627167
 20
694.9706094421403
 97
        0
 75
     0
 76
     1
 52
-0.1354299381046259
 41
1.0
 77
     0
 78
     1
 53
44.86457006189537
 43
-7623.269802056968
 44
3794.939347872473
 45
-2.239751109457527
 46
2.250364407753502
 79
     0
 47
1.163336804849115
 98
        2
 10
2554.977913776351
 20
573.5664261213119
 10
2561.124960432626
 20
711.9893621969154
  0
LINE
  5
3C8
330
1F
100
AcDbEntity
  8
SPOJOVACÍ
  6
Continuous
100
AcDbLine
 10
2559.497313293316
 20
446.1440150153416
 30
0.0
 11
2558.230879523952
 21
445.2654919515839
 31
0.0
  0
LINE
  5
3C9
330
1F
100
AcDbEntity
  8
SPOJOVACÍ
  6
Continuous
100
AcDbLine
 10
2560.947645635246
 20
446.6648875869672
 30
0.0
 11
2559.497313293316
 21
446.1440150153416
 31
0.0
  0
LINE
  5
3CA
330
1F
100
AcDbEntity
  8
SPOJOVACÍ
  6
Continuous
100
AcDbLine
 10
2562.482708398897
 20
446.7934823223518
 30
0.0
 11
2560.947645635246
 21
446.6648875869672
 31
0.0
  0
LINE
  5
3CB
330
1F
100
AcDbEntity
  8
SPOJOVACÍ
  6
Continuous
100
AcDbLine
 10
2555.655766145607
 20
443.4748139344788
 30
0.0
 11
2556.8532133675
 21
443.3977138677833
 31
0.0
  0
LINE
  5
3CC
330
1F
100
AcDbEntity
  8
SPOJOVACÍ
  6
Continuous
100
AcDbLine
 10
2556.311176479958
 20
453.6540435735337
 30
0.0
 11
2555.655766145607
 21
443.4748139344788
 31
0.0
  0
LINE
  5
3CD
330
1F
100
AcDbEntity
  8
SPOJOVACÍ
  6
Continuous
100
AcDbLine
 10
2556.311176479958
 20
453.6540435735337
 30
0.0
 11
2557.508623701855
 21
453.5769435068382
 31
0.0
  0
LINE
  5
3CE
330
1F
100
AcDbEntity
  8
SPOJOVACÍ
  6
Continuous
100
AcDbLine
 10
2557.508623701855
 20
453.5769435068382
 30
0.0
 11
2556.8532133675
 21
443.3977138677833
 31
0.0
  0
LINE
  5
3CF
330
1F
100
AcDbEntity
  8
SPOJOVACÍ
  6
Continuous
100
AcDbLine
 10
2557.235202394815
 20
444.089905099076
 30
0.0
 11
2556.8532133675
 21
443.3977138677833
 31
0.0
  0
LINE
  5
3D0
330
1F
100
AcDbEntity
  8
SPOJOVACÍ
  6
Continuous
100
AcDbLine
 10
2558.230879523952
 20
445.2654919515839
 30
0.0
 11
2557.235202394815
 21
444.089905099076
 31
0.0
  0
LINE
  5
3D1
330
1F
100
AcDbEntity
  8
SPOJOVACÍ
  6
Continuous
100
AcDbLine
 10
2561.875094561008
 20
449.6037437576128
 30
0.0
 11
2562.656153665404
 21
449.4872744477756
 31
0.0
  0
LINE
  5
3D2
330
1F
100
AcDbEntity
  8
SPOJOVACÍ
  6
Continuous
100
AcDbLine
 10
2560.424807780644
 20
450.1258902893209
 30
0.0
 11
2561.875094561008
 21
449.6037437576128
 31
0.0
  0
LINE
  5
3D3
330
1F
100
AcDbEntity
  8
SPOJOVACÍ
  6
Continuous
100
AcDbLine
 10
2559.159705064889
 20
451.005225726481
 30
0.0
 11
2560.424807780644
 21
450.1258902893209
 31
0.0
  0
LINE
  5
3D4
330
1F
100
AcDbEntity
  8
SPOJOVACÍ
  6
Continuous
100
AcDbLine
 10
2558.164503996512
 20
452.1822334471148
 30
0.0
 11
2559.159705064889
 21
451.005225726481
 31
0.0
  0
LINE
  5
3D5
330
1F
100
AcDbEntity
  8
SPOJOVACÍ
  6
Continuous
100
AcDbLine
 10
2557.508623701855
 20
453.5769435068382
 30
0.0
 11
2558.164503996512
 21
452.1822334471148
 31
0.0
  0
LINE
  5
3D6
330
1F
100
AcDbEntity
  8
SPOJOVACÍ
  6
Continuous
100
AcDbLine
 10
2562.482708398897
 20
446.7934823223518
 30
0.0
 11
2567.415448349624
 21
446.4758778615991
 31
0.0
  0
LINE
  5
3D7
330
1F
100
AcDbEntity
  8
SPOJOVACÍ
  6
Continuous
100
AcDbLine
 10
2562.656153665404
 20
449.4872744477756
 30
0.0
 11
2566.685702804749
 21
449.2278237582472
 31
0.0
  0
LINE
  5
3D8
330
1F
100
AcDbEntity
  8
SPOJOVACÍ
  6
Continuous
100
AcDbLine
 10
2566.915624695463
 20
450.265362829607
 30
0.0
 11
2567.804671650382
 21
445.3984738764088
 31
0.0
  0
LINE
  5
3D9
330
1F
100
AcDbEntity
  8
SPOJOVACÍ
  6
Continuous
100
AcDbLine
 10
2566.915624695463
 20
450.265362829607
 30
0.0
 11
2567.108570449272
 21
449.8745062478442
 31
0.0
  0
LINE
  5
3DA
330
1F
100
AcDbEntity
  8
SPOJOVACÍ
  6
Continuous
100
AcDbLine
 10
2566.915624695463
 20
450.265362829607
 30
0.0
 11
2566.513559853266
 21
449.9128172111982
 31
0.0
  0
LINE
  5
3DB
330
1F
100
AcDbEntity
  8
SPOJOVACÍ
  6
Continuous
100
AcDbLine
 10
2567.804671650382
 20
445.3984738764088
 30
0.0
 11
2568.205808238727
 21
445.7510792579483
 31
0.0
  0
LINE
  5
3DC
330
1F
100
AcDbEntity
  8
SPOJOVACÍ
  6
Continuous
100
AcDbLine
 10
2567.804671650382
 20
445.3984738764088
 30
0.0
 11
2567.610797642446
 21
445.7893902213204
 31
0.0
  0
LINE
  5
3DD
330
1F
100
AcDbEntity
  8
SPOJOVACÍ
  6
Continuous
100
AcDbLine
 10
2567.108570449272
 20
449.8745062478442
 30
0.0
 11
2568.205808238727
 21
445.7510792579483
 31
0.0
  0
LINE
  5
3DE
330
1F
100
AcDbEntity
  8
SPOJOVACÍ
  6
Continuous
100
AcDbLine
 10
2566.513559853266
 20
449.9128172111982
 30
0.0
 11
2567.610797642446
 21
445.7893902213204
 31
0.0
  0
LWPOLYLINE
  5
3DF
330
1F
100
AcDbEntity
  8
PROFILY
100
AcDbPolyline
 90
        2
 70
     1
 43
2.5
 10
2557.709166268316
 20
472.5990540424049
 42
-1.0
 10
2555.209947478896
 20
472.5365605016736
 42
-1.0
  0
LINE
  5
3E0
330
1F
100
AcDbEntity
  8
PROFILY
100
AcDbLine
 10
2558.367604053532
 20
460.294784340564
 30
0.0
 11
2553.371202189734
 21
460.6133739024303
 31
0.0
  0
HATCH
  5
3E1
330
1F
100
AcDbEntity
  8
PROFILY
100
AcDbHatch
 10
0.0
 20
0.0
 30
0.0
210
0.0
220
0.0
230
1.0
  2
SOLID
 70
     1
 71
     0
 91
        1
 92
        1
 93
        4
 72
     1
 10
2558.97606723709
 20
472.5360817469759
 11
2553.979665373296
 21
472.8546713088404
 72
     1
 10
2553.979665373299
 20
472.8546713088404
 11
2553.371202189734
 21
460.6133739024303
 72
     1
 10
2553.371202189734
 20
460.6133739024303
 11
2558.367604053529
 21
460.294784340565
 72
     1
 10
2558.367604053532
 20
460.294784340564
 11
2558.976067237098
 21
472.5360817469749
 97
        0
 75
     0
 76
     1
 98
        1
 10
-17098.42496571533
 20
-2796.210157507437
  0
LWPOLYLINE
  5
3E2
330
1F
100
AcDbEntity
  8
PROFILY
100
AcDbPolyline
 90
        2
 70
     1
 43
2.5
 10
2557.157393673115
 20
460.4828785635141
 42
-1.0
 10
2554.658174883702
 20
460.4203850227827
 42
-1.0
  0
LINE
  5
3E3
330
1F
100
AcDbEntity
  8
CETRIS
100
AcDbLine
 10
2544.663577345095
 20
433.9408867254483
 30
0.0
 11
2541.824541577098
 21
437.0936435996823
 31
0.0
  0
LINE
  5
3E4
330
1F
100
AcDbEntity
  8
CETRIS
100
AcDbLine
 10
2544.663577345095
 20
433.9408867254483
 30
0.0
 11
2553.65126630844
 21
433.470305066096
 31
0.0
  0
LWPOLYLINE
  5
3E5
330
1F
100
AcDbEntity
  8
NOSNÉ KONSTRUKCE
100
AcDbPolyline
 90
        9
 70
     0
 43
0.0
 10
2570.157448436425
 20
237.7974656648243
 42
-0.0064239028828688
 10
2569.938334777075
 20
237.8363341050048
 42
-0.0832048017309575
 10
2567.60812119742
 20
238.6205167076864
 42
-0.0336767237692336
 10
2564.879846677959
 20
240.3233332666081
 42
-0.0844635135812105
 10
2563.975425072964
 20
241.243143026501
 42
-0.0495829410719565
 10
2562.998775565651
 20
242.9918214638551
 42
-0.0322692699774654
 10
2561.957252064251
 20
245.8831756449458
 42
-0.0276160659512937
 10
2561.760516635306
 20
246.738752083233
 42
-0.0126891984598699
 10
2561.625314245765
 20
247.6619204790263
  0
LWPOLYLINE
  5
3F0
330
1F
100
AcDbEntity
  8
NOSNÉ KONSTRUKCE
100
AcDbPolyline
 90
        7
 70
     0
 43
0.0
 10
2570.157448436425
 20
243.1471519993433
 42
-0.0203924744732807
 10
2569.144318407271
 20
244.049235983754
 42
-0.0273961979096945
 10
2568.356142033245
 20
244.8991003339492
 42
-0.0243529190212958
 10
2567.482382688577
 20
246.0622208263689
 42
-0.0398020282482987
 10
2567.042753945131
 20
246.8371793639294
 42
-0.104168275620852
 10
2566.952737484953
 20
247.2235905002694
 42
-0.007272956268647
 10
2566.934284133659
 20
247.6619204790263
 42
-0.007272956268647
  0
LWPOLYLINE
  5
3F1
330
1F
100
AcDbEntity
  8
NOSNÉ KONSTRUKCE
100
AcDbPolyline
 90
        4
 70
     1
 43
0.0
 10
2558.157448436425
 20
197.6619204790263
 10
2570.157448436425
 20
197.6619204790263
 10
2570.157448436425
 20
247.6619204790263
 10
2558.157448436425
 20
247.6619204790263
  0
LWPOLYLINE
  5
3F2
330
1F
100
AcDbEntity
  8
NOSNÉ KONSTRUKCE
100
AcDbPolyline
 90
        7
 70
     0
 43
0.0
 10
2570.157448436425
 20
230.5694146440878
 42
-0.0072417954699014
 10
2569.74604322515
 20
230.6249850119297
 42
-0.0707158694326265
 10
2567.809939772557
 20
231.1561115283498
 42
-0.033952657250207
 10
2563.456902047383
 20
233.4047673677582
 42
-0.0571374688189033
 10
2561.149977763697
 20
235.1909241276103
 42
-0.0274923553235744
 10
2558.764902440562
 20
237.788229858163
 42
-0.0065397459216397
 10
2558.157448436425
 20
238.5474903864292
 42
-0.0272796991712396
  0
LWPOLYLINE
  5
3FB
330
1F
100
AcDbEntity
  8
NOSNÉ KONSTRUKCE
100
AcDbPolyline
 90
        4
 70
     0
 43
0.0
 10
2570.157448436425
 20
223.6196366204044
 42
-0.0168162630274191
 10
2568.466410284306
 20
223.7546621994683
 42
-0.0575155827655532
 10
2565.366785623588
 20
224.4346944798112
 42
-0.0308717424615247
 10
2558.157448436425
 20
227.4200508754097
 42
-0.0308717424615247
  0
LWPOLYLINE
  5
3FC
330
1F
100
AcDbEntity
  8
NOSNÉ KONSTRUKCE
100
AcDbPolyline
 90
        2
 70
     0
 43
0.0
 10
2564.640117740907
 20
240.9535230213246
 10
2558.157448436425
 20
227.9976675549046
  0
LWPOLYLINE
  5
3FD
330
1F
100
AcDbEntity
  8
NOSNÉ KONSTRUKCE
100
AcDbPolyline
 90
        4
 70
     0
 43
0.0
 10
2570.157448436425
 20
206.1283620168519
 42
-0.0128837512779303
 10
2566.824283614678
 20
206.4131539770774
 42
-0.0351641677647434
 10
2563.220574160339
 20
207.0409136986004
 42
-0.0080161298787018
 10
2558.157448436425
 20
208.3813044863768
 42
-0.0080161298787018
  0
LWPOLYLINE
  5
3FE
330
1F
100
AcDbEntity
  8
NOSNÉ KONSTRUKCE
100
AcDbPolyline
 90
        2
 70
     0
 43
0.0
 10
2563.65827886717
 20
221.6609453960795
 10
2558.157448436425
 20
209.725653821391
  0
LWPOLYLINE
  5
3FF
330
1F
100
AcDbEntity
  8
NOSNÉ KONSTRUKCE
100
AcDbPolyline
 90
        5
 70
     0
 43
0.0
 10
2570.157448436425
 20
214.7525773968941
 42
-0.0120721047703142
 10
2568.423560297681
 20
214.821560086932
 42
-0.044358077361292
 10
2565.727760279264
 20
215.2171878216054
 42
-0.0188067511131767
 10
2558.485531103958
 20
217.2370112699886
 42
-0.0051027088350076
 10
2558.157448436425
 20
217.3456609861773
 42
-0.0051027088350076
  0
LWPOLYLINE
  5
400
330
1F
100
AcDbEntity
  8
PROFILY
100
AcDbPolyline
 90
        2
 70
     1
 43
2.5
 10
2557.157393673115
 20
217.3583688447356
 42
-1.0
 10
2554.658174883702
 20
217.2958753040043
 42
-1.0
  0
HATCH
  5
401
330
1F
100
AcDbEntity
  8
PROFILY
100
AcDbHatch
 10
0.0
 20
0.0
 30
0.0
210
0.0
220
0.0
230
1.0
  2
SOLID
 70
     1
 71
     0
 91
        1
 92
        1
 93
        4
 72
     1
 10
2558.97606723709
 20
229.4115720281975
 11
2553.979665373296
 21
229.7301615900619
 72
     1
 10
2553.979665373299
 20
229.7301615900619
 11
2553.371202189734
 21
217.4888641836519
 72
     1
 10
2553.371202189734
 20
217.4888641836519
 11
2558.367604053529
 21
217.1702746217865
 72
     1
 10
2558.367604053532
 20
217.1702746217856
 11
2558.976067237098
 21
229.4115720281965
 97
        0
 75
     0
 76
     1
 98
        1
 10
-17098.42496571533
 20
-3039.334667226215
  0
LWPOLYLINE
  5
402
330
1F
100
AcDbEntity
  8
PROFILY
100
AcDbPolyline
 90
        2
 70
     1
 43
2.5
 10
2557.709166268316
 20
229.4745443236265
 42
-1.0
 10
2555.209947478896
 20
229.4120507828952
 42
-1.0
  0
LINE
  5
403
330
1F
100
AcDbEntity
  8
CETRIS
100
AcDbLine
 10
2570.157448436425
 20
487.7167369174172
 30
0.0
 11
2555.179575796588
 21
188.0908646513776
 31
0.0
  0
LINE
  5
404
330
1F
100
AcDbEntity
  8
CETRIS
100
AcDbLine
 10
2558.172413545785
 20
488.3158518230106
 30
0.0
 11
2543.34431963235
 21
191.6862382796321
 31
0.0
  0
LINE
  5
405
330
1F
100
AcDbEntity
  8
CETRIS
100
AcDbLine
 10
2546.19079962861
 20
188.5402008305723
 30
0.0
 11
2555.179575796588
 21
188.0908646513776
 31
0.0
  0
LINE
  5
406
330
1F
100
AcDbEntity
  8
CETRIS
100
AcDbLine
 10
2546.19079962861
 20
188.5402008305723
 30
0.0
 11
2543.34431963235
 21
191.6862382796321
 31
0.0
  0
HATCH
  5
407
330
1F
100
AcDbEntity
  8
CETRIS
100
AcDbHatch
 10
0.0
 20
0.0
 30
0.0
210
0.0
220
0.0
230
1.0
  2
ANSI31
 70
     0
 71
     0
 91
        3
 92
        7
 72
     0
 73
     1
 93
        6
 10
2570.157448436425
 20
487.7167369174172
 10
2558.172413545785
 20
488.3158518230106
 10
2556.456198972468
 20
453.9837206258603
 10
2556.934070583768
 20
453.9598325013862
 10
2558.876383560819
 20
450.5148138566641
 10
2568.253186610877
 20
449.6228016688896
 97
        0
 92
        7
 72
     0
 73
     1
 93
        6
 10
2552.70696820644
 20
378.981978682214
 10
2564.721952001979
 20
378.9819786822131
 10
2568.068513106977
 20
445.9284879955061
 10
2558.648595081082
 20
445.9580037159526
 10
2556.37240035976
 20
442.7238622914106
 10
2555.894528748475
 20
442.7477504158837
 97
        0
 92
        7
 72
     0
 73
     1
 93
        5
 10
2564.721952001979
 20
378.9819786822131
 10
2552.70696820644
 20
378.9819786822131
 10
2543.34431963235
 20
191.6862382796321
 10
2546.19079962861
 20
188.5402008305723
 10
2555.179575796588
 20
188.0908646513776
 97
        0
 75
     0
 76
     1
 52
90.0
 41
1.0
 77
     0
 78
     1
 53
135.0
 43
-7630.577404544929
 44
3770.854168202055
 45
-2.245064030267288
 46
-2.245064030267287
 79
     0
 47
1.163336804849115
 98
        3
 10
2563.404013578467
 20
468.8482045925161
 10
2559.912089855068
 20
409.5180306394036
 10
2557.584140706131
 20
301.3276994975608
  0
TEXT
  5
408
330
1F
100
AcDbEntity
  8
POPIS
100
AcDbText
 10
2419.686614015887
 20
-546.962132936354
 30
0.0
 40
25.0
  1
Zakládací deska
 41
0.7
  7
SIMPLEX7
100
AcDbText
  0
TEXT
  5
409
330
1F
100
AcDbEntity
  8
POPIS
100
AcDbText
 10
2365.342910856142
 20
-546.962132936354
 30
0.0
 40
25.0
  1
11
 41
0.85
  7
SIMPLEX7
100
AcDbText
  0
TEXT
  5
40A
330
1F
100
AcDbEntity
  8
POPIS
100
AcDbText
 10
2364.776429689906
 20
-511.6336233558645
 30
0.0
 40
25.0
  1
10
 41
0.85
  7
SIMPLEX7
100
AcDbText
  0
TEXT
  5
40B
330
1F
100
AcDbEntity
  8
POPIS
100
AcDbText
 10
2419.120132849652
 20
-511.6336233558645
 30
0.0
 40
25.0
  1
Silikonový tmel
 41
0.7
  7
SIMPLEX7
100
AcDbText
  0
CIRCLE
  5
40C
330
1F
100
AcDbEntity
  8
POPIS
100
AcDbCircle
 10
2592.791402554285
 20
-7.706590863656401
 30
0.0
 40
11.13656048292026
  0
TEXT
  5
40D
330
1F
100
AcDbEntity
  8
POPIS
100
AcDbText
 10
2588.409119043963
 20
-13.81675223160209
 30
0.0
 40
12.0
  1
R
 41
0.85
  7
SIMPLEX7
100
AcDbText
  0
LINE
  5
40E
330
1F
100
AcDbEntity
  8
STAVBA OBRYS
100
AcDbLine
 10
2545.336991657032
 20
101.5796859573579
 30
0.0
 11
2284.052707285755
 21
101.5796859573579
 31
0.0
  0
LINE
  5
40F
330
1F
100
AcDbEntity
  8
STAVBA OBRYS
  6
DASHED
100
AcDbLine
 10
2796.063727420639
 20
688.2259981606371
 30
0.0
 11
2792.274866279082
 21
694.7884981606371
 31
0.0
  0
LINE
  5
410
330
1F
100
AcDbEntity
  8
STAVBA OBRYS
  6
DASHED
100
AcDbLine
 10
2796.063727420639
 20
688.2259981606371
 30
0.0
 11
2792.274866279082
 21
681.663498160637
 31
0.0
  0
LWPOLYLINE
  5
411
330
1F
100
AcDbEntity
  8
STAVBA OBRYS
  6
DASHED
100
AcDbPolyline
 90
        4
 70
     0
 43
0.0
 10
2626.531253721603
 20
756.4470812507484
 10
2626.531253721603
 20
663.1662121511249
 10
2631.904535046457
 20
663.1662121511249
 10
2631.904535046457
 20
698.4199131950868
  0
LINE
  5
412
330
1F
100
AcDbEntity
  8
STAVBA OBRYS
  6
DASHED
100
AcDbLine
 10
2792.274866279082
 20
694.7884981606371
 30
0.0
 11
2631.904535046457
 21
694.7884981606389
 31
0.0
  0
LINE
  5
413
330
1F
100
AcDbEntity
  8
STAVBA OBRYS
  6
DASHED
100
AcDbLine
 10
2792.274866279082
 20
681.663498160637
 30
0.0
 11
2631.904535046457
 21
681.6634981606389
 31
0.0
  0
LINE
  5
414
330
1F
100
AcDbEntity
  8
STAVBA OBRYS
  6
DASHDOT2
100
AcDbLine
 10
2598.146290544783
 20
688.225998160638
 30
0.0
 11
2810.922779610881
 21
688.2259981606371
 31
0.0
  0
LINE
  5
415
330
1F
100
AcDbEntity
  8
STAVBA OBRYS
  6
DASHED
100
AcDbLine
 10
2796.063727420639
 20
221.995045661592
 30
0.0
 11
2792.274866279082
 21
228.557545661592
 31
0.0
  0
LINE
  5
416
330
1F
100
AcDbEntity
  8
STAVBA OBRYS
  6
DASHED
100
AcDbLine
 10
2796.063727420639
 20
221.995045661592
 30
0.0
 11
2792.274866279082
 21
215.432545661592
 31
0.0
  0
LWPOLYLINE
  5
417
330
1F
100
AcDbEntity
  8
STAVBA OBRYS
  6
DASHED
100
AcDbPolyline
 90
        4
 70
     1
 43
0.0
 10
2626.531253721603
 20
196.9352596520798
 10
2631.904535046457
 20
196.9352596520798
 10
2631.904535046457
 20
247.0548316711024
 10
2626.531253721603
 20
247.0548316711024
  0
LINE
  5
418
330
1F
100
AcDbEntity
  8
STAVBA OBRYS
  6
DASHED
100
AcDbLine
 10
2792.274866279082
 20
228.557545661592
 30
0.0
 11
2631.904535046457
 21
228.5575456615938
 31
0.0
  0
LINE
  5
419
330
1F
100
AcDbEntity
  8
STAVBA OBRYS
  6
DASHED
100
AcDbLine
 10
2792.274866279082
 20
215.432545661592
 30
0.0
 11
2631.904535046457
 21
215.4325456615938
 31
0.0
  0
LINE
  5
41A
330
1F
100
AcDbEntity
  8
STAVBA OBRYS
  6
DASHDOT2
100
AcDbLine
 10
2598.146290544783
 20
221.9950456615929
 30
0.0
 11
2810.922779610881
 21
221.995045661592
 31
0.0
  0
LWPOLYLINE
  5
41B
330
1F
100
AcDbEntity
  8
NOSNÉ KONSTRUKCE
100
AcDbPolyline
 90
        2
 70
     0
 43
0.0
 10
2607.702666653338
 20
626.5128292408112
 10
2607.702666653338
 20
603.9350276224864
  0
LINE
  5
41C
330
1F
100
AcDbEntity
  8
NOSNÉ KONSTRUKCE
100
AcDbLine
 10
2607.70266665334
 20
636.8936437903908
 30
0.0
 11
2607.70266665334
 21
657.0966001851361
 31
0.0
  0
LINE
  5
41D
330
1F
100
AcDbEntity
  8
NOSNÉ KONSTRUKCE
100
AcDbLine
 10
2607.70266665334
 20
636.8936437903908
 30
0.0
 11
2607.70266665334
 21
657.0966001851361
 31
0.0
  0
LINE
  5
41E
330
1F
100
AcDbEntity
  8
NOSNÉ KONSTRUKCE
100
AcDbLine
 10
2704.202666653311
 20
611.717170240889
 30
0.0
 11
2704.202666653313
 21
651.7478747324608
 31
0.0
  0
LINE
  5
41F
330
1F
100
AcDbEntity
  8
NOSNÉ KONSTRUKCE
100
AcDbLine
 10
2607.70266665334
 20
318.7784762119195
 30
0.0
 11
2607.70266665334
 21
338.9814326066648
 31
0.0
  0
LINE
  5
420
330
1F
100
AcDbEntity
  8
NOSNÉ KONSTRUKCE
100
AcDbLine
 10
2607.70266665334
 20
318.7784762119195
 30
0.0
 11
2607.70266665334
 21
338.9814326066648
 31
0.0
  0
LWPOLYLINE
  5
421
330
1F
100
AcDbEntity
  8
NOSNÉ KONSTRUKCE
100
AcDbPolyline
 90
        2
 70
     0
 43
0.0
 10
2607.702666653338
 20
308.3976616623399
 10
2607.702666653338
 20
285.819860044015
  0
LINE
  5
422
330
1F
100
AcDbEntity
  8
NOSNÉ KONSTRUKCE
100
AcDbLine
 10
2637.582939451755
 20
318.7784762119195
 30
0.0
 11
2637.582939451755
 21
309.2212274507005
 31
0.0
  0
LINE
  5
423
330
1F
100
AcDbEntity
  8
NOSNÉ KONSTRUKCE
100
AcDbLine
 10
2637.582939451755
 20
308.3976616623399
 30
0.0
 11
2637.582939451755
 21
317.9549104235588
 31
0.0
  0
LINE
  5
424
330
1F
100
AcDbEntity
  8
NOSNÉ KONSTRUKCE
100
AcDbLine
 10
2605.137094898886
 20
348.9507395599634
 30
0.0
 11
2607.702666653288
 21
341.3562778302444
 31
0.0
  0
ARC
  5
425
330
1F
100
AcDbEntity
  8
NOSNÉ KONSTRUKCE
100
AcDbCircle
 10
2594.994598120029
 20
326.0755855189149
 30
0.0
 40
1.75
100
AcDbArc
 50
180.0
 51
0.0
  0
ARC
  5
426
330
1F
100
AcDbEntity
  8
NOSNÉ KONSTRUKCE
100
AcDbCircle
 10
2594.994598120029
 20
330.9638342245548
 30
0.0
 40
1.75
100
AcDbArc
 50
0.0
 51
180.0
  0
LINE
  5
427
330
1F
100
AcDbEntity
  8
NOSNÉ KONSTRUKCE
100
AcDbLine
 10
2593.244598120029
 20
330.9638342245548
 30
0.0
 11
2593.244598120029
 21
326.0755855189149
 31
0.0
  0
LINE
  5
428
330
1F
100
AcDbEntity
  8
NOSNÉ KONSTRUKCE
100
AcDbLine
 10
2596.744598120029
 20
326.0755855189149
 30
0.0
 11
2596.744598120029
 21
330.9638342245548
 31
0.0
  0
ARC
  5
429
330
1F
100
AcDbEntity
  8
NOSNÉ KONSTRUKCE
100
AcDbCircle
 10
2594.994598120029
 20
342.625959382532
 30
0.0
 40
1.3125
100
AcDbArc
 50
0.0
 51
180.0
  0
LINE
  5
42A
330
1F
100
AcDbEntity
  8
NOSNÉ KONSTRUKCE
100
AcDbLine
 10
2593.682098120029
 20
342.625959382532
 30
0.0
 11
2593.682098120029
 21
342.6041467625059
 31
0.0
  0
LINE
  5
42B
330
1F
100
AcDbEntity
  8
NOSNÉ KONSTRUKCE
100
AcDbLine
 10
2596.307098120029
 20
342.6041467625022
 30
0.0
 11
2596.307098120029
 21
342.625959382532
 31
0.0
  0
LINE
  5
42C
330
1F
100
AcDbEntity
  8
NOSNÉ KONSTRUKCE
100
AcDbLine
 10
2599.119598120026
 20
339.9064915306412
 30
0.0
 11
2590.869598120026
 21
339.9064915306394
 31
0.0
  0
ARC
  5
42D
330
1F
100
AcDbEntity
  8
NOSNÉ KONSTRUKCE
100
AcDbCircle
 10
2594.994598120029
 20
337.1870236787467
 30
0.0
 40
1.3125
100
AcDbArc
 50
180.0
 51
0.0
  0
LINE
  5
42E
330
1F
100
AcDbEntity
  8
NOSNÉ KONSTRUKCE
100
AcDbLine
 10
2593.682098120029
 20
337.2088362987765
 30
0.0
 11
2593.682098120029
 21
337.1870236787467
 31
0.0
  0
LINE
  5
42F
330
1F
100
AcDbEntity
  8
NOSNÉ KONSTRUKCE
100
AcDbLine
 10
2596.307098120027
 20
337.1870236787467
 30
0.0
 11
2596.307098120027
 21
337.2088362987783
 31
0.0
  0
CIRCLE
  5
430
330
1F
100
AcDbEntity
  8
NOSNÉ KONSTRUKCE
100
AcDbCircle
 10
2594.994598120026
 20
339.9064915306412
 30
0.0
 40
3.0
  0
LINE
  5
431
330
1F
100
AcDbEntity
  8
NOSNÉ KONSTRUKCE
100
AcDbLine
 10
2594.994598120026
 20
335.7814915306412
 30
0.0
 11
2594.994598120026
 21
344.0314915306412
 31
0.0
  0
LINE
  5
432
330
1F
100
AcDbEntity
  8
NOSNÉ KONSTRUKCE
100
AcDbLine
 10
2594.876206404332
 20
318.7784762119195
 30
0.0
 11
2637.582939451755
 21
318.7784762119195
 31
0.0
  0
LINE
  5
433
330
1F
100
AcDbEntity
  8
NOSNÉ KONSTRUKCE
100
AcDbLine
 10
2596.307098120027
 20
289.9891141955126
 30
0.0
 11
2596.307098120027
 21
289.967301575481
 31
0.0
  0
LINE
  5
434
330
1F
100
AcDbEntity
  8
NOSNÉ KONSTRUKCE
100
AcDbLine
 10
2593.682098120029
 20
289.9673015754838
 30
0.0
 11
2593.682098120029
 21
289.9891141955126
 31
0.0
  0
ARC
  5
435
330
1F
100
AcDbEntity
  8
NOSNÉ KONSTRUKCE
100
AcDbCircle
 10
2594.994598120029
 20
289.9891141955126
 30
0.0
 40
1.3125
100
AcDbArc
 50
0.0
 51
180.0
  0
LINE
  5
436
330
1F
100
AcDbEntity
  8
NOSNÉ KONSTRUKCE
100
AcDbLine
 10
2599.119598120026
 20
287.2696463436191
 30
0.0
 11
2590.869598120026
 21
287.26964634362
 31
0.0
  0
LINE
  5
437
330
1F
100
AcDbEntity
  8
NOSNÉ KONSTRUKCE
100
AcDbLine
 10
2596.744598120029
 20
301.1005523553444
 30
0.0
 11
2596.744598120029
 21
296.2123036497046
 31
0.0
  0
LINE
  5
438
330
1F
100
AcDbEntity
  8
NOSNÉ KONSTRUKCE
100
AcDbLine
 10
2593.244598120029
 20
296.2123036497046
 30
0.0
 11
2593.244598120029
 21
301.1005523553444
 31
0.0
  0
ARC
  5
439
330
1F
100
AcDbEntity
  8
NOSNÉ KONSTRUKCE
100
AcDbCircle
 10
2594.994598120029
 20
296.2123036497046
 30
0.0
 40
1.75
100
AcDbArc
 50
180.0
 51
0.0
  0
ARC
  5
43A
330
1F
100
AcDbEntity
  8
NOSNÉ KONSTRUKCE
100
AcDbCircle
 10
2594.994598120029
 20
301.1005523553444
 30
0.0
 40
1.75
100
AcDbArc
 50
0.0
 51
180.0
  0
LINE
  5
43B
330
1F
100
AcDbEntity
  8
NOSNÉ KONSTRUKCE
100
AcDbLine
 10
2582.179725534683
 20
315.788446905241
 30
0.0
 11
2591.28127533202
 21
315.788446905241
 31
0.0
  0
LINE
  5
43C
330
1F
100
AcDbEntity
  8
NOSNÉ KONSTRUKCE
100
AcDbLine
 10
2591.28127533202
 20
311.3876909690193
 30
0.0
 11
2594.876206404332
 21
308.3976616623399
 31
0.0
  0
LINE
  5
43D
330
1F
100
AcDbEntity
  8
NOSNÉ KONSTRUKCE
100
AcDbLine
 10
2582.179725534683
 20
311.3876909690193
 30
0.0
 11
2591.28127533202
 21
311.3876909690193
 31
0.0
  0
LINE
  5
43E
330
1F
100
AcDbEntity
  8
NOSNÉ KONSTRUKCE
100
AcDbLine
 10
2594.876206404332
 20
308.3976616623399
 30
0.0
 11
2637.582939451755
 21
308.3976616623399
 31
0.0
  0
LINE
  5
43F
330
1F
100
AcDbEntity
  8
NOSNÉ KONSTRUKCE
100
AcDbLine
 10
2591.28127533202
 20
315.788446905241
 30
0.0
 11
2594.876206404332
 21
318.7784762119195
 31
0.0
  0
LWPOLYLINE
  5
440
330
1F
100
AcDbEntity
  8
NOSNÉ KONSTRUKCE
100
AcDbPolyline
 90
        3
 70
     0
 43
0.0
 10
2582.179725534683
 20
315.788446905241
 10
2582.179725534683
 20
348.9507395599634
 10
2605.137094898886
 20
348.9507395599634
  0
LINE
  5
441
330
1F
100
AcDbEntity
  8
NOSNÉ KONSTRUKCE
100
AcDbLine
 10
2605.137094898886
 20
278.2253983142968
 30
0.0
 11
2607.702666653288
 21
285.819860044015
 31
0.0
  0
LINE
  5
442
330
1F
100
AcDbEntity
  8
NOSNÉ KONSTRUKCE
100
AcDbLine
 10
2594.994598120026
 20
291.3946463436191
 30
0.0
 11
2594.994598120026
 21
283.1446463436191
 31
0.0
  0
CIRCLE
  5
443
330
1F
100
AcDbEntity
  8
NOSNÉ KONSTRUKCE
100
AcDbCircle
 10
2594.994598120026
 20
287.2696463436191
 30
0.0
 40
3.0
  0
LINE
  5
444
330
1F
100
AcDbEntity
  8
NOSNÉ KONSTRUKCE
100
AcDbLine
 10
2596.307098120029
 20
284.5719911117562
 30
0.0
 11
2596.307098120029
 21
284.5501784917273
 31
0.0
  0
LINE
  5
445
330
1F
100
AcDbEntity
  8
NOSNÉ KONSTRUKCE
100
AcDbLine
 10
2593.682098120029
 20
284.5501784917273
 30
0.0
 11
2593.682098120029
 21
284.5719911117544
 31
0.0
  0
ARC
  5
446
330
1F
100
AcDbEntity
  8
NOSNÉ KONSTRUKCE
100
AcDbCircle
 10
2594.994598120029
 20
284.5501784917273
 30
0.0
 40
1.3125
100
AcDbArc
 50
180.0
 51
0.0
  0
LWPOLYLINE
  5
447
330
1F
100
AcDbEntity
  8
NOSNÉ KONSTRUKCE
100
AcDbPolyline
 90
        3
 70
     0
 43
0.0
 10
2605.137094898886
 20
278.2253983142968
 10
2582.179725534683
 20
278.2253983142968
 10
2582.179725534683
 20
311.3876909690193
  0
LINE
  5
448
330
1F
100
AcDbEntity
  8
NOSNÉ KONSTRUKCE
100
AcDbLine
 10
2621.202666653306
 20
293.6020026624141
 30
0.0
 11
2704.202666653348
 21
293.6020026624177
 31
0.0
  0
LINE
  5
449
330
1F
100
AcDbEntity
  8
NOSNÉ KONSTRUKCE
100
AcDbLine
 10
2621.202666653306
 20
333.632707153994
 30
0.0
 11
2704.202666653349
 21
333.6327071539894
 31
0.0
  0
ARC
  5
44A
330
1F
100
AcDbEntity
  8
NOSNÉ KONSTRUKCE
100
AcDbCircle
 10
2704.202666653297
 20
336.3363558514051
 30
0.0
 40
2.703648697414791
100
AcDbArc
 50
90.0
 51
270.0
  0
ARC
  5
44B
330
1F
100
AcDbEntity
  8
NOSNÉ KONSTRUKCE
100
AcDbCircle
 10
2704.202666653297
 20
290.898353965003
 30
0.0
 40
2.703648697414791
100
AcDbArc
 50
90.0
 51
270.0
  0
LINE
  5
44C
330
1F
100
AcDbEntity
  8
NOSNÉ KONSTRUKCE
100
AcDbLine
 10
2637.582939451772
 20
636.8936437903908
 30
0.0
 11
2637.582939451772
 21
627.3363950291718
 31
0.0
  0
LINE
  5
44D
330
1F
100
AcDbEntity
  8
NOSNÉ KONSTRUKCE
100
AcDbLine
 10
2637.582939451772
 20
626.5128292408112
 30
0.0
 11
2637.582939451772
 21
636.0700780020302
 31
0.0
  0
LINE
  5
44E
330
1F
100
AcDbEntity
  8
NOSNÉ KONSTRUKCE
100
AcDbLine
 10
2605.137094898902
 20
667.0659071384347
 30
0.0
 11
2607.702666653302
 21
659.4714454087156
 31
0.0
  0
ARC
  5
44F
330
1F
100
AcDbEntity
  8
NOSNÉ KONSTRUKCE
100
AcDbCircle
 10
2594.994598120043
 20
644.1907530973862
 30
0.0
 40
1.75
100
AcDbArc
 50
180.0
 51
0.0
  0
ARC
  5
450
330
1F
100
AcDbEntity
  8
NOSNÉ KONSTRUKCE
100
AcDbCircle
 10
2594.994598120043
 20
649.0790018030261
 30
0.0
 40
1.75
100
AcDbArc
 50
0.0
 51
180.0
  0
LINE
  5
451
330
1F
100
AcDbEntity
  8
NOSNÉ KONSTRUKCE
100
AcDbLine
 10
2593.244598120044
 20
649.0790018030261
 30
0.0
 11
2593.244598120044
 21
644.1907530973862
 31
0.0
  0
LINE
  5
452
330
1F
100
AcDbEntity
  8
NOSNÉ KONSTRUKCE
100
AcDbLine
 10
2596.744598120044
 20
644.1907530973862
 30
0.0
 11
2596.744598120044
 21
649.0790018030261
 31
0.0
  0
ARC
  5
453
330
1F
100
AcDbEntity
  8
NOSNÉ KONSTRUKCE
100
AcDbCircle
 10
2594.994598120043
 20
660.7411269610033
 30
0.0
 40
1.3125
100
AcDbArc
 50
0.0
 51
180.0
  0
LINE
  5
454
330
1F
100
AcDbEntity
  8
NOSNÉ KONSTRUKCE
100
AcDbLine
 10
2593.682098120044
 20
660.7411269610033
 30
0.0
 11
2593.682098120044
 21
660.7193143409772
 31
0.0
  0
LINE
  5
455
330
1F
100
AcDbEntity
  8
NOSNÉ KONSTRUKCE
100
AcDbLine
 10
2596.307098120044
 20
660.7193143409736
 30
0.0
 11
2596.307098120044
 21
660.7411269610033
 31
0.0
  0
LINE
  5
456
330
1F
100
AcDbEntity
  8
NOSNÉ KONSTRUKCE
100
AcDbLine
 10
2599.11959812004
 20
658.0216591091125
 30
0.0
 11
2590.86959812004
 21
658.0216591091107
 31
0.0
  0
ARC
  5
457
330
1F
100
AcDbEntity
  8
NOSNÉ KONSTRUKCE
100
AcDbCircle
 10
2594.994598120043
 20
655.302191257218
 30
0.0
 40
1.3125
100
AcDbArc
 50
180.0
 51
0.0
  0
LINE
  5
458
330
1F
100
AcDbEntity
  8
NOSNÉ KONSTRUKCE
100
AcDbLine
 10
2593.682098120044
 20
655.3240038772478
 30
0.0
 11
2593.682098120044
 21
655.302191257218
 31
0.0
  0
LINE
  5
459
330
1F
100
AcDbEntity
  8
NOSNÉ KONSTRUKCE
100
AcDbLine
 10
2596.307098120044
 20
655.302191257218
 30
0.0
 11
2596.307098120044
 21
655.3240038772496
 31
0.0
  0
CIRCLE
  5
45A
330
1F
100
AcDbEntity
  8
NOSNÉ KONSTRUKCE
100
AcDbCircle
 10
2594.99459812004
 20
658.0216591091125
 30
0.0
 40
3.0
  0
LINE
  5
45B
330
1F
100
AcDbEntity
  8
NOSNÉ KONSTRUKCE
100
AcDbLine
 10
2594.99459812004
 20
653.8966591091125
 30
0.0
 11
2594.994598120042
 21
662.1466591091125
 31
0.0
  0
LINE
  5
45C
330
1F
100
AcDbEntity
  8
NOSNÉ KONSTRUKCE
100
AcDbLine
 10
2594.876206404348
 20
636.8936437903908
 30
0.0
 11
2637.582939451772
 21
636.8936437903908
 31
0.0
  0
LINE
  5
45D
330
1F
100
AcDbEntity
  8
NOSNÉ KONSTRUKCE
100
AcDbLine
 10
2596.307098120044
 20
608.104281773984
 30
0.0
 11
2596.307098120044
 21
608.0824691539524
 31
0.0
  0
LINE
  5
45E
330
1F
100
AcDbEntity
  8
NOSNÉ KONSTRUKCE
100
AcDbLine
 10
2593.682098120044
 20
608.0824691539551
 30
0.0
 11
2593.682098120044
 21
608.104281773984
 31
0.0
  0
ARC
  5
45F
330
1F
100
AcDbEntity
  8
NOSNÉ KONSTRUKCE
100
AcDbCircle
 10
2594.994598120043
 20
608.104281773984
 30
0.0
 40
1.3125
100
AcDbArc
 50
0.0
 51
180.0
  0
LINE
  5
460
330
1F
100
AcDbEntity
  8
NOSNÉ KONSTRUKCE
100
AcDbLine
 10
2599.11959812004
 20
605.3848139220904
 30
0.0
 11
2590.86959812004
 21
605.3848139220913
 31
0.0
  0
LINE
  5
461
330
1F
100
AcDbEntity
  8
NOSNÉ KONSTRUKCE
100
AcDbLine
 10
2596.744598120044
 20
619.2157199338157
 30
0.0
 11
2596.744598120044
 21
614.3274712281758
 31
0.0
  0
LINE
  5
462
330
1F
100
AcDbEntity
  8
NOSNÉ KONSTRUKCE
100
AcDbLine
 10
2593.244598120044
 20
614.3274712281758
 30
0.0
 11
2593.244598120044
 21
619.2157199338157
 31
0.0
  0
ARC
  5
463
330
1F
100
AcDbEntity
  8
NOSNÉ KONSTRUKCE
100
AcDbCircle
 10
2594.994598120043
 20
614.3274712281758
 30
0.0
 40
1.75
100
AcDbArc
 50
180.0
 51
0.0
  0
ARC
  5
464
330
1F
100
AcDbEntity
  8
NOSNÉ KONSTRUKCE
100
AcDbCircle
 10
2594.994598120043
 20
619.2157199338157
 30
0.0
 40
1.75
100
AcDbArc
 50
0.0
 51
180.0
  0
LINE
  5
465
330
1F
100
AcDbEntity
  8
NOSNÉ KONSTRUKCE
100
AcDbLine
 10
2582.179725534698
 20
633.9036144837123
 30
0.0
 11
2591.281275332036
 21
633.9036144837123
 31
0.0
  0
LINE
  5
466
330
1F
100
AcDbEntity
  8
NOSNÉ KONSTRUKCE
100
AcDbLine
 10
2591.281275332036
 20
629.5028585474906
 30
0.0
 11
2594.876206404348
 21
626.5128292408112
 31
0.0
  0
LINE
  5
467
330
1F
100
AcDbEntity
  8
NOSNÉ KONSTRUKCE
100
AcDbLine
 10
2582.179725534698
 20
629.5028585474906
 30
0.0
 11
2591.281275332036
 21
629.5028585474906
 31
0.0
  0
LINE
  5
468
330
1F
100
AcDbEntity
  8
NOSNÉ KONSTRUKCE
100
AcDbLine
 10
2594.876206404348
 20
626.5128292408112
 30
0.0
 11
2637.582939451772
 21
626.5128292408112
 31
0.0
  0
LINE
  5
469
330
1F
100
AcDbEntity
  8
NOSNÉ KONSTRUKCE
100
AcDbLine
 10
2591.281275332036
 20
633.9036144837123
 30
0.0
 11
2594.876206404348
 21
636.8936437903908
 31
0.0
  0
LWPOLYLINE
  5
46A
330
1F
100
AcDbEntity
  8
NOSNÉ KONSTRUKCE
100
AcDbPolyline
 90
        3
 70
     0
 43
0.0
 10
2582.179725534698
 20
633.9036144837123
 10
2582.179725534698
 20
667.0659071384347
 10
2605.137094898902
 20
667.0659071384347
  0
LINE
  5
46B
330
1F
100
AcDbEntity
  8
NOSNÉ KONSTRUKCE
100
AcDbLine
 10
2605.137094898902
 20
596.3405658927682
 30
0.0
 11
2607.702666653302
 21
603.9350276224864
 31
0.0
  0
LINE
  5
46C
330
1F
100
AcDbEntity
  8
NOSNÉ KONSTRUKCE
100
AcDbLine
 10
2594.99459812004
 20
609.5098139220904
 30
0.0
 11
2594.994598120042
 21
601.2598139220904
 31
0.0
  0
CIRCLE
  5
46D
330
1F
100
AcDbEntity
  8
NOSNÉ KONSTRUKCE
100
AcDbCircle
 10
2594.99459812004
 20
605.3848139220904
 30
0.0
 40
3.0
  0
LINE
  5
46E
330
1F
100
AcDbEntity
  8
NOSNÉ KONSTRUKCE
100
AcDbLine
 10
2596.307098120044
 20
602.6871586902275
 30
0.0
 11
2596.307098120044
 21
602.6653460701986
 31
0.0
  0
LINE
  5
46F
330
1F
100
AcDbEntity
  8
NOSNÉ KONSTRUKCE
100
AcDbLine
 10
2593.682098120044
 20
602.6653460701986
 30
0.0
 11
2593.682098120044
 21
602.6871586902257
 31
0.0
  0
ARC
  5
470
330
1F
100
AcDbEntity
  8
NOSNÉ KONSTRUKCE
100
AcDbCircle
 10
2594.994598120043
 20
602.6653460701986
 30
0.0
 40
1.3125
100
AcDbArc
 50
180.0
 51
0.0
  0
LWPOLYLINE
  5
471
330
1F
100
AcDbEntity
  8
NOSNÉ KONSTRUKCE
100
AcDbPolyline
 90
        3
 70
     0
 43
0.0
 10
2605.137094898902
 20
596.3405658927682
 10
2582.179725534698
 20
596.3405658927682
 10
2582.179725534698
 20
629.5028585474906
  0
LINE
  5
472
330
1F
100
AcDbEntity
  8
NOSNÉ KONSTRUKCE
100
AcDbLine
 10
2621.20266665332
 20
611.7171702408854
 30
0.0
 11
2704.202666653311
 21
611.717170240889
 31
0.0
  0
LINE
  5
473
330
1F
100
AcDbEntity
  8
NOSNÉ KONSTRUKCE
100
AcDbLine
 10
2621.20266665332
 20
651.7478747324653
 30
0.0
 11
2704.202666653313
 21
651.7478747324608
 31
0.0
  0
ARC
  5
474
330
1F
100
AcDbEntity
  8
NOSNÉ KONSTRUKCE
100
AcDbCircle
 10
2704.202666653313
 20
654.4515234298764
 30
0.0
 40
2.703648697414791
100
AcDbArc
 50
90.0
 51
270.0
  0
ARC
  5
475
330
1F
100
AcDbEntity
  8
NOSNÉ KONSTRUKCE
100
AcDbCircle
 10
2704.202666653313
 20
609.0135215434743
 30
0.0
 40
2.703648697414791
100
AcDbArc
 50
90.0
 51
270.0
  0
LINE
  5
476
330
1F
100
AcDbEntity
  8
SPOJOVACÍ
  6
DASHED
100
AcDbLine
 10
2787.748339896043
 20
638.265736515596
 30
0.0
 11
2706.649244952369
 21
638.2657365155978
 31
0.0
  0
LINE
  5
477
330
1F
100
AcDbEntity
  8
SPOJOVACÍ
  6
DASHED
100
AcDbLine
 10
2787.748339896043
 20
625.140736515596
 30
0.0
 11
2706.649244952369
 21
625.1407365155978
 31
0.0
  0
LINE
  5
478
330
1F
100
AcDbEntity
  8
SPOJOVACÍ
  6
DASHDOT2
100
AcDbLine
 10
2691.476143483935
 20
631.7032365155978
 30
0.0
 11
2806.396253227842
 21
631.7032365155959
 31
0.0
  0
LINE
  5
479
330
1F
100
AcDbEntity
  8
SPOJOVACÍ
  6
DASHED
100
AcDbLine
 10
2782.1622010376
 20
631.7032365155959
 30
0.0
 11
2778.914605773409
 21
626.078236515596
 31
0.0
  0
LINE
  5
47A
330
1F
100
AcDbEntity
  8
SPOJOVACÍ
  6
DASHED
100
AcDbLine
 10
2782.1622010376
 20
631.7032365155959
 30
0.0
 11
2778.914605773409
 21
637.328236515596
 31
0.0
  0
LINE
  5
47B
330
1F
100
AcDbEntity
  8
SPOJOVACÍ
100
AcDbLine
 10
2781.396104340725
 20
631.0199108433176
 30
0.0
 11
2781.786764724297
 21
632.477875243309
 31
0.0
  0
LINE
  5
47C
330
1F
100
AcDbEntity
  8
SPOJOVACÍ
100
AcDbLine
 10
2787.191037281166
 20
631.6541092109196
 30
0.0
 11
2787.250593497262
 21
631.8763760353017
 31
0.0
  0
LINE
  5
47D
330
1F
100
AcDbEntity
  8
SPOJOVACÍ
100
AcDbLine
 10
2785.256426342931
 20
631.4316381607355
 30
0.0
 11
2785.43180073724
 21
632.0861443106519
 31
0.0
  0
LINE
  5
47E
330
1F
100
AcDbEntity
  8
SPOJOVACÍ
100
AcDbLine
 10
2783.324788356913
 20
631.2202623192884
 30
0.0
 11
2783.610526452387
 21
632.2866514092461
 31
0.0
  0
LINE
  5
47F
330
1F
100
AcDbEntity
  8
SPOJOVACÍ
100
AcDbLine
 10
2779.470355777036
 20
630.8305146252219
 30
0.0
 11
2779.960509409923
 21
632.6597928866654
 31
0.0
  0
LINE
  5
480
330
1F
100
AcDbEntity
  8
SPOJOVACÍ
100
AcDbLine
 10
2777.547524602398
 20
630.6520062512849
 30
0.0
 11
2778.131754138944
 21
632.832380564962
 31
0.0
  0
LINE
  5
481
330
1F
100
AcDbEntity
  8
SPOJOVACÍ
100
AcDbLine
 10
2775.627593196452
 20
630.4843199614383
 30
0.0
 11
2776.300492311044
 21
632.9956136454661
 31
0.0
  0
LINE
  5
482
330
1F
100
AcDbEntity
  8
SPOJOVACÍ
100
AcDbLine
 10
2773.710544371545
 20
630.3273916104822
 30
0.0
 11
2774.476197315591
 21
633.1848472986298
 31
0.0
  0
LINE
  5
483
330
1F
100
AcDbEntity
  8
SPOJOVACÍ
  6
DASHED
100
AcDbLine
 10
2791.5372010376
 20
631.7032365155959
 30
0.0
 11
2787.748339896043
 21
625.140736515596
 31
0.0
  0
LINE
  5
484
330
1F
100
AcDbEntity
  8
SPOJOVACÍ
  6
DASHED
100
AcDbLine
 10
2791.5372010376
 20
631.7032365155959
 30
0.0
 11
2787.748339896043
 21
638.265736515596
 31
0.0
  0
LINE
  5
485
330
1F
100
AcDbEntity
  8
SPOJOVACÍ
100
AcDbLine
 10
2769.895607451516
 20
630.0850437256472
 30
0.0
 11
2770.791597971964
 21
633.4289258710664
 31
0.0
  0
LINE
  5
486
330
1F
100
AcDbEntity
  8
SPOJOVACÍ
100
AcDbLine
 10
2768.056323540241
 20
630.2183379834255
 30
0.0
 11
2768.950239211001
 21
633.5544766843818
 31
0.0
  0
LINE
  5
487
330
1F
100
AcDbEntity
  8
SPOJOVACÍ
100
AcDbLine
 10
2760.370557507293
 20
629.525049710141
 30
0.0
 11
2761.559291333623
 21
633.9614647466746
 31
0.0
  0
LINE
  5
488
330
1F
100
AcDbEntity
  8
SPOJOVACÍ
100
AcDbLine
 10
2762.267875186781
 20
629.6083404238948
 30
0.0
 11
2763.403954963764
 21
633.8482478730425
 31
0.0
  0
LINE
  5
489
330
1F
100
AcDbEntity
  8
SPOJOVACÍ
100
AcDbLine
 10
2764.167966452105
 20
629.7019823009127
 30
0.0
 11
2765.259884307605
 21
633.7770752153224
 31
0.0
  0
LINE
  5
48A
330
1F
100
AcDbEntity
  8
SPOJOVACÍ
100
AcDbLine
 10
2766.070845723094
 20
629.8060291567203
 30
0.0
 11
2767.106337337664
 21
633.6705364731037
 31
0.0
  0
LINE
  5
48B
330
1F
100
AcDbEntity
  8
SPOJOVACÍ
100
AcDbLine
 10
2758.467079623042
 20
629.4187687992212
 30
0.0
 11
2759.705134023325
 21
634.0392507236142
 31
0.0
  0
LINE
  5
48C
330
1F
100
AcDbEntity
  8
SPOJOVACÍ
100
AcDbLine
 10
2771.796361362709
 20
630.1811586307171
 30
0.0
 11
2772.630421415985
 21
633.2939131261086
 31
0.0
  0
LINE
  5
48D
330
1F
100
AcDbEntity
  8
SPOJOVACÍ
100
AcDbLine
 10
2756.609865185167
 20
629.4851454207077
 30
0.0
 11
2757.707298118905
 21
633.5808208873227
 31
0.0
  0
LINE
  5
48E
330
1F
100
AcDbEntity
  8
SPOJOVACÍ
100
AcDbLine
 10
2738.178617369919
 20
630.6747447692237
 30
0.0
 11
2738.669280760605
 21
632.5059254726843
 31
0.0
  0
LINE
  5
48F
330
1F
100
AcDbEntity
  8
SPOJOVACÍ
100
AcDbLine
 10
2740.010335731371
 20
630.5132154951357
 30
0.0
 11
2740.576505562577
 21
632.6261900709036
 31
0.0
  0
LINE
  5
490
330
1F
100
AcDbEntity
  8
SPOJOVACÍ
100
AcDbLine
 10
2741.84456875075
 20
630.3610710521811
 30
0.0
 11
2742.482966724856
 21
632.7436047270025
 31
0.0
  0
LINE
  5
491
330
1F
100
AcDbEntity
  8
SPOJOVACÍ
100
AcDbLine
 10
2741.547005173117
 20
629.2505486619734
 30
0.0
 11
2742.900172919008
 21
634.3006394408043
 31
0.0
  0
LINE
  5
492
330
1F
100
AcDbEntity
  8
SPOJOVACÍ
100
AcDbLine
 10
2739.672005173117
 20
629.2505486619734
 30
0.0
 11
2741.019702363143
 21
634.2802230483689
 31
0.0
  0
LINE
  5
493
330
1F
100
AcDbEntity
  8
SPOJOVACÍ
100
AcDbLine
 10
2737.814309082825
 20
629.3151277321762
 30
0.0
 11
2739.13653960437
 21
634.2497592178929
 31
0.0
  0
LINE
  5
494
330
1F
100
AcDbEntity
  8
SPOJOVACÍ
100
AcDbLine
 10
2735.922005173117
 20
629.2505486619734
 30
0.0
 11
2737.250672346232
 21
634.2092020583936
 31
0.0
  0
LINE
  5
495
330
1F
100
AcDbEntity
  8
SPOJOVACÍ
100
AcDbLine
 10
2734.092079623042
 20
629.4187687992212
 30
0.0
 11
2735.362087966372
 21
634.1585044625703
 31
0.0
  0
LINE
  5
496
330
1F
100
AcDbEntity
  8
SPOJOVACÍ
100
AcDbLine
 10
2743.417303959533
 20
629.2330034940228
 30
0.0
 11
2744.777963248727
 21
634.3110530930857
 31
0.0
  0
LINE
  5
497
330
1F
100
AcDbEntity
  8
SPOJOVACÍ
100
AcDbLine
 10
2745.290250888647
 20
629.2253413291677
 30
0.0
 11
2746.653085015372
 21
634.3115075323999
 31
0.0
  0
LINE
  5
498
330
1F
100
AcDbEntity
  8
SPOJOVACÍ
100
AcDbLine
 10
2747.165857067896
 20
629.22760362092
 30
0.0
 11
2748.525549574126
 21
634.3020451368452
 31
0.0
  0
LINE
  5
499
330
1F
100
AcDbEntity
  8
SPOJOVACÍ
100
AcDbLine
 10
2749.044133908023
 20
629.2398329547618
 30
0.0
 11
2750.395367977853
 21
634.2827071562883
 31
0.0
  0
LINE
  5
49A
330
1F
100
AcDbEntity
  8
SPOJOVACÍ
100
AcDbLine
 10
2750.925093128708
 20
629.2620730691346
 30
0.0
 11
2752.262550982501
 21
634.2535337324757
 31
0.0
  0
LINE
  5
49B
330
1F
100
AcDbEntity
  8
SPOJOVACÍ
100
AcDbLine
 10
2752.808746764396
 20
629.2943688771942
 30
0.0
 11
2754.127109052306
 21
634.2145639184568
 31
0.0
  0
LINE
  5
49C
330
1F
100
AcDbEntity
  8
SPOJOVACÍ
100
AcDbLine
 10
2754.755238324074
 20
629.561179010227
 30
0.0
 11
2755.9890523648
 21
634.1658356972962
 31
0.0
  0
LINE
  5
49D
330
1F
100
AcDbEntity
  8
SPOJOVACÍ
100
AcDbLine
 10
2724.831793262944
 20
629.8468859316495
 30
0.0
 11
2725.877943812559
 21
633.7511729351795
 31
0.0
  0
LINE
  5
49E
330
1F
100
AcDbEntity
  8
SPOJOVACÍ
100
AcDbLine
 10
2732.234865185166
 20
629.4851454207077
 30
0.0
 11
2733.470773510073
 21
634.0976180827551
 31
0.0
  0
LINE
  5
49F
330
1F
100
AcDbEntity
  8
SPOJOVACÍ
100
AcDbLine
 10
2730.380238324075
 20
629.561179010227
 30
0.0
 11
2731.576715683572
 21
634.0264933059748
 31
0.0
  0
LINE
  5
4A0
330
1F
100
AcDbEntity
  8
SPOJOVACÍ
100
AcDbLine
 10
2728.528189913859
 20
629.6468355094116
 30
0.0
 11
2729.679900847154
 21
633.9450792281063
 31
0.0
  0
LINE
  5
4A1
330
1F
100
AcDbEntity
  8
SPOJOVACÍ
100
AcDbLine
 10
2726.678711093524
 20
629.7420818485911
 30
0.0
 11
2727.780315007962
 21
633.8533236270909
 31
0.0
  0
LINE
  5
4A2
330
1F
100
AcDbEntity
  8
SPOJOVACÍ
100
AcDbLine
 10
2719.306323540244
 20
630.2183379834255
 30
0.0
 11
2720.153968982119
 21
633.3817938393072
 31
0.0
  0
LINE
  5
4A3
330
1F
100
AcDbEntity
  8
SPOJOVACÍ
100
AcDbLine
 10
2722.987428078937
 20
629.9612166214215
 30
0.0
 11
2723.972772539217
 21
633.6385722101463
 31
0.0
  0
LINE
  5
4A4
330
1F
100
AcDbEntity
  8
SPOJOVACÍ
100
AcDbLine
 10
2721.145607451516
 20
630.0850437256472
 30
0.0
 11
2722.064786089932
 21
633.5154651054486
 31
0.0
  0
LINE
  5
4A5
330
1F
100
AcDbEntity
  8
SPOJOVACÍ
100
AcDbLine
 10
2717.46956875075
 20
630.3610710521811
 30
0.0
 11
2718.24030534003
 21
633.237499162627
 31
0.0
  0
LINE
  5
4A6
330
1F
100
AcDbEntity
  8
SPOJOVACÍ
100
AcDbLine
 10
2715.635335731371
 20
630.5132154951357
 30
0.0
 11
2716.323778885839
 21
633.0825203257305
 31
0.0
  0
LINE
  5
4A7
330
1F
100
AcDbEntity
  8
SPOJOVACÍ
100
AcDbLine
 10
2713.803617369919
 20
630.6747447692237
 30
0.0
 11
2714.404372930399
 21
632.9167950438736
 31
0.0
  0
LINE
  5
4A8
330
1F
100
AcDbEntity
  8
SPOJOVACÍ
100
AcDbLine
 10
2711.974406790563
 20
630.845633213516
 30
0.0
 11
2712.482070363658
 21
632.7402594614609
 31
0.0
  0
LINE
  5
4A9
330
1F
100
AcDbEntity
  8
SPOJOVACÍ
100
AcDbLine
 10
2710.147697350858
 20
631.0258560380612
 30
0.0
 11
2710.556853644699
 21
632.5528481149208
 31
0.0
  0
LINE
  5
4AA
330
1F
100
AcDbEntity
  8
SPOJOVACÍ
100
AcDbLine
 10
2700.978853457264
 20
631.7032365155978
 30
0.0
 11
2700.978853457264
 21
645.7657365155978
 31
0.0
  0
LINE
  5
4AB
330
1F
100
AcDbEntity
  8
SPOJOVACÍ
100
AcDbLine
 10
2703.836744952369
 20
645.7657365155978
 30
0.0
 11
2703.836744952369
 21
631.7032365155978
 31
0.0
  0
LINE
  5
4AC
330
1F
100
AcDbEntity
  8
SPOJOVACÍ
100
AcDbLine
 10
2703.836744952369
 20
645.7657365155978
 30
0.0
 11
2703.836744952369
 21
631.7032365155978
 31
0.0
  0
LINE
  5
4AD
330
1F
100
AcDbEntity
  8
SPOJOVACÍ
100
AcDbLine
 10
2700.969478457264
 20
642.0157365155978
 30
0.0
 11
2700.969478457264
 21
621.3907365155978
 31
0.0
  0
ARC
  5
4AE
330
1F
100
AcDbEntity
  8
SPOJOVACÍ
100
AcDbCircle
 10
2696.291353457263
 20
640.1407365155978
 30
0.0
 40
1.875
100
AcDbArc
 50
90.0
 51
180.0
  0
LINE
  5
4AF
330
1F
100
AcDbEntity
  8
SPOJOVACÍ
100
AcDbLine
 10
2703.836744952369
 20
631.7032365155978
 30
0.0
 11
2703.836744952369
 21
617.6407365155978
 31
0.0
  0
LINE
  5
4B0
330
1F
100
AcDbEntity
  8
SPOJOVACÍ
100
AcDbLine
 10
2700.978853457264
 20
639.2804576060939
 30
0.0
 11
2700.978853457264
 21
617.6407365155978
 31
0.0
  0
LINE
  5
4B1
330
1F
100
AcDbEntity
  8
SPOJOVACÍ
100
AcDbLine
 10
2703.836744952369
 20
631.7032365155978
 30
0.0
 11
2703.836744952369
 21
617.6407365155978
 31
0.0
  0
ARC
  5
4B2
330
1F
100
AcDbEntity
  8
SPOJOVACÍ
100
AcDbCircle
 10
2701.080924152006
 20
631.7032365155978
 30
0.0
 40
6.701689614562111
100
AcDbArc
 50
135.6170676673795
 51
224.3829323326205
  0
LINE
  5
4B3
330
1F
100
AcDbEntity
  8
SPOJOVACÍ
100
AcDbLine
 10
2694.416353457264
 20
640.1407365155978
 30
0.0
 11
2694.416353457264
 21
623.2657365155978
 31
0.0
  0
ARC
  5
4B4
330
1F
100
AcDbEntity
  8
SPOJOVACÍ
100
AcDbCircle
 10
2696.291353457263
 20
638.2657365155978
 30
0.0
 40
1.875
100
AcDbArc
 50
180.0
 51
270.0
  0
LINE
  5
4B5
330
1F
100
AcDbEntity
  8
SPOJOVACÍ
100
AcDbLine
 10
2700.978853457264
 20
636.3907365155978
 30
0.0
 11
2696.291353457263
 21
636.3907365155978
 31
0.0
  0
ARC
  5
4B6
330
1F
100
AcDbEntity
  8
SPOJOVACÍ
100
AcDbCircle
 10
2696.291353457263
 20
623.2657365155978
 30
0.0
 40
1.875
100
AcDbArc
 50
180.0
 51
270.0
  0
ARC
  5
4B7
330
1F
100
AcDbEntity
  8
SPOJOVACÍ
100
AcDbCircle
 10
2696.291353457263
 20
625.1407365155978
 30
0.0
 40
1.875
100
AcDbArc
 50
90.0
 51
180.0
  0
LINE
  5
4B8
330
1F
100
AcDbEntity
  8
SPOJOVACÍ
100
AcDbLine
 10
2700.978853457264
 20
627.0157365155978
 30
0.0
 11
2696.291353457263
 21
627.0157365155978
 31
0.0
  0
LINE
  5
4B9
330
1F
100
AcDbEntity
  8
SPOJOVACÍ
100
AcDbLine
 10
2696.291353457263
 20
621.3907365155978
 30
0.0
 11
2700.978853457264
 21
621.3907365155978
 31
0.0
  0
LINE
  5
4BA
330
1F
100
AcDbEntity
  8
SPOJOVACÍ
100
AcDbLine
 10
2700.978853457264
 20
617.6407365155978
 30
0.0
 11
2703.836744952369
 21
617.6407365155978
 31
0.0
  0
LINE
  5
4BB
330
1F
100
AcDbEntity
  8
SPOJOVACÍ
100
AcDbLine
 10
2708.323482638865
 20
631.2153893131858
 30
0.0
 11
2708.568013174723
 21
632.1279896970104
 31
0.0
  0
LINE
  5
4BC
330
1F
100
AcDbEntity
  8
SPOJOVACÍ
100
AcDbLine
 10
2706.501756470407
 20
631.4142099592158
 30
0.0
 11
2706.657722433349
 21
631.996282857161
 31
0.0
  0
LINE
  5
4BD
330
1F
100
AcDbEntity
  8
SPOJOVACÍ
100
AcDbLine
 10
2703.836744952369
 20
645.7657365155978
 30
0.0
 11
2700.978853457264
 21
645.7657365155978
 31
0.0
  0
LINE
  5
4BE
330
1F
100
AcDbEntity
  8
SPOJOVACÍ
100
AcDbLine
 10
2700.978853457264
 20
642.0157365155978
 30
0.0
 11
2700.969478457264
 21
642.0157365155978
 31
0.0
  0
LINE
  5
4BF
330
1F
100
AcDbEntity
  8
SPOJOVACÍ
100
AcDbLine
 10
2700.978853457264
 20
642.0157365155978
 30
0.0
 11
2696.291353457263
 21
642.0157365155978
 31
0.0
  0
LWPOLYLINE
  5
4C0
330
1F
100
AcDbEntity
  8
NOSNÉ KONSTRUKCE
100
AcDbPolyline
 90
        2
 70
     0
 43
0.0
 10
2607.702666653338
 20
659.4714454087156
 10
2607.702666653338
 20
636.8936437903908
  0
LINE
  5
4C1
330
1F
100
AcDbEntity
  8
NOSNÉ KONSTRUKCE
100
AcDbLine
 10
2607.702666653338
 20
606.3098728460659
 30
0.0
 11
2607.702666653338
 21
626.5128292408112
 31
0.0
  0
LINE
  5
4C2
330
1F
100
AcDbEntity
  8
NOSNÉ KONSTRUKCE
100
AcDbLine
 10
2607.70266665334
 20
617.0966001851343
 30
0.0
 11
2607.70266665334
 21
626.5128292408112
 31
0.0
  0
LINE
  5
4C3
330
1F
100
AcDbEntity
  8
NOSNÉ KONSTRUKCE
100
AcDbLine
 10
2607.702666653338
 20
606.3098728460659
 30
0.0
 11
2710.20266665335
 21
606.3098728460595
 31
0.0
  0
LINE
  5
4C4
330
1F
100
AcDbEntity
  8
NOSNÉ KONSTRUKCE
100
AcDbLine
 10
2607.70266665334
 20
657.0966001851361
 30
0.0
 11
2710.202666653348
 21
657.0966001851306
 31
0.0
  0
HATCH
  5
4C5
330
1F
100
AcDbEntity
  8
STAVBA OBRYS
100
AcDbHatch
 10
0.0
 20
0.0
 30
0.0
210
0.0
220
0.0
230
1.0
  2
AR-SAND
 70
     0
 71
     0
 91
        1
 92
        7
 72
     0
 73
     1
 93
        4
 10
3093.270757624314
 20
306.6962658515008
 10
2947.148313898595
 20
306.6962658515008
 10
2947.069205289159
 20
262.3021431291677
 10
3081.906306944238
 20
262.3021431291677
 97
        0
 75
     0
 76
     1
 52
0.0
 41
0.35
 77
     0
 78
     4
 53
37.5
 43
1689.405010464238
 44
64.78899171193962
 45
-0.560010953594416
 46
17.12946330652698
 79
     6
 49
0.0
 49
-13.5128
 49
0.0
 49
-15.113
 49
0.0
 49
-14.44625
 53
7.499999999999999
 43
1689.405010464238
 44
64.78899171193962
 45
15.73331490983009
 46
25.08887851989239
 79
     6
 49
0.0
 49
-7.2898
 49
0.0
 49
-12.17929999999999
 49
0.0
 49
-4.66725
 53
327.4999999999999
 43
1678.470310464238
 44
64.78899171193962
 45
27.68473295845102
 46
0.0503014637490992
 79
     6
 49
0.0
 49
-4.444999999999999
 49
0.0
 49
-16.002
 49
0.0
 49
-20.89149999999999
 53
317.5
 43
1678.470310464238
 44
64.78899171193962
 45
26.7244758365304
 46
7.802526314002567
 79
     6
 49
0.0
 49
-2.222499999999999
 49
0.0
 49
-10.49019999999999
 49
0.0
 49
-12.00149999999999
 47
4.017849295243367
 98
        1
 10
3033.764623353116
 20
295.6408702503726
  0
LINE
  5
4C6
330
1F
100
AcDbEntity
  8
STAVBA OBRYS
100
AcDbLine
 10
2947.013028166068
 20
319.2427977165275
 30
0.0
 11
3096.482544091589
 21
319.2427977165284
 31
0.0
  0
LINE
  5
4C7
330
1F
100
AcDbEntity
  8
STAVBA OBRYS
100
AcDbLine
 10
2784.456234487942
 20
156.4616234837235
 30
0.0
 11
2784.456234487942
 21
262.3021431291677
 31
0.0
  0
LINE
  5
4C8
330
1F
100
AcDbEntity
  8
STAVBA OBRYS
100
AcDbLine
 10
2947.148313898597
 20
306.6962658515008
 30
0.0
 11
3093.270757624314
 21
306.6962658515008
 31
0.0
  0
HATCH
  5
4C9
330
1F
100
AcDbEntity
  8
STAVBA OBRYS
100
AcDbHatch
 10
0.0
 20
0.0
 30
0.0
210
0.0
220
0.0
230
1.0
  2
AR-CONC
 70
     0
 71
     0
 91
        1
 92
        7
 72
     0
 73
     1
 93
        5
 10
3081.906306944238
 20
262.3021431291677
 10
2784.456234487938
 20
262.3021431291677
 10
2784.456234487938
 20
156.4616234837235
 10
2839.960853100834
 20
156.4616234837235
 10
3054.81219421703
 20
156.4616234837235
 97
        0
 75
     0
 76
     1
 52
0.0
 41
0.35
 77
     0
 78
    13
 53
50.0
 43
1689.405010464238
 44
-1387.205722194557
 45
63.7646341486014
 46
-5.57867993861608
 79
     2
 49
6.667499999999999
 49
-73.3425
 53
355.0
 43
1689.405010464238
 44
-1387.205722194557
 45
-12.33498909148344
 46
66.86982500876299
 79
     2
 49
5.333999999999999
 49
-58.67399999999999
 53
100.451
 43
1694.718710464238
 44
-1387.670609694557
 45
51.42987558308573
 46
61.29084073710215
 79
     2
 49
5.6665
 49
-62.3315
 53
46.1842
 43
1689.405010464238
 44
-1369.425722194557
 45
94.87766431224546
 46
-14.7148147764545
 79
     2
 49
10.00124999999999
 49
-110.0137499999999
 53
96.63559999999998
 43
1697.311475464237
 44
-1370.651947194557
 45
83.09148206318299
 46
86.59894456151723
 79
     2
 49
8.499749999999973
 49
-93.49724999999979
 53
351.184
 43
1689.405010464238
 44
-1369.425722194557
 45
83.09161203487688
 46
86.59879125120918
 79
     2
 49
8.000999999999999
 49
-88.01099999999999
 53
21.0
 43
1698.295010464237
 44
-1373.870722194557
 45
53.06520794238414
 46
-35.79293148086687
 79
     2
 49
6.667499999999999
 49
-73.3425
 53
326.0
 43
1698.295010464237
 44
-1373.870722194557
 45
21.63070992167647
 46
64.46578814281174
 79
     2
 49
5.333999999999999
 49
-58.67399999999999
 53
71.45140000000001
 43
1702.717085464237
 44
-1376.853457194558
 45
74.69577176954356
 46
28.6730002006201
 79
     2
 49
5.6665
 49
-62.3315
 53
37.5
 43
1689.405010464238
 44
-1387.205722194557
 45
1.081011137707135
 46
29.59426360560359
 79
     6
 49
0.0
 49
-57.96279999999999
 49
0.0
 49
-59.56299999999999
 49
0.0
 49
-58.89624999999999
 53
7.499999999999999
 43
1689.405010464238
 44
-1387.205722194557
 45
23.38688187860701
 46
35.06320118634183
 79
     6
 49
0.0
 49
-33.95979999999999
 49
0.0
 49
-56.62929999999999
 49
0.0
 49
-22.44725
 53
327.4999999999999
 43
1669.580310464237
 44
-1387.205722194557
 45
47.45670830840498
 46
-2.005060397435712
 79
     6
 49
0.0
 49
-22.22499999999999
 49
0.0
 49
-69.342
 49
0.0
 49
-92.01149999999998
 53
317.5
 43
1660.690310464237
 44
-1387.205722194557
 45
51.84521348510632
 46
8.899271861666553
 79
     6
 49
0.0
 49
-28.8925
 49
0.0
 49
-46.05019999999999
 49
0.0
 49
-65.3415
 47
1.943322863705773
 98
        1
 10
2899.042981352279
 20
219.9169115786357
  0
LINE
  5
4CA
330
1F
100
AcDbEntity
  8
STAVBA OBRYS
100
AcDbLine
 10
2784.456234487938
 20
262.3021431291677
 30
0.0
 11
3081.906306944238
 21
262.3021431291677
 31
0.0
  0
LINE
  5
4CB
330
1F
100
AcDbEntity
  8
STAVBA OBRYS
100
AcDbLine
 10
2784.456234487942
 20
156.4616234837235
 30
0.0
 11
3054.81219421703
 21
156.4616234837235
 31
0.0
  0
LINE
  5
4CC
330
1F
100
AcDbEntity
  8
STAVBA OBRYS
100
AcDbLine
 10
2946.911562122174
 20
262.3021431291677
 30
0.0
 11
2947.746673762284
 21
730.9496001088723
 31
0.0
  0
LINE
  5
4CD
330
1F
100
AcDbEntity
  8
STAVBA OBRYS
100
AcDbLine
 10
2946.795537227998
 20
108.7252621940365
 30
0.0
 11
2946.880601577277
 21
156.4616234837235
 31
0.0
  0
TEXT
  5
4CE
330
1F
100
AcDbEntity
  8
POPIS
100
AcDbText
 10
2366.062485100312
 20
-215.9023179807141
 30
0.0
 40
25.0
  1
06
 41
0.85
  7
SIMPLEX7
100
AcDbText
  0
TEXT
  5
4CF
330
1F
100
AcDbEntity
  8
POPIS
100
AcDbText
 10
2420.406188260058
 20
-215.9023179807141
 30
0.0
 40
25.0
  1
Nosný profil systému - úhelník (np. SPIDI, EuroFox, SPEEDY...)
 41
0.7
  7
SIMPLEX7
100
AcDbText
  0
TEXT
  5
4D0
330
1F
100
AcDbEntity
  8
POPIS
100
AcDbText
 10
2366.062485100312
 20
-180.2834292826251
 30
0.0
 40
25.0
  1
05
 41
0.85
  7
SIMPLEX7
100
AcDbText
  0
TEXT
  5
4D1
330
1F
100
AcDbEntity
  8
POPIS
100
AcDbText
 10
2420.406188260058
 20
-180.2834292826251
 30
0.0
 40
25.0
  1
Upevňovací prvek systému - kotva (np. SPIDI, EuroFox, SPEEDY...)
 41
0.7
  7
SIMPLEX7
100
AcDbText
  0
LWPOLYLINE
  5
4D2
330
1F
100
AcDbEntity
  8
NOSNÉ KONSTRUKCE
100
AcDbPolyline
 90
        2
 70
     0
 43
0.0
 10
2607.702666653338
 20
341.3562778302444
 10
2607.702666653338
 20
318.7784762119195
  0
TEXT
  5
4D3
330
1F
100
AcDbEntity
  8
POPIS
100
AcDbText
 10
2420.406188260058
 20
-392.8960965714773
 30
0.0
 40
25.0
  1
Tepelná izolace (np. ORSIL, ROCKWOOL, ISOVER, NOBASIL)
 41
0.7
  7
SIMPLEX7
100
AcDbText
  0
TEXT
  5
4D4
330
1F
100
AcDbEntity
  8
POPIS
100
AcDbText
 10
2366.062485100312
 20
-392.8960965714773
 30
0.0
 40
25.0
  1
08
 41
0.85
  7
SIMPLEX7
100
AcDbText
  0
CIRCLE
  5
4D5
330
1F
100
AcDbEntity
  8
NOSNÉ KONSTRUKCE
100
AcDbCircle
 10
2597.238764777529
 20
679.1398412347393
 30
0.0
 40
5.0
  0
LINE
  5
4D6
330
1F
100
AcDbEntity
  8
STAVBA OBRYS
100
AcDbLine
 10
2710.202666653353
 20
637.1273163952069
 30
0.0
 11
2710.202666653355
 21
749.8054004962209
 31
0.0
  0
LINE
  5
4D7
330
1F
100
AcDbEntity
  8
STAVBA OBRYS
100
AcDbLine
 10
2626.531253721605
 20
634.4866947668147
 30
0.0
 11
2626.531253721607
 21
697.8665001517624
 31
0.0
  0
LINE
  5
4D8
330
1F
100
AcDbEntity
  8
NOSNÉ KONSTRUKCE
100
AcDbLine
 10
2621.20266665336
 20
634.3185276262333
 30
0.0
 11
2621.20266665336
 21
756.8700545571614
 31
0.0
  0
LINE
  5
4D9
330
1F
100
AcDbEntity
  8
NOSNÉ KONSTRUKCE
100
AcDbLine
 10
2576.408482972733
 20
632.8352346808201
 30
0.0
 11
2576.408482972733
 21
760.4257333396986
 31
0.0
  0
LINE
  5
4DA
330
1F
100
AcDbEntity
  8
NOSNÉ KONSTRUKCE
100
AcDbLine
 10
2571.202666653353
 20
632.7405564077085
 30
0.0
 11
2571.202666653353
 21
760.8389613329705
 31
0.0
  0
LINE
  5
4DB
330
1F
100
AcDbEntity
  8
STAVBA OBRYS
100
AcDbLine
 10
2626.531253721603
 20
197.2284516627864
 30
0.0
 11
2626.531253721605
 21
756.4470812507474
 31
0.0
  0
TEXT
  5
4DC
330
1F
100
AcDbEntity
  8
POPIS
100
AcDbText
 10
2420.406188260058
 20
-254.0856578232392
 30
0.0
 40
25.0
  1
Oplechování - klempířský výrobek
 41
0.7
  7
SIMPLEX7
100
AcDbText
  0
TEXT
  5
4DD
330
1F
100
AcDbEntity
  8
POPIS
100
AcDbText
 10
2366.062485100312
 20
-254.0856578232392
 30
0.0
 40
25.0
  1
07
 41
0.85
  7
SIMPLEX7
100
AcDbText
  0
TEXT
  5
4DE
330
1F
100
AcDbEntity
  8
POPIS
100
AcDbText
 10
2420.406188260058
 20
-144.1766077954366
 30
0.0
 40
25.0
  1
Kotevní prvek
 41
0.7
  7
SIMPLEX7
100
AcDbText
  0
TEXT
  5
4DF
330
1F
100
AcDbEntity
  8
POPIS
100
AcDbText
 10
2366.062485100312
 20
-144.1766077954366
 30
0.0
 40
25.0
  1
04
 41
0.85
  7
SIMPLEX7
100
AcDbText
  0
TEXT
  5
4E0
330
1F
100
AcDbEntity
  8
POPIS
100
AcDbText
 10
2420.406188260058
 20
-108.7724465772739
 30
0.0
 40
25.0
  1
Vzduchová mezera - min. 25 mm
 41
0.7
  7
SIMPLEX7
100
AcDbText
  0
TEXT
  5
4E1
330
1F
100
AcDbEntity
  8
POPIS
100
AcDbText
 10
2366.062485100312
 20
-108.7724465772739
 30
0.0
 40
25.0
  1
03
 41
0.85
  7
SIMPLEX7
100
AcDbText
  0
TEXT
  5
4E2
330
1F
100
AcDbEntity
  8
POPIS
100
AcDbText
 10
2420.406188260058
 20
-74.82225833255188
 30
0.0
 40
25.0
  1
Vrut se zápustnou hlavou
 41
0.7
  7
SIMPLEX7
100
AcDbText
  0
TEXT
  5
4E3
330
1F
100
AcDbEntity
  8
POPIS
100
AcDbText
 10
2366.062485100312
 20
-74.82225833255188
 30
0.0
 40
25.0
  1
02
 41
0.85
  7
SIMPLEX7
100
AcDbText
  0
TEXT
  5
4E4
330
1F
100
AcDbEntity
  8
POPIS
100
AcDbText
 10
2420.406188260058
 20
-38.22724671692367
 30
0.0
 40
25.0
  1
Deska CETRIS   (BASIC,FINISH,LASUR)
 41
0.7
  7
SIMPLEX7
100
AcDbText
  0
TEXT
  5
4E5
330
1F
100
AcDbEntity
  8
POPIS
100
AcDbText
 10
2366.062485100312
 20
-38.22724671692367
 30
0.0
 40
25.0
  1
01
 41
0.85
  7
SIMPLEX7
100
AcDbText
  0
INSERT
  5
4E6
330
1F
100
AcDbEntity
  8
POPIS
100
AcDbBlockReference
  2
E_PUNKT
 10
2593.648228212566
 20
419.149363579299
 30
0.0
  0
TEXT
  5
4E7
330
1F
100
AcDbEntity
  8
POPIS
100
AcDbText
 10
2364.388649854765
 20
405.370029643967
 30
0.0
 40
25.0
  1
06
 41
0.7
  7
SIMPLEX7
100
AcDbText
  0
LINE
  5
4E8
330
1F
100
AcDbEntity
  8
POPIS
100
AcDbLine
 10
2404.366136198034
 20
418.8133710933375
 30
0.0
 11
2593.675838588191
 21
418.8133710933366
 31
0.0
  0
TEXT
  5
4E9
330
1F
100
AcDbEntity
  8
POPIS
100
AcDbText
 10
2363.830700903484
 20
682.5868169868776
 30
0.0
 40
25.0
  1
02
 41
0.7
  7
SIMPLEX7
100
AcDbText
  0
LINE
  5
4EA
330
1F
100
AcDbEntity
  8
POPIS
100
AcDbLine
 10
2404.366136198034
 20
696.0301584362483
 30
0.0
 11
2555.767885570758
 21
696.0301584362483
 31
0.0
  0
LINE
  5
4EB
330
1F
100
AcDbEntity
  8
STAVBA OBRYS
100
AcDbLine
 10
2545.336991657032
 20
161.2784880740214
 30
0.0
 11
2710.202666653348
 21
161.2784880740214
 31
0.0
  0
LINE
  5
4EC
330
1F
100
AcDbEntity
  8
STAVBA OBRYS
100
AcDbLine
 10
2545.336991657032
 20
101.5796859573579
 30
0.0
 11
2545.336991657032
 21
161.2784880740214
 31
0.0
  0
CIRCLE
  5
4ED
330
1F
100
AcDbEntity
  8
NOSNÉ KONSTRUKCE
100
AcDbCircle
 10
2597.238764777529
 20
228.5582687211012
 30
0.0
 40
5.0
  0
CIRCLE
  5
4EE
330
1F
100
AcDbEntity
  8
NOSNÉ KONSTRUKCE
100
AcDbCircle
 10
2597.238764777529
 20
263.1048662585149
 30
0.0
 40
5.0
  0
CIRCLE
  5
4EF
330
1F
100
AcDbEntity
  8
NOSNÉ KONSTRUKCE
100
AcDbCircle
 10
2597.238764777529
 20
497.5439714942718
 30
0.0
 40
5.0
  0
CIRCLE
  5
4F0
330
1F
100
AcDbEntity
  8
NOSNÉ KONSTRUKCE
100
AcDbCircle
 10
2597.238764777529
 20
462.9973739568582
 30
0.0
 40
5.0
  0
CIRCLE
  5
4F1
330
1F
100
AcDbEntity
  8
NOSNÉ KONSTRUKCE
100
AcDbCircle
 10
2597.238764777529
 20
376.0181776290632
 30
0.0
 40
5.0
  0
LINE
  5
4F2
330
1F
100
AcDbEntity
  8
SPOJOVACÍ
  6
DASHED
100
AcDbLine
 10
2791.5372010376
 20
313.5880689371247
 30
0.0
 11
2787.748339896043
 21
307.0255689371247
 31
0.0
  0
LINE
  5
4F3
330
1F
100
AcDbEntity
  8
SPOJOVACÍ
  6
DASHED
100
AcDbLine
 10
2791.5372010376
 20
313.5880689371247
 30
0.0
 11
2787.748339896043
 21
320.1505689371247
 31
0.0
  0
LINE
  5
4F4
330
1F
100
AcDbEntity
  8
SPOJOVACÍ
  6
DASHED
100
AcDbLine
 10
2782.1622010376
 20
313.5880689371247
 30
0.0
 11
2778.914605773409
 21
307.9630689371247
 31
0.0
  0
LINE
  5
4F5
330
1F
100
AcDbEntity
  8
SPOJOVACÍ
  6
DASHED
100
AcDbLine
 10
2782.1622010376
 20
313.5880689371247
 30
0.0
 11
2778.914605773409
 21
319.2130689371247
 31
0.0
  0
LINE
  5
4F6
330
1F
100
AcDbEntity
  8
SPOJOVACÍ
100
AcDbLine
 10
2756.609865185167
 20
311.3699778422365
 30
0.0
 11
2757.707298118905
 21
315.4656533088514
 31
0.0
  0
LINE
  5
4F7
330
1F
100
AcDbEntity
  8
SPOJOVACÍ
100
AcDbLine
 10
2781.396104340725
 20
312.9047432648462
 30
0.0
 11
2781.786764724297
 21
314.3627076648376
 31
0.0
  0
LINE
  5
4F8
330
1F
100
AcDbEntity
  8
SPOJOVACÍ
100
AcDbLine
 10
2787.191037281166
 20
313.5389416324483
 30
0.0
 11
2787.250593497262
 21
313.7612084568304
 31
0.0
  0
LINE
  5
4F9
330
1F
100
AcDbEntity
  8
SPOJOVACÍ
100
AcDbLine
 10
2785.256426342931
 20
313.3164705822641
 30
0.0
 11
2785.43180073724
 21
313.9709767321805
 31
0.0
  0
LINE
  5
4FA
330
1F
100
AcDbEntity
  8
SPOJOVACÍ
100
AcDbLine
 10
2783.324788356913
 20
313.1050947408171
 30
0.0
 11
2783.610526452387
 21
314.1714838307748
 31
0.0
  0
LINE
  5
4FB
330
1F
100
AcDbEntity
  8
SPOJOVACÍ
100
AcDbLine
 10
2779.470355777036
 20
312.7153470467506
 30
0.0
 11
2779.960509409923
 21
314.544625308194
 31
0.0
  0
LINE
  5
4FC
330
1F
100
AcDbEntity
  8
SPOJOVACÍ
100
AcDbLine
 10
2777.547524602398
 20
312.5368386728136
 30
0.0
 11
2778.131754138944
 21
314.7172129864907
 31
0.0
  0
LINE
  5
4FD
330
1F
100
AcDbEntity
  8
SPOJOVACÍ
100
AcDbLine
 10
2775.627593196452
 20
312.369152382967
 30
0.0
 11
2776.300492311044
 21
314.8804460669948
 31
0.0
  0
LINE
  5
4FE
330
1F
100
AcDbEntity
  8
SPOJOVACÍ
100
AcDbLine
 10
2773.710544371545
 20
312.2122240320109
 30
0.0
 11
2774.476197315591
 21
315.0696797201585
 31
0.0
  0
LINE
  5
4FF
330
1F
100
AcDbEntity
  8
SPOJOVACÍ
100
AcDbLine
 10
2771.796361362709
 20
312.0659910522458
 30
0.0
 11
2772.630421415985
 21
315.1787455476374
 31
0.0
  0
LINE
  5
500
330
1F
100
AcDbEntity
  8
SPOJOVACÍ
100
AcDbLine
 10
2769.895607451516
 20
311.9698761471759
 30
0.0
 11
2770.791597971964
 21
315.3137582925951
 31
0.0
  0
LINE
  5
501
330
1F
100
AcDbEntity
  8
SPOJOVACÍ
100
AcDbLine
 10
2768.056323540241
 20
312.1031704049542
 30
0.0
 11
2768.950239211001
 21
315.4393091059105
 31
0.0
  0
LINE
  5
502
330
1F
100
AcDbEntity
  8
SPOJOVACÍ
100
AcDbLine
 10
2760.370557507293
 20
311.4098821316697
 30
0.0
 11
2761.559291333623
 21
315.8462971682033
 31
0.0
  0
LINE
  5
503
330
1F
100
AcDbEntity
  8
SPOJOVACÍ
100
AcDbLine
 10
2762.267875186781
 20
311.4931728454235
 30
0.0
 11
2763.403954963764
 21
315.7330802945712
 31
0.0
  0
LINE
  5
504
330
1F
100
AcDbEntity
  8
SPOJOVACÍ
100
AcDbLine
 10
2764.167966452105
 20
311.5868147224414
 30
0.0
 11
2765.259884307605
 21
315.661907636851
 31
0.0
  0
LINE
  5
505
330
1F
100
AcDbEntity
  8
SPOJOVACÍ
100
AcDbLine
 10
2766.070845723094
 20
311.690861578249
 30
0.0
 11
2767.106337337664
 21
315.5553688946324
 31
0.0
  0
LINE
  5
506
330
1F
100
AcDbEntity
  8
SPOJOVACÍ
100
AcDbLine
 10
2758.467079623042
 20
311.3036012207499
 30
0.0
 11
2759.705134023325
 21
315.9240831451429
 31
0.0
  0
LINE
  5
507
330
1F
100
AcDbEntity
  8
SPOJOVACÍ
100
AcDbLine
 10
2738.178617369919
 20
312.5595771907524
 30
0.0
 11
2738.669280760605
 21
314.390757894213
 31
0.0
  0
LINE
  5
508
330
1F
100
AcDbEntity
  8
SPOJOVACÍ
100
AcDbLine
 10
2740.010335731371
 20
312.3980479166643
 30
0.0
 11
2740.576505562577
 21
314.5110224924323
 31
0.0
  0
LINE
  5
509
330
1F
100
AcDbEntity
  8
SPOJOVACÍ
100
AcDbLine
 10
2741.84456875075
 20
312.2459034737098
 30
0.0
 11
2742.482966724856
 21
314.6284371485312
 31
0.0
  0
LINE
  5
50A
330
1F
100
AcDbEntity
  8
SPOJOVACÍ
100
AcDbLine
 10
2741.547005173117
 20
311.1353810835021
 30
0.0
 11
2742.900172919008
 21
316.1854718623331
 31
0.0
  0
LINE
  5
50B
330
1F
100
AcDbEntity
  8
SPOJOVACÍ
100
AcDbLine
 10
2739.672005173117
 20
311.1353810835021
 30
0.0
 11
2741.019702363143
 21
316.1650554698976
 31
0.0
  0
LINE
  5
50C
330
1F
100
AcDbEntity
  8
SPOJOVACÍ
100
AcDbLine
 10
2737.814309082825
 20
311.1999601537049
 30
0.0
 11
2739.13653960437
 21
316.1345916394216
 31
0.0
  0
LINE
  5
50D
330
1F
100
AcDbEntity
  8
SPOJOVACÍ
100
AcDbLine
 10
2735.922005173117
 20
311.1353810835021
 30
0.0
 11
2737.250672346232
 21
316.0940344799223
 31
0.0
  0
LINE
  5
50E
330
1F
100
AcDbEntity
  8
SPOJOVACÍ
100
AcDbLine
 10
2734.092079623042
 20
311.3036012207499
 30
0.0
 11
2735.362087966372
 21
316.043336884099
 31
0.0
  0
LINE
  5
50F
330
1F
100
AcDbEntity
  8
SPOJOVACÍ
100
AcDbLine
 10
2743.417303959533
 20
311.1178359155514
 30
0.0
 11
2744.777963248727
 21
316.1958855146144
 31
0.0
  0
LINE
  5
510
330
1F
100
AcDbEntity
  8
SPOJOVACÍ
100
AcDbLine
 10
2745.290250888647
 20
311.1101737506964
 30
0.0
 11
2746.653085015372
 21
316.1963399539286
 31
0.0
  0
LINE
  5
511
330
1F
100
AcDbEntity
  8
SPOJOVACÍ
100
AcDbLine
 10
2747.165857067896
 20
311.1124360424487
 30
0.0
 11
2748.525549574126
 21
316.1868775583739
 31
0.0
  0
LINE
  5
512
330
1F
100
AcDbEntity
  8
SPOJOVACÍ
100
AcDbLine
 10
2749.044133908023
 20
311.1246653762905
 30
0.0
 11
2750.395367977853
 21
316.167539577817
 31
0.0
  0
LINE
  5
513
330
1F
100
AcDbEntity
  8
SPOJOVACÍ
100
AcDbLine
 10
2750.925093128708
 20
311.1469054906633
 30
0.0
 11
2752.262550982501
 21
316.1383661540044
 31
0.0
  0
LINE
  5
514
330
1F
100
AcDbEntity
  8
SPOJOVACÍ
100
AcDbLine
 10
2752.808746764396
 20
311.179201298723
 30
0.0
 11
2754.127109052306
 21
316.0993963399855
 31
0.0
  0
LINE
  5
515
330
1F
100
AcDbEntity
  8
SPOJOVACÍ
100
AcDbLine
 10
2754.755238324074
 20
311.4460114317557
 30
0.0
 11
2755.9890523648
 21
316.0506681188248
 31
0.0
  0
LINE
  5
516
330
1F
100
AcDbEntity
  8
SPOJOVACÍ
100
AcDbLine
 10
2700.978853457264
 20
313.5880689371265
 30
0.0
 11
2700.978853457264
 21
327.6505689371265
 31
0.0
  0
LINE
  5
517
330
1F
100
AcDbEntity
  8
SPOJOVACÍ
100
AcDbLine
 10
2703.836744952369
 20
327.6505689371265
 30
0.0
 11
2703.836744952369
 21
313.5880689371265
 31
0.0
  0
LINE
  5
518
330
1F
100
AcDbEntity
  8
SPOJOVACÍ
100
AcDbLine
 10
2703.836744952369
 20
327.6505689371265
 30
0.0
 11
2703.836744952369
 21
313.5880689371265
 31
0.0
  0
LINE
  5
519
330
1F
100
AcDbEntity
  8
SPOJOVACÍ
100
AcDbLine
 10
2703.836744952369
 20
327.6505689371265
 30
0.0
 11
2700.978853457264
 21
327.6505689371265
 31
0.0
  0
LINE
  5
51A
330
1F
100
AcDbEntity
  8
SPOJOVACÍ
100
AcDbLine
 10
2703.836744952369
 20
313.5880689371265
 30
0.0
 11
2703.836744952369
 21
299.5255689371265
 31
0.0
  0
LINE
  5
51B
330
1F
100
AcDbEntity
  8
SPOJOVACÍ
100
AcDbLine
 10
2700.978853457264
 20
321.1652900276226
 30
0.0
 11
2700.978853457264
 21
299.5255689371265
 31
0.0
  0
LINE
  5
51C
330
1F
100
AcDbEntity
  8
SPOJOVACÍ
100
AcDbLine
 10
2703.836744952369
 20
313.5880689371265
 30
0.0
 11
2703.836744952369
 21
299.5255689371265
 31
0.0
  0
LINE
  5
51D
330
1F
100
AcDbEntity
  8
SPOJOVACÍ
100
AcDbLine
 10
2700.969478457264
 20
323.9005689371265
 30
0.0
 11
2700.969478457264
 21
303.2755689371265
 31
0.0
  0
ARC
  5
51E
330
1F
100
AcDbEntity
  8
SPOJOVACÍ
100
AcDbCircle
 10
2701.080924152006
 20
313.5880689371265
 30
0.0
 40
6.701689614562111
100
AcDbArc
 50
135.6170676673795
 51
224.3829323326205
  0
LINE
  5
51F
330
1F
100
AcDbEntity
  8
SPOJOVACÍ
100
AcDbLine
 10
2694.416353457264
 20
322.0255689371265
 30
0.0
 11
2694.416353457264
 21
305.1505689371265
 31
0.0
  0
ARC
  5
520
330
1F
100
AcDbEntity
  8
SPOJOVACÍ
100
AcDbCircle
 10
2696.291353457263
 20
322.0255689371265
 30
0.0
 40
1.875
100
AcDbArc
 50
90.0
 51
180.0
  0
ARC
  5
521
330
1F
100
AcDbEntity
  8
SPOJOVACÍ
100
AcDbCircle
 10
2696.291353457263
 20
320.1505689371265
 30
0.0
 40
1.875
100
AcDbArc
 50
180.0
 51
270.0
  0
LINE
  5
522
330
1F
100
AcDbEntity
  8
SPOJOVACÍ
100
AcDbLine
 10
2700.978853457264
 20
323.9005689371265
 30
0.0
 11
2700.969478457264
 21
323.9005689371265
 31
0.0
  0
LINE
  5
523
330
1F
100
AcDbEntity
  8
SPOJOVACÍ
100
AcDbLine
 10
2700.978853457264
 20
323.9005689371265
 30
0.0
 11
2696.291353457263
 21
323.9005689371265
 31
0.0
  0
LINE
  5
524
330
1F
100
AcDbEntity
  8
SPOJOVACÍ
100
AcDbLine
 10
2700.978853457264
 20
318.2755689371265
 30
0.0
 11
2696.291353457263
 21
318.2755689371265
 31
0.0
  0
ARC
  5
525
330
1F
100
AcDbEntity
  8
SPOJOVACÍ
100
AcDbCircle
 10
2696.291353457263
 20
305.1505689371265
 30
0.0
 40
1.875
100
AcDbArc
 50
180.0
 51
270.0
  0
ARC
  5
526
330
1F
100
AcDbEntity
  8
SPOJOVACÍ
100
AcDbCircle
 10
2696.291353457263
 20
307.0255689371265
 30
0.0
 40
1.875
100
AcDbArc
 50
90.0
 51
180.0
  0
LINE
  5
527
330
1F
100
AcDbEntity
  8
SPOJOVACÍ
100
AcDbLine
 10
2700.978853457264
 20
308.9005689371265
 30
0.0
 11
2696.291353457263
 21
308.9005689371265
 31
0.0
  0
LINE
  5
528
330
1F
100
AcDbEntity
  8
SPOJOVACÍ
100
AcDbLine
 10
2696.291353457263
 20
303.2755689371265
 30
0.0
 11
2700.978853457264
 21
303.2755689371265
 31
0.0
  0
LINE
  5
529
330
1F
100
AcDbEntity
  8
SPOJOVACÍ
100
AcDbLine
 10
2700.978853457264
 20
299.5255689371265
 30
0.0
 11
2703.836744952369
 21
299.5255689371265
 31
0.0
  0
LINE
  5
52A
330
1F
100
AcDbEntity
  8
SPOJOVACÍ
100
AcDbLine
 10
2724.831793262944
 20
311.7317183531781
 30
0.0
 11
2725.877943812559
 21
315.6360053567082
 31
0.0
  0
LINE
  5
52B
330
1F
100
AcDbEntity
  8
SPOJOVACÍ
100
AcDbLine
 10
2732.234865185166
 20
311.3699778422365
 30
0.0
 11
2733.470773510073
 21
315.9824505042838
 31
0.0
  0
LINE
  5
52C
330
1F
100
AcDbEntity
  8
SPOJOVACÍ
100
AcDbLine
 10
2730.380238324075
 20
311.4460114317557
 30
0.0
 11
2731.576715683572
 21
315.9113257275034
 31
0.0
  0
LINE
  5
52D
330
1F
100
AcDbEntity
  8
SPOJOVACÍ
100
AcDbLine
 10
2728.528189913859
 20
311.5316679309403
 30
0.0
 11
2729.679900847154
 21
315.829911649635
 31
0.0
  0
LINE
  5
52E
330
1F
100
AcDbEntity
  8
SPOJOVACÍ
100
AcDbLine
 10
2726.678711093524
 20
311.6269142701198
 30
0.0
 11
2727.780315007962
 21
315.7381560486196
 31
0.0
  0
LINE
  5
52F
330
1F
100
AcDbEntity
  8
SPOJOVACÍ
100
AcDbLine
 10
2719.306323540244
 20
312.1031704049542
 30
0.0
 11
2720.153968982119
 21
315.2666262608359
 31
0.0
  0
LINE
  5
530
330
1F
100
AcDbEntity
  8
SPOJOVACÍ
100
AcDbLine
 10
2722.987428078937
 20
311.8460490429502
 30
0.0
 11
2723.972772539217
 21
315.523404631675
 31
0.0
  0
LINE
  5
531
330
1F
100
AcDbEntity
  8
SPOJOVACÍ
100
AcDbLine
 10
2721.145607451516
 20
311.9698761471759
 30
0.0
 11
2722.064786089932
 21
315.4002975269772
 31
0.0
  0
LINE
  5
532
330
1F
100
AcDbEntity
  8
SPOJOVACÍ
100
AcDbLine
 10
2717.46956875075
 20
312.2459034737098
 30
0.0
 11
2718.24030534003
 21
315.1223315841557
 31
0.0
  0
LINE
  5
533
330
1F
100
AcDbEntity
  8
SPOJOVACÍ
100
AcDbLine
 10
2715.635335731371
 20
312.3980479166643
 30
0.0
 11
2716.323778885839
 21
314.9673527472591
 31
0.0
  0
LINE
  5
534
330
1F
100
AcDbEntity
  8
SPOJOVACÍ
100
AcDbLine
 10
2713.803617369919
 20
312.5595771907524
 30
0.0
 11
2714.404372930399
 21
314.8016274654023
 31
0.0
  0
LINE
  5
535
330
1F
100
AcDbEntity
  8
SPOJOVACÍ
100
AcDbLine
 10
2711.974406790563
 20
312.7304656350447
 30
0.0
 11
2712.482070363658
 21
314.6250918829896
 31
0.0
  0
LINE
  5
536
330
1F
100
AcDbEntity
  8
SPOJOVACÍ
100
AcDbLine
 10
2710.147697350858
 20
312.9106884595898
 30
0.0
 11
2710.556853644699
 21
314.4376805364495
 31
0.0
  0
LINE
  5
537
330
1F
100
AcDbEntity
  8
SPOJOVACÍ
100
AcDbLine
 10
2708.323482638865
 20
313.1002217347145
 30
0.0
 11
2708.568013174723
 21
314.0128221185391
 31
0.0
  0
LINE
  5
538
330
1F
100
AcDbEntity
  8
SPOJOVACÍ
100
AcDbLine
 10
2706.501756470407
 20
313.2990423807445
 30
0.0
 11
2706.657722433349
 21
313.8811152786897
 31
0.0
  0
LINE
  5
539
330
1F
100
AcDbEntity
  8
SPOJOVACÍ
  6
DASHDOT2
100
AcDbLine
 10
2691.476143483935
 20
313.5880689371265
 30
0.0
 11
2806.396253227842
 21
313.5880689371247
 31
0.0
  0
LINE
  5
53A
330
1F
100
AcDbEntity
  8
SPOJOVACÍ
  6
DASHED
100
AcDbLine
 10
2787.748339896043
 20
320.1505689371247
 30
0.0
 11
2706.649244952369
 21
320.1505689371265
 31
0.0
  0
LINE
  5
53B
330
1F
100
AcDbEntity
  8
SPOJOVACÍ
  6
DASHED
100
AcDbLine
 10
2787.748339896043
 20
307.0255689371247
 30
0.0
 11
2706.649244952369
 21
307.0255689371265
 31
0.0
  0
TEXT
  5
53C
330
1F
100
AcDbEntity
  8
POPIS
100
AcDbText
 10
2366.062485100312
 20
726.5264634757409
 30
0.0
 40
25.0
  1
01
 41
0.7
  7
SIMPLEX7
100
AcDbText
  0
LINE
  5
53D
330
1F
100
AcDbEntity
  8
POPIS
100
AcDbLine
 10
2404.366136198034
 20
739.9698049251115
 30
0.0
 11
2550.168995429893
 21
739.9698049251106
 31
0.0
  0
LINE
  5
53E
330
1F
100
AcDbEntity
  8
STAVBA OBRYS
  6
IZOLACE
 48
4.0
100
AcDbLine
 10
2667.284865998205
 20
207.0689861889773
 30
0.0
 11
2667.284865998218
 21
753.2121354926808
 31
0.0
  0
LINE
  5
53F
330
1F
100
AcDbEntity
  8
STAVBA OBRYS
100
AcDbLine
 10
2710.202666653348
 20
161.2784880740214
 30
0.0
 11
2710.202666653355
 21
637.1273163952069
 31
0.0
  0
INSERT
  5
540
330
1F
100
AcDbEntity
  8
POPIS
100
AcDbBlockReference
  2
E_PUNKT
 10
2530.171051567894
 20
165.85835470973
 30
0.0
  0
TEXT
  5
541
330
1F
100
AcDbEntity
  8
POPIS
100
AcDbText
 10
2362.986526160039
 20
152.7159620509278
 30
0.0
 40
25.0
  1
07
 41
0.7
  7
SIMPLEX7
100
AcDbText
  0
LINE
  5
542
330
1F
100
AcDbEntity
  8
POPIS
100
AcDbLine
 10
2404.366136198034
 20
166.1593035002983
 30
0.0
 11
2531.542100636269
 21
166.1593035002974
 31
0.0
  0
LINE
  5
543
330
1F
100
AcDbEntity
  8
PROFILY
100
AcDbLine
 10
2529.104600636271
 20
174.0195353816366
 30
0.0
 11
2529.104600636271
 21
152.9866964789521
 31
0.0
  0
LINE
  5
544
330
1F
100
AcDbEntity
  8
PROFILY
100
AcDbLine
 10
2531.54210063627
 20
171.9198572414375
 30
0.0
 11
2531.54210063627
 21
156.9403262474756
 31
0.0
  0
ARC
  5
545
330
1F
100
AcDbEntity
  8
PROFILY
100
AcDbCircle
 10
2529.917100636271
 20
152.9866964789521
 30
0.0
 40
0.8125
100
AcDbArc
 50
180.0
 51
315.3132330916631
  0
LINE
  5
546
330
1F
100
AcDbEntity
  8
PROFILY
100
AcDbLine
 10
2530.494757189503
 20
152.4153216838217
 30
0.0
 11
2539.66710063627
 21
161.6885068955457
 31
0.0
  0
LINE
  5
547
330
1F
100
AcDbEntity
  8
PROFILY
100
AcDbLine
 10
2539.66710063627
 20
161.6885068955457
 30
0.0
 11
2537.934130976569
 21
163.4026312809242
 31
0.0
  0
LINE
  5
548
330
1F
100
AcDbEntity
  8
PROFILY
100
AcDbLine
 10
2531.54210063627
 20
156.9403262474756
 30
0.0
 11
2537.934130976569
 21
163.4026312809242
 31
0.0
  0
LINE
  5
549
330
1F
100
AcDbEntity
  8
PROFILY
100
AcDbLine
 10
2529.104600636271
 20
174.0195353816366
 30
0.0
 11
2576.920628149059
 21
181.2719515904477
 31
0.0
  0
LINE
  5
54A
330
1F
100
AcDbEntity
  8
PROFILY
100
AcDbLine
 10
2531.54210063627
 20
171.9198572414375
 30
0.0
 11
2579.085912163979
 21
179.3807207571239
 31
0.0
  0
LINE
  5
54B
330
1F
100
AcDbEntity
  8
PROFILY
100
AcDbLine
 10
2576.920628149059
 20
181.2719515904477
 30
0.0
 11
2576.920628149059
 21
236.0846119925631
 31
0.0
  0
LINE
  5
54C
330
1F
100
AcDbEntity
  8
PROFILY
100
AcDbLine
 10
2579.085912163979
 20
179.3807207571239
 30
0.0
 11
2579.085912163975
 21
236.0846119925649
 31
0.0
  0
LINE
  5
54D
330
1F
100
AcDbEntity
  8
NOSNÉ KONSTRUKCE
100
AcDbLine
 10
2571.202666653349
 20
197.8416903053607
 30
0.0
 11
2576.408482972726
 21
197.8416903053607
 31
0.0
  0
LINE
  5
54E
330
1F
100
AcDbEntity
  8
NOSNÉ KONSTRUKCE
100
AcDbLine
 10
2579.702666653348
 20
237.5846119925631
 30
0.0
 11
2576.408482972727
 21
237.5846119925631
 31
0.0
  0
LINE
  5
54F
330
1F
100
AcDbEntity
  8
NOSNÉ KONSTRUKCE
100
AcDbLine
 10
2579.70266665335
 20
197.8416903053607
 30
0.0
 11
2579.702666653348
 21
237.5846119925631
 31
0.0
  0
LINE
  5
550
330
1F
100
AcDbEntity
  8
NOSNÉ KONSTRUKCE
100
AcDbLine
 10
2571.202666653349
 20
197.8416903053607
 30
0.0
 11
2571.202666653353
 21
632.7405564077085
 31
0.0
  0
LINE
  5
551
330
1F
100
AcDbEntity
  8
NOSNÉ KONSTRUKCE
100
AcDbLine
 10
2621.202666653349
 20
197.8416903053607
 30
0.0
 11
2621.202666653358
 21
288.1947052675936
 31
0.0
  0
LINE
  5
552
330
1F
100
AcDbEntity
  8
NOSNÉ KONSTRUKCE
100
AcDbLine
 10
2579.70266665335
 20
197.8416903053607
 30
0.0
 11
2621.202666653349
 21
197.8416903053607
 31
0.0
  0
LINE
  5
553
330
1F
100
AcDbEntity
  8
NOSNÉ KONSTRUKCE
100
AcDbLine
 10
2704.202666653348
 20
293.6020026624177
 30
0.0
 11
2704.202666653349
 21
333.6327071539894
 31
0.0
  0
LINE
  5
554
330
1F
100
AcDbEntity
  8
NOSNÉ KONSTRUKCE
100
AcDbLine
 10
2607.702666653338
 20
288.1947052675945
 30
0.0
 11
2710.20266665335
 21
288.1947052675882
 31
0.0
  0
LINE
  5
555
330
1F
100
AcDbEntity
  8
NOSNÉ KONSTRUKCE
100
AcDbLine
 10
2576.408482972726
 20
197.8416903053607
 30
0.0
 11
2576.408482972734
 21
632.9048489741267
 31
0.0
  0
LINE
  5
556
330
1F
100
AcDbEntity
  8
NOSNÉ KONSTRUKCE
100
AcDbLine
 10
2607.702666653338
 20
288.1947052675945
 30
0.0
 11
2607.702666653338
 21
308.3976616623399
 31
0.0
  0
LINE
  5
557
330
1F
100
AcDbEntity
  8
NOSNÉ KONSTRUKCE
100
AcDbLine
 10
2607.70266665334
 20
298.981432606663
 30
0.0
 11
2607.70266665334
 21
308.3976616623399
 31
0.0
  0
LINE
  5
558
330
1F
100
AcDbEntity
  8
NOSNÉ KONSTRUKCE
100
AcDbLine
 10
2607.70266665334
 20
338.9814326066648
 30
0.0
 11
2710.202666653348
 21
338.9814326066594
 31
0.0
  0
LINE
  5
559
330
1F
100
AcDbEntity
  8
NOSNÉ KONSTRUKCE
100
AcDbLine
 10
2621.202666653353
 20
338.9814326066639
 30
0.0
 11
2621.202666653362
 21
634.3185276262333
 31
0.0
  0
LINE
  5
55A
330
1F
100
AcDbEntity
  8
NOSNÉ KONSTRUKCE
  6
DASHED
100
AcDbLine
 10
2621.202666653358
 20
288.1947052675936
 30
0.0
 11
2621.202666653353
 21
338.981432606663
 31
0.0
  0
LINE
  5
55B
330
1F
100
AcDbEntity
  8
POPIS
100
AcDbLine
 10
2404.366136198034
 20
364.0986161243004
 30
0.0
 11
2667.031082589835
 21
364.0986161242995
 31
0.0
  0
TEXT
  5
55C
330
1F
100
AcDbEntity
  8
POPIS
100
AcDbText
 10
2363.799670398974
 20
350.6552746749298
 30
0.0
 40
25.0
  1
08
 41
0.7
  7
SIMPLEX7
100
AcDbText
  0
INSERT
  5
55D
330
1F
100
AcDbEntity
  8
POPIS
100
AcDbBlockReference
  2
E_PUNKT
 10
2666.803083145522
 20
364.4346086102618
 30
0.0
  0
TEXT
  5
55E
330
1F
100
AcDbEntity
  8
POPIS
100
AcDbText
 10
2308.247830809232
 20
842.6662182851218
 30
0.0
 40
35.0
  1
ŘEZ-ŘEŠENÍ OPLECHOVÁNÍM
 41
0.85
  7
SIMPLEX7
100
AcDbText
  0
TEXT
  5
55F
330
1F
100
AcDbEntity
  8
POPIS
100
AcDbText
 10
2308.247830809232
 20
897.2909613109226
 30
0.0
 40
50.0
  1
SPODNÍ ZAKONČENÍ
 41
0.85
  7
SIMPLEX7
100
AcDbText
  0
TEXT
  5
560
330
1F
100
AcDbEntity
  8
POPIS
100
AcDbText
 10
2305.60203699931
 20
67.64824313408417
 30
0.0
 40
25.0
  1
TERÉN
 41
0.7
  7
SIMPLEX7
100
AcDbText
  0
LINE
  5
561
330
1F
100
AcDbEntity
  8
NOSNÉ KONSTRUKCE
100
AcDbLine
 10
2707.2026666533
 20
606.3098728460559
 30
0.0
 11
2707.202666653304
 21
657.0966001851306
 31
0.0
  0
HATCH
  5
562
330
1F
100
AcDbEntity
  8
NOSNÉ KONSTRUKCE
100
AcDbHatch
 10
0.0
 20
0.0
 30
0.0
210
0.0
220
0.0
230
1.0
  2
SOLID
 70
     1
 71
     0
 91
        5
 92
        7
 72
     0
 73
     1
 93
        4
 10
2710.202666653302
 20
657.096600185127
 10
2707.202666653304
 20
657.096600185127
 10
2707.202666653304
 20
651.4491338050452
 10
2710.202666653304
 20
651.4491338050452
 97
        0
 92
        7
 72
     0
 73
     1
 93
        4
 10
2710.202666653304
 20
651.4491338050452
 10
2707.202666653304
 20
651.4491338050452
 10
2707.202666653302
 20
638.2657365155941
 10
2710.202666653302
 20
638.2657365155941
 97
        0
 92
        7
 72
     0
 73
     1
 93
        4
 10
2710.202666653302
 20
638.2657365155941
 10
2707.2026666533
 20
638.2657365155941
 10
2707.2026666533
 20
631.7032365155942
 10
2710.202666653302
 20
631.7032365155942
 97
        0
 92
        7
 72
     0
 73
     1
 93
        4
 10
2710.202666653304
 20
631.7032365155942
 10
2707.202666653302
 20
631.7032365155942
 10
2707.202666653302
 20
625.1407365155942
 10
2710.202666653302
 20
625.1407365155942
 97
        0
 92
        7
 72
     0
 73
     1
 93
        4
 10
2710.202666653304
 20
625.1407365155942
 10
2707.2026666533
 20
625.1407365155933
 10
2707.2026666533
 20
606.3098728460568
 10
2710.202666653304
 20
606.3098728460559
 97
        0
 75
     0
 76
     1
 47
0.1874983414428997
 98
        5
 10
2709.287128484715
 20
652.0522756795148
 10
2709.287128484715
 20
647.3648105332326
 10
2709.287128484715
 20
635.5524109504408
 10
2709.662339001081
 20
629.1774627935597
 10
2709.474748716575
 20
619.9900429523445
  0
LINE
  5
563
330
1F
100
AcDbEntity
  8
NOSNÉ KONSTRUKCE
100
AcDbLine
 10
2707.202666653302
 20
288.1947052675846
 30
0.0
 11
2707.202666653306
 21
338.9814326066594
 31
0.0
  0
HATCH
  5
564
330
1F
100
AcDbEntity
  8
NOSNÉ KONSTRUKCE
100
AcDbHatch
 10
0.0
 20
0.0
 30
0.0
210
0.0
220
0.0
230
1.0
  2
SOLID
 70
     1
 71
     0
 91
        5
 92
        7
 72
     0
 73
     1
 93
        4
 10
2710.202666653304
 20
338.9814326066557
 10
2707.202666653306
 20
338.9814326066557
 10
2707.202666653306
 20
333.3339662265739
 10
2710.202666653306
 20
333.3339662265739
 97
        0
 92
        7
 72
     0
 73
     1
 93
        4
 10
2710.202666653306
 20
333.3339662265739
 10
2707.202666653306
 20
333.3339662265739
 10
2707.202666653304
 20
320.1505689371229
 10
2710.202666653304
 20
320.1505689371229
 97
        0
 92
        7
 72
     0
 73
     1
 93
        4
 10
2710.202666653304
 20
320.1505689371229
 10
2707.202666653302
 20
320.1505689371229
 10
2707.202666653302
 20
313.5880689371229
 10
2710.202666653304
 20
313.5880689371229
 97
        0
 92
        7
 72
     0
 73
     1
 93
        4
 10
2710.202666653306
 20
313.5880689371229
 10
2707.202666653304
 20
313.5880689371229
 10
2707.202666653304
 20
307.0255689371228
 10
2710.202666653304
 20
307.0255689371228
 97
        0
 92
        7
 72
     0
 73
     1
 93
        4
 10
2710.202666653306
 20
307.0255689371228
 10
2707.202666653302
 20
307.025568937122
 10
2707.202666653302
 20
288.1947052675855
 10
2710.202666653306
 20
288.1947052675846
 97
        0
 75
     0
 76
     1
 47
0.1874983414428997
 98
        5
 10
2709.287128484717
 20
333.9371081010436
 10
2709.287128484717
 20
329.2496429547613
 10
2709.287128484717
 20
317.4372433719695
 10
2709.662339001083
 20
311.0622952150884
 10
2709.474748716577
 20
301.8748753738732
  0
LINE
  5
565
330
1F
100
AcDbEntity
  8
STAVBA OBRYS
100
AcDbLine
 10
2957.013044042989
 20
319.2427977165284
 30
0.0
 11
2957.746657885391
 21
730.9317805239839
 31
0.0
  0
HATCH
  5
566
330
1F
100
AcDbEntity
  8
STAVBA OBRYS
100
AcDbHatch
 10
0.0
 20
0.0
 30
0.0
210
0.0
220
0.0
230
1.0
  2
AR-SAND
 70
     0
 71
     0
 91
        1
 92
        7
 72
     0
 73
     1
 93
        4
 10
2957.746657885391
 20
730.9317805239848
 10
2947.746673762282
 20
730.9496001088714
 10
2947.01302816607
 20
319.2427977165275
 10
2957.013044042988
 20
319.2427977165275
 97
        0
 75
     0
 76
     1
 52
0.0
 41
0.1
 77
     0
 78
     4
 53
37.5
 43
-7676.699600514787
 44
3787.903418142123
 45
-0.1600031295984046
 46
4.894132373293423
 79
     6
 49
0.0
 49
-3.8608
 49
0.0
 49
-4.318
 49
0.0
 49
-4.1275
 53
7.499999999999999
 43
-7676.699600514787
 44
3787.903418142123
 45
4.495232831380026
 46
7.168251005683543
 79
     6
 49
0.0
 49
-2.0828
 49
0.0
 49
-3.4798
 49
0.0
 49
-1.3335
 53
327.4999999999999
 43
-7679.823800514788
 44
3787.903418142123
 45
7.909923702414579
 46
0.0143718467854569
 79
     6
 49
0.0
 49
-1.27
 49
0.0
 49
-4.572
 49
0.0
 49
-5.969
 53
317.5
 43
-7679.823800514788
 44
3787.903418142123
 45
7.635564524722972
 46
2.229293232572162
 79
     6
 49
0.0
 49
-0.635
 49
0.0
 49
-2.997199999999999
 49
0.0
 49
-3.429
 47
0.6547511084991024
 98
        1
 10
2952.696968721117
 20
634.7147505945835
  0
LINE
  5
567
330
1F
100
AcDbEntity
  8
PROFILY
100
AcDbLine
 10
2495.418858424208
 20
-326.1770453990279
 30
0.0
 11
2495.418858424206
 21
-262.2242797792127
 31
0.0
  0
LINE
  5
568
330
1F
100
AcDbEntity
  8
PROFILY
100
AcDbLine
 10
2493.077761094479
 20
-324.2968013156855
 30
0.0
 11
2493.077761094481
 21
-262.2242797792164
 31
0.0
  0
LINE
  5
569
330
1F
100
AcDbEntity
  8
PROFILY
100
AcDbLine
 10
2450.860050065298
 20
-333.1694840972527
 30
0.0
 11
2495.418858424208
 21
-326.1770453990279
 31
0.0
  0
LINE
  5
56A
330
1F
100
AcDbEntity
  8
PROFILY
100
AcDbLine
 10
2448.422550065298
 20
-331.0698059570527
 30
0.0
 11
2493.077761094479
 21
-324.2968013156855
 31
0.0
  0
HATCH
  5
56B
330
1F
100
AcDbEntity
  8
PROFILY
100
AcDbHatch
 10
0.0
 20
0.0
 30
0.0
210
0.0
220
0.0
230
1.0
  2
SOLID
 70
     1
 71
     0
 91
        5
 92
        7
 72
     1
 73
     1
 93
        9
 10
2448.422550065298
 20
-331.0698059570527
 42
0.0
 10
2448.422550065298
 20
-332.1495882714803
 42
0.0
 10
2449.53063155318
 20
-332.1495882714803
 42
-0.8959696833012131
 10
2452.000705737661
 20
-332.4214687311755
 42
-0.1240761635642614
 10
2451.851389594844
 20
-333.0139170804318
 42
0.0
 10
2495.418858424208
 20
-326.1770453990279
 42
0.0
 10
2495.418858424206
 20
-273.6776694339773
 42
0.0
 10
2493.077761094481
 20
-273.6776694339773
 42
0.0
 10
2493.077761094479
 20
-324.2968013156855
 42
0.0
 97
        0
 92
        7
 72
     1
 73
     1
 93
        8
 10
2458.985050065297
 20
-343.4008344431436
 42
0.0
 10
2457.252080405597
 20
-341.6867100577651
 42
0.0
 10
2450.860050065298
 20
-348.1490150912136
 42
0.0
 10
2450.860050065298
 20
-333.6666770743909
 42
-0.5072240797221012
 10
2449.53063155318
 20
-332.1495882714803
 42
0.0
 10
2448.422550065298
 20
-332.1495882714803
 42
0.0
 10
2448.422550065298
 20
-352.1026448597381
 42
0.6701573805505898
 10
2449.812706618532
 20
-352.6740196548666
 42
0.0
 97
        0
 92
        7
 72
     0
 73
     1
 93
        4
 10
2495.418858424206
 20
-262.2242797792127
 10
2493.077761094481
 20
-262.2242797792164
 10
2493.077761094481
 20
-267.3621800364212
 10
2495.418858424206
 20
-267.3621800364212
 97
        0
 92
        7
 72
     0
 73
     1
 93
        5
 10
2493.246976866729
 20
-273.6776694339773
 10
2495.004789366729
 20
-273.6776694339773
 10
2495.418858424206
 20
-272.1323426736303
 10
2495.418858424206
 20
-267.3621800364212
 10
2494.93920715061
 20
-267.3621800364212
 97
        0
 92
        7
 72
     0
 73
     1
 93
        5
 10
2494.93920715061
 20
-267.3621800364212
 10
2493.181394650612
 20
-267.3621800364212
 10
2493.077761094481
 20
-267.7489457332735
 10
2493.077761094481
 20
-273.6776694339773
 10
2493.246976866729
 20
-273.6776694339773
 97
        0
 75
     0
 76
     1
 47
0.0616332266500822
 98
        5
 10
2457.609212244374
 20
-330.3957408501787
 10
2450.567319208887
 20
-349.8664860018411
 10
2494.385793794045
 20
-264.203929121229
 10
2494.5540410699
 20
-270.542254279449
 10
2493.783732729699
 20
-269.1950278864728
  0
LINE
  5
56C
330
1F
100
AcDbEntity
  8
PROFILY
100
AcDbLine
 10
2450.860050065298
 20
-348.1490150912136
 30
0.0
 11
2457.252080405597
 21
-341.6867100577651
 31
0.0
  0
LINE
  5
56D
330
1F
100
AcDbEntity
  8
PROFILY
100
AcDbLine
 10
2449.81270661853
 20
-352.6740196548685
 30
0.0
 11
2458.985050065297
 21
-343.4008344431436
 31
0.0
  0
LINE
  5
56E
330
1F
100
AcDbEntity
  8
PROFILY
100
AcDbLine
 10
2450.860050065298
 20
-333.1694840972527
 30
0.0
 11
2450.860050065298
 21
-348.1490150912136
 31
0.0
  0
LINE
  5
56F
330
1F
100
AcDbEntity
  8
PROFILY
100
AcDbLine
 10
2448.422550065298
 20
-331.0698059570527
 30
0.0
 11
2448.422550065298
 21
-352.1026448597381
 31
0.0
  0
TEXT
  5
570
330
1F
100
AcDbEntity
  8
POPIS
100
AcDbText
 10
2563.911437427567
 20
-287.8772332951971
 30
0.0
 40
25.0
  1
- PROTECTOR profil 9083
 41
0.7
  7
SIMPLEX7
100
AcDbText
  0
LINE
  5
571
330
1F
100
AcDbEntity
  8
POPIS
100
AcDbLine
 10
2595.570248295612
 20
236.2984390555307
 30
0.0
 11
2598.989722083349
 21
241.6797357030086
 31
0.0
  0
LINE
  5
572
330
1F
100
AcDbEntity
  8
POPIS
100
AcDbLine
 10
2602.409195871093
 20
236.2984390555307
 30
0.0
 11
2598.989722083356
 21
241.6797357030086
 31
0.0
  0
HATCH
  5
573
330
1F
100
AcDbEntity
  8
POPIS
100
AcDbHatch
 10
0.0
 20
0.0
 30
0.0
210
0.0
220
0.0
230
1.0
  2
SOLID
 70
     1
 71
     0
 91
        1
 92
        7
 72
     0
 73
     1
 93
        8
 10
2600.883449923134
 20
249.2340829546142
 10
2604.562291260732
 20
249.2340829546142
 10
2598.989722083352
 20
257.0349350375113
 10
2593.417152905973
 20
249.2340829546142
 10
2597.095994243571
 20
249.2340829546142
 10
2595.570248295608
 20
236.2984390555325
 10
2598.989722083352
 20
241.6797357030159
 10
2602.409195871091
 20
236.2984390555307
 97
        0
 75
     0
 76
     1
 47
0.3835833255279223
 98
        1
 10
2599.397904830607
 20
246.3258997741145
  0
LINE
  5
574
330
1F
100
AcDbEntity
  8
POPIS
100
AcDbLine
 10
2598.989722083352
 20
257.0349350375113
 30
0.0
 11
2593.417152905971
 21
249.2340829546142
 31
0.0
  0
LINE
  5
575
330
1F
100
AcDbEntity
  8
POPIS
100
AcDbLine
 10
2593.417152905971
 20
249.2340829546142
 30
0.0
 11
2597.09599424357
 21
249.2340829546142
 31
0.0
  0
LINE
  5
576
330
1F
100
AcDbEntity
  8
POPIS
100
AcDbLine
 10
2597.09599424357
 20
249.2340829546142
 30
0.0
 11
2595.570248295612
 21
236.2984390555307
 31
0.0
  0
LINE
  5
577
330
1F
100
AcDbEntity
  8
POPIS
100
AcDbLine
 10
2600.883449923134
 20
249.2340829546142
 30
0.0
 11
2602.409195871093
 21
236.2984390555307
 31
0.0
  0
LINE
  5
578
330
1F
100
AcDbEntity
  8
POPIS
100
AcDbLine
 10
2604.562291260732
 20
249.2340829546142
 30
0.0
 11
2600.883449923134
 21
249.2340829546142
 31
0.0
  0
LINE
  5
579
330
1F
100
AcDbEntity
  8
POPIS
100
AcDbLine
 10
2598.989722083352
 20
257.0349350375113
 30
0.0
 11
2604.562291260732
 21
249.2340829546142
 31
0.0
  0
LINE
  5
57A
330
1F
100
AcDbEntity
  8
POPIS
100
AcDbLine
 10
2598.989722083352
 20
443.7999493198153
 30
0.0
 11
2604.562291260732
 21
435.9990972369182
 31
0.0
  0
LINE
  5
57B
330
1F
100
AcDbEntity
  8
POPIS
100
AcDbLine
 10
2604.562291260732
 20
435.9990972369182
 30
0.0
 11
2600.883449923134
 21
435.9990972369182
 31
0.0
  0
LINE
  5
57C
330
1F
100
AcDbEntity
  8
POPIS
100
AcDbLine
 10
2600.883449923134
 20
435.9990972369182
 30
0.0
 11
2602.409195871093
 21
423.0634533378347
 31
0.0
  0
LINE
  5
57D
330
1F
100
AcDbEntity
  8
POPIS
100
AcDbLine
 10
2597.09599424357
 20
435.9990972369182
 30
0.0
 11
2595.570248295612
 21
423.0634533378347
 31
0.0
  0
LINE
  5
57E
330
1F
100
AcDbEntity
  8
POPIS
100
AcDbLine
 10
2593.417152905971
 20
435.9990972369182
 30
0.0
 11
2597.09599424357
 21
435.9990972369182
 31
0.0
  0
LINE
  5
57F
330
1F
100
AcDbEntity
  8
POPIS
100
AcDbLine
 10
2598.989722083352
 20
443.7999493198153
 30
0.0
 11
2593.417152905971
 21
435.9990972369182
 31
0.0
  0
HATCH
  5
580
330
1F
100
AcDbEntity
  8
POPIS
100
AcDbHatch
 10
0.0
 20
0.0
 30
0.0
210
0.0
220
0.0
230
1.0
  2
SOLID
 70
     1
 71
     0
 91
        1
 92
        7
 72
     0
 73
     1
 93
        8
 10
2600.883449923134
 20
435.9990972369182
 10
2604.562291260732
 20
435.9990972369182
 10
2598.989722083352
 20
443.7999493198153
 10
2593.417152905973
 20
435.9990972369182
 10
2597.095994243571
 20
435.9990972369182
 10
2595.570248295608
 20
423.0634533378365
 10
2598.989722083352
 20
428.4447499853199
 10
2602.409195871091
 20
423.0634533378347
 97
        0
 75
     0
 76
     1
 47
0.3835833255279223
 98
        1
 10
2599.397904830607
 20
433.0909140564186
  0
LINE
  5
581
330
1F
100
AcDbEntity
  8
POPIS
100
AcDbLine
 10
2602.409195871093
 20
423.0634533378347
 30
0.0
 11
2598.989722083356
 21
428.4447499853127
 31
0.0
  0
LINE
  5
582
330
1F
100
AcDbEntity
  8
POPIS
100
AcDbLine
 10
2595.570248295612
 20
423.0634533378347
 30
0.0
 11
2598.989722083349
 21
428.4447499853127
 31
0.0
  0
LINE
  5
583
330
1F
100
AcDbEntity
  8
POPIS
100
AcDbLine
 10
2598.989722083352
 20
592.5640377366075
 30
0.0
 11
2604.562291260732
 21
584.7631856537105
 31
0.0
  0
LINE
  5
584
330
1F
100
AcDbEntity
  8
POPIS
100
AcDbLine
 10
2604.562291260732
 20
584.7631856537105
 30
0.0
 11
2600.883449923134
 21
584.7631856537105
 31
0.0
  0
LINE
  5
585
330
1F
100
AcDbEntity
  8
POPIS
100
AcDbLine
 10
2600.883449923134
 20
584.7631856537105
 30
0.0
 11
2602.409195871093
 21
571.8275417546269
 31
0.0
  0
LINE
  5
586
330
1F
100
AcDbEntity
  8
POPIS
100
AcDbLine
 10
2597.09599424357
 20
584.7631856537105
 30
0.0
 11
2595.570248295612
 21
571.8275417546269
 31
0.0
  0
LINE
  5
587
330
1F
100
AcDbEntity
  8
POPIS
100
AcDbLine
 10
2593.417152905971
 20
584.7631856537105
 30
0.0
 11
2597.09599424357
 21
584.7631856537105
 31
0.0
  0
LINE
  5
588
330
1F
100
AcDbEntity
  8
POPIS
100
AcDbLine
 10
2598.989722083352
 20
592.5640377366075
 30
0.0
 11
2593.417152905971
 21
584.7631856537105
 31
0.0
  0
HATCH
  5
589
330
1F
100
AcDbEntity
  8
POPIS
100
AcDbHatch
 10
0.0
 20
0.0
 30
0.0
210
0.0
220
0.0
230
1.0
  2
SOLID
 70
     1
 71
     0
 91
        1
 92
        7
 72
     0
 73
     1
 93
        8
 10
2600.883449923134
 20
584.7631856537105
 10
2604.562291260732
 20
584.7631856537105
 10
2598.989722083352
 20
592.5640377366075
 10
2593.417152905973
 20
584.7631856537105
 10
2597.095994243571
 20
584.7631856537105
 10
2595.570248295608
 20
571.8275417546287
 10
2598.989722083352
 20
577.2088384021121
 10
2602.409195871091
 20
571.8275417546269
 97
        0
 75
     0
 76
     1
 47
0.3835833255279223
 98
        1
 10
2599.397904830607
 20
581.8550024732108
  0
LINE
  5
58A
330
1F
100
AcDbEntity
  8
POPIS
100
AcDbLine
 10
2602.409195871093
 20
571.8275417546269
 30
0.0
 11
2598.989722083356
 21
577.2088384021048
 31
0.0
  0
LINE
  5
58B
330
1F
100
AcDbEntity
  8
POPIS
100
AcDbLine
 10
2595.570248295612
 20
571.8275417546269
 30
0.0
 11
2598.989722083349
 21
577.2088384021048
 31
0.0
  0
LINE
  5
58C
330
1F
100
AcDbEntity
  8
PROFILY
100
AcDbLine
 10
2709.851770838352
 20
195.5857531439091
 30
0.0
 11
2577.687550777492
 21
195.5857531439091
 31
0.0
  0
LINE
  5
58D
330
1F
100
AcDbEntity
  8
PROFILY
100
AcDbLine
 10
2709.851770838352
 20
197.2284516627864
 30
0.0
 11
2579.18183015731
 21
197.2284516627855
 31
0.0
  0
LINE
  5
58E
330
1F
100
AcDbEntity
  8
PROFILY
100
AcDbLine
 10
2579.18183015731
 20
197.2284516627855
 30
0.0
 11
2579.18183015731
 21
209.2315050392021
 31
0.0
  0
LINE
  5
58F
330
1F
100
AcDbEntity
  8
PROFILY
100
AcDbLine
 10
2577.687550777482
 20
200.841825931117
 30
0.0
 11
2577.687550777482
 21
195.5857531439091
 31
0.0
  0
LINE
  5
590
330
1F
100
AcDbEntity
  8
PROFILY
100
AcDbLine
 10
2581.517270492317
 20
195.5857531439091
 30
0.0
 11
2581.517270492317
 21
197.2284516627864
 31
0.0
  0
LINE
  5
591
330
1F
100
AcDbEntity
  8
PROFILY
100
AcDbLine
 10
2595.776659419655
 20
195.5857531439091
 30
0.0
 11
2595.776659419655
 21
197.2284516627864
 31
0.0
  0
HATCH
  5
592
330
1F
100
AcDbEntity
  8
PROFILY
100
AcDbHatch
 10
0.0
 20
0.0
 30
0.0
210
0.0
220
0.0
230
1.0
  2
SOLID
 70
     1
 71
     0
 91
        5
 92
        7
 72
     0
 73
     1
 93
        4
 10
2709.851770838352
 20
197.2284516627873
 10
2695.592381911014
 20
197.2284516627864
 10
2695.592381911014
 20
195.5857531439091
 10
2709.851770838352
 20
195.5857531439091
 97
        0
 92
        7
 72
     0
 73
     1
 93
        4
 10
2681.332992983676
 20
197.2284516627864
 10
2667.073604056339
 20
197.2284516627864
 10
2667.073604056339
 20
195.5857531439091
 10
2681.332992983676
 20
195.5857531439091
 97
        0
 92
        7
 72
     0
 73
     1
 93
        4
 10
2652.814215129003
 20
197.2284516627864
 10
2638.554826201666
 20
197.2284516627864
 10
2638.554826201666
 20
195.5857531439082
 10
2652.814215129001
 20
195.5857531439091
 97
        0
 92
        7
 72
     0
 73
     1
 93
        4
 10
2624.295437274328
 20
197.2284516627864
 10
2610.036048346993
 20
197.2284516627855
 10
2610.036048346993
 20
195.5857531439091
 10
2624.295437274328
 20
195.5857531439091
 97
        0
 92
        7
 72
     0
 73
     1
 93
        4
 10
2595.776659419655
 20
197.2284516627855
 10
2581.517270492317
 20
197.2284516627855
 10
2581.517270492317
 20
195.5857531439091
 10
2595.776659419655
 20
195.5857531439091
 97
        0
 75
     0
 76
     1
 47
0.2346926121939802
 98
        5
 10
2702.645842239475
 20
196.6795479001089
 10
2673.291475308612
 20
196.4448620469743
 10
2648.398993564693
 20
196.4448620469743
 10
2616.640879745184
 20
196.4497456437425
 10
2589.869712531134
 20
196.4497456437425
  0
HATCH
  5
593
330
1F
100
AcDbEntity
  8
PROFILY
100
AcDbHatch
 10
0.0
 20
0.0
 30
0.0
210
0.0
220
0.0
230
1.0
  2
SOLID
 70
     1
 71
     0
 91
        2
 92
        7
 72
     0
 73
     1
 93
        4
 10
2579.18183015731
 20
219.2371489016754
 10
2577.687550777482
 20
219.2371489016754
 10
2577.687550777482
 20
213.652347617492
 10
2579.18183015731
 20
213.652347617492
 97
        0
 92
        7
 72
     0
 73
     1
 93
        7
 10
2579.18183015731
 20
209.2315050392021
 10
2577.687550777482
 20
209.2315050392021
 10
2577.687550777482
 20
200.841825931117
 10
2577.687550777482
 20
195.5857531439082
 10
2581.517270492317
 20
195.5857531439082
 10
2581.517270492317
 20
197.2284516627855
 10
2579.18183015731
 20
197.2284516627855
 97
        0
 75
     0
 76
     1
 47
0.169069331426656
 98
        2
 10
2578.561478892472
 20
216.418806984388
 10
2578.392329851384
 20
202.2169831445467
  0
LINE
  5
594
330
1F
100
AcDbEntity
  8
PROFILY
100
AcDbLine
 10
2610.036048346993
 20
195.5857531439091
 30
0.0
 11
2610.036048346993
 21
197.2284516627864
 31
0.0
  0
LINE
  5
595
330
1F
100
AcDbEntity
  8
PROFILY
100
AcDbLine
 10
2652.814215129003
 20
195.5857531439091
 30
0.0
 11
2652.814215129003
 21
197.2284516627864
 31
0.0
  0
LINE
  5
596
330
1F
100
AcDbEntity
  8
PROFILY
100
AcDbLine
 10
2638.554826201666
 20
195.5857531439091
 30
0.0
 11
2638.554826201666
 21
197.2284516627864
 31
0.0
  0
LINE
  5
597
330
1F
100
AcDbEntity
  8
PROFILY
100
AcDbLine
 10
2695.592381911014
 20
195.5857531439091
 30
0.0
 11
2695.592381911014
 21
197.2284516627864
 31
0.0
  0
LINE
  5
598
330
1F
100
AcDbEntity
  8
PROFILY
100
AcDbLine
 10
2681.332992983676
 20
195.5857531439091
 30
0.0
 11
2681.332992983676
 21
197.2284516627864
 31
0.0
  0
LINE
  5
599
330
1F
100
AcDbEntity
  8
PROFILY
100
AcDbLine
 10
2667.073604056339
 20
195.5857531439091
 30
0.0
 11
2667.073604056339
 21
197.2284516627864
 31
0.0
  0
LINE
  5
59A
330
1F
100
AcDbEntity
  8
PROFILY
100
AcDbLine
 10
2709.851770838352
 20
195.5857531439091
 30
0.0
 11
2709.851770838352
 21
197.2284516627864
 31
0.0
  0
LINE
  5
59B
330
1F
100
AcDbEntity
  8
POPIS
100
AcDbLine
 10
2404.366136198034
 20
124.2998500653589
 30
0.0
 11
2534.403739296797
 21
124.2998500653579
 31
0.0
  0
TEXT
  5
59C
330
1F
100
AcDbEntity
  8
POPIS
100
AcDbText
 10
2362.986526160039
 20
110.8565086159883
 30
0.0
 40
25.0
  1
09
 41
0.7
  7
SIMPLEX7
100
AcDbText
  0
LINE
  5
59D
330
1F
100
AcDbEntity
  8
POPIS
100
AcDbLine
 10
2534.403739296797
 20
124.2998500653579
 30
0.0
 11
2667.073604056339
 21
195.5857531439091
 31
0.0
  0
INSERT
  5
59E
330
1F
100
AcDbEntity
  8
POPIS
100
AcDbBlockReference
  2
E_PUNKT
 10
2666.803083145522
 20
195.4350987479506
 30
0.0
  0
HATCH
  5
59F
330
1F
100
AcDbEntity
  8
PROFILY
100
AcDbHatch
 10
0.0
 20
0.0
 30
0.0
210
0.0
220
0.0
230
1.0
  2
SOLID
 70
     1
 71
     0
 91
        1
 92
        7
 72
     0
 73
     1
 93
        4
 10
2431.286070243478
 20
-454.3080983694885
 10
2429.786487610502
 20
-454.3080983694885
 10
2429.786487610502
 20
-458.7466664108428
 10
2431.286070243478
 20
-458.7466664108428
 97
        0
 75
     0
 76
     1
 47
0.0099002372419542
 98
        1
 10
2430.820501034192
 20
-455.538976094343
  0
LWPOLYLINE
  5
5A0
330
1F
100
AcDbEntity
  8
PROFILY
100
AcDbPolyline
 90
        4
 70
     1
 43
0.0
 10
2429.786487610502
 20
-454.3080983694885
 10
2431.286070243478
 20
-454.3080983694885
 10
2431.286070243478
 20
-458.7466664108428
 10
2429.786487610502
 20
-458.7466664108428
  0
LINE
  5
5A1
330
1F
100
AcDbEntity
  8
PROFILY
100
AcDbLine
 10
2547.692097204399
 20
-472.3768302790572
 30
0.0
 11
2547.692097204399
 21
-470.7341317601799
 31
0.0
  0
LINE
  5
5A2
330
1F
100
AcDbEntity
  8
PROFILY
100
AcDbLine
 10
2561.951486131737
 20
-472.3768302790572
 30
0.0
 11
2561.951486131737
 21
-470.7341317601799
 31
0.0
  0
LINE
  5
5A3
330
1F
100
AcDbEntity
  8
PROFILY
100
AcDbLine
 10
2504.913930422388
 20
-472.3768302790572
 30
0.0
 11
2504.913930422388
 21
-470.7341317601799
 31
0.0
  0
LINE
  5
5A4
330
1F
100
AcDbEntity
  8
PROFILY
100
AcDbLine
 10
2519.173319349724
 20
-472.3768302790572
 30
0.0
 11
2519.173319349724
 21
-470.7341317601799
 31
0.0
  0
LINE
  5
5A5
330
1F
100
AcDbEntity
  8
PROFILY
100
AcDbLine
 10
2533.432708277062
 20
-472.3768302790572
 30
0.0
 11
2533.432708277062
 21
-470.7341317601799
 31
0.0
  0
LINE
  5
5A6
330
1F
100
AcDbEntity
  8
PROFILY
100
AcDbLine
 10
2490.654541495051
 20
-472.3768302790572
 30
0.0
 11
2490.654541495051
 21
-470.7341317601799
 31
0.0
  0
LINE
  5
5A7
330
1F
100
AcDbEntity
  8
PROFILY
100
AcDbLine
 10
2462.135763640378
 20
-472.3768302790572
 30
0.0
 11
2462.135763640378
 21
-470.7341317601799
 31
0.0
  0
HATCH
  5
5A8
330
1F
100
AcDbEntity
  8
PROFILY
100
AcDbHatch
 10
0.0
 20
0.0
 30
0.0
210
0.0
220
0.0
230
1.0
  2
SOLID
 70
     1
 71
     0
 91
        5
 92
        7
 72
     0
 73
     1
 93
        4
 10
2561.951486131737
 20
-470.734131760179
 10
2547.692097204399
 20
-470.7341317601799
 10
2547.692097204399
 20
-472.3768302790572
 10
2561.951486131737
 20
-472.3768302790572
 97
        0
 92
        7
 72
     0
 73
     1
 93
        4
 10
2533.432708277062
 20
-470.7341317601799
 10
2519.173319349724
 20
-470.7341317601799
 10
2519.173319349724
 20
-472.3768302790572
 10
2533.432708277062
 20
-472.3768302790572
 97
        0
 92
        7
 72
     0
 73
     1
 93
        4
 10
2504.913930422388
 20
-470.7341317601799
 10
2490.654541495051
 20
-470.7341317601799
 10
2490.654541495051
 20
-472.3768302790581
 10
2504.913930422386
 20
-472.3768302790572
 97
        0
 92
        7
 72
     0
 73
     1
 93
        4
 10
2476.395152567713
 20
-470.7341317601799
 10
2462.135763640378
 20
-470.7341317601808
 10
2462.135763640378
 20
-472.3768302790572
 10
2476.395152567713
 20
-472.3768302790572
 97
        0
 92
        7
 72
     0
 73
     1
 93
        4
 10
2447.87637471304
 20
-470.7341317601808
 10
2433.616985785702
 20
-470.7341317601808
 10
2433.616985785702
 20
-472.3768302790572
 10
2447.87637471304
 20
-472.3768302790572
 97
        0
 75
     0
 76
     1
 47
0.2346926121939802
 98
        5
 10
2554.745557532861
 20
-471.2830355228574
 10
2525.391190601997
 20
-471.5177213759921
 10
2500.498708858078
 20
-471.5177213759921
 10
2468.740595038569
 20
-471.5128377792239
 10
2441.969427824519
 20
-471.5128377792239
  0
LINE
  5
5A9
330
1F
100
AcDbEntity
  8
PROFILY
100
AcDbLine
 10
2561.951486131737
 20
-472.3768302790572
 30
0.0
 11
2429.787266070877
 21
-472.3768302790572
 31
0.0
  0
LINE
  5
5AA
330
1F
100
AcDbEntity
  8
PROFILY
100
AcDbLine
 10
2561.951486131737
 20
-470.7341317601799
 30
0.0
 11
2431.281545450695
 21
-470.7341317601808
 31
0.0
  0
HATCH
  5
5AB
330
1F
100
AcDbEntity
  8
PROFILY
100
AcDbHatch
 10
0.0
 20
0.0
 30
0.0
210
0.0
220
0.0
230
1.0
  2
SOLID
 70
     1
 71
     0
 91
        2
 92
        7
 72
     0
 73
     1
 93
        4
 10
2431.281545450695
 20
-448.7254345212909
 10
2429.787266070867
 20
-448.7254345212909
 10
2429.787266070867
 20
-454.3102358054743
 10
2431.281545450695
 20
-454.3102358054743
 97
        0
 92
        7
 72
     0
 73
     1
 93
        7
 10
2431.281545450695
 20
-458.7310783837643
 10
2429.787266070867
 20
-458.7310783837643
 10
2429.787266070867
 20
-467.1207574918494
 10
2429.787266070867
 20
-472.3768302790581
 10
2433.616985785702
 20
-472.3768302790581
 10
2433.616985785702
 20
-470.7341317601808
 10
2431.281545450695
 20
-470.7341317601808
 97
        0
 75
     0
 76
     1
 47
0.169069331426656
 98
        2
 10
2430.661194185857
 20
-451.5437764385783
 10
2430.492045144769
 20
-465.7456002784197
  0
LINE
  5
5AC
330
1F
100
AcDbEntity
  8
PROFILY
100
AcDbLine
 10
2431.281545450695
 20
-454.3102358054743
 30
0.0
 11
2431.281545450695
 21
-448.7254345212909
 31
0.0
  0
LINE
  5
5AD
330
1F
100
AcDbEntity
  8
PROFILY
100
AcDbLine
 10
2429.787266070877
 20
-448.7254345212909
 30
0.0
 11
2431.281545450695
 21
-448.7254345212909
 31
0.0
  0
TEXT
  5
5AE
330
1F
100
AcDbEntity
  8
POPIS
100
AcDbText
 10
2420.782348461613
 20
-427.7087017226654
 30
0.0
 40
25.0
  1
Perforovaný odvětrávací profil (PROTECTOR 3613)
 41
0.7
  7
SIMPLEX7
100
AcDbText
  0
TEXT
  5
5AF
330
1F
100
AcDbEntity
  8
POPIS
100
AcDbText
 10
2366.438645301867
 20
-427.7087017226654
 30
0.0
 40
25.0
  1
09
 41
0.85
  7
SIMPLEX7
100
AcDbText
  0
LINE
  5
618
330
1F
100
AcDbEntity
  8
PROFILY
100
AcDbLine
 10
2570.941252668129
 20
197.4835281285926
 30
0.0
 11
2570.941252668128
 21
761.0601713644082
 31
0.0
  0
LINE
  5
619
330
1F
100
AcDbEntity
  8
PROFILY
  6
DASHED
370
    40
100
AcDbLine
 10
2570.741252668128
 20
197.5932919487295
 30
0.0
 11
2570.741252668128
 21
761.0601713644082
 31
0.0
  0
LINE
  5
61A
330
1F
100
AcDbEntity
  8
PROFILY
100
AcDbLine
 10
2570.541252668128
 20
197.7030557688664
 30
0.0
 11
2570.541252668128
 21
761.0601713644082
 31
0.0
  0
LINE
  5
61B
330
1F
100
AcDbEntity
  8
POPIS
100
AcDbLine
 10
2512.402992242961
 20
443.5205793920558
 30
0.0
 11
2471.108924620061
 21
443.5205793920558
 31
0.0
  0
LINE
  5
61C
330
1F
100
AcDbEntity
  8
POPIS
100
AcDbLine
 10
2514.591934475964
 20
484.029342299018
 30
0.0
 11
2471.108924620061
 21
484.029342299018
 31
0.0
  0
LINE
  5
61D
330
1F
100
AcDbEntity
  8
POPIS
100
AcDbLine
 10
2470.933706194261
 20
484.029342299018
 30
0.0
 11
2427.450696338358
 21
484.029342299018
 31
0.0
  0
TEXT
  5
61E
330
1F
100
AcDbEntity
  8
POPIS
100
AcDbText
 10
2434.340785946066
 20
445.2644147713722
 30
0.0
 40
25.0
  1
50
 50
90.0
 41
0.7
  7
SIMPLEX7
100
AcDbText
  0
TEXT
  5
61F
330
1F
100
AcDbEntity
  8
POPIS
100
AcDbText
 10
2477.999014227769
 20
450.4500598393137
 30
0.0
 40
25.0
  1
40
 50
90.0
 41
0.7
  7
SIMPLEX7
100
AcDbText
  0
LINE
  5
620
330
1F
100
AcDbEntity
  8
POPIS
100
AcDbLine
 10
2439.950696338358
 20
489.4378789600136
 30
0.0
 11
2439.950696338358
 21
425.0435942135168
 31
0.0
  0
INSERT
  5
621
330
1F
100
AcDbEntity
  8
POPIS
100
AcDbBlockReference
  2
_ArchTick
 10
2439.950696338358
 20
429.1837955421028
 30
0.0
 41
15.0
 42
15.0
 43
15.0
 50
270.0
  0
INSERT
  5
622
330
1F
100
AcDbEntity
  8
POPIS
100
AcDbBlockReference
  2
_ArchTick
 10
2439.950696338358
 20
484.029342299018
 30
0.0
 41
15.0
 42
15.0
 43
15.0
 50
90.0
  0
LINE
  5
623
330
1F
100
AcDbEntity
  8
POPIS
100
AcDbLine
 10
2483.60892462006
 20
489.4378789600136
 30
0.0
 11
2483.60892462006
 21
425.0435942135168
 31
0.0
  0
INSERT
  5
624
330
1F
100
AcDbEntity
  8
POPIS
100
AcDbBlockReference
  2
_ArchTick
 10
2483.60892462006
 20
443.5205793920558
 30
0.0
 41
15.0
 42
15.0
 43
15.0
 50
270.0
  0
INSERT
  5
625
330
1F
100
AcDbEntity
  8
POPIS
100
AcDbBlockReference
  2
_ArchTick
 10
2483.60892462006
 20
484.029342299018
 30
0.0
 41
15.0
 42
15.0
 43
15.0
 50
90.0
  0
LINE
  5
626
330
1F
100
AcDbEntity
  8
POPIS
100
AcDbLine
 10
2468.744763961259
 20
429.1837955421028
 30
0.0
 11
2427.450696338358
 21
429.1837955421028
 31
0.0
  0
LINE
  5
627
330
1F
100
AcDbEntity
  8
POPIS
100
AcDbLine
 10
2403.887285769485
 20
313.6870279513686
 30
0.0
 11
2570.741252668128
 21
313.6870279513668
 31
0.0
  0
TEXT
  5
628
330
1F
100
AcDbEntity
  8
POPIS
100
AcDbText
 10
2364.352535644404
 20
300.2436865019981
 30
0.0
 40
25.0
  1
12
 41
0.7
  7
SIMPLEX7
100
AcDbText
  0
INSERT
  5
629
330
1F
100
AcDbEntity
  8
POPIS
100
AcDbBlockReference
  2
E_PUNKT
 10
2570.801569330272
 20
314.1077710175796
 30
0.0
  0
TEXT
  5
62A
330
1F
100
AcDbEntity
  8
POPIS
100
AcDbText
 10
2418.982344360433
 20
-584.0330810313325
 30
0.0
 40
25.0
  1
Podkladní EPDM páska tl.1 mm
 41
0.7
  7
SIMPLEX7
100
AcDbText
  0
TEXT
  5
62B
330
1F
100
AcDbEntity
  8
POPIS
100
AcDbText
 10
2364.63864120069
 20
-584.0330810313325
 30
0.0
 40
25.0
  1
12
 41
0.85
  7
SIMPLEX7
100
AcDbText
  0
ENDSEC
  0
SECTION
  2
OBJECTS
  0
DICTIONARY
  5
C
330
0
100
AcDbDictionary
281
     1
  3
ACAD_GROUP
350
D
  3
ACAD_LAYOUT
350
1A
  3
ACAD_MLINESTYLE
350
17
  3
ACAD_PLOTSETTINGS
350
19
  3
ACAD_PLOTSTYLENAME
350
E
  3
AcDbVariableDictionary
350
62E
  0
DICTIONARY
  5
5B1
330
1F
100
AcDbDictionary
280
     1
281
     1
  3
ACAD_LAYOUTSELFREF
360
5ED
  0
DICTIONARY
  5
5B3
330
1B
100
AcDbDictionary
280
     1
281
     1
  3
ACAD_LAYOUTSELFREF
360
5EC
  0
DICTIONARY
  5
5B5
330
23
100
AcDbDictionary
280
     1
281
     1
  3
ACAD_LAYOUTSELFREF
360
5EE
  0
DICTIONARY
  5
D
102
{ACAD_REACTORS
330
C
102
}
330
C
100
AcDbDictionary
281
     1
  0
DICTIONARY
  5
1A
102
{ACAD_REACTORS
330
C
102
}
330
C
100
AcDbDictionary
281
     1
  3
Model
350
22
  3
Rozvržení1
350
1E
  3
Rozvržení2
350
26
  0
DICTIONARY
  5
17
102
{ACAD_REACTORS
330
C
102
}
330
C
100
AcDbDictionary
281
     1
  3
Standard
350
18
  0
DICTIONARY
  5
19
102
{ACAD_REACTORS
330
C
102
}
330
C
100
AcDbDictionary
281
     1
  0
ACDBDICTIONARYWDFLT
  5
E
102
{ACAD_REACTORS
330
C
102
}
330
C
100
AcDbDictionary
281
     1
  3
Normal
350
F
100
AcDbDictionaryWithDefault
340
F
  0
DICTIONARY
  5
62E
102
{ACAD_REACTORS
330
C
102
}
330
C
100
AcDbDictionary
281
     1
  3
DIMASSOC
350
62F
  0
XRECORD
  5
5ED
102
{ACAD_REACTORS
330
5B1
102
}
330
5B1
100
AcDbXrecord
280
     1
340
1F
  0
XRECORD
  5
5EC
102
{ACAD_REACTORS
330
5B3
102
}
330
5B3
100
AcDbXrecord
280
     1
340
1B
  0
XRECORD
  5
5EE
102
{ACAD_REACTORS
330
5B5
102
}
330
5B5
100
AcDbXrecord
280
     1
340
23
  0
LAYOUT
  5
22
102
{ACAD_REACTORS
330
1A
102
}
330
1A
100
AcDbPlotSettings
  1

  2
HP DeskJet 690C
  4

  6

 40
0.0
 41
0.0
 42
0.0
 43
0.0
 44
0.0
 45
0.0
 46
0.0
 47
0.0
 48
0.0
 49
0.0
140
0.0
141
0.0
142
1.0
143
1.0
 70
  1712
 72
     0
 73
     0
 74
     0
  7
monochrome.ctb
 75
     0
147
1.0
148
0.0
149
0.0
100
AcDbLayout
  1
Model
 70
     1
 71
     0
 10
0.0
 20
0.0
 11
12.0
 21
9.0
 12
0.0
 22
0.0
 32
0.0
 14
0.0
 24
0.0
 34
0.0
 15
0.0
 25
0.0
 35
0.0
146
0.0
 13
0.0
 23
0.0
 33
0.0
 16
1.0
 26
0.0
 36
0.0
 17
0.0
 27
1.0
 37
0.0
 76
     0
330
1F
  0
LAYOUT
  5
1E
102
{ACAD_REACTORS
330
1A
102
}
330
1A
100
AcDbPlotSettings
  1

  2
HP DeskJet 690C
  4

  6

 40
0.0
 41
0.0
 42
0.0
 43
0.0
 44
0.0
 45
0.0
 46
0.0
 47
0.0
 48
0.0
 49
0.0
140
0.0
141
0.0
142
1.0
143
1.0
 70
   688
 72
     0
 73
     0
 74
     5
  7
monochrome.ctb
 75
    16
147
1.0
148
0.0
149
0.0
100
AcDbLayout
  1
Rozvržení1
 70
     1
 71
     1
 10
0.0
 20
0.0
 11
420.0
 21
297.0
 12
0.0
 22
0.0
 32
0.0
 14
1.000000000000000E+20
 24
1.000000000000000E+20
 34
1.000000000000000E+20
 15
-1.000000000000000E+20
 25
-1.000000000000000E+20
 35
-1.000000000000000E+20
146
0.0
 13
0.0
 23
0.0
 33
0.0
 16
1.0
 26
0.0
 36
0.0
 17
0.0
 27
1.0
 37
0.0
 76
     0
330
1B
  0
LAYOUT
  5
26
102
{ACAD_REACTORS
330
1A
102
}
330
1A
100
AcDbPlotSettings
  1

  2
HP DeskJet 690C
  4

  6

 40
0.0
 41
0.0
 42
0.0
 43
0.0
 44
0.0
 45
0.0
 46
0.0
 47
0.0
 48
0.0
 49
0.0
140
0.0
141
0.0
142
1.0
143
1.0
 70
   688
 72
     0
 73
     0
 74
     5
  7
monochrome.ctb
 75
    16
147
1.0
148
0.0
149
0.0
100
AcDbLayout
  1
Rozvržení2
 70
     1
 71
     2
 10
0.0
 20
0.0
 11
12.0
 21
9.0
 12
0.0
 22
0.0
 32
0.0
 14
0.0
 24
0.0
 34
0.0
 15
0.0
 25
0.0
 35
0.0
146
0.0
 13
0.0
 23
0.0
 33
0.0
 16
1.0
 26
0.0
 36
0.0
 17
0.0
 27
1.0
 37
0.0
 76
     0
330
23
  0
MLINESTYLE
  5
18
102
{ACAD_REACTORS
330
17
102
}
330
17
100
AcDbMlineStyle
  2
STANDARD
 70
     0
  3

 62
   256
 51
90.0
 52
90.0
 71
     2
 49
0.5
 62
   256
  6
BYLAYER
 49
-0.5
 62
   256
  6
BYLAYER
  0
ACDBPLACEHOLDER
  5
F
102
{ACAD_REACTORS
330
E
102
}
330
E
  0
DICTIONARYVAR
  5
62F
102
{ACAD_REACTORS
330
62E
102
}
330
62E
100
DictionaryVariables
280
     0
  1
1
  0
ENDSEC
  0
EOF
