  0
SECTION
  2
HEADER
  9
$ACADVER
  1
AC1015
  9
$ACADMAINTVER
 70
    13
  9
$DWGCODEPAGE
  3
ANSI_1250
  9
$INSBASE
 10
0.0
 20
0.0
 30
0.0
  9
$EXTMIN
 10
1389.267213718821
 20
-388.2588363204195
 30
-0.0015258207003583
  9
$EXTMAX
 10
2515.462560243614
 20
989.554674708947
 30
0.0000000349246037
  9
$LIMMIN
 10
0.0
 20
0.0
  9
$LIMMAX
 10
420.0
 20
297.0
  9
$ORTHOMODE
 70
     0
  9
$REGENMODE
 70
     1
  9
$FILLMODE
 70
     1
  9
$QTEXTMODE
 70
     0
  9
$MIRRTEXT
 70
     1
  9
$LTSCALE
 40
1.0
  9
$ATTMODE
 70
     1
  9
$TEXTSIZE
 40
2.5
  9
$TRACEWID
 40
1.0
  9
$TEXTSTYLE
  7
Standard
  9
$CLAYER
  8
0
  9
$CELTYPE
  6
ByLayer
  9
$CECOLOR
 62
   256
  9
$CELTSCALE
 40
1.0
  9
$DISPSILH
 70
     0
  9
$DIMSCALE
 40
1.0
  9
$DIMASZ
 40
2.5
  9
$DIMEXO
 40
0.625
  9
$DIMDLI
 40
3.75
  9
$DIMRND
 40
0.0
  9
$DIMDLE
 40
0.0
  9
$DIMEXE
 40
1.25
  9
$DIMTP
 40
0.0
  9
$DIMTM
 40
0.0
  9
$DIMTXT
 40
2.5
  9
$DIMCEN
 40
2.5
  9
$DIMTSZ
 40
0.0
  9
$DIMTOL
 70
     0
  9
$DIMLIM
 70
     0
  9
$DIMTIH
 70
     0
  9
$DIMTOH
 70
     0
  9
$DIMSE1
 70
     0
  9
$DIMSE2
 70
     0
  9
$DIMTAD
 70
     1
  9
$DIMZIN
 70
     8
  9
$DIMBLK
  1

  9
$DIMASO
 70
     1
  9
$DIMSHO
 70
     1
  9
$DIMPOST
  1

  9
$DIMAPOST
  1

  9
$DIMALT
 70
     0
  9
$DIMALTD
 70
     3
  9
$DIMALTF
 40
0.03937007874016
  9
$DIMLFAC
 40
1.0
  9
$DIMTOFL
 70
     1
  9
$DIMTVP
 40
0.0
  9
$DIMTIX
 70
     0
  9
$DIMSOXD
 70
     0
  9
$DIMSAH
 70
     0
  9
$DIMBLK1
  1

  9
$DIMBLK2
  1

  9
$DIMSTYLE
  2
ISO-25
  9
$DIMCLRD
 70
     0
  9
$DIMCLRE
 70
     0
  9
$DIMCLRT
 70
     0
  9
$DIMTFAC
 40
1.0
  9
$DIMGAP
 40
0.625
  9
$DIMJUST
 70
     0
  9
$DIMSD1
 70
     0
  9
$DIMSD2
 70
     0
  9
$DIMTOLJ
 70
     0
  9
$DIMTZIN
 70
     8
  9
$DIMALTZ
 70
     0
  9
$DIMALTTZ
 70
     0
  9
$DIMUPT
 70
     0
  9
$DIMDEC
 70
     2
  9
$DIMTDEC
 70
     2
  9
$DIMALTU
 70
     2
  9
$DIMALTTD
 70
     3
  9
$DIMTXSTY
  7
Standard
  9
$DIMAUNIT
 70
     0
  9
$DIMADEC
 70
     0
  9
$DIMALTRND
 40
0.0
  9
$DIMAZIN
 70
     0
  9
$DIMDSEP
 70
    44
  9
$DIMATFIT
 70
     3
  9
$DIMFRAC
 70
     0
  9
$DIMLDRBLK
  1

  9
$DIMLUNIT
 70
     2
  9
$DIMLWD
 70
    -2
  9
$DIMLWE
 70
    -2
  9
$DIMTMOVE
 70
     0
  9
$LUNITS
 70
     2
  9
$LUPREC
 70
     4
  9
$SKETCHINC
 40
1.0
  9
$FILLETRAD
 40
10.0
  9
$AUNITS
 70
     0
  9
$AUPREC
 70
     0
  9
$MENU
  1
.
  9
$ELEVATION
 40
0.0
  9
$PELEVATION
 40
0.0
  9
$THICKNESS
 40
0.0
  9
$LIMCHECK
 70
     0
  9
$CHAMFERA
 40
10.0
  9
$CHAMFERB
 40
10.0
  9
$CHAMFERC
 40
20.0
  9
$CHAMFERD
 40
0.0
  9
$SKPOLY
 70
     0
  9
$TDCREATE
 40
2452334.465307870
  9
$TDUCREATE
 40
2452334.423641203
  9
$TDUPDATE
 40
2455595.886139676
  9
$TDUUPDATE
 40
2455595.844473009
  9
$TDINDWG
 40
0.0364571991
  9
$TDUSRTIMER
 40
0.0364571991
  9
$USRTIMER
 70
     1
  9
$ANGBASE
 50
0.0
  9
$ANGDIR
 70
     0
  9
$PDMODE
 70
     0
  9
$PDSIZE
 40
0.0
  9
$PLINEWID
 40
0.0
  9
$SPLFRAME
 70
     0
  9
$SPLINETYPE
 70
     6
  9
$SPLINESEGS
 70
     8
  9
$HANDSEED
  5
2047
  9
$SURFTAB1
 70
     6
  9
$SURFTAB2
 70
     6
  9
$SURFTYPE
 70
     6
  9
$SURFU
 70
     6
  9
$SURFV
 70
     6
  9
$UCSBASE
  2

  9
$UCSNAME
  2

  9
$UCSORG
 10
0.0
 20
0.0
 30
0.0
  9
$UCSXDIR
 10
1.0
 20
0.0
 30
0.0
  9
$UCSYDIR
 10
0.0
 20
1.0
 30
0.0
  9
$UCSORTHOREF
  2

  9
$UCSORTHOVIEW
 70
     0
  9
$UCSORGTOP
 10
0.0
 20
0.0
 30
0.0
  9
$UCSORGBOTTOM
 10
0.0
 20
0.0
 30
0.0
  9
$UCSORGLEFT
 10
0.0
 20
0.0
 30
0.0
  9
$UCSORGRIGHT
 10
0.0
 20
0.0
 30
0.0
  9
$UCSORGFRONT
 10
0.0
 20
0.0
 30
0.0
  9
$UCSORGBACK
 10
0.0
 20
0.0
 30
0.0
  9
$PUCSBASE
  2

  9
$PUCSNAME
  2

  9
$PUCSORG
 10
0.0
 20
0.0
 30
0.0
  9
$PUCSXDIR
 10
1.0
 20
0.0
 30
0.0
  9
$PUCSYDIR
 10
0.0
 20
1.0
 30
0.0
  9
$PUCSORTHOREF
  2

  9
$PUCSORTHOVIEW
 70
     0
  9
$PUCSORGTOP
 10
0.0
 20
0.0
 30
0.0
  9
$PUCSORGBOTTOM
 10
0.0
 20
0.0
 30
0.0
  9
$PUCSORGLEFT
 10
0.0
 20
0.0
 30
0.0
  9
$PUCSORGRIGHT
 10
0.0
 20
0.0
 30
0.0
  9
$PUCSORGFRONT
 10
0.0
 20
0.0
 30
0.0
  9
$PUCSORGBACK
 10
0.0
 20
0.0
 30
0.0
  9
$USERI1
 70
     0
  9
$USERI2
 70
     0
  9
$USERI3
 70
     0
  9
$USERI4
 70
     0
  9
$USERI5
 70
     0
  9
$USERR1
 40
0.0
  9
$USERR2
 40
0.0
  9
$USERR3
 40
0.0
  9
$USERR4
 40
0.0
  9
$USERR5
 40
0.0
  9
$WORLDVIEW
 70
     1
  9
$SHADEDGE
 70
     3
  9
$SHADEDIF
 70
    70
  9
$TILEMODE
 70
     1
  9
$MAXACTVP
 70
    48
  9
$PINSBASE
 10
0.0
 20
0.0
 30
0.0
  9
$PLIMCHECK
 70
     0
  9
$PEXTMIN
 10
1.000000000000000E+20
 20
1.000000000000000E+20
 30
1.000000000000000E+20
  9
$PEXTMAX
 10
-1.000000000000000E+20
 20
-1.000000000000000E+20
 30
-1.000000000000000E+20
  9
$PLIMMIN
 10
0.0
 20
0.0
  9
$PLIMMAX
 10
420.0
 20
297.0
  9
$UNITMODE
 70
     0
  9
$VISRETAIN
 70
     1
  9
$PLINEGEN
 70
     0
  9
$PSLTSCALE
 70
     1
  9
$TREEDEPTH
 70
  3020
  9
$CMLSTYLE
  2
Standard
  9
$CMLJUST
 70
     0
  9
$CMLSCALE
 40
20.0
  9
$PROXYGRAPHICS
 70
     1
  9
$MEASUREMENT
 70
     1
  9
$CELWEIGHT
370
    -1
  9
$ENDCAPS
280
     0
  9
$JOINSTYLE
280
     0
  9
$LWDISPLAY
290
     1
  9
$INSUNITS
 70
     4
  9
$HYPERLINKBASE
  1

  9
$STYLESHEET
  1

  9
$XEDIT
290
     1
  9
$CEPSNTYPE
380
     0
  9
$PSTYLEMODE
290
     1
  9
$FINGERPRINTGUID
  2
{4216A968-507C-4CB8-873B-AD6C9E89F3B1}
  9
$VERSIONGUID
  2
{5BAD2817-F83D-450A-9544-2506F6E2DF68}
  9
$EXTNAMES
290
     1
  9
$PSVPSCALE
 40
0.0
  9
$OLESTARTUP
290
     0
  0
ENDSEC
  0
SECTION
  2
CLASSES
  0
CLASS
  1
ACDBDICTIONARYWDFLT
  2
AcDbDictionaryWithDefault
  3
AutoCAD 2000
 90
        0
280
     0
281
     0
  0
CLASS
  1
ACDBPLACEHOLDER
  2
AcDbPlaceHolder
  3
AutoCAD 2000
 90
        0
280
     0
281
     0
  0
CLASS
  1
LAYOUT
  2
AcDbLayout
  3
AutoCAD 2000
 90
        0
280
     0
281
     0
  0
CLASS
  1
LONG_TRANSACTION
  2
AcDbLongTransaction
  3
AutoCAD 2000
 90
    32768
280
     0
281
     0
  0
CLASS
  1
LWPOLYLINE
  2
AcDbPolyline
  3
AutoCAD 2000
 90
    32768
280
     0
281
     1
  0
CLASS
  1
HATCH
  2
AcDbHatch
  3
AutoCAD 2000
 90
    32768
280
     0
281
     1
  0
CLASS
  1
XRECORD
  2
AcDbXrecord
  3
AutoCAD 2000
 90
    32768
280
     0
281
     0
  0
CLASS
  1
LONG_TRANSACTION
  2
AcDbLongTransaction
  3
AutoCAD 2000
 90
    32768
280
     0
281
     0
  0
CLASS
  1
LWPOLYLINE
  2
AcDbPolyline
  3
AutoCAD 2000
 90
    32768
280
     0
281
     1
  0
CLASS
  1
HATCH
  2
AcDbHatch
  3
AutoCAD 2000
 90
    32768
280
     0
281
     1
  0
CLASS
  1
XRECORD
  2
AcDbXrecord
  3
AutoCAD 2000
 90
    32768
280
     0
281
     0
  0
CLASS
  1
LONG_TRANSACTION
  2
AcDbLongTransaction
  3
AutoCAD 2000
 90
    32768
280
     0
281
     0
  0
CLASS
  1
LWPOLYLINE
  2
AcDbPolyline
  3
AutoCAD 2000
 90
    32768
280
     0
281
     1
  0
CLASS
  1
HATCH
  2
AcDbHatch
  3
AutoCAD 2000
 90
    32768
280
     0
281
     1
  0
CLASS
  1
XRECORD
  2
AcDbXrecord
  3
AutoCAD 2000
 90
    32768
280
     0
281
     0
  0
CLASS
  1
DICTIONARYVAR
  2
AcDbDictionaryVar
  3
AutoCAD 2000
 90
        0
280
     0
281
     0
  0
ENDSEC
  0
SECTION
  2
TABLES
  0
TABLE
  2
VPORT
  5
8
330
0
100
AcDbSymbolTable
 70
     2
  0
VPORT
  5
2046
330
8
100
AcDbSymbolTableRecord
100
AcDbViewportTableRecord
  2
*Active
 70
     0
 10
0.0
 20
0.0
 11
1.0
 21
1.0
 12
1952.364886981218
 22
300.6479191942637
 13
0.0
 23
0.0
 14
10.0
 24
10.0
 15
10.0
 25
10.0
 16
0.0
 26
0.0
 36
1.0
 17
0.0
 27
0.0
 37
0.0
 40
1390.791346298088
 41
2.229559748427672
 42
50.0
 43
0.0
 44
0.0
 50
0.0
 51
0.0
 71
     0
 72
   100
 73
     1
 74
     3
 75
     0
 76
     0
 77
     0
 78
     0
281
     0
 65
     1
110
0.0
120
0.0
130
0.0
111
1.0
121
0.0
131
0.0
112
0.0
122
1.0
132
0.0
 79
     0
146
0.0
  0
ENDTAB
  0
TABLE
  2
LTYPE
  5
5
330
0
100
AcDbSymbolTable
 70
     3
  0
LTYPE
  5
14
330
5
100
AcDbSymbolTableRecord
100
AcDbLinetypeTableRecord
  2
ByBlock
 70
     0
  3

 72
    65
 73
     0
 40
0.0
  0
LTYPE
  5
15
330
5
100
AcDbSymbolTableRecord
100
AcDbLinetypeTableRecord
  2
ByLayer
 70
     0
  3

 72
    65
 73
     0
 40
0.0
  0
LTYPE
  5
16
330
5
100
AcDbSymbolTableRecord
100
AcDbLinetypeTableRecord
  2
Continuous
 70
     0
  3
Solid line
 72
    65
 73
     0
 40
0.0
  0
LTYPE
  5
33
330
5
100
AcDbSymbolTableRecord
100
AcDbLinetypeTableRecord
  2
IZOLACE
 70
     0
  3
Izolace SSSSSSSSSSSSSSSSSSSSSSSSSSSSSSSSSSSSSSS
 72
    65
 73
     4
 40
10.16253999999999
 49
0.00254
 74
     0
 49
-2.54
 74
     4
 75
   134
340
3D
 46
2.54
 50
0.0
 44
-2.54
 45
0.0
 49
-5.08
 74
     4
 75
   134
340
3D
 46
2.54
 50
180.0
 44
2.54
 45
0.0
 49
-2.54
 74
     0
  0
LTYPE
  5
2001
330
5
100
AcDbSymbolTableRecord
100
AcDbLinetypeTableRecord
  2
DASHED
 70
     0
  3
Dashed __ __ __ __ __ __ __ __ __ __ __ __ __ _
 72
    65
 73
     2
 40
19.04999999999999
 49
12.7
 74
     0
 49
-6.349999999999999
 74
     0
  0
ENDTAB
  0
TABLE
  2
LAYER
  5
2
330
0
100
AcDbSymbolTable
 70
     8
  0
LAYER
  5
10
330
2
100
AcDbSymbolTableRecord
100
AcDbLayerTableRecord
  2
0
 70
     0
 62
     7
  6
Continuous
370
    -3
390
F
  0
LAYER
  5
36
330
2
100
AcDbSymbolTableRecord
100
AcDbLayerTableRecord
  2
POPIS
 70
     0
 62
    30
  6
Continuous
370
    -3
390
F
  0
LAYER
  5
37
330
2
100
AcDbSymbolTableRecord
100
AcDbLayerTableRecord
  2
SPOJOVACÍ
 70
     0
 62
   180
  6
Continuous
370
    -3
390
F
  0
LAYER
  5
38
330
2
100
AcDbSymbolTableRecord
100
AcDbLayerTableRecord
  2
CETRIS
 70
     0
 62
     1
  6
Continuous
370
    -3
390
F
  0
LAYER
  5
39
330
2
100
AcDbSymbolTableRecord
100
AcDbLayerTableRecord
  2
NOSNÉ KONSTRUKCE
 70
     0
 62
    33
  6
Continuous
370
    -3
390
F
  0
LAYER
  5
3A
330
2
100
AcDbSymbolTableRecord
100
AcDbLayerTableRecord
  2
PROFILY
 70
     0
 62
    73
  6
Continuous
370
    -3
390
F
  0
LAYER
  5
3B
330
2
100
AcDbSymbolTableRecord
100
AcDbLayerTableRecord
  2
STAVBA OBRYS
 70
     0
 62
     6
  6
Continuous
370
    -3
390
F
  0
LAYER
  5
5FD
330
2
100
AcDbSymbolTableRecord
100
AcDbLayerTableRecord
  2
Defpoints
 70
     0
 62
     7
  6
Continuous
290
     0
370
    -3
390
F
  0
ENDTAB
  0
TABLE
  2
STYLE
  5
3
330
0
100
AcDbSymbolTable
 70
     3
  0
STYLE
  5
11
330
3
100
AcDbSymbolTableRecord
100
AcDbTextStyleTableRecord
  2
Standard
 70
     0
 40
0.0
 41
1.0
 50
0.0
 71
     0
 42
2.5
  3
txt
  4

  0
STYLE
  5
3C
330
3
100
AcDbSymbolTableRecord
100
AcDbTextStyleTableRecord
  2
SIMPLEX7
 70
     0
 40
0.0
 41
0.85
 50
0.0
 71
     0
 42
102.0
  3
ARIAL.TTF
  4

1001
ACAD
1000
Arial CE
1071
    60962
  0
STYLE
  5
3D
330
3
100
AcDbSymbolTableRecord
100
AcDbTextStyleTableRecord
  2

 70
     1
 40
0.0
 41
1.0
 50
0.0
 71
     0
 42
2.5
  3
ltypeshp.shx
  4

  0
ENDTAB
  0
TABLE
  2
VIEW
  5
6
330
0
100
AcDbSymbolTable
 70
     0
  0
ENDTAB
  0
TABLE
  2
UCS
  5
7
330
0
100
AcDbSymbolTable
 70
     0
  0
ENDTAB
  0
TABLE
  2
APPID
  5
9
330
0
100
AcDbSymbolTable
 70
     1
  0
APPID
  5
12
330
9
100
AcDbSymbolTableRecord
100
AcDbRegAppTableRecord
  2
ACAD
 70
     0
  0
ENDTAB
  0
TABLE
  2
DIMSTYLE
  5
A
330
0
100
AcDbSymbolTable
 70
     1
100
AcDbDimStyleTable
 71
     0
  0
DIMSTYLE
105
27
330
A
100
AcDbSymbolTableRecord
100
AcDbDimStyleTableRecord
  2
ISO-25
 70
     0
 41
2.5
 42
0.625
 43
3.75
 44
1.25
 73
     0
 74
     0
 77
     1
 78
     8
140
2.5
141
2.5
143
0.03937007874016
147
0.625
171
     3
172
     1
271
     2
272
     2
274
     3
278
    44
283
     0
284
     8
340
11
  0
ENDTAB
  0
TABLE
  2
BLOCK_RECORD
  5
1
330
0
100
AcDbSymbolTable
 70
     3
  0
BLOCK_RECORD
  5
1F
102
{ACAD_XDICTIONARY
360
B56
102
}
330
1
100
AcDbSymbolTableRecord
100
AcDbBlockTableRecord
  2
*Model_Space
340
22
  0
BLOCK_RECORD
  5
1B
102
{ACAD_XDICTIONARY
360
B58
102
}
330
1
100
AcDbSymbolTableRecord
100
AcDbBlockTableRecord
  2
*Paper_Space
340
1E
  0
BLOCK_RECORD
  5
23
102
{ACAD_XDICTIONARY
360
B5A
102
}
330
1
100
AcDbSymbolTableRecord
100
AcDbBlockTableRecord
  2
*Paper_Space0
340
26
  0
BLOCK_RECORD
  5
2B
330
1
100
AcDbSymbolTableRecord
100
AcDbBlockTableRecord
  2
E_PUNKT
340
0
102
{BLKREFS
331
1E60
331
1E63
331
1F49
331
1F4A
331
1F4B
331
1FAA
331
2035
102
}
  0
BLOCK_RECORD
  5
1FFD
330
1
100
AcDbSymbolTableRecord
100
AcDbBlockTableRecord
  2
_ArchTick
340
0
102
{BLKREFS
331
202C
331
202B
102
}
  0
ENDTAB
  0
ENDSEC
  0
SECTION
  2
BLOCKS
  0
BLOCK
  5
20
330
1F
100
AcDbEntity
  8
0
100
AcDbBlockBegin
  2
*Model_Space
 70
     0
 10
0.0
 20
0.0
 30
0.0
  3
*Model_Space
  1

  0
ENDBLK
  5
21
330
1F
100
AcDbEntity
  8
0
100
AcDbBlockEnd
  0
BLOCK
  5
1C
330
1B
100
AcDbEntity
 67
     1
  8
0
100
AcDbBlockBegin
  2
*Paper_Space
 70
     0
 10
0.0
 20
0.0
 30
0.0
  3
*Paper_Space
  1

  0
ENDBLK
  5
1D
330
1B
100
AcDbEntity
 67
     1
  8
0
100
AcDbBlockEnd
  0
BLOCK
  5
24
330
23
100
AcDbEntity
  8
0
100
AcDbBlockBegin
  2
*Paper_Space0
 70
     0
 10
0.0
 20
0.0
 30
0.0
  3
*Paper_Space0
  1

  0
ENDBLK
  5
25
330
23
100
AcDbEntity
  8
0
100
AcDbBlockEnd
  0
BLOCK
  5
2D
330
2B
100
AcDbEntity
  8
0
100
AcDbBlockBegin
  2
E_PUNKT
 70
     0
 10
0.0
 20
0.0
 30
0.0
  3
E_PUNKT
  1

  0
LWPOLYLINE
  5
2C
330
2B
100
AcDbEntity
  8
POPIS
100
AcDbPolyline
 90
        2
 70
     1
 43
2.5
 10
1.27761037562675
 20
0.0290683308725193
 42
-1.0
 10
-1.222389624373249
 20
0.0290683308725193
 42
-1.0
  0
ENDBLK
  5
2E
330
2B
100
AcDbEntity
  8
0
100
AcDbBlockEnd
  0
BLOCK
  5
1FFF
330
1FFD
100
AcDbEntity
  8
0
100
AcDbBlockBegin
  2
_ArchTick
 70
     0
 10
0.0
 20
0.0
 30
0.0
  3
_ArchTick
  1

  0
LWPOLYLINE
  5
1FFE
330
1FFD
100
AcDbEntity
  8
0
  6
ByBlock
 62
     0
100
AcDbPolyline
 90
        2
 70
     0
 43
0.15
 10
-0.5
 20
-0.5
 10
0.5
 20
0.5
  0
ENDBLK
  5
2000
330
1FFD
100
AcDbEntity
  8
0
100
AcDbBlockEnd
  0
ENDSEC
  0
SECTION
  2
ENTITIES
  0
ARC
  5
1B88
330
1F
100
AcDbEntity
  8
PROFILY
100
AcDbCircle
 10
2514.410212113393
 20
-129.7218163913507
 30
0.0
 40
0.8125
100
AcDbArc
 50
224.6867669083551
 51
0.0
  0
ARC
  5
1B9A
330
1F
100
AcDbEntity
  8
PROFILY
100
AcDbCircle
 10
2197.143032503793
 20
-124.7695077570292
 30
0.0
 40
0.8125
100
AcDbArc
 50
180.0
 51
315.3132330916447
  0
HATCH
  5
1E5D
330
1F
100
AcDbEntity
  8
CETRIS
100
AcDbHatch
 10
0.0
 20
0.0
 30
0.0
210
0.0
220
0.0
230
1.0
  2
SOLID
 70
     1
 71
     0
 91
        8
 92
        7
 72
     0
 73
     1
 93
        4
 10
1818.40104194623
 20
827.5048797152344
 10
1806.401041946226
 20
826.9778713584086
 10
1806.40104194623
 20
757.9918230910184
 10
1818.40104194623
 20
757.9918230910184
 97
        0
 92
        7
 72
     0
 73
     1
 93
        4
 10
1818.401041946226
 20
757.9918230910184
 10
1806.401041946222
 20
757.991823091018
 10
1806.401041946222
 20
723.5460945770319
 10
1818.40104194623
 20
723.5460945770314
 97
        0
 92
        7
 72
     0
 73
     1
 93
        4
 10
1818.401041946233
 20
723.5460945770319
 10
1806.401041946222
 20
723.5460945770319
 10
1806.401041946226
 20
686.9475350186767
 10
1818.40104194623
 20
686.9475350186771
 97
        0
 92
        7
 72
     0
 73
     1
 93
        4
 10
1818.40104194623
 20
686.9475350186762
 10
1806.401041946226
 20
686.9475350186771
 10
1806.401041946234
 20
564.6638115858395
 10
1818.40104194623
 20
575.3329417566305
 97
        0
 92
        7
 72
     0
 73
     1
 93
       12
 10
1818.401041946226
 20
575.3329417566365
 10
1806.401041946226
 20
564.6638115858386
 10
1806.401041946226
 20
538.6362512706969
 10
1806.619435316833
 20
538.2589418751481
 10
1806.845566871094
 20
537.5864247766935
 10
1811.801444675145
 20
537.586424776694
 10
1813.325072628567
 20
537.8133876675774
 10
1814.738939838274
 20
538.426373516726
 10
1815.946308021177
 20
539.3844545867118
 10
1816.864391531615
 20
540.6215883955996
 10
1817.201115169502
 20
541.3368935817771
 10
1818.40104194623
 20
541.3368935817762
 97
        0
 92
        7
 72
     0
 73
     1
 93
       15
 10
1818.40104194623
 20
531.1365858045092
 10
1817.201115169498
 20
531.1365858045092
 10
1816.456974533035
 20
532.4862708880536
 10
1815.388202543619
 20
533.5969007884168
 10
1814.069213265311
 20
534.3931312677364
 10
1812.588373398261
 20
534.8210121320362
 10
1811.801444675149
 20
534.8870546139574
 10
1807.753220775847
 20
534.8870546139574
 10
1807.979352330107
 20
534.21453751553
 10
1807.60077078128
 20
533.8368861402209
 10
1807.383109645221
 20
534.2145375155387
 10
1807.156978090928
 20
534.8870546139574
 10
1806.401041946226
 20
534.8870546139574
 10
1806.401041946234
 20
511.3486393431331
 10
1818.40104194623
 20
511.3486393431335
 97
        0
 92
        7
 72
     0
 73
     1
 93
       10
 10
1852.341211041895
 20
495.6865372351885
 10
1851.383129971918
 20
496.893905418076
 10
1850.145996163015
 20
497.8119889285121
 10
1849.43069097684
 20
498.1487125664025
 10
1849.430690976844
 20
499.3486393431335
 10
1830.40104194623
 20
499.3486393431335
 10
1830.401041946226
 20
488.348639343133
 10
1853.181159781927
 20
488.348639343133
 10
1853.181159781919
 20
492.7490420720396
 10
1852.954196891039
 20
494.2726700254756
 97
        0
 92
        7
 72
     0
 73
     1
 93
       13
 10
2191.907953444415
 20
499.3486393431335
 10
1860.026512257782
 20
499.3486393431335
 10
1859.630998754107
 20
499.3486393431339
 10
1859.630998754107
 20
498.1487125664029
 10
1858.281313670557
 20
497.4045719299255
 10
1857.170683770205
 20
496.3357999405216
 10
1856.374453290873
 20
495.0168106621967
 10
1855.946572426581
 20
493.5359707951638
 10
1855.880529944659
 20
492.749042072041
 10
1855.880529944655
 20
488.7008181727569
 10
1856.553047043091
 20
488.9269497270106
 10
1857.129936520408
 20
488.3486393431335
 10
2191.301870092682
 20
488.3486393431344
 97
        0
 75
     0
 76
     1
 47
0.7068698050438563
 98
       13
 10
1824.244623731892
 20
803.9970638142644
 10
1826.366407097475
 20
741.79252426034
 10
1827.073694096003
 20
700.0872101493391
 10
1828.488190463058
 20
651.3131678301456
 10
1822.122917996324
 20
567.1956763829607
 10
1813.635784534008
 20
779.2566110420835
 10
1813.635784534008
 20
731.1894799262977
 10
1812.92857516548
 20
711.39711770855
 10
1812.92857516548
 20
663.3299865927642
 10
1812.92857516548
 20
554.4719943951736
 10
1813.635784534008
 20
526.1972254971283
 10
1841.926022395053
 20
495.0949557201624
 10
1873.752539988751
 20
495.8018189453382
  0
TEXT
  5
1E5E
330
1F
100
AcDbEntity
  8
POPIS
100
AcDbText
 10
2017.354422717699
 20
784.505986355582
 30
0.0
 40
25.0
  1
01
 41
0.7
  7
SIMPLEX7
100
AcDbText
  0
LINE
  5
1E5F
330
1F
100
AcDbEntity
  8
POPIS
100
AcDbLine
 10
1819.293847632214
 20
796.8696843013385
 30
0.0
 11
2002.693196430276
 21
796.8696843013381
 31
0.0
  0
INSERT
  5
1E60
330
1F
100
AcDbEntity
  8
POPIS
100
AcDbBlockReference
  2
E_PUNKT
 10
1735.252457036707
 20
757.9627547601462
 30
0.0
 41
-1.0
  0
LINE
  5
1E61
330
1F
100
AcDbEntity
  8
POPIS
100
AcDbLine
 10
1736.474846661081
 20
757.9918230910188
 30
0.0
 11
2002.693196430276
 21
757.9918230910184
 31
0.0
  0
TEXT
  5
1E62
330
1F
100
AcDbEntity
  8
POPIS
100
AcDbText
 10
2017.354422717699
 20
745.6281251452623
 30
0.0
 40
25.0
  1
06,07
 41
0.7
  7
SIMPLEX7
100
AcDbText
  0
INSERT
  5
1E63
330
1F
100
AcDbEntity
  8
POPIS
100
AcDbBlockReference
  2
E_PUNKT
 10
1775.098775447417
 20
723.5170262461593
 30
0.0
 41
-1.0
  0
LINE
  5
1E64
330
1F
100
AcDbEntity
  8
POPIS
100
AcDbLine
 10
1776.321165071791
 20
723.5460945770319
 30
0.0
 11
2002.693196430276
 21
723.5460945770314
 31
0.0
  0
TEXT
  5
1E65
330
1F
100
AcDbEntity
  8
POPIS
100
AcDbText
 10
2017.354422717699
 20
711.1823966312754
 30
0.0
 40
25.0
  1
05
 41
0.7
  7
SIMPLEX7
100
AcDbText
  0
TEXT
  5
1E66
330
1F
100
AcDbEntity
  8
POPIS
100
AcDbText
 10
1516.093340055284
 20
-79.20288987476988
 30
0.0
 40
25.0
  1
03
 41
0.85
  7
SIMPLEX7
100
AcDbText
  0
TEXT
  5
1E67
330
1F
100
AcDbEntity
  8
POPIS
100
AcDbText
 10
1570.21465525757
 20
-116.0225063799694
 30
0.0
 40
25.0
  1
Vzduchová mezera - min. 25 mm
 41
0.7
  7
SIMPLEX7
100
AcDbText
  0
TEXT
  5
1E68
330
1F
100
AcDbEntity
  8
POPIS
100
AcDbText
 10
1571.102109599911
 20
-187.1173270609892
 30
0.0
 40
25.0
  1
Vodorovná dřevěná lať š=100 mm (tloušťka dle izolace)
 41
0.7
  7
SIMPLEX7
100
AcDbText
  0
TEXT
  5
1E69
330
1F
100
AcDbEntity
  8
POPIS
100
AcDbText
 10
1571.102109599911
 20
-151.4984383629002
 30
0.0
 40
25.0
  1
Pojistná fólie - parozábrana
 41
0.7
  7
SIMPLEX7
100
AcDbText
  0
TEXT
  5
1E6A
330
1F
100
AcDbEntity
  8
POPIS
100
AcDbText
 10
1570.21465525757
 20
-79.72395467791966
 30
0.0
 40
25.0
  1
Svislá dřevěné lať 50x25 (100x25), impregnovaná
 41
0.7
  7
SIMPLEX7
100
AcDbText
  0
TEXT
  5
1E6B
330
1F
100
AcDbEntity
  8
POPIS
100
AcDbText
 10
1570.258426678172
 20
-221.8508710202827
 30
0.0
 40
25.0
  1
Tepelná izolace (np. ORSIL, ROCKWOOL, ISOVER, NOBASIL)
 41
0.7
  7
SIMPLEX7
100
AcDbText
  0
TEXT
  5
1E6C
330
1F
100
AcDbEntity
  8
POPIS
100
AcDbText
 10
1515.794312124778
 20
-115.6568643084933
 30
0.0
 40
25.0
  1
04
 41
0.85
  7
SIMPLEX7
100
AcDbText
  0
TEXT
  5
1E6D
330
1F
100
AcDbEntity
  8
POPIS
100
AcDbText
 10
1514.380424894139
 20
-187.4313479934739
 30
0.0
 40
25.0
  1
06
 41
0.85
  7
SIMPLEX7
100
AcDbText
  0
TEXT
  5
1E6E
330
1F
100
AcDbEntity
  8
POPIS
100
AcDbText
 10
1514.380424894139
 20
-223.0502366915629
 30
0.0
 40
25.0
  1
07
 41
0.85
  7
SIMPLEX7
100
AcDbText
  0
TEXT
  5
1E6F
330
1F
100
AcDbEntity
  8
POPIS
100
AcDbText
 10
1513.492970551799
 20
-151.955416010543
 30
0.0
 40
25.0
  1
05
 41
0.85
  7
SIMPLEX7
100
AcDbText
  0
HATCH
  5
1E70
330
1F
100
AcDbEntity
  8
PROFILY
100
AcDbHatch
 10
0.0
 20
0.0
 30
0.0
210
0.0
220
0.0
230
1.0
  2
SOLID
 70
     1
 71
     0
 91
        1
 92
        7
 72
     0
 73
     1
 93
        4
 10
1824.000104901543
 20
457.6732811289716
 10
1824.000104901543
 20
455.673281128968
 10
1795.5654725496
 20
455.6732811289643
 10
1795.5654725496
 20
457.6732811289716
 97
        0
 75
     0
 76
     1
 47
0.2441686704409117
 98
        1
 10
1810.845108252679
 20
456.5984057242736
  0
HATCH
  5
1E71
330
1F
100
AcDbEntity
  8
PROFILY
100
AcDbHatch
 10
0.0
 20
0.0
 30
0.0
210
0.0
220
0.0
230
1.0
  2
SOLID
 70
     1
 71
     0
 91
        3
 92
        7
 72
     0
 73
     1
 93
        4
 10
2189.140105847234
 20
457.6732811289607
 10
2189.140105847234
 20
455.673281128957
 10
2161.198545738903
 20
455.673281128957
 10
2161.198545738903
 20
457.6732811289571
 97
        0
 92
        7
 72
     0
 73
     1
 93
        4
 10
2128.995463511093
 20
457.6732811289644
 10
2128.995463511093
 20
455.673281128957
 10
2101.246008225515
 20
455.673281128957
 10
2101.246008225515
 20
457.6732811289607
 97
        0
 92
        7
 72
     0
 73
     1
 93
        4
 10
2074.866859094423
 20
457.673281128968
 10
2074.866859094423
 20
455.6732811289607
 10
2047.950113924644
 20
455.6732811289607
 10
2047.950113924644
 20
457.6732811289644
 97
        0
 75
     0
 76
     1
 47
0.3042315167532693
 98
        3
 10
2175.031637884056
 20
456.7084850749219
 10
2122.095340398007
 20
456.7084850749256
 10
2068.246353090978
 20
456.404097815443
  0
HATCH
  5
1E72
330
1F
100
AcDbEntity
  8
PROFILY
100
AcDbHatch
 10
0.0
 20
0.0
 30
0.0
210
0.0
220
0.0
230
1.0
  2
SOLID
 70
     1
 71
     0
 91
        1
 92
        7
 72
     0
 73
     1
 93
        4
 10
1871.645289127905
 20
457.6732811289716
 10
1871.645289127905
 20
455.673281128968
 10
1843.210656775964
 20
455.6732811289643
 10
1843.210656775964
 20
457.6732811289716
 97
        0
 75
     0
 76
     1
 47
0.2441686704409117
 98
        1
 10
1858.490292479042
 20
456.5984057242736
  0
LINE
  5
1E73
330
1F
100
AcDbEntity
  8
PROFILY
100
AcDbLine
 10
2189.611704281631
 20
457.6732811289571
 30
0.0
 11
1776.299176956994
 21
457.6732811289775
 31
0.0
  0
LINE
  5
1E74
330
1F
100
AcDbEntity
  8
PROFILY
100
AcDbLine
 10
2189.501507308594
 20
455.6732811289566
 30
0.0
 11
1774.29917695699
 21
455.6732811289735
 31
0.0
  0
HATCH
  5
1E75
330
1F
100
AcDbEntity
  8
PROFILY
100
AcDbHatch
 10
0.0
 20
0.0
 30
0.0
210
0.0
220
0.0
230
1.0
  2
SOLID
 70
     1
 71
     0
 91
        3
 92
        7
 72
     0
 73
     1
 93
        4
 10
2021.91357731585
 20
457.6732811289644
 10
2021.91357731585
 20
455.6732811289607
 10
1992.108590831188
 20
455.6732811289643
 10
1992.108590831188
 20
457.673281128968
 97
        0
 92
        7
 72
     0
 73
     1
 93
        4
 10
1969.84050409827
 20
457.673281128968
 10
1969.84050409827
 20
455.6732811289643
 10
1949.285384020362
 20
455.6732811289643
 10
1949.285384020362
 20
457.673281128968
 97
        0
 92
        7
 72
     0
 73
     1
 93
        4
 10
1924.746151934146
 20
457.673281128968
 10
1924.746151934146
 20
455.6732811289643
 10
1899.737356935782
 20
455.6732811289716
 10
1899.737356935782
 20
457.6732811289716
 97
        0
 75
     0
 76
     1
 47
0.2441686704409117
 98
        3
 10
2006.552685703047
 20
456.7202848360816
 10
1956.962917560578
 20
456.7202848360852
 10
1916.804373524666
 20
456.7202848360889
  0
HATCH
  5
1E76
330
1F
100
AcDbEntity
  8
PROFILY
100
AcDbHatch
 10
0.0
 20
0.0
 30
0.0
210
0.0
220
0.0
230
1.0
  2
SOLID
 70
     1
 71
     0
 91
        3
 92
        7
 72
     0
 73
     1
 93
        4
 10
1776.299176956998
 20
802.153922624354
 10
1774.299176956994
 20
802.153922624354
 10
1774.299176956994
 20
774.2123625160229
 10
1776.299176956994
 20
774.2123625160229
 97
        0
 92
        7
 72
     0
 73
     1
 93
        4
 10
1776.299176956998
 20
742.0092802882127
 10
1774.29917695699
 20
742.0092802882127
 10
1774.29917695699
 20
714.2598250026339
 10
1776.299176956994
 20
714.2598250026339
 97
        0
 92
        7
 72
     0
 73
     1
 93
        4
 10
1776.299176956998
 20
687.8806758715427
 10
1774.29917695699
 20
687.8806758715431
 10
1774.29917695699
 20
660.9639307017633
 10
1776.299176956994
 20
660.9639307017633
 97
        0
 75
     0
 76
     1
 47
0.3042315167532693
 98
        3
 10
1775.334380902959
 20
788.0454546611749
 10
1775.334380902959
 20
735.1091571751262
 10
1775.029993643473
 20
681.2601698680978
  0
HATCH
  5
1E77
330
1F
100
AcDbEntity
  8
PROFILY
100
AcDbHatch
 10
0.0
 20
0.0
 30
0.0
210
0.0
220
0.0
230
1.0
  2
SOLID
 70
     1
 71
     0
 91
        1
 92
        7
 72
     0
 73
     1
 93
        4
 10
1776.299176956994
 20
484.6591059050251
 10
1774.29917695699
 20
484.6591059050251
 10
1774.299176956987
 20
456.224473553083
 10
1776.299176956994
 20
456.224473553083
 97
        0
 75
     0
 76
     1
 47
0.2441686704409117
 98
        1
 10
1775.224301552296
 20
471.504109256161
  0
LINE
  5
1E78
330
1F
100
AcDbEntity
  8
PROFILY
100
AcDbLine
 10
1776.299176956994
 20
825.6558768246303
 30
0.0
 11
1776.299176956994
 21
457.6732811289775
 31
0.0
  0
LINE
  5
1E79
330
1F
100
AcDbEntity
  8
PROFILY
100
AcDbLine
 10
1774.299176956987
 20
825.5680420984923
 30
0.0
 11
1774.29917695699
 21
455.6732811289735
 31
0.0
  0
LINE
  5
1E7A
330
1F
100
AcDbEntity
  8
PROFILY
100
AcDbLine
 10
1774.299176956994
 20
537.7599687112661
 30
0.0
 11
1776.299176956994
 21
537.7599687112661
 31
0.0
  0
LINE
  5
1E7B
330
1F
100
AcDbEntity
  8
PROFILY
100
AcDbLine
 10
1774.299176956994
 20
512.7511737129016
 30
0.0
 11
1776.299176956994
 21
512.7511737129016
 31
0.0
  0
HATCH
  5
1E7C
330
1F
100
AcDbEntity
  8
PROFILY
100
AcDbHatch
 10
0.0
 20
0.0
 30
0.0
210
0.0
220
0.0
230
1.0
  2
SOLID
 70
     1
 71
     0
 91
        3
 92
        7
 72
     0
 73
     1
 93
        4
 10
1776.299176956994
 20
634.9273940929697
 10
1774.29917695699
 20
634.9273940929697
 10
1774.29917695699
 20
605.122407608308
 10
1776.299176956994
 20
605.1224076083085
 97
        0
 92
        7
 72
     0
 73
     1
 93
        4
 10
1776.299176956994
 20
582.8543208753899
 10
1774.29917695699
 20
582.8543208753899
 10
1774.29917695699
 20
562.2992007974817
 10
1776.299176956994
 20
562.2992007974817
 97
        0
 92
        7
 72
     0
 73
     1
 93
        4
 10
1776.299176956994
 20
537.7599687112661
 10
1774.29917695699
 20
537.7599687112661
 10
1774.299176956994
 20
512.7511737129016
 10
1776.299176956994
 20
512.7511737129016
 97
        0
 75
     0
 76
     1
 47
0.2441686704409117
 98
        3
 10
1775.346180664111
 20
619.566502480166
 10
1775.346180664111
 20
569.9767343376975
 10
1775.346180664111
 20
529.8181903017852
  0
LINE
  5
1E7D
330
1F
100
AcDbEntity
  8
STAVBA OBRYS
  6
IZOLACE
 48
3.9
100
AcDbLine
 10
1693.401512257785
 20
414.5634276005908
 30
0.0
 11
2187.236416598118
 21
414.5634276005903
 31
0.0
  0
LINE
  5
1E7E
330
1F
100
AcDbEntity
  8
STAVBA OBRYS
100
AcDbLine
 10
1773.401512257786
 20
825.5286190319834
 30
0.0
 11
1773.401512257789
 21
454.5634276005907
 31
0.0
  0
LINE
  5
1E7F
330
1F
100
AcDbEntity
  8
STAVBA OBRYS
100
AcDbLine
 10
1693.401512257785
 20
454.5634276005912
 30
0.0
 11
2189.440356058918
 21
454.5634276005907
 31
0.0
  0
LINE
  5
1E80
330
1F
100
AcDbEntity
  8
STAVBA OBRYS
  6
IZOLACE
 48
3.9
100
AcDbLine
 10
1733.401512257785
 20
823.7719245092334
 30
0.0
 11
1733.401512257789
 21
454.5634276005907
 31
0.0
  0
HATCH
  5
1E81
330
1F
100
AcDbEntity
  8
PROFILY
100
AcDbHatch
 10
0.0
 20
0.0
 30
0.0
210
0.0
220
0.0
230
1.0
  2
SOLID
 70
     1
 71
     0
 91
        1
 92
        7
 72
     0
 73
     1
 93
        6
 10
1651.678249709997
 20
-342.6077802789795
 10
1651.678249710001
 20
-340.2741107239394
 10
1593.529813859351
 20
-340.2741107239394
 10
1593.529813859348
 20
-282.3591546309085
 10
1591.184540480821
 20
-282.3591546309089
 10
1591.184540480828
 20
-342.6077802789782
 97
        0
 75
     0
 76
     1
 47
0.6102241244330852
 98
        1
 10
1606.460785032728
 20
-341.5988837095551
  0
TEXT
  5
1E82
330
1F
100
AcDbEntity
  8
POPIS
100
AcDbText
 10
1572.451930186833
 20
-258.9601700760153
 30
0.0
 40
25.0
  1
Rohový profil - klempířský výrobek
 41
0.7
  7
SIMPLEX7
100
AcDbText
  0
LINE
  5
1E83
330
1F
100
AcDbEntity
  8
PROFILY
100
AcDbLine
 10
1593.529813859348
 20
-340.2741107239394
 30
0.0
 11
1651.678249709997
 21
-340.2741107239394
 31
0.0
  0
LINE
  5
1E84
330
1F
100
AcDbEntity
  8
PROFILY
100
AcDbLine
 10
1593.529813859348
 20
-340.2741107239394
 30
0.0
 11
1593.529813859348
 21
-282.3591546309085
 31
0.0
  0
LINE
  5
1E85
330
1F
100
AcDbEntity
  8
PROFILY
100
AcDbLine
 10
1591.184540480824
 20
-282.3591546309085
 30
0.0
 11
1591.184540480824
 21
-342.6077802789782
 31
0.0
  0
LINE
  5
1E86
330
1F
100
AcDbEntity
  8
PROFILY
100
AcDbLine
 10
1651.678249709997
 20
-340.2741107239394
 30
0.0
 11
1651.678249709997
 21
-342.6077802789791
 31
0.0
  0
LINE
  5
1E87
330
1F
100
AcDbEntity
  8
PROFILY
100
AcDbLine
 10
1593.529813859348
 20
-282.3591546309085
 30
0.0
 11
1591.184540480828
 21
-282.3591546309085
 31
0.0
  0
TEXT
  5
1E88
330
1F
100
AcDbEntity
  8
POPIS
100
AcDbText
 10
1721.111575977853
 20
-295.2896205801348
 30
0.0
 40
25.0
  1
- profil PROTECTOR 3540
 41
0.7
  7
SIMPLEX7
100
AcDbText
  0
LINE
  5
1E89
330
1F
100
AcDbEntity
  8
SPOJOVACÍ
  6
Continuous
100
AcDbLine
 10
1856.553047043087
 20
476.4467810751771
 30
0.0
 11
1852.508642683495
 21
475.0868640616349
 31
0.0
  0
LINE
  5
1E8A
330
1F
100
AcDbEntity
  8
SPOJOVACÍ
  6
Continuous
100
AcDbLine
 10
1856.553047043087
 20
475.8505383900224
 30
0.0
 11
1852.508642683495
 21
474.4906213764802
 31
0.0
  0
LINE
  5
1E8B
330
1F
100
AcDbEntity
  8
SPOJOVACÍ
  6
Continuous
100
AcDbLine
 10
1852.130991312549
 20
474.8682727496084
 30
0.0
 11
1852.508642683495
 21
475.0868640616349
 31
0.0
  0
LINE
  5
1E8C
330
1F
100
AcDbEntity
  8
SPOJOVACÍ
  6
Continuous
100
AcDbLine
 10
1852.130991312549
 20
474.8682727496084
 30
0.0
 11
1852.508642683495
 21
474.4906213764802
 31
0.0
  0
LINE
  5
1E8D
330
1F
100
AcDbEntity
  8
SPOJOVACÍ
  6
Continuous
100
AcDbLine
 10
1856.930698418398
 20
476.0681995260706
 30
0.0
 11
1856.553047043087
 21
476.4467810751771
 31
0.0
  0
LINE
  5
1E8E
330
1F
100
AcDbEntity
  8
SPOJOVACÍ
  6
Continuous
100
AcDbLine
 10
1856.930698418398
 20
476.0681995260706
 30
0.0
 11
1856.553047043087
 21
475.8505383900224
 31
0.0
  0
LINE
  5
1E8F
330
1F
100
AcDbEntity
  8
SPOJOVACÍ
  6
Continuous
100
AcDbLine
 10
1856.930698418398
 20
476.0681995260706
 30
0.0
 11
1852.130991312549
 21
474.8682727496084
 31
0.0
  0
LINE
  5
1E90
330
1F
100
AcDbEntity
  8
SPOJOVACÍ
  6
Continuous
100
AcDbLine
 10
1856.553047043087
 20
479.566590694139
 30
0.0
 11
1852.508642683495
 21
478.2066736805968
 31
0.0
  0
LINE
  5
1E91
330
1F
100
AcDbEntity
  8
SPOJOVACÍ
  6
Continuous
100
AcDbLine
 10
1856.553047043087
 20
478.9703480089915
 30
0.0
 11
1852.508642683495
 21
477.6104309957186
 31
0.0
  0
LINE
  5
1E92
330
1F
100
AcDbEntity
  8
SPOJOVACÍ
  6
Continuous
100
AcDbLine
 10
1852.130991312549
 20
477.9890125445485
 30
0.0
 11
1852.508642683495
 21
478.2066736805968
 31
0.0
  0
LINE
  5
1E93
330
1F
100
AcDbEntity
  8
SPOJOVACÍ
  6
Continuous
100
AcDbLine
 10
1852.130991312549
 20
477.9890125445485
 30
0.0
 11
1852.508642683495
 21
477.6104309957186
 31
0.0
  0
LINE
  5
1E94
330
1F
100
AcDbEntity
  8
SPOJOVACÍ
  6
Continuous
100
AcDbLine
 10
1856.930698418398
 20
479.1889393210108
 30
0.0
 11
1856.553047043087
 21
479.566590694139
 31
0.0
  0
LINE
  5
1E95
330
1F
100
AcDbEntity
  8
SPOJOVACÍ
  6
Continuous
100
AcDbLine
 10
1856.930698418398
 20
479.1889393210108
 30
0.0
 11
1856.553047043087
 21
478.9703480089915
 31
0.0
  0
LINE
  5
1E96
330
1F
100
AcDbEntity
  8
SPOJOVACÍ
  6
Continuous
100
AcDbLine
 10
1856.930698418398
 20
479.1889393210108
 30
0.0
 11
1852.130991312549
 21
477.9890125445485
 31
0.0
  0
LINE
  5
1E97
330
1F
100
AcDbEntity
  8
SPOJOVACÍ
  6
Continuous
100
AcDbLine
 10
1856.553047043087
 20
482.6864003131081
 30
0.0
 11
1852.508642683495
 21
481.3264832998352
 31
0.0
  0
LINE
  5
1E98
330
1F
100
AcDbEntity
  8
SPOJOVACÍ
  6
Continuous
100
AcDbLine
 10
1856.553047043087
 20
482.0901576279534
 30
0.0
 11
1852.508642683495
 21
480.7302406146877
 31
0.0
  0
LINE
  5
1E99
330
1F
100
AcDbEntity
  8
SPOJOVACÍ
  6
Continuous
100
AcDbLine
 10
1852.130991312549
 20
481.1088221635177
 30
0.0
 11
1852.508642683495
 21
481.3264832998352
 31
0.0
  0
LINE
  5
1E9A
330
1F
100
AcDbEntity
  8
SPOJOVACÍ
  6
Continuous
100
AcDbLine
 10
1852.130991312549
 20
481.1088221635177
 30
0.0
 11
1852.508642683495
 21
480.7302406146877
 31
0.0
  0
LINE
  5
1E9B
330
1F
100
AcDbEntity
  8
SPOJOVACÍ
  6
Continuous
100
AcDbLine
 10
1856.930698418398
 20
482.3087489399799
 30
0.0
 11
1856.553047043087
 21
482.6864003131081
 31
0.0
  0
LINE
  5
1E9C
330
1F
100
AcDbEntity
  8
SPOJOVACÍ
  6
Continuous
100
AcDbLine
 10
1856.930698418398
 20
482.3087489399799
 30
0.0
 11
1856.553047043087
 21
482.0901576279534
 31
0.0
  0
LINE
  5
1E9D
330
1F
100
AcDbEntity
  8
SPOJOVACÍ
  6
Continuous
100
AcDbLine
 10
1856.930698418398
 20
482.3087489399799
 30
0.0
 11
1852.130991312549
 21
481.1088221635177
 31
0.0
  0
LINE
  5
1E9E
330
1F
100
AcDbEntity
  8
SPOJOVACÍ
  6
Continuous
100
AcDbLine
 10
1855.5475270074
 20
466.9627086611394
 30
0.0
 11
1853.393239865943
 21
466.6520299453654
 31
0.0
  0
LINE
  5
1E9F
330
1F
100
AcDbEntity
  8
SPOJOVACÍ
  6
Continuous
100
AcDbLine
 10
1855.169875636454
 20
467.3403600342676
 30
0.0
 11
1853.770891236888
 21
466.8696910816829
 31
0.0
  0
LINE
  5
1EA0
330
1F
100
AcDbEntity
  8
SPOJOVACÍ
  6
Continuous
100
AcDbLine
 10
1855.169875636454
 20
466.7441173491202
 30
0.0
 11
1853.770891236888
 21
466.2734483965355
 31
0.0
  0
LINE
  5
1EA1
330
1F
100
AcDbEntity
  8
SPOJOVACÍ
  6
Continuous
100
AcDbLine
 10
1853.393239865943
 20
466.6520299453654
 30
0.0
 11
1853.770891236888
 21
466.8696910816829
 31
0.0
  0
LINE
  5
1EA2
330
1F
100
AcDbEntity
  8
SPOJOVACÍ
  6
Continuous
100
AcDbLine
 10
1853.393239865943
 20
466.6520299453654
 30
0.0
 11
1853.770891236888
 21
466.2734483965355
 31
0.0
  0
LINE
  5
1EA3
330
1F
100
AcDbEntity
  8
SPOJOVACÍ
  6
Continuous
100
AcDbLine
 10
1855.5475270074
 20
466.9627086611394
 30
0.0
 11
1855.169875636454
 21
467.3403600342676
 31
0.0
  0
LINE
  5
1EA4
330
1F
100
AcDbEntity
  8
SPOJOVACÍ
  6
Continuous
100
AcDbLine
 10
1855.5475270074
 20
466.9627086611394
 30
0.0
 11
1855.169875636454
 21
466.7441173491202
 31
0.0
  0
LINE
  5
1EA5
330
1F
100
AcDbEntity
  8
SPOJOVACÍ
  6
Continuous
100
AcDbLine
 10
1856.112143717871
 20
469.976478239459
 30
0.0
 11
1852.99605480144
 21
469.3430285226891
 31
0.0
  0
LINE
  5
1EA6
330
1F
100
AcDbEntity
  8
SPOJOVACÍ
  6
Continuous
100
AcDbLine
 10
1855.73449234256
 20
470.3550597885655
 30
0.0
 11
1853.373706172385
 21
469.5606896587373
 31
0.0
  0
LINE
  5
1EA7
330
1F
100
AcDbEntity
  8
SPOJOVACÍ
  6
Continuous
100
AcDbLine
 10
1855.73449234256
 20
469.7588171034108
 30
0.0
 11
1853.373706172385
 21
468.9644469738591
 31
0.0
  0
LINE
  5
1EA8
330
1F
100
AcDbEntity
  8
SPOJOVACÍ
  6
Continuous
100
AcDbLine
 10
1852.99605480144
 20
469.3430285226891
 30
0.0
 11
1853.373706172385
 21
469.5606896587373
 31
0.0
  0
LINE
  5
1EA9
330
1F
100
AcDbEntity
  8
SPOJOVACÍ
  6
Continuous
100
AcDbLine
 10
1852.99605480144
 20
469.3430285226891
 30
0.0
 11
1853.373706172385
 21
468.9644469738591
 31
0.0
  0
LINE
  5
1EAA
330
1F
100
AcDbEntity
  8
SPOJOVACÍ
  6
Continuous
100
AcDbLine
 10
1856.112143717871
 20
469.976478239459
 30
0.0
 11
1855.73449234256
 21
470.3550597885655
 31
0.0
  0
LINE
  5
1EAB
330
1F
100
AcDbEntity
  8
SPOJOVACÍ
  6
Continuous
100
AcDbLine
 10
1856.112143717871
 20
469.976478239459
 30
0.0
 11
1855.73449234256
 21
469.7588171034108
 31
0.0
  0
LINE
  5
1EAC
330
1F
100
AcDbEntity
  8
SPOJOVACÍ
  6
Continuous
100
AcDbLine
 10
1856.676760423977
 20
472.991177993757
 30
0.0
 11
1852.551430771234
 21
472.0182141114523
 31
0.0
  0
LINE
  5
1EAD
330
1F
100
AcDbEntity
  8
SPOJOVACÍ
  6
Continuous
100
AcDbLine
 10
1856.298178875693
 20
473.3688293668851
 30
0.0
 11
1852.929082142179
 21
472.2358752475006
 31
0.0
  0
LINE
  5
1EAE
330
1F
100
AcDbEntity
  8
SPOJOVACÍ
  6
Continuous
100
AcDbLine
 10
1856.298178875693
 20
472.7725866817304
 30
0.0
 11
1852.929082142179
 21
471.6396325623459
 31
0.0
  0
LINE
  5
1EAF
330
1F
100
AcDbEntity
  8
SPOJOVACÍ
  6
Continuous
100
AcDbLine
 10
1852.551430771234
 20
472.0182141114523
 30
0.0
 11
1852.929082142179
 21
472.2358752475006
 31
0.0
  0
LINE
  5
1EB0
330
1F
100
AcDbEntity
  8
SPOJOVACÍ
  6
Continuous
100
AcDbLine
 10
1852.551430771234
 20
472.0182141114523
 30
0.0
 11
1852.929082142179
 21
471.6396325623459
 31
0.0
  0
LINE
  5
1EB1
330
1F
100
AcDbEntity
  8
SPOJOVACÍ
  6
Continuous
100
AcDbLine
 10
1856.676760423977
 20
472.991177993757
 30
0.0
 11
1856.298178875693
 21
473.3688293668851
 31
0.0
  0
LINE
  5
1EB2
330
1F
100
AcDbEntity
  8
SPOJOVACÍ
  6
Continuous
100
AcDbLine
 10
1856.676760423977
 20
472.991177993757
 30
0.0
 11
1856.298178875693
 21
472.7725866817304
 31
0.0
  0
LINE
  5
1EB3
330
1F
100
AcDbEntity
  8
SPOJOVACÍ
  6
Continuous
100
AcDbLine
 10
1856.553047043087
 20
485.8062099323465
 30
0.0
 11
1852.508642683495
 21
484.4472230945061
 31
0.0
  0
LINE
  5
1EB4
330
1F
100
AcDbEntity
  8
SPOJOVACÍ
  6
Continuous
100
AcDbLine
 10
1856.553047043087
 20
485.2099672471918
 30
0.0
 11
1852.508642683495
 21
483.8509804096279
 31
0.0
  0
LINE
  5
1EB5
330
1F
100
AcDbEntity
  8
SPOJOVACÍ
  6
Continuous
100
AcDbLine
 10
1852.130991312549
 20
484.2286317824796
 30
0.0
 11
1852.508642683495
 21
484.4472230945061
 31
0.0
  0
LINE
  5
1EB6
330
1F
100
AcDbEntity
  8
SPOJOVACÍ
  6
Continuous
100
AcDbLine
 10
1852.130991312549
 20
484.2286317824796
 30
0.0
 11
1852.508642683495
 21
483.8509804096279
 31
0.0
  0
LINE
  5
1EB7
330
1F
100
AcDbEntity
  8
SPOJOVACÍ
  6
Continuous
100
AcDbLine
 10
1856.930698418398
 20
485.4285585592183
 30
0.0
 11
1856.553047043087
 21
485.8062099323465
 31
0.0
  0
LINE
  5
1EB8
330
1F
100
AcDbEntity
  8
SPOJOVACÍ
  6
Continuous
100
AcDbLine
 10
1856.930698418398
 20
485.4285585592183
 30
0.0
 11
1856.553047043087
 21
485.2099672471918
 31
0.0
  0
LINE
  5
1EB9
330
1F
100
AcDbEntity
  8
SPOJOVACÍ
  6
Continuous
100
AcDbLine
 10
1856.930698418398
 20
485.4285585592183
 30
0.0
 11
1852.130991312549
 21
484.2286317824796
 31
0.0
  0
LINE
  5
1EBA
330
1F
100
AcDbEntity
  8
SPOJOVACÍ
  6
Continuous
100
AcDbLine
 10
1856.553047043087
 20
488.9269497270102
 30
0.0
 11
1852.508642683495
 21
487.5670327137445
 31
0.0
  0
LINE
  5
1EBB
330
1F
100
AcDbEntity
  8
SPOJOVACÍ
  6
Continuous
100
AcDbLine
 10
1856.553047043087
 20
488.3307070421319
 30
0.0
 11
1852.508642683495
 21
486.9707900285898
 31
0.0
  0
LINE
  5
1EBC
330
1F
100
AcDbEntity
  8
SPOJOVACÍ
  6
Continuous
100
AcDbLine
 10
1852.130991312549
 20
487.348441401718
 30
0.0
 11
1852.508642683495
 21
487.5670327137445
 31
0.0
  0
LINE
  5
1EBD
330
1F
100
AcDbEntity
  8
SPOJOVACÍ
  6
Continuous
100
AcDbLine
 10
1852.130991312549
 20
487.348441401718
 30
0.0
 11
1852.508642683495
 21
486.9707900285898
 31
0.0
  0
LINE
  5
1EBE
330
1F
100
AcDbEntity
  8
SPOJOVACÍ
  6
Continuous
100
AcDbLine
 10
1856.930698418398
 20
488.5483681781802
 30
0.0
 11
1856.553047043087
 21
488.9269497270102
 31
0.0
  0
LINE
  5
1EBF
330
1F
100
AcDbEntity
  8
SPOJOVACÍ
  6
Continuous
100
AcDbLine
 10
1856.930698418398
 20
488.5483681781802
 30
0.0
 11
1856.553047043087
 21
488.3307070421319
 31
0.0
  0
LINE
  5
1EC0
330
1F
100
AcDbEntity
  8
SPOJOVACÍ
  6
Continuous
100
AcDbLine
 10
1856.930698418398
 20
488.5483681781802
 30
0.0
 11
1852.130991312549
 21
487.348441401718
 31
0.0
  0
LINE
  5
1EC1
330
1F
100
AcDbEntity
  8
SPOJOVACÍ
  6
Continuous
100
AcDbLine
 10
1853.42672619339
 20
472.4126086488499
 30
0.0
 11
1853.181159781923
 21
474.3836511601362
 31
0.0
  0
LINE
  5
1EC2
330
1F
100
AcDbEntity
  8
SPOJOVACÍ
  6
Continuous
100
AcDbLine
 10
1853.765310185952
 20
469.7057970829514
 30
0.0
 11
1853.498349730614
 21
471.8424108858048
 31
0.0
  0
LINE
  5
1EC3
330
1F
100
AcDbEntity
  8
SPOJOVACÍ
  6
Continuous
100
AcDbLine
 10
1854.104824347121
 20
466.9887535835182
 30
0.0
 11
1853.83693371881
 21
469.1337389685027
 31
0.0
  0
LINE
  5
1EC4
330
1F
100
AcDbEntity
  8
SPOJOVACÍ
  6
Continuous
100
AcDbLine
 10
1854.916867819372
 20
466.6724938129878
 30
0.0
 11
1854.530844865474
 21
463.5833799951829
 31
0.0
  0
LINE
  5
1EC5
330
1F
100
AcDbEntity
  8
SPOJOVACÍ
  6
Continuous
100
AcDbLine
 10
1855.284287257052
 20
469.6137096791967
 30
0.0
 11
1854.994072411898
 21
467.2929210688412
 31
0.0
  0
LINE
  5
1EC6
330
1F
100
AcDbEntity
  8
SPOJOVACÍ
  6
Continuous
100
AcDbLine
 10
1855.65356704941
 20
472.5660876549259
 30
0.0
 11
1855.36335219989
 21
470.2443688688613
 31
0.0
  0
LINE
  5
1EC7
330
1F
100
AcDbEntity
  8
SPOJOVACÍ
  6
Continuous
100
AcDbLine
 10
1854.530844865474
 20
463.5833799951829
 30
0.0
 11
1854.176447884345
 21
466.4194859964513
 31
0.0
  0
LINE
  5
1EC8
330
1F
100
AcDbEntity
  8
SPOJOVACÍ
  6
Continuous
100
AcDbLine
 10
1855.880529944659
 20
474.3836511601362
 30
0.0
 11
1855.730771641936
 21
473.1865149107793
 31
0.0
  0
LINE
  5
1EC9
330
1F
100
AcDbEntity
  8
SPOJOVACÍ
  6
Continuous
100
AcDbLine
 10
1853.181159781923
 20
474.7203747980197
 30
0.0
 11
1853.181159781923
 21
474.3836511601362
 31
0.0
  0
LINE
  5
1ECA
330
1F
100
AcDbEntity
  8
SPOJOVACÍ
  6
Continuous
100
AcDbLine
 10
1853.181159781923
 20
477.8429749446327
 30
0.0
 11
1853.181159781923
 21
475.3240588896037
 31
0.0
  0
LINE
  5
1ECB
330
1F
100
AcDbEntity
  8
SPOJOVACÍ
  6
Continuous
100
AcDbLine
 10
1855.880529944659
 20
475.6310169020248
 30
0.0
 11
1855.880529944659
 21
474.3836511601362
 31
0.0
  0
LINE
  5
1ECC
330
1F
100
AcDbEntity
  8
SPOJOVACÍ
  6
Continuous
100
AcDbLine
 10
1855.880529944659
 20
478.7452454665067
 30
0.0
 11
1855.880529944659
 21
476.2272595871795
 31
0.0
  0
LINE
  5
1ECD
330
1F
100
AcDbEntity
  8
SPOJOVACÍ
  6
Continuous
100
AcDbLine
 10
1853.181159781923
 20
480.9646449152746
 30
0.0
 11
1853.181159781923
 21
478.4438685085656
 31
0.0
  0
LINE
  5
1ECE
330
1F
100
AcDbEntity
  8
SPOJOVACÍ
  6
Continuous
100
AcDbLine
 10
1853.181159781923
 20
484.0872450616184
 30
0.0
 11
1853.181159781923
 21
481.5590272487493
 31
0.0
  0
LINE
  5
1ECF
330
1F
100
AcDbEntity
  8
SPOJOVACÍ
  6
Continuous
100
AcDbLine
 10
1853.181159781923
 20
487.2024038018021
 30
0.0
 11
1853.181159781923
 21
484.6834877467731
 31
0.0
  0
LINE
  5
1ED0
330
1F
100
AcDbEntity
  8
SPOJOVACÍ
  6
Continuous
100
AcDbLine
 10
1855.880529944659
 20
481.8780775466616
 30
0.0
 11
1855.880529944659
 21
479.3498597337925
 31
0.0
  0
LINE
  5
1ED1
330
1F
100
AcDbEntity
  8
SPOJOVACÍ
  6
Continuous
100
AcDbLine
 10
1855.880529944659
 20
484.9932362868453
 30
0.0
 11
1855.880529944659
 21
482.4724598801362
 31
0.0
  0
LINE
  5
1ED2
330
1F
100
AcDbEntity
  8
SPOJOVACÍ
  6
Continuous
100
AcDbLine
 10
1855.880529944659
 20
488.115836433189
 30
0.0
 11
1855.880529944659
 21
485.5969203781601
 31
0.0
  0
LINE
  5
1ED3
330
1F
100
AcDbEntity
  8
SPOJOVACÍ
  6
Continuous
100
AcDbLine
 10
1855.880529944659
 20
492.7490420720455
 30
0.0
 11
1855.880529944659
 21
488.7111489423655
 31
0.0
  0
LINE
  5
1ED4
330
1F
100
AcDbEntity
  8
SPOJOVACÍ
  6
Continuous
100
AcDbLine
 10
1853.181159781923
 20
492.7490420720455
 30
0.0
 11
1853.181159781923
 21
487.8060878931169
 31
0.0
  0
LINE
  5
1ED5
330
1F
100
AcDbEntity
  8
SPOJOVACÍ
  6
Continuous
100
AcDbLine
 10
1859.630998754107
 20
498.148712566402
 30
0.0
 11
1858.281313670557
 21
497.4045719299279
 31
0.0
  0
LINE
  5
1ED6
330
1F
100
AcDbEntity
  8
SPOJOVACÍ
  6
Continuous
100
AcDbLine
 10
1858.281313670557
 20
497.4045719299279
 30
0.0
 11
1857.170683770198
 21
496.3357999405157
 31
0.0
  0
LINE
  5
1ED7
330
1F
100
AcDbEntity
  8
SPOJOVACÍ
  6
Continuous
100
AcDbLine
 10
1857.170683770198
 20
496.3357999405157
 30
0.0
 11
1856.37445329088
 21
495.0168106622181
 31
0.0
  0
LINE
  5
1ED8
330
1F
100
AcDbEntity
  8
SPOJOVACÍ
  6
Continuous
100
AcDbLine
 10
1856.37445329088
 20
495.0168106622181
 30
0.0
 11
1855.946572426581
 21
493.5359707951679
 31
0.0
  0
LINE
  5
1ED9
330
1F
100
AcDbEntity
  8
SPOJOVACÍ
  6
Continuous
100
AcDbLine
 10
1855.946572426581
 20
493.5359707951679
 30
0.0
 11
1855.880529944659
 21
492.7490420720455
 31
0.0
  0
LINE
  5
1EDA
330
1F
100
AcDbEntity
  8
SPOJOVACÍ
  6
Continuous
100
AcDbLine
 10
1851.383129971907
 20
496.8939054180768
 30
0.0
 11
1850.145996163007
 21
497.8119889285185
 31
0.0
  0
LINE
  5
1EDB
330
1F
100
AcDbEntity
  8
SPOJOVACÍ
  6
Continuous
100
AcDbLine
 10
1850.145996163007
 20
497.8119889285185
 30
0.0
 11
1849.43069097684
 21
498.148712566402
 31
0.0
  0
LINE
  5
1EDC
330
1F
100
AcDbEntity
  8
SPOJOVACÍ
  6
Continuous
100
AcDbLine
 10
1859.630998754107
 20
498.148712566402
 30
0.0
 11
1849.43069097684
 21
498.148712566402
 31
0.0
  0
LINE
  5
1EDD
330
1F
100
AcDbEntity
  8
SPOJOVACÍ
  6
Continuous
100
AcDbLine
 10
1859.630998754107
 20
499.3486393431335
 30
0.0
 11
1859.630998754107
 21
498.148712566402
 31
0.0
  0
LINE
  5
1EDE
330
1F
100
AcDbEntity
  8
SPOJOVACÍ
  6
Continuous
100
AcDbLine
 10
1859.630998754107
 20
499.3486393431335
 30
0.0
 11
1849.43069097684
 21
499.3486393431335
 31
0.0
  0
LINE
  5
1EDF
330
1F
100
AcDbEntity
  8
SPOJOVACÍ
  6
Continuous
100
AcDbLine
 10
1849.43069097684
 20
499.3486393431335
 30
0.0
 11
1849.43069097684
 21
498.148712566402
 31
0.0
  0
LINE
  5
1EE0
330
1F
100
AcDbEntity
  8
SPOJOVACÍ
  6
Continuous
100
AcDbLine
 10
1853.181159781923
 20
492.7490420720455
 30
0.0
 11
1852.954196891039
 21
494.2726700254747
 31
0.0
  0
LINE
  5
1EE1
330
1F
100
AcDbEntity
  8
SPOJOVACÍ
  6
Continuous
100
AcDbLine
 10
1852.954196891039
 20
494.2726700254747
 30
0.0
 11
1852.341211041892
 21
495.6865372351781
 31
0.0
  0
LINE
  5
1EE2
330
1F
100
AcDbEntity
  8
SPOJOVACÍ
  6
Continuous
100
AcDbLine
 10
1852.341211041892
 20
495.6865372351781
 30
0.0
 11
1851.383129971907
 21
496.8939054180768
 31
0.0
  0
LINE
  5
1EE3
330
1F
100
AcDbEntity
  8
SPOJOVACÍ
  6
Continuous
100
AcDbLine
 10
1814.738939838274
 20
538.4263735167246
 30
0.0
 11
1815.946308021173
 21
539.3844545867091
 31
0.0
  0
LINE
  5
1EE4
330
1F
100
AcDbEntity
  8
SPOJOVACÍ
  6
Continuous
100
AcDbLine
 10
1813.325072628571
 20
537.813387667577
 30
0.0
 11
1814.738939838274
 21
538.4263735167246
 31
0.0
  0
LINE
  5
1EE5
330
1F
100
AcDbEntity
  8
SPOJOVACÍ
  6
Continuous
100
AcDbLine
 10
1811.801444675142
 20
537.5864247766935
 30
0.0
 11
1813.325072628571
 21
537.813387667577
 31
0.0
  0
LINE
  5
1EE6
330
1F
100
AcDbEntity
  8
SPOJOVACÍ
  6
Continuous
100
AcDbLine
 10
1818.40104194623
 20
541.3368935817766
 30
0.0
 11
1817.201115169498
 21
541.3368935817766
 31
0.0
  0
LINE
  5
1EE7
330
1F
100
AcDbEntity
  8
SPOJOVACÍ
  6
Continuous
100
AcDbLine
 10
1818.40104194623
 20
531.1365858045087
 30
0.0
 11
1818.40104194623
 21
541.3368935817766
 31
0.0
  0
LINE
  5
1EE8
330
1F
100
AcDbEntity
  8
SPOJOVACÍ
  6
Continuous
100
AcDbLine
 10
1818.40104194623
 20
531.1365858045087
 30
0.0
 11
1817.201115169498
 21
531.1365858045087
 31
0.0
  0
LINE
  5
1EE9
330
1F
100
AcDbEntity
  8
SPOJOVACÍ
  6
Continuous
100
AcDbLine
 10
1817.201115169498
 20
531.1365858045087
 30
0.0
 11
1817.201115169498
 21
541.3368935817766
 31
0.0
  0
LINE
  5
1EEA
330
1F
100
AcDbEntity
  8
SPOJOVACÍ
  6
Continuous
100
AcDbLine
 10
1816.864391531615
 20
540.6215883956088
 30
0.0
 11
1817.201115169498
 21
541.3368935817766
 31
0.0
  0
LINE
  5
1EEB
330
1F
100
AcDbEntity
  8
SPOJOVACÍ
  6
Continuous
100
AcDbLine
 10
1815.946308021173
 20
539.3844545867091
 30
0.0
 11
1816.864391531615
 21
540.6215883956088
 31
0.0
  0
LINE
  5
1EEC
330
1F
100
AcDbEntity
  8
SPOJOVACÍ
  6
Continuous
100
AcDbLine
 10
1812.588373398264
 20
534.8210121320358
 30
0.0
 11
1811.801444675142
 21
534.8870546139574
 31
0.0
  0
LINE
  5
1EED
330
1F
100
AcDbEntity
  8
SPOJOVACÍ
  6
Continuous
100
AcDbLine
 10
1814.069213265315
 20
534.3931312677364
 30
0.0
 11
1812.588373398264
 21
534.8210121320358
 31
0.0
  0
LINE
  5
1EEE
330
1F
100
AcDbEntity
  8
SPOJOVACÍ
  6
Continuous
100
AcDbLine
 10
1815.388202543612
 20
533.5969007884182
 30
0.0
 11
1814.069213265315
 21
534.3931312677364
 31
0.0
  0
LINE
  5
1EEF
330
1F
100
AcDbEntity
  8
SPOJOVACÍ
  6
Continuous
100
AcDbLine
 10
1816.456974533024
 20
532.4862708880596
 30
0.0
 11
1815.388202543612
 21
533.5969007884182
 31
0.0
  0
LINE
  5
1EF0
330
1F
100
AcDbEntity
  8
SPOJOVACÍ
  6
Continuous
100
AcDbLine
 10
1817.201115169498
 20
531.1365858045087
 30
0.0
 11
1816.456974533024
 21
532.4862708880596
 31
0.0
  0
LINE
  5
1EF1
330
1F
100
AcDbEntity
  8
SPOJOVACÍ
  6
Continuous
100
AcDbLine
 10
1811.801444675142
 20
537.5864247766935
 30
0.0
 11
1806.858490496213
 21
537.5864247766935
 31
0.0
  0
LINE
  5
1EF2
330
1F
100
AcDbEntity
  8
SPOJOVACÍ
  6
Continuous
100
AcDbLine
 10
1811.801444675142
 20
534.8870546139574
 30
0.0
 11
1807.763551545462
 21
534.8870546139574
 31
0.0
  0
LINE
  5
1EF3
330
1F
100
AcDbEntity
  8
SPOJOVACÍ
  6
Continuous
100
AcDbLine
 10
1807.168239036285
 20
534.8870546139574
 30
0.0
 11
1804.649322981257
 21
534.8870546139574
 31
0.0
  0
LINE
  5
1EF4
330
1F
100
AcDbEntity
  8
SPOJOVACÍ
  6
Continuous
100
AcDbLine
 10
1804.045638889942
 20
534.8870546139574
 30
0.0
 11
1801.524862483233
 21
534.8870546139574
 31
0.0
  0
LINE
  5
1EF5
330
1F
100
AcDbEntity
  8
SPOJOVACÍ
  6
Continuous
100
AcDbLine
 10
1800.930480149758
 20
534.8870546139574
 30
0.0
 11
1798.402262336889
 21
534.8870546139574
 31
0.0
  0
LINE
  5
1EF6
330
1F
100
AcDbEntity
  8
SPOJOVACÍ
  6
Continuous
100
AcDbLine
 10
1806.254806404899
 20
537.5864247766935
 30
0.0
 11
1803.735890349869
 21
537.5864247766935
 31
0.0
  0
LINE
  5
1EF7
330
1F
100
AcDbEntity
  8
SPOJOVACÍ
  6
Continuous
100
AcDbLine
 10
1803.139647664715
 20
537.5864247766935
 30
0.0
 11
1800.611429851846
 21
537.5864247766935
 31
0.0
  0
LINE
  5
1EF8
330
1F
100
AcDbEntity
  8
SPOJOVACÍ
  6
Continuous
100
AcDbLine
 10
1800.017047518371
 20
537.5864247766935
 30
0.0
 11
1797.496271111662
 21
537.5864247766935
 31
0.0
  0
LINE
  5
1EF9
330
1F
100
AcDbEntity
  8
SPOJOVACÍ
  6
Continuous
100
AcDbLine
 10
1797.797648069603
 20
534.8870546139574
 30
0.0
 11
1795.279662190276
 21
534.8870546139574
 31
0.0
  0
LINE
  5
1EFA
330
1F
100
AcDbEntity
  8
SPOJOVACÍ
  6
Continuous
100
AcDbLine
 10
1794.683419505121
 20
534.8870546139574
 30
0.0
 11
1793.436053763232
 21
534.8870546139574
 31
0.0
  0
LINE
  5
1EFB
330
1F
100
AcDbEntity
  8
SPOJOVACÍ
  6
Continuous
100
AcDbLine
 10
1796.895377547729
 20
537.5864247766935
 30
0.0
 11
1794.3764614927
 21
537.5864247766935
 31
0.0
  0
LINE
  5
1EFC
330
1F
100
AcDbEntity
  8
SPOJOVACÍ
  6
Continuous
100
AcDbLine
 10
1793.772777401116
 20
537.5864247766935
 30
0.0
 11
1793.436053763232
 21
537.5864247766935
 31
0.0
  0
LINE
  5
1EFD
330
1F
100
AcDbEntity
  8
SPOJOVACÍ
  6
Continuous
100
AcDbLine
 10
1793.436053763232
 20
534.8870546139574
 30
0.0
 11
1792.238917513876
 21
535.0368129166804
 31
0.0
  0
LINE
  5
1EFE
330
1F
100
AcDbEntity
  8
SPOJOVACÍ
  6
Continuous
100
AcDbLine
 10
1782.635782598279
 20
536.2367396931427
 30
0.0
 11
1785.471888599548
 21
536.5911366742716
 31
0.0
  0
LINE
  5
1EFF
330
1F
100
AcDbEntity
  8
SPOJOVACÍ
  6
Continuous
100
AcDbLine
 10
1791.618490258022
 20
535.1140175092064
 30
0.0
 11
1789.296771471958
 21
535.4042323587259
 31
0.0
  0
LINE
  5
1F00
330
1F
100
AcDbEntity
  8
SPOJOVACÍ
  6
Continuous
100
AcDbLine
 10
1788.666112282293
 20
535.4832973015641
 30
0.0
 11
1786.345323671937
 21
535.7735121467181
 31
0.0
  0
LINE
  5
1F01
330
1F
100
AcDbEntity
  8
SPOJOVACÍ
  6
Continuous
100
AcDbLine
 10
1785.724896416084
 20
535.850716739244
 30
0.0
 11
1782.635782598279
 21
536.2367396931427
 31
0.0
  0
LINE
  5
1F02
330
1F
100
AcDbEntity
  8
SPOJOVACÍ
  6
Continuous
100
AcDbLine
 10
1786.041156186615
 20
536.6627602114954
 30
0.0
 11
1788.186141571599
 21
536.9306508398063
 31
0.0
  0
LINE
  5
1F03
330
1F
100
AcDbEntity
  8
SPOJOVACÍ
  6
Continuous
100
AcDbLine
 10
1788.758199686048
 20
537.0022743726645
 30
0.0
 11
1790.894813488901
 21
537.269234828002
 31
0.0
  0
LINE
  5
1F04
330
1F
100
AcDbEntity
  8
SPOJOVACÍ
  6
Continuous
100
AcDbLine
 10
1791.465011251946
 20
537.3408583652258
 30
0.0
 11
1793.436053763232
 21
537.5864247766935
 31
0.0
  0
LINE
  5
1F05
330
1F
100
AcDbEntity
  8
SPOJOVACÍ
  6
Continuous
100
AcDbLine
 10
1807.600770781277
 20
533.8368861402182
 30
0.0
 11
1806.400844004814
 21
538.6365932460671
 31
0.0
  0
LINE
  5
1F06
330
1F
100
AcDbEntity
  8
SPOJOVACÍ
  6
Continuous
100
AcDbLine
 10
1807.600770781277
 20
533.8368861402182
 30
0.0
 11
1807.383109645228
 21
534.2145375155292
 31
0.0
  0
LINE
  5
1F07
330
1F
100
AcDbEntity
  8
SPOJOVACÍ
  6
Continuous
100
AcDbLine
 10
1807.600770781277
 20
533.8368861402182
 30
0.0
 11
1807.979352330107
 21
534.2145375155292
 31
0.0
  0
LINE
  5
1F08
330
1F
100
AcDbEntity
  8
SPOJOVACÍ
  6
Continuous
100
AcDbLine
 10
1806.400844004814
 20
538.6365932460671
 30
0.0
 11
1806.023192631686
 21
538.2589418751217
 31
0.0
  0
LINE
  5
1F09
330
1F
100
AcDbEntity
  8
SPOJOVACÍ
  6
Continuous
100
AcDbLine
 10
1806.400844004814
 20
538.6365932460671
 30
0.0
 11
1806.619435316841
 21
538.2589418751217
 31
0.0
  0
LINE
  5
1F0A
330
1F
100
AcDbEntity
  8
SPOJOVACÍ
  6
Continuous
100
AcDbLine
 10
1807.383109645228
 20
534.2145375155292
 30
0.0
 11
1806.023192631686
 21
538.2589418751217
 31
0.0
  0
LINE
  5
1F0B
330
1F
100
AcDbEntity
  8
SPOJOVACÍ
  6
Continuous
100
AcDbLine
 10
1807.979352330107
 20
534.2145375155292
 30
0.0
 11
1806.619435316841
 21
538.2589418751217
 31
0.0
  0
LINE
  5
1F0C
330
1F
100
AcDbEntity
  8
SPOJOVACÍ
  6
Continuous
100
AcDbLine
 10
1804.480961162315
 20
533.8368861402182
 30
0.0
 11
1803.281034385576
 21
538.6365932460671
 31
0.0
  0
LINE
  5
1F0D
330
1F
100
AcDbEntity
  8
SPOJOVACÍ
  6
Continuous
100
AcDbLine
 10
1804.480961162315
 20
533.8368861402182
 30
0.0
 11
1804.262369850288
 21
534.2145375155292
 31
0.0
  0
LINE
  5
1F0E
330
1F
100
AcDbEntity
  8
SPOJOVACÍ
  6
Continuous
100
AcDbLine
 10
1804.480961162315
 20
533.8368861402182
 30
0.0
 11
1804.858612535443
 21
534.2145375155292
 31
0.0
  0
LINE
  5
1F0F
330
1F
100
AcDbEntity
  8
SPOJOVACÍ
  6
Continuous
100
AcDbLine
 10
1803.281034385576
 20
538.6365932460671
 30
0.0
 11
1802.903383012724
 21
538.2589418751217
 31
0.0
  0
LINE
  5
1F10
330
1F
100
AcDbEntity
  8
SPOJOVACÍ
  6
Continuous
100
AcDbLine
 10
1803.281034385576
 20
538.6365932460671
 30
0.0
 11
1803.499625697602
 21
538.2589418751217
 31
0.0
  0
LINE
  5
1F11
330
1F
100
AcDbEntity
  8
SPOJOVACÍ
  6
Continuous
100
AcDbLine
 10
1804.262369850288
 20
534.2145375155292
 30
0.0
 11
1802.903383012724
 21
538.2589418751217
 31
0.0
  0
LINE
  5
1F12
330
1F
100
AcDbEntity
  8
SPOJOVACÍ
  6
Continuous
100
AcDbLine
 10
1804.858612535443
 20
534.2145375155292
 30
0.0
 11
1803.499625697602
 21
538.2589418751217
 31
0.0
  0
LINE
  5
1F13
330
1F
100
AcDbEntity
  8
SPOJOVACÍ
  6
Continuous
100
AcDbLine
 10
1792.043580596853
 20
534.0908241346392
 30
0.0
 11
1791.824989284827
 21
534.4694056829235
 31
0.0
  0
LINE
  5
1F14
330
1F
100
AcDbEntity
  8
SPOJOVACÍ
  6
Continuous
100
AcDbLine
 10
1792.043580596853
 20
534.0908241346392
 30
0.0
 11
1792.421231969981
 21
534.4694056829235
 31
0.0
  0
LINE
  5
1F15
330
1F
100
AcDbEntity
  8
SPOJOVACÍ
  6
Continuous
100
AcDbLine
 10
1791.070616714549
 20
538.2161537873821
 30
0.0
 11
1790.692035165442
 21
537.8385024164368
 31
0.0
  0
LINE
  5
1F16
330
1F
100
AcDbEntity
  8
SPOJOVACÍ
  6
Continuous
100
AcDbLine
 10
1791.070616714549
 20
538.2161537873821
 30
0.0
 11
1791.288277850597
 21
537.8385024164368
 31
0.0
  0
LINE
  5
1F17
330
1F
100
AcDbEntity
  8
SPOJOVACÍ
  6
Continuous
100
AcDbLine
 10
1791.824989284827
 20
534.4694056829235
 30
0.0
 11
1790.692035165442
 21
537.8385024164368
 31
0.0
  0
LINE
  5
1F18
330
1F
100
AcDbEntity
  8
SPOJOVACÍ
  6
Continuous
100
AcDbLine
 10
1792.421231969981
 20
534.4694056829235
 30
0.0
 11
1791.288277850597
 21
537.8385024164368
 31
0.0
  0
LINE
  5
1F19
330
1F
100
AcDbEntity
  8
SPOJOVACÍ
  6
Continuous
100
AcDbLine
 10
1792.043580596853
 20
534.0908241346392
 30
0.0
 11
1791.070616714549
 21
538.2161537873821
 31
0.0
  0
LINE
  5
1F1A
330
1F
100
AcDbEntity
  8
SPOJOVACÍ
  6
Continuous
100
AcDbLine
 10
1789.028880842556
 20
534.6554408407451
 30
0.0
 11
1788.811219706507
 21
535.033092216056
 31
0.0
  0
LINE
  5
1F1B
330
1F
100
AcDbEntity
  8
SPOJOVACÍ
  6
Continuous
100
AcDbLine
 10
1789.028880842556
 20
534.6554408407451
 30
0.0
 11
1789.407462391662
 21
535.033092216056
 31
0.0
  0
LINE
  5
1F1C
330
1F
100
AcDbEntity
  8
SPOJOVACÍ
  6
Continuous
100
AcDbLine
 10
1788.395431125786
 20
537.7715297571763
 30
0.0
 11
1788.016849576956
 21
537.3938783862309
 31
0.0
  0
LINE
  5
1F1D
330
1F
100
AcDbEntity
  8
SPOJOVACÍ
  6
Continuous
100
AcDbLine
 10
1788.395431125786
 20
537.7715297571763
 30
0.0
 11
1788.613092261834
 21
537.3938783862309
 31
0.0
  0
LINE
  5
1F1E
330
1F
100
AcDbEntity
  8
SPOJOVACÍ
  6
Continuous
100
AcDbLine
 10
1788.811219706507
 20
535.033092216056
 30
0.0
 11
1788.016849576956
 21
537.3938783862309
 31
0.0
  0
LINE
  5
1F1F
330
1F
100
AcDbEntity
  8
SPOJOVACÍ
  6
Continuous
100
AcDbLine
 10
1789.407462391662
 20
535.033092216056
 30
0.0
 11
1788.613092261834
 21
537.3938783862309
 31
0.0
  0
LINE
  5
1F20
330
1F
100
AcDbEntity
  8
SPOJOVACÍ
  6
Continuous
100
AcDbLine
 10
1789.028880842556
 20
534.6554408407451
 30
0.0
 11
1788.395431125786
 21
537.7715297571763
 31
0.0
  0
LINE
  5
1F21
330
1F
100
AcDbEntity
  8
SPOJOVACÍ
  6
Continuous
100
AcDbLine
 10
1786.015111264236
 20
535.2200575512165
 30
0.0
 11
1785.796519952216
 21
535.5977089221619
 31
0.0
  0
LINE
  5
1F22
330
1F
100
AcDbEntity
  8
SPOJOVACÍ
  6
Continuous
100
AcDbLine
 10
1786.015111264236
 20
535.2200575512165
 30
0.0
 11
1786.392762637364
 21
535.5977089221619
 31
0.0
  0
LINE
  5
1F23
330
1F
100
AcDbEntity
  8
SPOJOVACÍ
  6
Continuous
100
AcDbLine
 10
1785.704432548462
 20
537.3743446926733
 30
0.0
 11
1785.325850999632
 21
536.9966933217279
 31
0.0
  0
LINE
  5
1F24
330
1F
100
AcDbEntity
  8
SPOJOVACÍ
  6
Continuous
100
AcDbLine
 10
1785.704432548462
 20
537.3743446926733
 30
0.0
 11
1785.922093684779
 21
536.9966933217279
 31
0.0
  0
LINE
  5
1F25
330
1F
100
AcDbEntity
  8
SPOJOVACÍ
  6
Continuous
100
AcDbLine
 10
1785.796519952216
 20
535.5977089221619
 30
0.0
 11
1785.325850999632
 21
536.9966933217279
 31
0.0
  0
LINE
  5
1F26
330
1F
100
AcDbEntity
  8
SPOJOVACÍ
  6
Continuous
100
AcDbLine
 10
1786.392762637364
 20
535.5977089221619
 30
0.0
 11
1785.922093684779
 21
536.9966933217279
 31
0.0
  0
LINE
  5
1F27
330
1F
100
AcDbEntity
  8
SPOJOVACÍ
  6
Continuous
100
AcDbLine
 10
1786.015111264236
 20
535.2200575512165
 30
0.0
 11
1785.704432548462
 21
537.3743446926733
 31
0.0
  0
LINE
  5
1F28
330
1F
100
AcDbEntity
  8
SPOJOVACÍ
  6
Continuous
100
AcDbLine
 10
1801.361151543076
 20
533.8368861402182
 30
0.0
 11
1800.161224766614
 21
538.6365932460671
 31
0.0
  0
LINE
  5
1F29
330
1F
100
AcDbEntity
  8
SPOJOVACÍ
  6
Continuous
100
AcDbLine
 10
1801.361151543076
 20
533.8368861402182
 30
0.0
 11
1801.14256023105
 21
534.2145375155292
 31
0.0
  0
LINE
  5
1F2A
330
1F
100
AcDbEntity
  8
SPOJOVACÍ
  6
Continuous
100
AcDbLine
 10
1801.361151543076
 20
533.8368861402182
 30
0.0
 11
1801.738802916204
 21
534.2145375155292
 31
0.0
  0
LINE
  5
1F2B
330
1F
100
AcDbEntity
  8
SPOJOVACÍ
  6
Continuous
100
AcDbLine
 10
1800.161224766614
 20
538.6365932460671
 30
0.0
 11
1799.782643217784
 21
538.2589418751217
 31
0.0
  0
LINE
  5
1F2C
330
1F
100
AcDbEntity
  8
SPOJOVACÍ
  6
Continuous
100
AcDbLine
 10
1800.161224766614
 20
538.6365932460671
 30
0.0
 11
1800.378885902932
 21
538.2589418751217
 31
0.0
  0
LINE
  5
1F2D
330
1F
100
AcDbEntity
  8
SPOJOVACÍ
  6
Continuous
100
AcDbLine
 10
1801.14256023105
 20
534.2145375155292
 30
0.0
 11
1799.782643217784
 21
538.2589418751217
 31
0.0
  0
LINE
  5
1F2E
330
1F
100
AcDbEntity
  8
SPOJOVACÍ
  6
Continuous
100
AcDbLine
 10
1801.738802916204
 20
534.2145375155292
 30
0.0
 11
1800.378885902932
 21
538.2589418751217
 31
0.0
  0
LINE
  5
1F2F
330
1F
100
AcDbEntity
  8
SPOJOVACÍ
  6
Continuous
100
AcDbLine
 10
1798.241341924107
 20
533.8368861402182
 30
0.0
 11
1797.041415147645
 21
538.6365932460671
 31
0.0
  0
LINE
  5
1F30
330
1F
100
AcDbEntity
  8
SPOJOVACÍ
  6
Continuous
100
AcDbLine
 10
1798.241341924107
 20
533.8368861402182
 30
0.0
 11
1798.022750612088
 21
534.2145375155292
 31
0.0
  0
LINE
  5
1F31
330
1F
100
AcDbEntity
  8
SPOJOVACÍ
  6
Continuous
100
AcDbLine
 10
1798.241341924107
 20
533.8368861402182
 30
0.0
 11
1798.618993297235
 21
534.2145375155292
 31
0.0
  0
LINE
  5
1F32
330
1F
100
AcDbEntity
  8
SPOJOVACÍ
  6
Continuous
100
AcDbLine
 10
1797.041415147645
 20
538.6365932460671
 30
0.0
 11
1796.662833598815
 21
538.2589418751217
 31
0.0
  0
LINE
  5
1F33
330
1F
100
AcDbEntity
  8
SPOJOVACÍ
  6
Continuous
100
AcDbLine
 10
1797.041415147645
 20
538.6365932460671
 30
0.0
 11
1797.259076283693
 21
538.2589418751217
 31
0.0
  0
LINE
  5
1F34
330
1F
100
AcDbEntity
  8
SPOJOVACÍ
  6
Continuous
100
AcDbLine
 10
1798.022750612088
 20
534.2145375155292
 30
0.0
 11
1796.662833598815
 21
538.2589418751217
 31
0.0
  0
LINE
  5
1F35
330
1F
100
AcDbEntity
  8
SPOJOVACÍ
  6
Continuous
100
AcDbLine
 10
1798.618993297235
 20
534.2145375155292
 30
0.0
 11
1797.259076283693
 21
538.2589418751217
 31
0.0
  0
LINE
  5
1F36
330
1F
100
AcDbEntity
  8
SPOJOVACÍ
  6
Continuous
100
AcDbLine
 10
1795.120602129167
 20
533.8368861402182
 30
0.0
 11
1793.920675352705
 21
538.6365932460671
 31
0.0
  0
LINE
  5
1F37
330
1F
100
AcDbEntity
  8
SPOJOVACÍ
  6
Continuous
100
AcDbLine
 10
1795.120602129167
 20
533.8368861402182
 30
0.0
 11
1794.902940993119
 21
534.2145375155292
 31
0.0
  0
LINE
  5
1F38
330
1F
100
AcDbEntity
  8
SPOJOVACÍ
  6
Continuous
100
AcDbLine
 10
1795.120602129167
 20
533.8368861402182
 30
0.0
 11
1795.499183678273
 21
534.2145375155292
 31
0.0
  0
LINE
  5
1F39
330
1F
100
AcDbEntity
  8
SPOJOVACÍ
  6
Continuous
100
AcDbLine
 10
1793.920675352705
 20
538.6365932460671
 30
0.0
 11
1793.543023979577
 21
538.2589418751217
 31
0.0
  0
LINE
  5
1F3A
330
1F
100
AcDbEntity
  8
SPOJOVACÍ
  6
Continuous
100
AcDbLine
 10
1793.920675352705
 20
538.6365932460671
 30
0.0
 11
1794.139266664731
 21
538.2589418751217
 31
0.0
  0
LINE
  5
1F3B
330
1F
100
AcDbEntity
  8
SPOJOVACÍ
  6
Continuous
100
AcDbLine
 10
1794.902940993119
 20
534.2145375155292
 30
0.0
 11
1793.543023979577
 21
538.2589418751217
 31
0.0
  0
LINE
  5
1F3C
330
1F
100
AcDbEntity
  8
SPOJOVACÍ
  6
Continuous
100
AcDbLine
 10
1795.499183678273
 20
534.2145375155292
 30
0.0
 11
1794.139266664731
 21
538.2589418751217
 31
0.0
  0
HATCH
  5
1F3D
330
1F
100
AcDbEntity
  8
STAVBA OBRYS
100
AcDbHatch
 10
0.0
 20
0.0
 30
0.0
210
0.0
220
0.0
230
1.0
  2
AR-SAND
 70
     0
 71
     0
 91
        1
 92
        7
 72
     0
 73
     1
 93
        6
 10
1425.922150165815
 20
423.5975656518357
 10
1415.922150165819
 20
432.9099888627165
 10
1415.922150165808
 20
96.87795024516436
 10
1776.76489861895
 20
96.87795024516482
 10
1766.026555039045
 20
106.8779502451648
 10
1425.922150165812
 20
106.8779502451648
 97
        0
 75
     0
 76
     1
 52
0.0
 41
0.1
 77
     0
 78
     4
 53
37.5
 43
-20919.25983658033
 44
-2198.71848824564
 45
-0.1600031295984046
 46
4.894132373293423
 79
     6
 49
0.0
 49
-3.8608
 49
0.0
 49
-4.318
 49
0.0
 49
-4.1275
 53
7.499999999999999
 43
-20919.25983658033
 44
-2198.71848824564
 45
4.495232831380026
 46
7.168251005683543
 79
     6
 49
0.0
 49
-2.0828
 49
0.0
 49
-3.4798
 49
0.0
 49
-1.3335
 53
327.4999999999999
 43
-20922.38403658034
 44
-2198.71848824564
 45
7.909923702414579
 46
0.0143718467854569
 79
     6
 49
0.0
 49
-1.27
 49
0.0
 49
-4.572
 49
0.0
 49
-5.969
 53
317.5
 43
-20922.38403658034
 44
-2198.71848824564
 45
7.635564524722972
 46
2.229293232572162
 79
     6
 49
0.0
 49
-0.635
 49
0.0
 49
-2.997199999999999
 49
0.0
 49
-3.429
 47
1.159777899479089
 98
        1
 10
1419.994974192572
 20
350.9638487690504
  0
HATCH
  5
1F3E
330
1F
100
AcDbEntity
  8
STAVBA OBRYS
100
AcDbHatch
 10
0.0
 20
0.0
 30
0.0
210
0.0
220
0.0
230
1.0
  2
AR-SAND
 70
     0
 71
     0
 91
        1
 92
        7
 72
     0
 73
     1
 93
        4
 10
1425.922150165823
 20
809.8290680974018
 10
1415.922150165823
 20
809.8290680974024
 10
1415.922150165819
 20
432.9099888627256
 10
1425.922150165815
 20
423.5975656518408
 97
        0
 75
     0
 76
     1
 52
0.0
 41
0.1
 77
     0
 78
     4
 53
37.5
 43
-20919.25983658033
 44
-2198.71848824564
 45
-0.1600031295984046
 46
4.894132373293423
 79
     6
 49
0.0
 49
-3.8608
 49
0.0
 49
-4.318
 49
0.0
 49
-4.1275
 53
7.499999999999999
 43
-20919.25983658033
 44
-2198.71848824564
 45
4.495232831380026
 46
7.168251005683543
 79
     6
 49
0.0
 49
-2.0828
 49
0.0
 49
-3.4798
 49
0.0
 49
-1.3335
 53
327.4999999999999
 43
-20922.38403658034
 44
-2198.71848824564
 45
7.909923702414579
 46
0.0143718467854569
 79
     6
 49
0.0
 49
-1.27
 49
0.0
 49
-4.572
 49
0.0
 49
-5.969
 53
317.5
 43
-20922.38403658034
 44
-2198.71848824564
 45
7.635564524722972
 46
2.229293232572162
 79
     6
 49
0.0
 49
-0.635
 49
0.0
 49
-2.997199999999999
 49
0.0
 49
-3.429
 47
1.159777899479089
 98
        1
 10
1419.994974192572
 20
515.6523062018009
  0
HATCH
  5
1F3F
330
1F
100
AcDbEntity
  8
STAVBA OBRYS
100
AcDbHatch
 10
0.0
 20
0.0
 30
0.0
210
0.0
220
0.0
230
1.0
  2
AR-SAND
 70
     0
 71
     0
 91
        1
 92
        7
 72
     0
 73
     1
 93
        5
 10
2169.732427606488
 20
106.8779502451652
 10
1883.447204252397
 20
106.8779502451648
 10
1766.026555039045
 20
106.8779502451648
 10
1776.76489861895
 20
96.87795024516482
 10
2169.732427606484
 20
96.87795024516482
 97
        0
 75
     0
 76
     1
 52
0.0
 41
0.1
 77
     0
 78
     4
 53
37.5
 43
-20919.25983658033
 44
-2198.71848824564
 45
-0.1600031295984046
 46
4.894132373293423
 79
     6
 49
0.0
 49
-3.8608
 49
0.0
 49
-4.318
 49
0.0
 49
-4.1275
 53
7.499999999999999
 43
-20919.25983658033
 44
-2198.71848824564
 45
4.495232831380026
 46
7.168251005683543
 79
     6
 49
0.0
 49
-2.0828
 49
0.0
 49
-3.4798
 49
0.0
 49
-1.3335
 53
327.4999999999999
 43
-20922.38403658034
 44
-2198.71848824564
 45
7.909923702414579
 46
0.0143718467854569
 79
     6
 49
0.0
 49
-1.27
 49
0.0
 49
-4.572
 49
0.0
 49
-5.969
 53
317.5
 43
-20922.38403658034
 44
-2198.71848824564
 45
7.635564524722972
 46
2.229293232572162
 79
     6
 49
0.0
 49
-0.635
 49
0.0
 49
-2.997199999999999
 49
0.0
 49
-3.429
 47
1.159777899479089
 98
        1
 10
1848.186677115094
 20
102.771373047301
  0
LINE
  5
1F40
330
1F
100
AcDbEntity
  8
STAVBA OBRYS
100
AcDbLine
 10
1415.922150165812
 20
96.87795024516482
 30
0.0
 11
2169.732427606484
 21
96.87795024516482
 31
0.0
  0
LINE
  5
1F41
330
1F
100
AcDbEntity
  8
STAVBA OBRYS
100
AcDbLine
 10
1415.922150165812
 20
96.87795024516482
 30
0.0
 11
1415.922150165823
 21
809.8290680974018
 31
0.0
  0
LINE
  5
1F42
330
1F
100
AcDbEntity
  8
CETRIS
100
AcDbLine
 10
1860.026512257782
 20
499.3486393431335
 30
0.0
 11
1830.401041946226
 21
499.348639343133
 31
0.0
  0
LINE
  5
1F43
330
1F
100
AcDbEntity
  8
CETRIS
100
AcDbLine
 10
2191.301870092686
 20
488.3486393431344
 30
0.0
 11
2191.907953444404
 21
499.3486393431335
 31
0.0
  0
LINE
  5
1F44
330
1F
100
AcDbEntity
  8
CETRIS
100
AcDbLine
 10
1806.401041946226
 20
826.9778713584091
 30
0.0
 11
1818.40104194623
 21
827.5048797152344
 31
0.0
  0
HATCH
  5
1F45
330
1F
100
AcDbEntity
  8
PROFILY
100
AcDbHatch
 10
0.0
 20
0.0
 30
0.0
210
0.0
220
0.0
230
1.0
  2
SOLID
 70
     1
 71
     0
 91
        3
 92
        7
 72
     0
 73
     1
 93
        4
 10
1806.458322785131
 20
545.8914001418147
 10
1804.113049406604
 20
545.8914001418147
 10
1804.113049406607
 20
539.101620684069
 10
1806.458322785131
 20
539.2114918490724
 97
        0
 92
        7
 72
     1
 73
     1
 93
        9
 10
1806.458322785134
 20
535.5301529817302
 42
0.0
 10
1804.113049406604
 20
535.6355201118954
 42
0.0
 10
1804.113049406607
 20
485.6427744937446
 42
0.0
 10
1853.937768948469
 20
485.6427744937441
 42
0.0
 10
1853.828441398387
 20
487.9764440487838
 42
0.0
 10
1806.458322785134
 20
487.9764440487838
 42
0.0
 10
1806.458322785134
 20
491.2058676345818
 42
-0.4142135623739474
 10
1805.20832278513
 20
492.4558676345818
 42
-0.4142135623730951
 10
1806.458322785131
 20
493.7058676345818
 42
0.0
 97
        0
 92
        7
 72
     0
 73
     1
 93
        4
 10
1864.60675863578
 20
487.9764440487843
 10
1857.490327637655
 20
487.9764440487843
 10
1857.385481837575
 20
485.6427744937432
 10
1864.60675863578
 20
485.6427744937432
 97
        0
 75
     0
 76
     1
 47
0.3141272852230161
 98
        3
 10
1805.594192807204
 20
542.4985033621792
 10
1805.594192807204
 20
527.7345168035494
 10
1862.482268946468
 20
486.8979670213243
  0
HATCH
  5
1F46
330
1F
100
AcDbEntity
  8
STAVBA OBRYS
100
AcDbHatch
 10
0.0
 20
0.0
 30
0.0
210
0.0
220
0.0
230
1.0
  2
BRICK
 70
     0
 71
     0
 91
        1
 92
        7
 72
     0
 73
     1
 93
        8
 10
2183.58043344076
 20
374.5634276005903
 10
1900.347354063744
 20
374.5634276005907
 10
1693.401512257785
 20
374.5634276005907
 10
1693.401512257789
 20
823.5429142387033
 10
1425.922150165823
 20
809.8290680974018
 10
1425.922150165812
 20
106.8779502451648
 10
1883.447204252397
 20
106.8779502451648
 10
2169.732427606484
 20
106.8779502451652
 97
        0
 75
     0
 76
     1
 52
0.0
 41
10.0
 77
     0
 78
     3
 53
0.0
 43
-21088.32213987431
 44
-2273.724523629609
 45
0.0
 46
63.5
 79
     0
 53
90.0
 43
-21088.32213987431
 44
-2273.724523629609
 45
-127.0
 46
0.0000000000000078
 79
     2
 49
63.5
 49
-63.5
 53
90.0
 43
-21024.82213987431
 44
-2273.724523629609
 45
-127.0
 46
0.0000000000000078
 79
     2
 49
-63.5
 49
63.5
 47
2.763705840907272
 98
        1
 10
1721.939168442042
 20
348.5983280018067
  0
TEXT
  5
1F47
330
1F
100
AcDbEntity
  8
POPIS
100
AcDbText
 10
2017.354422717699
 20
566.7553674189284
 30
0.0
 40
25.0
  1
08
 41
0.7
  7
SIMPLEX7
100
AcDbText
  0
LINE
  5
1F48
330
1F
100
AcDbEntity
  8
POPIS
100
AcDbLine
 10
1904.72667835825
 20
579.1190653646845
 30
0.0
 11
2002.693196430276
 21
579.1190653646845
 31
0.0
  0
INSERT
  5
1F49
330
1F
100
AcDbEntity
  8
POPIS
100
AcDbBlockReference
  2
E_PUNKT
 10
1805.237483934999
 20
490.6101849853803
 30
0.0
 41
-1.0
  0
INSERT
  5
1F4A
330
1F
100
AcDbEntity
  8
POPIS
100
AcDbBlockReference
  2
E_PUNKT
 10
1814.731894956354
 20
535.5343592697194
 30
0.0
 41
-1.0
  0
INSERT
  5
1F4B
330
1F
100
AcDbEntity
  8
POPIS
100
AcDbBlockReference
  2
E_PUNKT
 10
1791.036576637552
 20
550.6578337975056
 30
0.0
 41
-1.0
  0
LINE
  5
1F4C
330
1F
100
AcDbEntity
  8
POPIS
100
AcDbLine
 10
1805.209873559373
 20
490.6392533162529
 30
0.0
 11
1904.726678358254
 21
579.1190653646758
 31
0.0
  0
LINE
  5
1F4D
330
1F
100
AcDbEntity
  8
POPIS
100
AcDbLine
 10
1790.87084134008
 20
550.8560005987069
 30
0.0
 11
1904.726678358265
 21
652.084562753042
 31
0.0
  0
LINE
  5
1F4E
330
1F
100
AcDbEntity
  8
POPIS
100
AcDbLine
 10
1814.704284580728
 20
535.5634276005908
 30
0.0
 11
1904.72667835825
 21
615.6018140588585
 31
0.0
  0
CIRCLE
  5
1F4F
330
1F
100
AcDbEntity
  8
POPIS
100
AcDbCircle
 10
1743.139022188281
 20
24.03874375961504
 30
0.0
 40
11.13656048292026
  0
TEXT
  5
1F50
330
1F
100
AcDbEntity
  8
POPIS
100
AcDbText
 10
1738.379993133099
 20
18.49339801462747
 30
0.0
 40
12.0
  1
R
 41
0.85
  7
SIMPLEX7
100
AcDbText
  0
TEXT
  5
1F51
330
1F
100
AcDbEntity
  8
POPIS
100
AcDbText
 10
1514.029037143596
 20
-259.4078711305187
 30
0.0
 40
25.0
  1
08
 41
0.85
  7
SIMPLEX7
100
AcDbText
  0
TEXT
  5
1F52
330
1F
100
AcDbEntity
  8
POPIS
100
AcDbText
 10
1570.753807894054
 20
-43.07692370928044
 30
0.0
 40
25.0
  1
Vrut se zápustnou hlavou
 41
0.7
  7
SIMPLEX7
100
AcDbText
  0
TEXT
  5
1F53
330
1F
100
AcDbEntity
  8
POPIS
100
AcDbText
 10
1516.410104734312
 20
-43.07692370928044
 30
0.0
 40
25.0
  1
02
 41
0.85
  7
SIMPLEX7
100
AcDbText
  0
TEXT
  5
1F54
330
1F
100
AcDbEntity
  8
POPIS
100
AcDbText
 10
1570.753807894054
 20
-6.481912093653136
 30
0.0
 40
25.0
  1
Deska CETRIS   (BASIC,FINISH,LASUR)
 41
0.7
  7
SIMPLEX7
100
AcDbText
  0
TEXT
  5
1F55
330
1F
100
AcDbEntity
  8
POPIS
100
AcDbText
 10
1516.410104734312
 20
-6.481912093653136
 30
0.0
 40
25.0
  1
01
 41
0.85
  7
SIMPLEX7
100
AcDbText
  0
LINE
  5
1F56
330
1F
100
AcDbEntity
  8
SPOJOVACÍ
100
AcDbLine
 10
1860.026512257785
 20
499.3726366787064
 30
0.0
 11
1848.776512257785
 21
499.3726366787064
 31
0.0
  0
LINE
  5
1F57
330
1F
100
AcDbEntity
  8
PROFILY
100
AcDbLine
 10
1863.354384828466
 20
486.9039105558995
 30
0.0
 11
1863.354384828466
 21
484.5702410008597
 31
0.0
  0
LINE
  5
1F58
330
1F
100
AcDbEntity
  8
PROFILY
100
AcDbLine
 10
1805.209873559373
 20
544.0747858234858
 30
0.0
 11
1802.864600180853
 21
544.0747858234858
 31
0.0
  0
LINE
  5
1F59
330
1F
100
AcDbEntity
  8
PROFILY
100
AcDbLine
 10
1804.113049406607
 20
545.8914001418147
 30
0.0
 11
1804.113049406607
 21
485.642774493745
 31
0.0
  0
LINE
  5
1F5A
330
1F
100
AcDbEntity
  8
PROFILY
100
AcDbLine
 10
1806.458322785131
 20
487.9764440487838
 30
0.0
 11
1806.458322785131
 21
545.8914001418147
 31
0.0
  0
LINE
  5
1F5B
330
1F
100
AcDbEntity
  8
PROFILY
100
AcDbLine
 10
1864.60675863578
 20
485.6427744937437
 30
0.0
 11
1804.113049406607
 21
485.642774493745
 31
0.0
  0
LINE
  5
1F5C
330
1F
100
AcDbEntity
  8
PROFILY
100
AcDbLine
 10
1806.458322785131
 20
487.9764440487838
 30
0.0
 11
1864.60675863578
 21
487.9764440487838
 31
0.0
  0
LINE
  5
1F5D
330
1F
100
AcDbEntity
  8
NOSNÉ KONSTRUKCE
100
AcDbLine
 10
1879.398677406441
 20
483.5634276005907
 30
0.0
 11
1879.398677406441
 21
458.5634276005907
 31
0.0
  0
LWPOLYLINE
  5
1F5E
330
1F
100
AcDbEntity
  8
NOSNÉ KONSTRUKCE
100
AcDbPolyline
 90
        6
 70
     0
 43
0.0
 10
1870.935070719961
 20
483.5634276005907
 42
-0.0128837512779302
 10
1870.650278759736
 20
480.2302627788444
 42
-0.0351641677647434
 10
1870.022519038213
 20
476.6265533245054
 42
-0.0187319685742942
 10
1866.638503157222
 20
464.8683159823626
 42
-0.0582629403736403
 10
1864.979003289141
 20
461.2884817834306
 42
-0.0146402521923566
 10
1863.194595307557
 20
458.5634276005907
  0
LWPOLYLINE
  5
1F5F
330
1F
100
AcDbEntity
  8
NOSNÉ KONSTRUKCE
100
AcDbPolyline
 90
        3
 70
     0
 43
0.0
 10
1855.402487340734
 20
477.0642580313356
 10
1875.398739772727
 20
467.8482289808157
 10
1879.398677406441
 20
467.2028315054736
  0
LWPOLYLINE
  5
1F60
330
1F
100
AcDbEntity
  8
NOSNÉ KONSTRUKCE
100
AcDbPolyline
 90
        4
 70
     0
 43
0.0
 10
1879.398677406441
 20
473.3481063935355
 42
-0.0067781046155075
 10
1877.405668966739
 20
463.2347344181248
 42
-0.0219777111230329
 10
1876.499556464755
 20
459.7166211622893
 42
-0.0092752982622242
 10
1876.124329502809
 20
458.5634276005907
  0
LWPOLYLINE
  5
1F61
330
1F
100
AcDbEntity
  8
NOSNÉ KONSTRUKCE
100
AcDbPolyline
 90
        8
 70
     0
 43
0.0
 10
1862.310855339919
 20
483.5634276005907
 42
-0.0120721047703142
 10
1862.241872649881
 20
481.8295394618466
 42
-0.044358077361292
 10
1861.846244915208
 20
479.1337394434299
 42
-0.0188067511131767
 10
1859.826421466825
 20
471.8915102681235
 42
-0.0457786284636091
 10
1858.618398577209
 20
469.0428998852435
 42
-0.0295006114745606
 10
1856.202338122909
 20
465.1160006718414
 42
-0.0258674098621065
 10
1852.969662808946
 20
460.9702205930875
 42
-0.0093759062953949
 10
1850.803850629288
 20
458.5634276005907
 42
-0.0093759062953949
  0
LWPOLYLINE
  5
1F62
330
1F
100
AcDbEntity
  8
NOSNÉ KONSTRUKCE
100
AcDbPolyline
 90
        3
 70
     0
 43
0.0
 10
1836.109909715489
 20
478.0460969050722
 10
1852.865127335217
 20
469.662356037104
 10
1861.032231984341
 20
461.4810543360067
  0
LWPOLYLINE
  5
1F63
330
1F
100
AcDbEntity
  8
NOSNÉ KONSTRUKCE
100
AcDbPolyline
 90
        4
 70
     0
 43
0.0
 10
1879.398677406441
 20
458.5634276005907
 10
1829.401512257785
 20
458.5634276005907
 10
1829.401512257785
 20
483.5634276005907
 10
1879.398677406441
 20
483.5634276005907
  0
LWPOLYLINE
  5
1F64
330
1F
100
AcDbEntity
  8
NOSNÉ KONSTRUKCE
100
AcDbPolyline
 90
       11
 70
     0
 43
0.0
 10
1846.494018092724
 20
483.5634276005894
 42
-0.0072417954699014
 10
1846.43844772488
 20
483.1520223893148
 42
-0.0707158694326265
 10
1845.90732120846
 20
481.2159189367211
 42
-0.033952657250207
 10
1843.658665369051
 20
476.8628812115475
 42
-0.0571374688189033
 10
1841.872508609199
 20
474.5559569278611
 42
-0.0274923553235744
 10
1839.275202878647
 20
472.1708816047266
 42
-0.0255412025538677
 10
1836.223772840936
 20
469.9141679277072
 42
-0.0272796991712396
 10
1832.110773687751
 20
467.497832046045
 42
-0.056967459841729
 10
1829.969826407019
 20
466.6850962108456
 42
-0.0373408083348504
 10
1829.747472031545
 20
466.6459306698944
 42
-0.0052305969362967
 10
1829.401512257785
 20
466.61497370299
  0
LWPOLYLINE
  5
1F71
330
1F
100
AcDbEntity
  8
NOSNÉ KONSTRUKCE
100
AcDbPolyline
 90
        9
 70
     0
 43
0.0
 10
1839.265967071986
 20
483.5634276005894
 42
-0.0064239028828688
 10
1839.227098631805
 20
483.3443139412393
 42
-0.0832048017309575
 10
1838.442916029123
 20
481.0141003615845
 42
-0.0336767237692336
 10
1836.740099470202
 20
478.2858258421238
 42
-0.0844635135812105
 10
1835.820289710309
 20
477.3814042371286
 42
-0.0495829410719565
 10
1834.071611272955
 20
476.404754729816
 42
-0.0322692699774654
 10
1831.180257091864
 20
475.3632312284152
 42
-0.0276160659512937
 10
1830.324680653577
 20
475.1664957994708
 42
-0.0126891984598699
 10
1829.401512257785
 20
475.0312934099293
  0
LWPOLYLINE
  5
1F7C
330
1F
100
AcDbEntity
  8
NOSNÉ KONSTRUKCE
100
AcDbPolyline
 90
       10
 70
     0
 43
0.0
 10
1853.443796116409
 20
483.5634276005907
 42
-0.0168162630274194
 10
1853.308770537345
 20
481.8723894484715
 42
-0.0575155827655532
 10
1852.628738257002
 20
478.7727647877541
 42
-0.0310289133982999
 10
1849.625936912174
 20
471.5277372631094
 42
-0.0882970623535771
 10
1847.988714992081
 20
469.2873682123095
 42
-0.0171636441953577
 10
1845.175350930223
 20
466.7734508570642
 42
-0.0157521173632038
 10
1841.936496093187
 20
464.2419548045577
 42
-0.0073640874174249
 10
1837.302846736865
 20
460.9535533788216
 42
-0.0194185739168057
 10
1835.480803417189
 20
459.8019843795404
 42
-0.0229547400386702
 10
1833.095345353174
 20
458.5634276005907
 42
-0.0229547400386702
  0
LWPOLYLINE
  5
1F7D
330
1F
100
AcDbEntity
  8
NOSNÉ KONSTRUKCE
100
AcDbPolyline
 90
        7
 70
     0
 43
0.0
 10
1833.916280737468
 20
483.5634276005907
 42
-0.0203924744732807
 10
1833.01419675306
 20
482.5502975714366
 42
-0.0273961979096945
 10
1832.164332402864
 20
481.7621211974105
 42
-0.0243529190212958
 10
1831.001211910445
 20
480.8883618527429
 42
-0.0398020282482987
 10
1830.226253372884
 20
480.4487331092964
 42
-0.104168275620852
 10
1829.839842236544
 20
480.3587166491192
 42
-0.007272956268647
 10
1829.401512257785
 20
480.3402632978245
 42
-0.007272956268647
  0
LWPOLYLINE
  5
1F7E
330
1F
100
AcDbEntity
  8
NOSNÉ KONSTRUKCE
100
AcDbPolyline
 90
        7
 70
     0
 43
0.0
 10
1802.401512257785
 20
556.0458242695609
 42
-0.0203924744732807
 10
1801.388382228631
 20
556.9479082539723
 42
-0.0273961979096945
 10
1800.600205854605
 20
557.7977726041677
 42
-0.0243529190212958
 10
1799.726446509938
 20
558.9608930965873
 42
-0.0398020282482987
 10
1799.286817766491
 20
559.7358516341478
 42
-0.104168275620852
 10
1799.196801306314
 20
560.1222627704878
 42
-0.007272956268647
 10
1799.178347955019
 20
560.5605927492442
 42
-0.007272956268647
  0
LWPOLYLINE
  5
1F7F
330
1F
100
AcDbEntity
  8
NOSNÉ KONSTRUKCE
100
AcDbPolyline
 90
       10
 70
     0
 43
0.0
 10
1802.401512257785
 20
536.5183088906228
 42
-0.0168162630274194
 10
1800.710474105666
 20
536.6533344696867
 42
-0.0575155827655532
 10
1797.610849444949
 20
537.3333667500296
 42
-0.0310289133982999
 10
1790.365821920304
 20
540.3361680948578
 42
-0.0882970623535771
 10
1788.125452869504
 20
541.9733900149508
 42
-0.0171636441953577
 10
1785.611535514259
 20
544.7867540768088
 42
-0.0157521173632038
 10
1783.080039461752
 20
548.0256089138451
 42
-0.0073640874174249
 10
1779.791638036016
 20
552.6592582701664
 42
-0.0194185739168057
 10
1778.640069036735
 20
554.481301589843
 42
-0.0229547400386702
 10
1777.401512257785
 20
556.8667596538562
 42
-0.0229547400386702
  0
LWPOLYLINE
  5
1F80
330
1F
100
AcDbEntity
  8
NOSNÉ KONSTRUKCE
100
AcDbPolyline
 90
        9
 70
     0
 43
0.0
 10
1802.401512257785
 20
550.6961379350427
 42
-0.0064239028828688
 10
1802.182398598435
 20
550.7350063752233
 42
-0.0832048017309575
 10
1799.852185018781
 20
551.5191889779048
 42
-0.0336767237692336
 10
1797.12391049932
 20
553.2220055368266
 42
-0.0844635135812105
 10
1796.219488894325
 20
554.1418152967194
 42
-0.0495829410719565
 10
1795.242839387012
 20
555.8904937340734
 42
-0.0322692699774654
 10
1794.201315885611
 20
558.7818479151642
 42
-0.0276160659512937
 10
1794.004580456667
 20
559.6374243534515
 42
-0.0126891984598699
 10
1793.869378067125
 20
560.5605927492442
  0
LWPOLYLINE
  5
1F8B
330
1F
100
AcDbEntity
  8
NOSNÉ KONSTRUKCE
100
AcDbPolyline
 90
       11
 70
     0
 43
0.0
 10
1802.401512257785
 20
543.4680869143058
 42
-0.0072417954699014
 10
1801.990107046511
 20
543.5236572821481
 42
-0.0707158694326265
 10
1800.054003593917
 20
544.0547837985682
 42
-0.033952657250207
 10
1795.700965868744
 20
546.3034396379766
 42
-0.0571374688189033
 10
1793.394041585057
 20
548.0895963978286
 42
-0.0274923553235744
 10
1791.008966261923
 20
550.6869021283814
 42
-0.0255412025538677
 10
1788.752252584903
 20
553.7383321660922
 42
-0.0272796991712396
 10
1786.335916703241
 20
557.8513313192774
 42
-0.056967459841729
 10
1785.523180868041
 20
559.9922786000092
 42
-0.0373408083348504
 10
1785.48401532709
 20
560.2146329754828
 42
-0.0052305969362967
 10
1785.453058360186
 20
560.5605927492442
  0
LWPOLYLINE
  5
1F98
330
1F
100
AcDbEntity
  8
NOSNÉ KONSTRUKCE
100
AcDbPolyline
 90
        4
 70
     0
 43
0.0
 10
1777.401512257785
 20
510.5634276005908
 10
1777.401512257785
 20
560.5605927492442
 10
1802.401512257785
 20
560.5605927492442
 10
1802.401512257785
 20
510.5634276005908
  0
LWPOLYLINE
  5
1F99
330
1F
100
AcDbEntity
  8
NOSNÉ KONSTRUKCE
100
AcDbPolyline
 90
        3
 70
     0
 43
0.0
 10
1796.884181562267
 20
553.852195291543
 10
1788.500440694298
 20
537.0969776718152
 10
1780.319138993201
 20
528.9298730226906
  0
LWPOLYLINE
  5
1F9A
330
1F
100
AcDbEntity
  8
NOSNÉ KONSTRUKCE
100
AcDbPolyline
 90
        8
 70
     0
 43
0.0
 10
1802.401512257785
 20
527.6512496671125
 42
-0.0120721047703142
 10
1800.667624119041
 20
527.7202323571505
 42
-0.044358077361292
 10
1797.971824100625
 20
528.1158600918238
 42
-0.0188067511131767
 10
1790.729594925318
 20
530.1356835402071
 42
-0.0457786284636091
 10
1787.880984542438
 20
531.3437064298227
 42
-0.0295006114745606
 10
1783.954085329036
 20
533.7597668841222
 42
-0.0258674098621065
 10
1779.808305250282
 20
536.9924421980863
 42
-0.0093759062953949
 10
1777.401512257785
 20
539.1582543777421
 42
-0.0093759062953949
  0
LWPOLYLINE
  5
1F9B
330
1F
100
AcDbEntity
  8
NOSNÉ KONSTRUKCE
100
AcDbPolyline
 90
        4
 70
     0
 43
0.0
 10
1792.18619105073
 20
510.5634276005908
 42
-0.0067781046155075
 10
1782.072819075319
 20
512.5564360402927
 42
-0.0219777111230329
 10
1778.554705819484
 20
513.4625485422762
 42
-0.0092752982622242
 10
1777.401512257785
 20
513.8377755042215
  0
LWPOLYLINE
  5
1F9C
330
1F
100
AcDbEntity
  8
NOSNÉ KONSTRUKCE
100
AcDbPolyline
 90
        3
 70
     0
 43
0.0
 10
1795.90234268853
 20
534.5596176662979
 10
1786.68631363801
 20
514.5633652343053
 10
1786.040916162668
 20
510.5634276005908
  0
LWPOLYLINE
  5
1F9D
330
1F
100
AcDbEntity
  8
NOSNÉ KONSTRUKCE
100
AcDbPolyline
 90
        6
 70
     0
 43
0.0
 10
1802.401512257785
 20
519.0270342870698
 42
-0.0128837512779302
 10
1799.068347436039
 20
519.3118262472958
 42
-0.0351641677647434
 10
1795.4646379817
 20
519.9395859688188
 42
-0.0187319685742942
 10
1783.706400639557
 20
523.3236018498096
 42
-0.0582629403736403
 10
1780.126566440625
 20
524.9831017178908
 42
-0.0146402521923566
 10
1777.401512257785
 20
526.7675096994739
  0
LINE
  5
1F9E
330
1F
100
AcDbEntity
  8
NOSNÉ KONSTRUKCE
100
AcDbLine
 10
1802.401512257785
 20
510.5634276005908
 30
0.0
 11
1777.401512257785
 21
510.5634276005908
 31
0.0
  0
LINE
  5
1F9F
330
1F
100
AcDbEntity
  8
CETRIS
100
AcDbLine
 10
1806.40104194623
 20
511.3486393431335
 30
0.0
 11
2192.569135282645
 21
511.3486393431344
 31
0.0
  0
LINE
  5
1FA0
330
1F
100
AcDbEntity
  8
CETRIS
100
AcDbLine
 10
1860.026512257782
 20
499.3486393431335
 30
0.0
 11
2191.907953444404
 21
499.3486393431335
 31
0.0
  0
LINE
  5
1FA1
330
1F
100
AcDbEntity
  8
CETRIS
100
AcDbLine
 10
1830.40104194623
 20
828.0318880720596
 30
0.0
 11
1830.401041946226
 21
488.3486393431335
 31
0.0
  0
LINE
  5
1FA2
330
1F
100
AcDbEntity
  8
CETRIS
100
AcDbLine
 10
1818.40104194623
 20
827.5048797152344
 30
0.0
 11
1818.401041946226
 21
511.3486393431335
 31
0.0
  0
LINE
  5
1FA3
330
1F
100
AcDbEntity
  8
CETRIS
100
AcDbLine
 10
1806.401041946226
 20
826.9778713584091
 30
0.0
 11
1806.40104194623
 21
511.3486393431335
 31
0.0
  0
LINE
  5
1FA4
330
1F
100
AcDbEntity
  8
CETRIS
100
AcDbLine
 10
1830.401041946226
 20
488.3486393431335
 30
0.0
 11
2191.301870092686
 21
488.3486393431344
 31
0.0
  0
TEXT
  5
1FA5
330
1F
100
AcDbEntity
  8
POPIS
100
AcDbText
 10
1391.012707277319
 20
870.1692189582459
 30
0.0
 40
35.0
  1
PŮDORYS
 41
0.75
  7
SIMPLEX7
100
AcDbText
  0
TEXT
  5
1FA6
330
1F
100
AcDbEntity
  8
POPIS
100
AcDbText
 10
1389.287554420481
 20
926.2379362542665
 30
0.0
 40
50.0
  1
VNITŘNÍ ROH
 41
0.85
  7
SIMPLEX7
100
AcDbText
  0
TEXT
  5
1FA7
330
1F
100
AcDbEntity
  8
POPIS
100
AcDbText
 10
2017.354422717699
 20
674.5838370729202
 30
0.0
 40
25.0
  1
04
 41
0.7
  7
SIMPLEX7
100
AcDbText
  0
TEXT
  5
1FA8
330
1F
100
AcDbEntity
  8
POPIS
100
AcDbText
 10
2017.354422717699
 20
603.2381161131024
 30
0.0
 40
25.0
  1
02
 41
0.7
  7
SIMPLEX7
100
AcDbText
  0
TEXT
  5
1FA9
330
1F
100
AcDbEntity
  8
POPIS
100
AcDbText
 10
2017.354422717699
 20
639.7208648072855
 30
0.0
 40
25.0
  1
03
 41
0.7
  7
SIMPLEX7
100
AcDbText
  0
INSERT
  5
1FAA
330
1F
100
AcDbEntity
  8
POPIS
100
AcDbBlockReference
  2
E_PUNKT
 10
1792.766433599257
 20
686.9184666878041
 30
0.0
 41
-1.0
  0
LINE
  5
1FAB
330
1F
100
AcDbEntity
  8
POPIS
100
AcDbLine
 10
1904.726678358265
 20
652.084562753042
 30
0.0
 11
2002.693196430276
 21
652.0845627530416
 31
0.0
  0
LINE
  5
1FAC
330
1F
100
AcDbEntity
  8
POPIS
100
AcDbLine
 10
1904.72667835825
 20
615.6018140588585
 30
0.0
 11
2002.693196430276
 21
615.6018140588585
 31
0.0
  0
LINE
  5
1FAD
330
1F
100
AcDbEntity
  8
POPIS
100
AcDbLine
 10
1793.988823223631
 20
686.9475350186767
 30
0.0
 11
2002.693196430276
 21
686.9475350186762
 31
0.0
  0
LINE
  5
1FAE
330
1F
100
AcDbEntity
  8
STAVBA OBRYS
100
AcDbLine
 10
1900.347354063744
 20
374.5634276005907
 30
0.0
 11
2183.580433440764
 21
374.5634276005907
 31
0.0
  0
LINE
  5
1FAF
330
1F
100
AcDbEntity
  8
STAVBA OBRYS
100
AcDbLine
 10
1883.447204252397
 20
106.8779502451648
 30
0.0
 11
2169.732427606484
 21
106.8779502451648
 31
0.0
  0
LINE
  5
1FB0
330
1F
100
AcDbEntity
  8
STAVBA OBRYS
100
AcDbLine
 10
1693.401512257785
 20
374.5634276005907
 30
0.0
 11
1900.347354063744
 21
374.5634276005907
 31
0.0
  0
LINE
  5
1FB1
330
1F
100
AcDbEntity
  8
STAVBA OBRYS
100
AcDbLine
 10
1425.922150165812
 20
106.8779502451648
 30
0.0
 11
1883.447204252397
 21
106.8779502451648
 31
0.0
  0
LINE
  5
1FB2
330
1F
100
AcDbEntity
  8
STAVBA OBRYS
100
AcDbLine
 10
1425.922150165812
 20
106.8779502451648
 30
0.0
 11
1425.922150165823
 21
809.8290680974018
 31
0.0
  0
LINE
  5
1FB3
330
1F
100
AcDbEntity
  8
STAVBA OBRYS
100
AcDbLine
 10
1693.401512257785
 20
823.5429142387038
 30
0.0
 11
1693.401512257785
 21
374.5634276005907
 31
0.0
  0
TEXT
  5
2016
330
1F
100
AcDbEntity
  8
POPIS
100
AcDbText
 10
1568.069685106099
 20
-380.8571055812139
 30
0.0
 40
25.0
  1
Podkladní EPDM páska tl.1 mm
 41
0.7
  7
SIMPLEX7
100
AcDbText
  0
TEXT
  5
2017
330
1F
100
AcDbEntity
  8
POPIS
100
AcDbText
 10
1513.725981946357
 20
-380.8571055812139
 30
0.0
 40
25.0
  1
09
 41
0.85
  7
SIMPLEX7
100
AcDbText
  0
TEXT
  5
2023
330
1F
100
AcDbEntity
  8
POPIS
100
AcDbText
 10
1926.458977990554
 20
543.1285322605654
 30
0.0
 40
25.0
  1
35
 50
90.0
 41
0.7
  7
SIMPLEX7
100
AcDbText
  0
LINE
  5
2024
330
1F
100
AcDbEntity
  8
PROFILY
  6
DASHED
370
    40
100
AcDbLine
 10
1879.398677406441
 20
484.2742118828769
 30
0.0
 11
1829.401512257785
 21
484.2742118828769
 31
0.0
  0
LINE
  5
2025
330
1F
100
AcDbEntity
  8
PROFILY
100
AcDbLine
 10
1879.385221333029
 20
484.4742118828769
 30
0.0
 11
1829.388056184373
 21
484.4742118828769
 31
0.0
  0
LINE
  5
2026
330
1F
100
AcDbEntity
  8
POPIS
100
AcDbLine
 10
1902.308172866676
 20
536.2367396931427
 30
0.0
 11
1945.79118272258
 21
536.2367396931427
 31
0.0
  0
LINE
  5
2027
330
1F
100
AcDbEntity
  8
POPIS
100
AcDbLine
 10
1904.497115099679
 20
511.3486393431339
 30
0.0
 11
1945.79118272258
 21
511.3486393431339
 31
0.0
  0
LINE
  5
2028
330
1F
100
AcDbEntity
  8
POPIS
100
AcDbLine
 10
1933.29118272258
 20
566.776918045236
 30
0.0
 11
1933.29118272258
 21
506.0296201459387
 31
0.0
  0
INSERT
  5
202B
330
1F
100
AcDbEntity
  8
POPIS
100
AcDbBlockReference
  2
_ArchTick
 10
1933.29118272258
 20
536.2367396931427
 30
0.0
 41
15.0
 42
15.0
 43
15.0
 50
90.0
  0
INSERT
  5
202C
330
1F
100
AcDbEntity
  8
POPIS
100
AcDbBlockReference
  2
_ArchTick
 10
1933.29118272258
 20
511.2899538330491
 30
0.0
 41
15.0
 42
15.0
 43
15.0
 50
270.0
  0
LINE
  5
202E
330
1F
100
AcDbEntity
  8
PROFILY
100
AcDbLine
 10
1879.398677406441
 20
484.0742118828768
 30
0.0
 11
1829.401512257785
 21
484.0742118828768
 31
0.0
  0
LINE
  5
202F
330
1F
100
AcDbEntity
  8
PROFILY
100
AcDbLine
 10
1803.03065148886
 20
560.5404923145254
 30
0.0
 11
1803.03065148886
 21
510.5433271658696
 31
0.0
  0
LINE
  5
2030
330
1F
100
AcDbEntity
  8
PROFILY
  6
DASHED
370
    40
100
AcDbLine
 10
1803.23065148886
 20
560.5539483879375
 30
0.0
 11
1803.23065148886
 21
510.5567832392816
 31
0.0
  0
LINE
  5
2031
330
1F
100
AcDbEntity
  8
PROFILY
100
AcDbLine
 10
1803.43065148886
 20
560.5539483879375
 30
0.0
 11
1803.43065148886
 21
510.5567832392816
 31
0.0
  0
LINE
  5
2032
330
1F
100
AcDbEntity
  8
POPIS
100
AcDbLine
 10
1904.72667835825
 20
527.4038926567509
 30
0.0
 11
2002.693196430276
 21
527.4038926567509
 31
0.0
  0
TEXT
  5
2033
330
1F
100
AcDbEntity
  8
POPIS
100
AcDbText
 10
2017.354422717699
 20
515.0401947109949
 30
0.0
 40
25.0
  1
09
 41
0.7
  7
SIMPLEX7
100
AcDbText
  0
LINE
  5
2034
330
1F
100
AcDbEntity
  8
POPIS
100
AcDbLine
 10
1864.609569041135
 20
484.4483636487702
 30
0.0
 11
1904.726678358254
 21
527.4038926567422
 31
0.0
  0
INSERT
  5
2035
330
1F
100
AcDbEntity
  8
POPIS
100
AcDbBlockReference
  2
E_PUNKT
 10
1865.792815331628
 20
483.8962123235323
 30
0.0
 41
-1.0
  0
ENDSEC
  0
SECTION
  2
OBJECTS
  0
DICTIONARY
  5
C
330
0
100
AcDbDictionary
281
     1
  3
ACAD_GROUP
350
D
  3
ACAD_LAYOUT
350
1A
  3
ACAD_MLINESTYLE
350
17
  3
ACAD_PLOTSETTINGS
350
19
  3
ACAD_PLOTSTYLENAME
350
E
  3
AcDbVariableDictionary
350
2037
  0
DICTIONARY
  5
B56
330
1F
100
AcDbDictionary
280
     1
281
     1
  3
ACAD_LAYOUTSELFREF
360
1FEE
  0
DICTIONARY
  5
B58
330
1B
100
AcDbDictionary
280
     1
281
     1
  3
ACAD_LAYOUTSELFREF
360
1FED
  0
DICTIONARY
  5
B5A
330
23
100
AcDbDictionary
280
     1
281
     1
  3
ACAD_LAYOUTSELFREF
360
1FEF
  0
DICTIONARY
  5
D
102
{ACAD_REACTORS
330
C
102
}
330
C
100
AcDbDictionary
281
     1
  0
DICTIONARY
  5
1A
102
{ACAD_REACTORS
330
C
102
}
330
C
100
AcDbDictionary
281
     1
  3
Model
350
22
  3
Rozvržení1
350
1E
  3
Rozvržení2
350
26
  0
DICTIONARY
  5
17
102
{ACAD_REACTORS
330
C
102
}
330
C
100
AcDbDictionary
281
     1
  3
Standard
350
18
  0
DICTIONARY
  5
19
102
{ACAD_REACTORS
330
C
102
}
330
C
100
AcDbDictionary
281
     1
  0
ACDBDICTIONARYWDFLT
  5
E
102
{ACAD_REACTORS
330
C
102
}
330
C
100
AcDbDictionary
281
     1
  3
Normal
350
F
100
AcDbDictionaryWithDefault
340
F
  0
DICTIONARY
  5
2037
102
{ACAD_REACTORS
330
C
102
}
330
C
100
AcDbDictionary
281
     1
  3
DIMASSOC
350
2038
  0
XRECORD
  5
1FEE
102
{ACAD_REACTORS
330
B56
102
}
330
B56
100
AcDbXrecord
280
     1
340
1F
  0
XRECORD
  5
1FED
102
{ACAD_REACTORS
330
B58
102
}
330
B58
100
AcDbXrecord
280
     1
340
1B
  0
XRECORD
  5
1FEF
102
{ACAD_REACTORS
330
B5A
102
}
330
B5A
100
AcDbXrecord
280
     1
340
23
  0
LAYOUT
  5
22
102
{ACAD_REACTORS
330
1A
102
}
330
1A
100
AcDbPlotSettings
  1

  2
HP DeskJet 690C
  4

  6

 40
0.0
 41
0.0
 42
0.0
 43
0.0
 44
0.0
 45
0.0
 46
0.0
 47
0.0
 48
0.0
 49
0.0
140
0.0
141
0.0
142
1.0
143
1.0
 70
  1712
 72
     0
 73
     0
 74
     0
  7
monochrome.ctb
 75
     0
147
1.0
148
0.0
149
0.0
100
AcDbLayout
  1
Model
 70
     1
 71
     0
 10
0.0
 20
0.0
 11
12.0
 21
9.0
 12
0.0
 22
0.0
 32
0.0
 14
0.0
 24
0.0
 34
0.0
 15
0.0
 25
0.0
 35
0.0
146
0.0
 13
0.0
 23
0.0
 33
0.0
 16
1.0
 26
0.0
 36
0.0
 17
0.0
 27
1.0
 37
0.0
 76
     0
330
1F
  0
LAYOUT
  5
1E
102
{ACAD_REACTORS
330
1A
102
}
330
1A
100
AcDbPlotSettings
  1

  2
HP DeskJet 690C
  4

  6

 40
0.0
 41
0.0
 42
0.0
 43
0.0
 44
0.0
 45
0.0
 46
0.0
 47
0.0
 48
0.0
 49
0.0
140
0.0
141
0.0
142
1.0
143
1.0
 70
   688
 72
     0
 73
     0
 74
     5
  7
monochrome.ctb
 75
    16
147
1.0
148
0.0
149
0.0
100
AcDbLayout
  1
Rozvržení1
 70
     1
 71
     1
 10
0.0
 20
0.0
 11
420.0
 21
297.0
 12
0.0
 22
0.0
 32
0.0
 14
1.000000000000000E+20
 24
1.000000000000000E+20
 34
1.000000000000000E+20
 15
-1.000000000000000E+20
 25
-1.000000000000000E+20
 35
-1.000000000000000E+20
146
0.0
 13
0.0
 23
0.0
 33
0.0
 16
1.0
 26
0.0
 36
0.0
 17
0.0
 27
1.0
 37
0.0
 76
     0
330
1B
  0
LAYOUT
  5
26
102
{ACAD_REACTORS
330
1A
102
}
330
1A
100
AcDbPlotSettings
  1

  2
HP DeskJet 690C
  4

  6

 40
0.0
 41
0.0
 42
0.0
 43
0.0
 44
0.0
 45
0.0
 46
0.0
 47
0.0
 48
0.0
 49
0.0
140
0.0
141
0.0
142
1.0
143
1.0
 70
   688
 72
     0
 73
     0
 74
     5
  7
monochrome.ctb
 75
    16
147
1.0
148
0.0
149
0.0
100
AcDbLayout
  1
Rozvržení2
 70
     1
 71
     2
 10
0.0
 20
0.0
 11
12.0
 21
9.0
 12
0.0
 22
0.0
 32
0.0
 14
0.0
 24
0.0
 34
0.0
 15
0.0
 25
0.0
 35
0.0
146
0.0
 13
0.0
 23
0.0
 33
0.0
 16
1.0
 26
0.0
 36
0.0
 17
0.0
 27
1.0
 37
0.0
 76
     0
330
23
  0
MLINESTYLE
  5
18
102
{ACAD_REACTORS
330
17
102
}
330
17
100
AcDbMlineStyle
  2
STANDARD
 70
     0
  3

 62
   256
 51
90.0
 52
90.0
 71
     2
 49
0.5
 62
   256
  6
BYLAYER
 49
-0.5
 62
   256
  6
BYLAYER
  0
ACDBPLACEHOLDER
  5
F
102
{ACAD_REACTORS
330
E
102
}
330
E
  0
DICTIONARYVAR
  5
2038
102
{ACAD_REACTORS
330
2037
102
}
330
2037
100
DictionaryVariables
280
     0
  1
1
  0
ENDSEC
  0
EOF
