  0
SECTION
  2
HEADER
  9
$ACADVER
  1
AC1015
  9
$ACADMAINTVER
 70
    13
  9
$DWGCODEPAGE
  3
ANSI_1250
  9
$INSBASE
 10
0.0
 20
0.0
 30
0.0
  9
$EXTMIN
 10
2100.557360239285
 20
-144.9186407129677
 30
0.0
  9
$EXTMAX
 10
2931.19953860028
 20
1249.166513178733
 30
0.0
  9
$LIMMIN
 10
0.0
 20
0.0
  9
$LIMMAX
 10
420.0
 20
297.0
  9
$ORTHOMODE
 70
     1
  9
$REGENMODE
 70
     1
  9
$FILLMODE
 70
     1
  9
$QTEXTMODE
 70
     0
  9
$MIRRTEXT
 70
     1
  9
$LTSCALE
 40
1.0
  9
$ATTMODE
 70
     1
  9
$TEXTSIZE
 40
2.5
  9
$TRACEWID
 40
1.0
  9
$TEXTSTYLE
  7
Standard
  9
$CLAYER
  8
POPIS
  9
$CELTYPE
  6
ByLayer
  9
$CECOLOR
 62
   256
  9
$CELTSCALE
 40
1.0
  9
$DISPSILH
 70
     0
  9
$DIMSCALE
 40
1.0
  9
$DIMASZ
 40
2.5
  9
$DIMEXO
 40
0.625
  9
$DIMDLI
 40
3.75
  9
$DIMRND
 40
0.0
  9
$DIMDLE
 40
0.0
  9
$DIMEXE
 40
1.25
  9
$DIMTP
 40
0.0
  9
$DIMTM
 40
0.0
  9
$DIMTXT
 40
2.5
  9
$DIMCEN
 40
2.5
  9
$DIMTSZ
 40
0.0
  9
$DIMTOL
 70
     0
  9
$DIMLIM
 70
     0
  9
$DIMTIH
 70
     0
  9
$DIMTOH
 70
     0
  9
$DIMSE1
 70
     0
  9
$DIMSE2
 70
     0
  9
$DIMTAD
 70
     1
  9
$DIMZIN
 70
     8
  9
$DIMBLK
  1

  9
$DIMASO
 70
     1
  9
$DIMSHO
 70
     1
  9
$DIMPOST
  1

  9
$DIMAPOST
  1

  9
$DIMALT
 70
     0
  9
$DIMALTD
 70
     3
  9
$DIMALTF
 40
0.03937007874016
  9
$DIMLFAC
 40
1.0
  9
$DIMTOFL
 70
     1
  9
$DIMTVP
 40
0.0
  9
$DIMTIX
 70
     0
  9
$DIMSOXD
 70
     0
  9
$DIMSAH
 70
     0
  9
$DIMBLK1
  1

  9
$DIMBLK2
  1

  9
$DIMSTYLE
  2
ISO-25
  9
$DIMCLRD
 70
     0
  9
$DIMCLRE
 70
     0
  9
$DIMCLRT
 70
     0
  9
$DIMTFAC
 40
1.0
  9
$DIMGAP
 40
0.625
  9
$DIMJUST
 70
     0
  9
$DIMSD1
 70
     0
  9
$DIMSD2
 70
     0
  9
$DIMTOLJ
 70
     0
  9
$DIMTZIN
 70
     8
  9
$DIMALTZ
 70
     0
  9
$DIMALTTZ
 70
     0
  9
$DIMUPT
 70
     0
  9
$DIMDEC
 70
     2
  9
$DIMTDEC
 70
     2
  9
$DIMALTU
 70
     2
  9
$DIMALTTD
 70
     3
  9
$DIMTXSTY
  7
Standard
  9
$DIMAUNIT
 70
     0
  9
$DIMADEC
 70
     0
  9
$DIMALTRND
 40
0.0
  9
$DIMAZIN
 70
     0
  9
$DIMDSEP
 70
    44
  9
$DIMATFIT
 70
     3
  9
$DIMFRAC
 70
     0
  9
$DIMLDRBLK
  1

  9
$DIMLUNIT
 70
     2
  9
$DIMLWD
 70
    -2
  9
$DIMLWE
 70
    -2
  9
$DIMTMOVE
 70
     0
  9
$LUNITS
 70
     2
  9
$LUPREC
 70
     4
  9
$SKETCHINC
 40
1.0
  9
$FILLETRAD
 40
10.0
  9
$AUNITS
 70
     0
  9
$AUPREC
 70
     0
  9
$MENU
  1
.
  9
$ELEVATION
 40
0.0
  9
$PELEVATION
 40
0.0
  9
$THICKNESS
 40
0.0
  9
$LIMCHECK
 70
     0
  9
$CHAMFERA
 40
10.0
  9
$CHAMFERB
 40
10.0
  9
$CHAMFERC
 40
20.0
  9
$CHAMFERD
 40
0.0
  9
$SKPOLY
 70
     0
  9
$TDCREATE
 40
2452334.465307870
  9
$TDUCREATE
 40
2452334.423641203
  9
$TDUPDATE
 40
2455595.886954387
  9
$TDUUPDATE
 40
2455595.845287720
  9
$TDINDWG
 40
0.0056161343
  9
$TDUSRTIMER
 40
0.0056161343
  9
$USRTIMER
 70
     1
  9
$ANGBASE
 50
0.0
  9
$ANGDIR
 70
     0
  9
$PDMODE
 70
     0
  9
$PDSIZE
 40
0.0
  9
$PLINEWID
 40
0.0
  9
$SPLFRAME
 70
     0
  9
$SPLINETYPE
 70
     6
  9
$SPLINESEGS
 70
     8
  9
$HANDSEED
  5
1D4B
  9
$SURFTAB1
 70
     6
  9
$SURFTAB2
 70
     6
  9
$SURFTYPE
 70
     6
  9
$SURFU
 70
     6
  9
$SURFV
 70
     6
  9
$UCSBASE
  2

  9
$UCSNAME
  2

  9
$UCSORG
 10
0.0
 20
0.0
 30
0.0
  9
$UCSXDIR
 10
1.0
 20
0.0
 30
0.0
  9
$UCSYDIR
 10
0.0
 20
1.0
 30
0.0
  9
$UCSORTHOREF
  2

  9
$UCSORTHOVIEW
 70
     0
  9
$UCSORGTOP
 10
0.0
 20
0.0
 30
0.0
  9
$UCSORGBOTTOM
 10
0.0
 20
0.0
 30
0.0
  9
$UCSORGLEFT
 10
0.0
 20
0.0
 30
0.0
  9
$UCSORGRIGHT
 10
0.0
 20
0.0
 30
0.0
  9
$UCSORGFRONT
 10
0.0
 20
0.0
 30
0.0
  9
$UCSORGBACK
 10
0.0
 20
0.0
 30
0.0
  9
$PUCSBASE
  2

  9
$PUCSNAME
  2

  9
$PUCSORG
 10
0.0
 20
0.0
 30
0.0
  9
$PUCSXDIR
 10
1.0
 20
0.0
 30
0.0
  9
$PUCSYDIR
 10
0.0
 20
1.0
 30
0.0
  9
$PUCSORTHOREF
  2

  9
$PUCSORTHOVIEW
 70
     0
  9
$PUCSORGTOP
 10
0.0
 20
0.0
 30
0.0
  9
$PUCSORGBOTTOM
 10
0.0
 20
0.0
 30
0.0
  9
$PUCSORGLEFT
 10
0.0
 20
0.0
 30
0.0
  9
$PUCSORGRIGHT
 10
0.0
 20
0.0
 30
0.0
  9
$PUCSORGFRONT
 10
0.0
 20
0.0
 30
0.0
  9
$PUCSORGBACK
 10
0.0
 20
0.0
 30
0.0
  9
$USERI1
 70
     0
  9
$USERI2
 70
     0
  9
$USERI3
 70
     0
  9
$USERI4
 70
     0
  9
$USERI5
 70
     0
  9
$USERR1
 40
0.0
  9
$USERR2
 40
0.0
  9
$USERR3
 40
0.0
  9
$USERR4
 40
0.0
  9
$USERR5
 40
0.0
  9
$WORLDVIEW
 70
     1
  9
$SHADEDGE
 70
     3
  9
$SHADEDIF
 70
    70
  9
$TILEMODE
 70
     1
  9
$MAXACTVP
 70
    48
  9
$PINSBASE
 10
0.0
 20
0.0
 30
0.0
  9
$PLIMCHECK
 70
     0
  9
$PEXTMIN
 10
1.000000000000000E+20
 20
1.000000000000000E+20
 30
1.000000000000000E+20
  9
$PEXTMAX
 10
-1.000000000000000E+20
 20
-1.000000000000000E+20
 30
-1.000000000000000E+20
  9
$PLIMMIN
 10
0.0
 20
0.0
  9
$PLIMMAX
 10
420.0
 20
297.0
  9
$UNITMODE
 70
     0
  9
$VISRETAIN
 70
     1
  9
$PLINEGEN
 70
     0
  9
$PSLTSCALE
 70
     1
  9
$TREEDEPTH
 70
  3020
  9
$CMLSTYLE
  2
Standard
  9
$CMLJUST
 70
     0
  9
$CMLSCALE
 40
20.0
  9
$PROXYGRAPHICS
 70
     1
  9
$MEASUREMENT
 70
     1
  9
$CELWEIGHT
370
    -1
  9
$ENDCAPS
280
     0
  9
$JOINSTYLE
280
     0
  9
$LWDISPLAY
290
     0
  9
$INSUNITS
 70
     4
  9
$HYPERLINKBASE
  1

  9
$STYLESHEET
  1

  9
$XEDIT
290
     1
  9
$CEPSNTYPE
380
     0
  9
$PSTYLEMODE
290
     1
  9
$FINGERPRINTGUID
  2
{4216A968-507C-4CB8-873B-AD6C9E89F3B1}
  9
$VERSIONGUID
  2
{B829E443-96AD-4F5D-B9FA-C7892FF0EB42}
  9
$EXTNAMES
290
     1
  9
$PSVPSCALE
 40
0.0
  9
$OLESTARTUP
290
     0
  0
ENDSEC
  0
SECTION
  2
CLASSES
  0
CLASS
  1
ACDBDICTIONARYWDFLT
  2
AcDbDictionaryWithDefault
  3
AutoCAD 2000
 90
        0
280
     0
281
     0
  0
CLASS
  1
ACDBPLACEHOLDER
  2
AcDbPlaceHolder
  3
AutoCAD 2000
 90
        0
280
     0
281
     0
  0
CLASS
  1
LAYOUT
  2
AcDbLayout
  3
AutoCAD 2000
 90
        0
280
     0
281
     0
  0
CLASS
  1
LONG_TRANSACTION
  2
AcDbLongTransaction
  3
AutoCAD 2000
 90
    32768
280
     0
281
     0
  0
CLASS
  1
LWPOLYLINE
  2
AcDbPolyline
  3
AutoCAD 2000
 90
    32768
280
     0
281
     1
  0
CLASS
  1
HATCH
  2
AcDbHatch
  3
AutoCAD 2000
 90
    32768
280
     0
281
     1
  0
CLASS
  1
XRECORD
  2
AcDbXrecord
  3
AutoCAD 2000
 90
    32768
280
     0
281
     0
  0
CLASS
  1
LONG_TRANSACTION
  2
AcDbLongTransaction
  3
AutoCAD 2000
 90
    32768
280
     0
281
     0
  0
CLASS
  1
LWPOLYLINE
  2
AcDbPolyline
  3
AutoCAD 2000
 90
    32768
280
     0
281
     1
  0
CLASS
  1
HATCH
  2
AcDbHatch
  3
AutoCAD 2000
 90
    32768
280
     0
281
     1
  0
CLASS
  1
XRECORD
  2
AcDbXrecord
  3
AutoCAD 2000
 90
    32768
280
     0
281
     0
  0
CLASS
  1
LONG_TRANSACTION
  2
AcDbLongTransaction
  3
AutoCAD 2000
 90
    32768
280
     0
281
     0
  0
CLASS
  1
LWPOLYLINE
  2
AcDbPolyline
  3
AutoCAD 2000
 90
    32768
280
     0
281
     1
  0
CLASS
  1
HATCH
  2
AcDbHatch
  3
AutoCAD 2000
 90
    32768
280
     0
281
     1
  0
CLASS
  1
XRECORD
  2
AcDbXrecord
  3
AutoCAD 2000
 90
    32768
280
     0
281
     0
  0
CLASS
  1
DICTIONARYVAR
  2
AcDbDictionaryVar
  3
AutoCAD 2000
 90
        0
280
     0
281
     0
  0
ENDSEC
  0
SECTION
  2
TABLES
  0
TABLE
  2
VPORT
  5
8
330
0
100
AcDbSymbolTable
 70
     2
  0
VPORT
  5
1D4A
330
8
100
AcDbSymbolTableRecord
100
AcDbViewportTableRecord
  2
*Active
 70
     0
 10
0.0
 20
0.0
 11
1.0
 21
1.0
 12
2515.878449419782
 22
552.123936232883
 13
0.0
 23
0.0
 14
10.0
 24
10.0
 15
10.0
 25
10.0
 16
0.0
 26
0.0
 36
1.0
 17
0.0
 27
0.0
 37
0.0
 40
1407.216254242329
 41
2.229559748427672
 42
50.0
 43
0.0
 44
0.0
 50
0.0
 51
0.0
 71
     0
 72
   100
 73
     1
 74
     3
 75
     0
 76
     0
 77
     0
 78
     0
281
     0
 65
     1
110
0.0
120
0.0
130
0.0
111
1.0
121
0.0
131
0.0
112
0.0
122
1.0
132
0.0
 79
     0
146
0.0
  0
ENDTAB
  0
TABLE
  2
LTYPE
  5
5
330
0
100
AcDbSymbolTable
 70
     4
  0
LTYPE
  5
14
330
5
100
AcDbSymbolTableRecord
100
AcDbLinetypeTableRecord
  2
ByBlock
 70
     0
  3

 72
    65
 73
     0
 40
0.0
  0
LTYPE
  5
15
330
5
100
AcDbSymbolTableRecord
100
AcDbLinetypeTableRecord
  2
ByLayer
 70
     0
  3

 72
    65
 73
     0
 40
0.0
  0
LTYPE
  5
16
330
5
100
AcDbSymbolTableRecord
100
AcDbLinetypeTableRecord
  2
Continuous
 70
     0
  3
Solid line
 72
    65
 73
     0
 40
0.0
  0
LTYPE
  5
33
330
5
100
AcDbSymbolTableRecord
100
AcDbLinetypeTableRecord
  2
IZOLACE
 70
     0
  3
Izolace SSSSSSSSSSSSSSSSSSSSSSSSSSSSSSSSSSSSSSS
 72
    65
 73
     4
 40
10.16253999999999
 49
0.00254
 74
     0
 49
-2.54
 74
     4
 75
   134
340
3D
 46
2.54
 50
0.0
 44
-2.54
 45
0.0
 49
-5.08
 74
     4
 75
   134
340
3D
 46
2.54
 50
180.0
 44
2.54
 45
0.0
 49
-2.54
 74
     0
  0
LTYPE
  5
34
330
5
100
AcDbSymbolTableRecord
100
AcDbLinetypeTableRecord
  2
DASHED
 70
     0
  3
Dashed __ __ __ __ __ __ __ __ __ __ __ __ __ _
 72
    65
 73
     2
 40
19.04999999999999
 49
12.7
 74
     0
 49
-6.349999999999999
 74
     0
  0
LTYPE
  5
35
330
5
100
AcDbSymbolTableRecord
100
AcDbLinetypeTableRecord
  2
DASHDOT2
 70
     0
  3
Dash dot (.5x) _._._._._._._._._._._._._._._.
 72
    65
 73
     4
 40
12.7
 49
6.349999999999999
 74
     0
 49
-3.174999999999999
 74
     0
 49
0.0
 74
     0
 49
-3.174999999999999
 74
     0
  0
ENDTAB
  0
TABLE
  2
LAYER
  5
2
330
0
100
AcDbSymbolTable
 70
     8
  0
LAYER
  5
10
330
2
100
AcDbSymbolTableRecord
100
AcDbLayerTableRecord
  2
0
 70
     0
 62
     7
  6
Continuous
370
    -3
390
F
  0
LAYER
  5
36
330
2
100
AcDbSymbolTableRecord
100
AcDbLayerTableRecord
  2
POPIS
 70
     0
 62
    30
  6
Continuous
370
    -3
390
F
  0
LAYER
  5
37
330
2
100
AcDbSymbolTableRecord
100
AcDbLayerTableRecord
  2
SPOJOVACÍ
 70
     0
 62
   180
  6
Continuous
370
    -3
390
F
  0
LAYER
  5
38
330
2
100
AcDbSymbolTableRecord
100
AcDbLayerTableRecord
  2
CETRIS
 70
     0
 62
     1
  6
Continuous
370
    -3
390
F
  0
LAYER
  5
39
330
2
100
AcDbSymbolTableRecord
100
AcDbLayerTableRecord
  2
NOSNÉ KONSTRUKCE
 70
     0
 62
    33
  6
Continuous
370
    -3
390
F
  0
LAYER
  5
3A
330
2
100
AcDbSymbolTableRecord
100
AcDbLayerTableRecord
  2
PROFILY
 70
     0
 62
    73
  6
Continuous
370
    -3
390
F
  0
LAYER
  5
3B
330
2
100
AcDbSymbolTableRecord
100
AcDbLayerTableRecord
  2
STAVBA OBRYS
 70
     0
 62
     6
  6
Continuous
370
    -3
390
F
  0
LAYER
  5
5FD
330
2
100
AcDbSymbolTableRecord
100
AcDbLayerTableRecord
  2
Defpoints
 70
     0
 62
     7
  6
Continuous
290
     0
370
    -3
390
F
  0
ENDTAB
  0
TABLE
  2
STYLE
  5
3
330
0
100
AcDbSymbolTable
 70
     3
  0
STYLE
  5
11
330
3
100
AcDbSymbolTableRecord
100
AcDbTextStyleTableRecord
  2
Standard
 70
     0
 40
0.0
 41
1.0
 50
0.0
 71
     0
 42
2.5
  3
txt
  4

  0
STYLE
  5
3C
330
3
100
AcDbSymbolTableRecord
100
AcDbTextStyleTableRecord
  2
SIMPLEX7
 70
     0
 40
0.0
 41
0.85
 50
0.0
 71
     0
 42
102.0
  3
ARIAL.TTF
  4

1001
ACAD
1000
Arial CE
1071
    60962
  0
STYLE
  5
3D
330
3
100
AcDbSymbolTableRecord
100
AcDbTextStyleTableRecord
  2

 70
     1
 40
0.0
 41
1.0
 50
0.0
 71
     0
 42
2.5
  3
ltypeshp.shx
  4

  0
ENDTAB
  0
TABLE
  2
VIEW
  5
6
330
0
100
AcDbSymbolTable
 70
     0
  0
ENDTAB
  0
TABLE
  2
UCS
  5
7
330
0
100
AcDbSymbolTable
 70
     0
  0
ENDTAB
  0
TABLE
  2
APPID
  5
9
330
0
100
AcDbSymbolTable
 70
     1
  0
APPID
  5
12
330
9
100
AcDbSymbolTableRecord
100
AcDbRegAppTableRecord
  2
ACAD
 70
     0
  0
ENDTAB
  0
TABLE
  2
DIMSTYLE
  5
A
330
0
100
AcDbSymbolTable
 70
     1
100
AcDbDimStyleTable
 71
     0
  0
DIMSTYLE
105
27
330
A
100
AcDbSymbolTableRecord
100
AcDbDimStyleTableRecord
  2
ISO-25
 70
     0
 41
2.5
 42
0.625
 43
3.75
 44
1.25
 73
     0
 74
     0
 77
     1
 78
     8
140
2.5
141
2.5
143
0.03937007874016
147
0.625
171
     3
172
     1
271
     2
272
     2
274
     3
278
    44
283
     0
284
     8
340
11
  0
ENDTAB
  0
TABLE
  2
BLOCK_RECORD
  5
1
330
0
100
AcDbSymbolTable
 70
     3
  0
BLOCK_RECORD
  5
1F
102
{ACAD_XDICTIONARY
360
B56
102
}
330
1
100
AcDbSymbolTableRecord
100
AcDbBlockTableRecord
  2
*Model_Space
340
22
  0
BLOCK_RECORD
  5
1B
102
{ACAD_XDICTIONARY
360
B58
102
}
330
1
100
AcDbSymbolTableRecord
100
AcDbBlockTableRecord
  2
*Paper_Space
340
1E
  0
BLOCK_RECORD
  5
23
102
{ACAD_XDICTIONARY
360
B5A
102
}
330
1
100
AcDbSymbolTableRecord
100
AcDbBlockTableRecord
  2
*Paper_Space0
340
26
  0
BLOCK_RECORD
  5
2B
330
1
100
AcDbSymbolTableRecord
100
AcDbBlockTableRecord
  2
E_PUNKT
340
0
102
{BLKREFS
331
19AA
331
19AD
331
19B0
331
19B3
331
1B9D
331
1C8B
331
1C97
331
1D3B
102
}
  0
BLOCK_RECORD
  5
1D09
330
1
100
AcDbSymbolTableRecord
100
AcDbBlockTableRecord
  2
_ArchTick
340
0
102
{BLKREFS
331
1D25
331
1D27
331
1D2A
331
1D2B
102
}
  0
ENDTAB
  0
ENDSEC
  0
SECTION
  2
BLOCKS
  0
BLOCK
  5
20
330
1F
100
AcDbEntity
  8
0
100
AcDbBlockBegin
  2
*Model_Space
 70
     0
 10
0.0
 20
0.0
 30
0.0
  3
*Model_Space
  1

  0
ENDBLK
  5
21
330
1F
100
AcDbEntity
  8
0
100
AcDbBlockEnd
  0
BLOCK
  5
1C
330
1B
100
AcDbEntity
 67
     1
  8
0
100
AcDbBlockBegin
  2
*Paper_Space
 70
     0
 10
0.0
 20
0.0
 30
0.0
  3
*Paper_Space
  1

  0
ENDBLK
  5
1D
330
1B
100
AcDbEntity
 67
     1
  8
0
100
AcDbBlockEnd
  0
BLOCK
  5
24
330
23
100
AcDbEntity
  8
0
100
AcDbBlockBegin
  2
*Paper_Space0
 70
     0
 10
0.0
 20
0.0
 30
0.0
  3
*Paper_Space0
  1

  0
ENDBLK
  5
25
330
23
100
AcDbEntity
  8
0
100
AcDbBlockEnd
  0
BLOCK
  5
2D
330
2B
100
AcDbEntity
  8
0
100
AcDbBlockBegin
  2
E_PUNKT
 70
     0
 10
0.0
 20
0.0
 30
0.0
  3
E_PUNKT
  1

  0
LWPOLYLINE
  5
2C
330
2B
100
AcDbEntity
  8
POPIS
100
AcDbPolyline
 90
        2
 70
     1
 43
2.5
 10
1.27761037562675
 20
0.0290683308725193
 42
-1.0
 10
-1.222389624373249
 20
0.0290683308725193
 42
-1.0
  0
ENDBLK
  5
2E
330
2B
100
AcDbEntity
  8
0
100
AcDbBlockEnd
  0
BLOCK
  5
1D0B
330
1D09
100
AcDbEntity
  8
0
100
AcDbBlockBegin
  2
_ArchTick
 70
     0
 10
0.0
 20
0.0
 30
0.0
  3
_ArchTick
  1

  0
LWPOLYLINE
  5
1D0A
330
1D09
100
AcDbEntity
  8
0
  6
ByBlock
 62
     0
100
AcDbPolyline
 90
        2
 70
     0
 43
0.15
 10
-0.5
 20
-0.5
 10
0.5
 20
0.5
  0
ENDBLK
  5
1D0C
330
1D09
100
AcDbEntity
  8
0
100
AcDbBlockEnd
  0
ENDSEC
  0
SECTION
  2
ENTITIES
  0
INSERT
  5
19AA
330
1F
100
AcDbEntity
  8
POPIS
100
AcDbBlockReference
  2
E_PUNKT
 10
2384.994412849837
 20
807.9670216011381
 30
0.0
  0
TEXT
  5
19AB
330
1F
100
AcDbEntity
  8
POPIS
100
AcDbText
 10
2100.557360239285
 20
794.33134594597
 30
0.0
 40
25.0
  1
07
 41
0.7
  7
SIMPLEX7
100
AcDbText
  0
LINE
  5
19AC
330
1F
100
AcDbEntity
  8
POPIS
100
AcDbLine
 10
2141.93697027728
 20
807.7746873953397
 30
0.0
 11
2383.791787103104
 21
807.7746873953392
 31
0.0
  0
INSERT
  5
19AD
330
1F
100
AcDbEntity
  8
POPIS
100
AcDbBlockReference
  2
E_PUNKT
 10
2342.122464895952
 20
858.7627224908228
 30
0.0
  0
TEXT
  5
19AE
330
1F
100
AcDbEntity
  8
POPIS
100
AcDbText
 10
2100.557360239285
 20
845.1270468356547
 30
0.0
 40
25.0
  1
05
 41
0.7
  7
SIMPLEX7
100
AcDbText
  0
LINE
  5
19AF
330
1F
100
AcDbEntity
  8
POPIS
100
AcDbLine
 10
2141.93697027728
 20
858.5703882850243
 30
0.0
 11
2340.919839149219
 21
858.5703882850239
 31
0.0
  0
INSERT
  5
19B0
330
1F
100
AcDbEntity
  8
POPIS
100
AcDbBlockReference
  2
E_PUNKT
 10
2312.548847750548
 20
908.7287838712599
 30
0.0
  0
TEXT
  5
19B1
330
1F
100
AcDbEntity
  8
POPIS
100
AcDbText
 10
2100.557360239285
 20
895.0931082160918
 30
0.0
 40
25.0
  1
04
 41
0.7
  7
SIMPLEX7
100
AcDbText
  0
LINE
  5
19B2
330
1F
100
AcDbEntity
  8
POPIS
100
AcDbLine
 10
2141.93697027728
 20
908.5364496654616
 30
0.0
 11
2313.806694248533
 21
908.536449665461
 31
0.0
  0
INSERT
  5
19B3
330
1F
100
AcDbEntity
  8
POPIS
100
AcDbBlockReference
  2
E_PUNKT
 10
2379.354437543361
 20
1001.533453073543
 30
0.0
  0
TEXT
  5
19B4
330
1F
100
AcDbEntity
  8
POPIS
100
AcDbText
 10
2100.557360239285
 20
987.8977774183754
 30
0.0
 40
25.0
  1
06
 41
0.7
  7
SIMPLEX7
100
AcDbText
  0
LINE
  5
19B5
330
1F
100
AcDbEntity
  8
POPIS
100
AcDbLine
 10
2141.93697027728
 20
1001.341118867745
 30
0.0
 11
2378.151811796628
 21
1001.341118867744
 31
0.0
  0
HATCH
  5
19B6
330
1F
100
AcDbEntity
  8
PROFILY
100
AcDbHatch
 10
0.0
 20
0.0
 30
0.0
210
0.0
220
0.0
230
1.0
  2
SOLID
 70
     1
 71
     0
 91
        3
 92
        7
 72
     1
 73
     1
 93
        7
 10
2287.120511797873
 20
1041.130008636917
 42
0.0
 10
2287.120511797873
 20
1039.77760912511
 42
0.0
 10
2287.663836327641
 20
1039.77760912511
 42
-0.7966931104345698
 10
2290.039010256839
 20
1039.233106022227
 42
-0.0457290566325054
 10
2290.018185974952
 20
1039.005890146887
 42
0.0
 10
2519.301621392891
 20
1035.329559101003
 42
0.0
 10
2519.301621392891
 20
1037.608668673981
 42
0.0
 97
        0
 92
        7
 72
     0
 73
     1
 93
        6
 10
2292.341791267865
 20
1036.147982489948
 10
2291.365843937788
 20
1022.616339796816
 10
2293.797028898674
 20
1022.440994605896
 10
2294.633110825782
 20
1034.033384431854
 10
2519.301621392894
 20
1030.431049099933
 10
2519.301621392894
 20
1032.705830278709
 97
        0
 92
        7
 72
     1
 73
     1
 93
        9
 10
2289.558011797873
 20
1038.24764337459
 42
-0.6246663897958368
 10
2287.53901025684
 20
1039.233106022227
 42
-0.1131561580450943
 10
2287.663836327641
 20
1039.77760912511
 42
0.0
 10
2287.120511797873
 20
1039.77760912511
 42
0.0
 10
2287.120511797873
 20
1012.045907098124
 42
0.6701573805500536
 10
2288.510668351106
 20
1011.474532302994
 42
0.0
 10
2297.683011797877
 20
1020.747717514719
 42
0.0
 10
2295.950042138172
 20
1022.461841900095
 42
0.0
 10
2289.55801179787
 20
1015.999536866647
 42
0.0
 97
        0
 75
     0
 76
     1
 47
0.2686213223886443
 98
        3
 10
2378.417995543035
 20
1038.96920651137
 10
2378.149240456993
 20
1033.328166417727
 10
2288.649449525319
 20
1016.136368063017
  0
HATCH
  5
19B7
330
1F
100
AcDbEntity
  8
PROFILY
100
AcDbHatch
 10
0.0
 20
0.0
 30
0.0
210
0.0
220
0.0
230
1.0
  2
SOLID
 70
     1
 71
     0
 91
        4
 92
        7
 72
     1
 73
     1
 93
        9
 10
2672.04270888035
 20
1017.509533265776
 42
0.0
 10
2670.309739220649
 20
1015.795408880399
 42
0.0
 10
2679.482082667417
 20
1006.522223668674
 42
0.6701573805488371
 10
2680.872239220649
 20
1007.093598463802
 42
0.0
 10
2680.872239220649
 20
1035.158232140253
 42
0.0
 10
2568.06717912686
 20
1036.869073159242
 42
0.0
 10
2568.06717912686
 20
1034.547652054206
 42
0.0
 10
2678.434739220652
 20
1032.778018382713
 42
0.0
 10
2678.434739220649
 20
1011.047228232328
 42
0.0
 97
        0
 92
       23
 72
     0
 73
     1
 93
        6
 10
2675.713132619328
 20
1030.333638561194
 10
2568.06717912686
 20
1031.966234763971
 10
2568.06717912686
 20
1029.649142053135
 10
2673.440525816166
 20
1027.959585609006
 10
2674.195722119848
 20
1017.488685971574
 10
2676.62690708073
 20
1017.664031162496
 97
        0
 92
        7
 72
     0
 73
     1
 93
        4
 10
2568.06717912686
 20
1036.869073159243
 10
2519.301621392887
 20
1037.608668673981
 10
2519.301621392887
 20
1035.329559101003
 10
2568.06717912686
 20
1034.547652054206
 97
        0
 92
        7
 72
     0
 73
     1
 93
        4
 10
2568.06717912686
 20
1031.96623476397
 10
2519.301621392887
 20
1032.705830278709
 10
2519.301621392887
 20
1030.431049099933
 10
2568.06717912686
 20
1029.649142053135
 97
        0
 75
     0
 76
     1
 47
0.3346992676180318
 98
        4
 10
2676.477477862155
 20
1011.482623934047
 10
2675.280888926214
 20
1021.904550459432
 10
2541.944131417147
 20
1036.085235258732
 10
2540.576601204657
 20
1030.788822772935
  0
HATCH
  5
19B8
330
1F
100
AcDbEntity
  8
PROFILY
100
AcDbHatch
 10
0.0
 20
0.0
 30
0.0
210
0.0
220
0.0
230
1.0
  2
SOLID
 70
     1
 71
     0
 91
        3
 92
        7
 72
     0
 73
     1
 93
        4
 10
2363.023574049103
 20
1023.372996262169
 10
2363.023574049103
 20
1025.372996262169
 10
2343.10976925965
 20
1025.372996262169
 10
2343.10976925965
 20
1023.372996262169
 97
        0
 92
        7
 72
     0
 73
     1
 93
        4
 10
2399.820508134375
 20
1023.372996262169
 10
2399.820508134375
 20
1025.372996262169
 10
2381.734812392051
 20
1025.372996262169
 10
2381.734812392051
 20
1023.372996262169
 97
        0
 92
        7
 72
     0
 73
     1
 93
        4
 10
2418.205234665684
 20
1025.372996262169
 10
2418.205234665684
 20
1023.372996262168
 10
2426.652224209467
 20
1023.372996262169
 10
2426.652224209467
 20
1025.372996262169
 97
        0
 75
     0
 76
     1
 47
0.1493870652301444
 98
        3
 10
2353.675204078683
 20
1023.925516182418
 10
2387.604640946129
 20
1024.074872404504
 10
2419.291967936327
 20
1024.672441227521
  0
LINE
  5
19B9
330
1F
100
AcDbEntity
  8
PROFILY
100
AcDbLine
 10
2418.205234665684
 20
1023.372996262169
 30
0.0
 11
2418.205234665684
 21
1025.372996262169
 31
0.0
  0
LINE
  5
19BA
330
1F
100
AcDbEntity
  8
PROFILY
100
AcDbLine
 10
2399.820508134375
 20
1023.372996262169
 30
0.0
 11
2399.820508134375
 21
1025.372996262169
 31
0.0
  0
LINE
  5
19BB
330
1F
100
AcDbEntity
  8
PROFILY
100
AcDbLine
 10
2381.734812392051
 20
1023.372996262169
 30
0.0
 11
2381.734812392051
 21
1025.372996262169
 31
0.0
  0
LINE
  5
19BC
330
1F
100
AcDbEntity
  8
PROFILY
100
AcDbLine
 10
2343.10976925965
 20
1023.372996262169
 30
0.0
 11
2343.10976925965
 21
1025.372996262169
 31
0.0
  0
LINE
  5
19BD
330
1F
100
AcDbEntity
  8
PROFILY
100
AcDbLine
 10
2426.652224209467
 20
1025.372996262169
 30
0.0
 11
2426.652224209467
 21
1023.372996262169
 31
0.0
  0
LINE
  5
19BE
330
1F
100
AcDbEntity
  8
PROFILY
100
AcDbLine
 10
2341.109769259639
 20
1025.372996262169
 30
0.0
 11
2426.652224209467
 21
1025.372996262169
 31
0.0
  0
LINE
  5
19BF
330
1F
100
AcDbEntity
  8
PROFILY
100
AcDbLine
 10
2341.109769259639
 20
1023.372996262169
 30
0.0
 11
2341.109769259639
 21
1025.372996262169
 31
0.0
  0
LINE
  5
19C0
330
1F
100
AcDbEntity
  8
SPOJOVACÍ
100
AcDbLine
 10
2373.251085230722
 20
972.9242895694532
 30
0.0
 11
2373.407051193664
 21
973.5063624673985
 31
0.0
  0
LINE
  5
19C1
330
1F
100
AcDbEntity
  8
SPOJOVACÍ
100
AcDbLine
 10
2375.072811399184
 20
972.7254689234232
 30
0.0
 11
2375.31734193504
 21
973.6380693072478
 31
0.0
  0
LINE
  5
19C2
330
1F
100
AcDbEntity
  8
SPOJOVACÍ
100
AcDbLine
 10
2376.897026111173
 20
972.5359356482986
 30
0.0
 11
2377.306182405014
 21
974.0629277251592
 31
0.0
  0
LINE
  5
19C3
330
1F
100
AcDbEntity
  8
SPOJOVACÍ
100
AcDbLine
 10
2378.723735550882
 20
972.3557128237535
 30
0.0
 11
2379.231399123977
 21
974.2503390716992
 31
0.0
  0
LINE
  5
19C4
330
1F
100
AcDbEntity
  8
SPOJOVACÍ
100
AcDbLine
 10
2380.552946130233
 20
972.184824379461
 30
0.0
 11
2381.153701690715
 21
974.426874654112
 31
0.0
  0
LINE
  5
19C5
330
1F
100
AcDbEntity
  8
SPOJOVACÍ
100
AcDbLine
 10
2382.38466449169
 20
972.0232951053731
 30
0.0
 11
2383.073107646157
 21
974.5925999359688
 31
0.0
  0
LINE
  5
19C6
330
1F
100
AcDbEntity
  8
SPOJOVACÍ
100
AcDbLine
 10
2384.218897511067
 20
971.8711506624195
 30
0.0
 11
2384.989634100346
 21
974.7475787728653
 31
0.0
  0
LINE
  5
19C7
330
1F
100
AcDbEntity
  8
SPOJOVACÍ
100
AcDbLine
 10
2387.894936211834
 20
971.5951233358847
 30
0.0
 11
2388.814114850249
 21
975.0255447156868
 31
0.0
  0
LINE
  5
19C8
330
1F
100
AcDbEntity
  8
SPOJOVACÍ
100
AcDbLine
 10
2389.736756839256
 20
971.4712962316598
 30
0.0
 11
2390.722101299534
 21
975.1486518203837
 31
0.0
  0
LINE
  5
19C9
330
1F
100
AcDbEntity
  8
SPOJOVACÍ
100
AcDbLine
 10
2386.055652300563
 20
971.7284175936638
 30
0.0
 11
2386.903297742434
 21
974.8918734495456
 31
0.0
  0
LINE
  5
19CA
330
1F
100
AcDbEntity
  8
SPOJOVACÍ
100
AcDbLine
 10
2393.428039853841
 20
971.2521614588295
 30
0.0
 11
2394.529643768279
 21
975.3634032373284
 31
0.0
  0
LINE
  5
19CB
330
1F
100
AcDbEntity
  8
SPOJOVACÍ
100
AcDbLine
 10
2391.581122023262
 20
971.3569655418869
 30
0.0
 11
2392.627272572875
 21
975.2612525454178
 31
0.0
  0
LINE
  5
19CC
330
1F
100
AcDbEntity
  8
SPOJOVACÍ
100
AcDbLine
 10
2395.277518674176
 20
971.156915119649
 30
0.0
 11
2396.429229607469
 21
975.4551588383437
 31
0.0
  0
LINE
  5
19CD
330
1F
100
AcDbEntity
  8
SPOJOVACÍ
100
AcDbLine
 10
2345.967660754757
 20
959.1508161258371
 30
0.0
 11
2351.72194343641
 21
966.6508161258352
 31
0.0
  0
LINE
  5
19CE
330
1F
100
AcDbEntity
  8
SPOJOVACÍ
100
AcDbLine
 10
2345.967660754757
 20
987.2758161258371
 30
0.0
 11
2351.72194343641
 21
979.7758161258389
 31
0.0
  0
LINE
  5
19CF
330
1F
100
AcDbEntity
  8
SPOJOVACÍ
100
AcDbLine
 10
2344.981300025776
 20
961.150816125837
 30
0.0
 11
2350.735582707433
 21
968.6508161258352
 31
0.0
  0
LINE
  5
19D0
330
1F
100
AcDbEntity
  8
SPOJOVACÍ
100
AcDbLine
 10
2344.981300025776
 20
985.2758161258371
 30
0.0
 11
2350.735582707433
 21
977.7758161258388
 31
0.0
  0
LWPOLYLINE
  5
19D1
330
1F
100
AcDbEntity
  8
NOSNÉ KONSTRUKCE
100
AcDbPolyline
 90
        6
 70
     0
 43
0.0
 10
2384.643327721829
 20
923.2133161258353
 42
0.0128837512779302
 10
2384.358535761601
 20
926.5464809475815
 42
0.0351641677647434
 10
2383.730776040078
 20
930.1501904019206
 42
0.0187319685742942
 10
2380.346760159087
 20
941.9084277440633
 42
0.0582629403736403
 10
2378.687260291006
 20
945.4882619429954
 42
0.2042445348716764
 10
2343.10976925965
 20
970.7466101325298
  0
LWPOLYLINE
  5
19D2
330
1F
100
AcDbEntity
  8
NOSNÉ KONSTRUKCE
100
AcDbPolyline
 90
        4
 70
     0
 43
0.0
 10
2394.833057325833
 20
923.2133161258353
 42
0.0135911980674876
 10
2391.113925968608
 20
943.5420093083012
 42
0.0219777111230329
 10
2390.20781346662
 20
947.0601225641367
 42
0.2163722049316613
 10
2343.10976925965
 20
979.8203875181661
  0
LWPOLYLINE
  5
19D3
330
1F
100
AcDbEntity
  8
NOSNÉ KONSTRUKCE
100
AcDbPolyline
 90
        8
 70
     0
 43
0.0
 10
2376.019112341788
 20
923.2133161258353
 42
0.0120721047703132
 10
2375.950129651746
 20
924.9472042645793
 42
0.044358077361292
 10
2375.554501917073
 20
927.6430042829961
 42
0.0188067511131767
 10
2373.534678468689
 20
934.8852334583025
 42
0.0457786284636091
 10
2372.326655579074
 20
937.7338438411825
 42
0.0295006114745606
 10
2369.910595124774
 20
941.6607430545846
 42
0.0258674098621065
 10
2366.67791981081
 20
945.8065231333385
 42
0.2409478365688615
 10
2343.10976925965
 20
960.231070578312
 42
0.0884720560394402
  0
LWPOLYLINE
  5
19D4
330
1F
100
AcDbEntity
  8
NOSNÉ KONSTRUKCE
100
AcDbPolyline
 90
        2
 70
     0
 43
0.0
 10
2376.740737189151
 20
978.6499106158998
 42
0.1134617175825293
 10
2342.915650450462
 20
994.5900066588038
  0
LWPOLYLINE
  5
19D5
330
1F
100
AcDbEntity
  8
NOSNÉ KONSTRUKCE
100
AcDbPolyline
 90
        3
 70
     0
 43
0.0
 10
2348.721825277809
 20
973.0694864358174
 10
2368.718077709802
 20
982.2855154863374
 10
2372.718015343517
 20
982.9309129616795
  0
LINE
  5
19D6
330
1F
100
AcDbEntity
  8
SPOJOVACÍ
  6
DASHED
100
AcDbLine
 10
2484.57946249217
 20
966.6508161258352
 30
0.0
 11
2351.72194343641
 21
966.6508161258352
 31
0.0
  0
LINE
  5
19D7
330
1F
100
AcDbEntity
  8
SPOJOVACÍ
  6
DASHED
100
AcDbLine
 10
2484.579462492167
 20
979.7758161258343
 30
0.0
 11
2351.72194343641
 21
979.7758161258389
 31
0.0
  0
LINE
  5
19D8
330
1F
100
AcDbEntity
  8
SPOJOVACÍ
  6
DASHDOT2
100
AcDbLine
 10
2335.312636240594
 20
973.2133161258353
 30
0.0
 11
2520.55962160188
 21
973.2133161258344
 31
0.0
  0
LINE
  5
19D9
330
1F
100
AcDbEntity
  8
SPOJOVACÍ
  6
DASHED
100
AcDbLine
 10
2476.359163030547
 20
968.6508161258343
 30
0.0
 11
2350.735582707433
 21
968.6508161258352
 31
0.0
  0
LINE
  5
19DA
330
1F
100
AcDbEntity
  8
SPOJOVACÍ
  6
DASHED
100
AcDbLine
 10
2476.359163030544
 20
977.7758161258407
 30
0.0
 11
2350.735582707433
 21
977.7758161258388
 31
0.0
  0
LINE
  5
19DB
330
1F
100
AcDbEntity
  8
SPOJOVACÍ
100
AcDbLine
 10
2397.129567084391
 20
971.0712586204644
 30
0.0
 11
2398.326044443891
 21
975.536572916213
 31
0.0
  0
LINE
  5
19DC
330
1F
100
AcDbEntity
  8
SPOJOVACÍ
100
AcDbLine
 10
2398.984193945483
 20
970.9952250309452
 30
0.0
 11
2400.22010227039
 21
975.6076976929925
 31
0.0
  0
LINE
  5
19DD
330
1F
100
AcDbEntity
  8
SPOJOVACÍ
100
AcDbLine
 10
2403.391822835406
 20
970.7606282722117
 30
0.0
 11
2404.720490008518
 21
975.7192816686311
 31
0.0
  0
LINE
  5
19DE
330
1F
100
AcDbEntity
  8
SPOJOVACÍ
100
AcDbLine
 10
2401.561897285331
 20
970.9288484094596
 30
0.0
 11
2402.831905628662
 21
975.6685840728078
 31
0.0
  0
LINE
  5
19DF
330
1F
100
AcDbEntity
  8
SPOJOVACÍ
100
AcDbLine
 10
2405.648435032204
 20
972.184824379461
 30
0.0
 11
2406.139098422891
 21
974.0160050829226
 31
0.0
  0
LINE
  5
19E0
330
1F
100
AcDbEntity
  8
SPOJOVACÍ
100
AcDbLine
 10
2407.046442100136
 20
972.0232951053731
 30
0.0
 11
2407.612611931339
 21
974.136269681141
 31
0.0
  0
LINE
  5
19E1
330
1F
100
AcDbEntity
  8
SPOJOVACÍ
100
AcDbLine
 10
2408.880675119513
 20
971.8711506624195
 30
0.0
 11
2409.519073093621
 21
974.25368433724
 31
0.0
  0
LINE
  5
19E2
330
1F
100
AcDbEntity
  8
SPOJOVACÍ
100
AcDbLine
 10
2408.583111541882
 20
970.7606282722117
 30
0.0
 11
2409.936279287771
 21
975.8107190510418
 31
0.0
  0
LINE
  5
19E3
330
1F
100
AcDbEntity
  8
SPOJOVACÍ
100
AcDbLine
 10
2406.708111541882
 20
970.7606282722117
 30
0.0
 11
2408.055808731905
 21
975.7903026586063
 31
0.0
  0
LINE
  5
19E4
330
1F
100
AcDbEntity
  8
SPOJOVACÍ
100
AcDbLine
 10
2405.284126745113
 20
970.8252073424146
 30
0.0
 11
2406.606357266658
 21
975.7598388281312
 31
0.0
  0
LINE
  5
19E5
330
1F
100
AcDbEntity
  8
SPOJOVACÍ
100
AcDbLine
 10
2410.453410328298
 20
970.7430831042611
 30
0.0
 11
2411.81406961749
 21
975.821132703324
 31
0.0
  0
LINE
  5
19E6
330
1F
100
AcDbEntity
  8
SPOJOVACÍ
100
AcDbLine
 10
2412.326357257412
 20
970.7354209394052
 30
0.0
 11
2413.689191384137
 21
975.8215871426383
 31
0.0
  0
LINE
  5
19E7
330
1F
100
AcDbEntity
  8
SPOJOVACÍ
100
AcDbLine
 10
2414.201963436656
 20
970.7376832311583
 30
0.0
 11
2415.561655942887
 21
975.8121247470835
 31
0.0
  0
LINE
  5
19E8
330
1F
100
AcDbEntity
  8
SPOJOVACÍ
100
AcDbLine
 10
2416.080240276786
 20
970.749912565
 30
0.0
 11
2417.431474346614
 21
975.7927867665257
 31
0.0
  0
LINE
  5
19E9
330
1F
100
AcDbEntity
  8
SPOJOVACÍ
100
AcDbLine
 10
2417.961199497471
 20
970.7721526793729
 30
0.0
 11
2419.298657351266
 21
975.7636133427132
 31
0.0
  0
LWPOLYLINE
  5
19EA
330
1F
100
AcDbEntity
  8
NOSNÉ KONSTRUKCE
100
AcDbPolyline
 90
        3
 70
     0
 43
0.0
 10
2390.323916251529
 20
954.2162861749593
 10
2407.079133871257
 20
962.6000270429276
 10
2415.246238520381
 20
970.7813287440249
  0
LWPOLYLINE
  5
19EB
330
1F
100
AcDbEntity
  8
NOSNÉ KONSTRUKCE
100
AcDbPolyline
 90
        4
 70
     0
 43
0.0
 10
2420.500582549733
 20
923.2900656487618
 42
0.0135911980674875
 10
2414.921885513895
 20
953.7831054224607
 42
0.0219777111230329
 10
2413.562716760918
 20
959.0602753062139
 42
0.2158759397126542
 10
2343.10976925965
 20
1008.164842594275
 42
0.0618986513001703
  0
LWPOLYLINE
  5
19EC
330
1F
100
AcDbEntity
  8
NOSNÉ KONSTRUKCE
100
AcDbPolyline
 90
        2
 70
     0
 43
0.0
 10
2426.781182191398
 20
997.5846994501463
 42
0.1112051866389916
 10
2395.510290763736
 20
1023.213316125835
  0
LWPOLYLINE
  5
19ED
330
1F
100
AcDbEntity
  8
NOSNÉ KONSTRUKCE
100
AcDbPolyline
 90
        2
 70
     0
 43
0.0
 10
2424.245661949082
 20
970.2954808993753
 42
0.2104338366210547
 10
2344.161007989301
 20
1023.213316125835
  0
LWPOLYLINE
  5
19EE
330
1F
100
AcDbEntity
  8
NOSNÉ KONSTRUKCE
100
AcDbPolyline
 90
        6
 70
     0
 43
0.0
 10
2405.215988143731
 20
923.2900656487618
 42
0.0128837512779301
 10
2404.788800203392
 20
928.2898128813812
 42
0.0351641677647434
 10
2403.847160621108
 20
933.6953770628896
 42
0.0187319685742942
 10
2398.771136799621
 20
951.332733076104
 42
0.0582629403736403
 10
2396.281886997499
 20
956.702484374502
 42
0.0636293101863209
 10
2383.020417403973
 20
973.1837926747274
 42
0.0636293101863209
  0
LINE
  5
19EF
330
1F
100
AcDbEntity
  8
SPOJOVACÍ
100
AcDbLine
 10
2343.10976925965
 20
959.1508161258371
 30
0.0
 11
2345.967660754757
 21
959.1508161258371
 31
0.0
  0
LINE
  5
19F0
330
1F
100
AcDbEntity
  8
SPOJOVACÍ
100
AcDbLine
 10
2345.967660754757
 20
987.2758161258371
 30
0.0
 11
2343.10976925965
 21
987.2758161258371
 31
0.0
  0
LINE
  5
19F1
330
1F
100
AcDbEntity
  8
STAVBA OBRYS
100
AcDbLine
 10
2343.566796739285
 20
923.3729962621692
 30
0.0
 11
2343.5667967393
 21
487.7956439492932
 31
0.0
  0
LWPOLYLINE
  5
19F2
330
1F
100
AcDbEntity
  8
PROFILY
100
AcDbPolyline
 90
        4
 70
     1
 43
0.0
 10
2343.109769259643
 20
997.7503612599347
 10
2343.109769259643
 20
1016.932716404483
 10
2341.109769259643
 20
1016.932716404483
 10
2341.109769259643
 20
997.7503612599347
  0
HATCH
  5
19F3
330
1F
100
AcDbEntity
  8
PROFILY
100
AcDbHatch
 10
0.0
 20
0.0
 30
0.0
210
0.0
220
0.0
230
1.0
  2
SOLID
 70
     1
 71
     0
 91
        4
 92
        7
 72
     0
 73
     1
 93
        4
 10
2343.109769259643
 20
997.7503612599347
 10
2341.109769259643
 20
997.7503612599347
 10
2341.109769259643
 20
1016.932716404483
 10
2343.109769259643
 20
1016.932716404483
 97
        0
 92
        7
 72
     0
 73
     1
 93
        4
 10
2343.109769259643
 20
961.9354414137296
 10
2341.109769259643
 20
961.9354414137296
 10
2341.109769259639
 20
973.2133161258353
 10
2343.109769259646
 20
973.2133161258353
 97
        0
 92
        7
 72
     1
 73
     1
 93
        7
 10
2343.109769259643
 20
973.2133161258353
 42
0.0
 10
2341.109769259643
 20
973.2133161258353
 42
0.0
 10
2341.109769259643
 20
977.7705562425225
 42
0.486313530282424
 10
2342.656603821373
 20
978.9848005519438
 42
0.4863135302824241
 10
2341.109769259643
 20
980.1990448613651
 42
0.0
 10
2341.109769259643
 20
981.1177965582784
 42
0.0
 10
2343.109769259643
 20
981.1177965582784
 42
0.0
 97
        0
 92
        7
 72
     0
 73
     1
 93
        4
 10
2343.109769259643
 20
926.1205215675245
 10
2341.109769259643
 20
926.1205215675245
 10
2341.109769259643
 20
945.3028767120731
 10
2343.109769259643
 20
945.3028767120731
 97
        0
 75
     0
 76
     1
 47
0.2023988941542929
 98
        4
 10
2342.571572502476
 20
1008.994212948633
 10
2342.369035812849
 20
969.3240392900365
 10
2342.369035812849
 20
975.8008121278139
 10
2342.369035812849
 20
941.3929864135166
  0
LINE
  5
19F4
330
1F
100
AcDbEntity
  8
PROFILY
100
AcDbLine
 10
2343.10976925965
 20
487.7813161238377
 30
0.0
 11
2343.109769259643
 21
1023.372996262168
 31
0.0
  0
LWPOLYLINE
  5
19F5
330
1F
100
AcDbEntity
  8
NOSNÉ KONSTRUKCE
100
AcDbPolyline
 90
        4
 70
     1
 43
0.0
 10
2343.10976925965
 20
1023.372996262169
 10
2426.781182191398
 20
1023.372996262169
 10
2426.781182191398
 20
923.3729962621692
 10
2343.10976925965
 20
923.3729962621692
  0
LINE
  5
19F6
330
1F
100
AcDbEntity
  8
PROFILY
100
AcDbLine
 10
2341.109769259643
 20
487.7186160627088
 30
0.0
 11
2341.109769259639
 21
1023.372996262169
 31
0.0
  0
LINE
  5
19F7
330
1F
100
AcDbEntity
  8
STAVBA OBRYS
  6
IZOLACE
 48
4.099999999999999
100
AcDbLine
 10
2385.092507653918
 20
923.3729962621692
 30
0.0
 11
2385.092507653918
 21
489.0974762556661
 31
0.0
  0
LWPOLYLINE
  5
19F8
330
1F
100
AcDbEntity
  8
NOSNÉ KONSTRUKCE
100
AcDbPolyline
 90
        3
 70
     0
 43
0.0
 10
2349.818166717354
 20
928.7306468213538
 10
2366.573384337081
 20
937.1143876893221
 10
2374.740488986206
 20
945.2956893904193
  0
LWPOLYLINE
  5
19F9
330
1F
100
AcDbEntity
  8
NOSNÉ KONSTRUKCE
100
AcDbPolyline
 90
       10
 70
     0
 43
0.0
 10
2367.152053118274
 20
923.2133161258353
 42
0.0168162630274194
 10
2367.017027539213
 20
924.9043542779546
 42
0.0575155827655532
 10
2366.336995258867
 20
928.0039789386719
 42
0.0310289133982999
 10
2363.334193914043
 20
935.2490064633165
 42
0.0882970623535771
 10
2361.69697199395
 20
937.4893755141165
 42
0.0171636441953577
 10
2358.883607932088
 20
940.0032928693617
 42
0.0157521173632038
 10
2355.644753095051
 20
942.5347889218683
 42
0.0073640874174249
 10
2351.01110373873
 20
945.8231903476043
 42
0.0194185739168057
 10
2349.189060419054
 20
946.9747593468856
 42
0.0567960585128809
 10
2343.10976925965
 20
949.6266235522616
 42
0.0229547400386702
  0
LWPOLYLINE
  5
19FA
330
1F
100
AcDbEntity
  8
NOSNÉ KONSTRUKCE
100
AcDbPolyline
 90
        3
 70
     0
 43
0.0
 10
2369.110744342599
 20
929.7124856950905
 10
2389.106996774591
 20
938.9285147456103
 10
2393.106934408306
 20
939.5739122209525
  0
LWPOLYLINE
  5
19FB
330
1F
100
AcDbEntity
  8
NOSNÉ KONSTRUKCE
100
AcDbPolyline
 90
       11
 70
     0
 43
0.0
 10
2360.202275094589
 20
923.2133161258371
 42
0.0072417954699014
 10
2360.146704726748
 20
923.6247213371116
 42
0.0707158694326265
 10
2359.615578210328
 20
925.5608247897052
 42
0.033952657250207
 10
2357.36692237092
 20
929.9138625148788
 42
0.0571374688189033
 10
2355.580765611068
 20
932.2207867985653
 42
0.0274923553235744
 10
2352.983459880515
 20
934.6058621216998
 42
0.0255412025538677
 10
2349.932029842804
 20
936.8625757987192
 42
0.0272796991712396
 10
2345.819030689619
 20
939.2789116803815
 42
0.056967459841729
 10
2343.678083408883
 20
940.0916475155808
 42
0.0373408083348504
 10
2343.45572903341
 20
940.1308130565322
 42
0.0052305969362967
 10
2343.10976925965
 20
940.1617700234364
  0
LWPOLYLINE
  5
1A08
330
1F
100
AcDbEntity
  8
NOSNÉ KONSTRUKCE
100
AcDbPolyline
 90
        9
 70
     0
 43
0.0
 10
2352.974224073854
 20
923.2133161258371
 42
0.0064239028828688
 10
2352.93535563367
 20
923.4324297851872
 42
0.0832048017309575
 10
2352.151173030992
 20
925.762643364842
 42
0.0336767237692336
 10
2350.44835647207
 20
928.4909178843026
 42
0.0844635135812105
 10
2349.528546712177
 20
929.3953394892978
 42
0.0495829410719565
 10
2347.779868274823
 20
930.3719889966105
 42
0.0322692699774654
 10
2344.888514093733
 20
931.4135124980111
 42
0.0276160659512937
 10
2344.032937655442
 20
931.6102479269558
 42
0.0126891984598699
 10
2343.10976925965
 20
931.7454503164972
  0
LWPOLYLINE
  5
1A13
330
1F
100
AcDbEntity
  8
NOSNÉ KONSTRUKCE
100
AcDbPolyline
 90
        7
 70
     0
 43
0.0
 10
2347.624537739333
 20
923.2133161258353
 42
0.0203924744732807
 10
2346.722453754924
 20
924.2264461549893
 42
0.0273961979096945
 10
2345.872589404729
 20
925.0146225290155
 42
0.0243529190212958
 10
2344.709468912309
 20
925.8883818736832
 42
0.0398020282482987
 10
2343.934510374752
 20
926.3280106171295
 42
0.104168275620852
 10
2343.548099238409
 20
926.4180270773067
 42
0.007272956268647
 10
2343.10976925965
 20
926.4364804286016
 42
0.007272956268647
  0
HATCH
  5
1A14
330
1F
100
AcDbEntity
  8
PROFILY
100
AcDbHatch
 10
0.0
 20
0.0
 30
0.0
210
0.0
220
0.0
230
1.0
  2
SOLID
 70
     1
 71
     0
 91
        4
 92
        7
 72
     0
 73
     1
 93
        4
 10
2343.109769259643
 20
592.6248953658605
 10
2341.109769259643
 20
592.6248953658605
 10
2341.109769259643
 20
611.8072505104091
 10
2343.109769259643
 20
611.8072505104091
 97
        0
 92
        7
 72
     0
 73
     1
 93
        4
 10
2343.109769259643
 20
555.8196935818296
 10
2341.109769259643
 20
555.8196935818296
 10
2341.109769259643
 20
575.0020487263782
 10
2343.109769259643
 20
575.0020487263782
 97
        0
 92
        7
 72
     0
 73
     1
 93
        4
 10
2343.109769259643
 20
516.7160468330867
 10
2341.109769259643
 20
516.7160468330867
 10
2341.109769259643
 20
535.8984019776353
 10
2343.109769259643
 20
535.8984019776353
 97
        0
 92
        7
 72
     0
 73
     1
 93
        4
 10
2343.109769259643
 20
480.3047462965069
 10
2341.109769259643
 20
480.3047462965069
 10
2341.109769259643
 20
499.4871014410555
 10
2343.109769259643
 20
499.4871014410555
 97
        0
 75
     0
 76
     1
 47
0.2832868271764444
 98
        4
 10
2341.643661022562
 20
601.7259434597249
 10
2341.927165810031
 20
564.3320488247586
 10
2342.2105929675
 20
528.637926832252
 10
2342.2105929675
 20
488.6944691900457
  0
HATCH
  5
1A15
330
1F
100
AcDbEntity
  8
PROFILY
100
AcDbHatch
 10
0.0
 20
0.0
 30
0.0
210
0.0
220
0.0
230
1.0
  2
SOLID
 70
     1
 71
     0
 91
        4
 92
        7
 72
     0
 73
     1
 93
        4
 10
2343.109769259643
 20
741.9528582738157
 10
2341.109769259643
 20
741.9528582738157
 10
2341.109769259643
 20
761.1352134183643
 10
2343.109769259643
 20
761.1352134183643
 97
        0
 92
        7
 72
     0
 73
     1
 93
        4
 10
2343.109769259643
 20
705.1476564897848
 10
2341.109769259643
 20
705.1476564897848
 10
2341.109769259643
 20
724.3300116343334
 10
2343.109769259643
 20
724.3300116343334
 97
        0
 92
        7
 72
     0
 73
     1
 93
        4
 10
2343.109769259643
 20
666.0440097410419
 10
2341.109769259643
 20
666.0440097410419
 10
2341.109769259643
 20
685.2263648855905
 10
2343.109769259643
 20
685.2263648855905
 97
        0
 92
        7
 72
     0
 73
     1
 93
        4
 10
2343.109769259643
 20
629.6327092044621
 10
2341.109769259643
 20
629.6327092044621
 10
2341.109769259643
 20
648.8150643490107
 10
2343.109769259643
 20
648.8150643490107
 97
        0
 75
     0
 76
     1
 47
0.2832868271764444
 98
        4
 10
2341.643661022562
 20
751.0539063676802
 10
2341.927165810031
 20
713.6600117327138
 10
2342.2105929675
 20
677.9658897402073
 10
2342.2105929675
 20
638.0224320980009
  0
HATCH
  5
1A16
330
1F
100
AcDbEntity
  8
PROFILY
100
AcDbHatch
 10
0.0
 20
0.0
 30
0.0
210
0.0
220
0.0
230
1.0
  2
SOLID
 70
     1
 71
     0
 91
        4
 92
        7
 72
     0
 73
     1
 93
        4
 10
2343.109769259643
 20
891.300156407432
 10
2341.109769259643
 20
891.300156407432
 10
2341.109769259643
 20
910.4825115519806
 10
2343.109769259643
 20
910.4825115519806
 97
        0
 92
        7
 72
     0
 73
     1
 93
        4
 10
2343.109769259643
 20
854.4949546234011
 10
2341.109769259643
 20
854.4949546234011
 10
2341.109769259643
 20
873.6773097679497
 10
2343.109769259643
 20
873.6773097679497
 97
        0
 92
        7
 72
     0
 73
     1
 93
        4
 10
2343.109769259643
 20
815.3913078746581
 10
2341.109769259643
 20
815.3913078746581
 10
2341.109769259643
 20
834.5736630192067
 10
2343.109769259643
 20
834.5736630192067
 97
        0
 92
        7
 72
     0
 73
     1
 93
        4
 10
2343.109769259643
 20
778.9800073380783
 10
2341.109769259643
 20
778.9800073380783
 10
2341.109769259643
 20
798.162362482627
 10
2343.109769259643
 20
798.162362482627
 97
        0
 75
     0
 76
     1
 47
0.2832868271764444
 98
        4
 10
2341.643661022562
 20
900.4012045012965
 10
2341.927165810031
 20
863.00730986633
 10
2342.2105929675
 20
827.3131878738237
 10
2342.2105929675
 20
787.3697302316172
  0
LINE
  5
1A17
330
1F
100
AcDbEntity
  8
SPOJOVACÍ
100
AcDbLine
 10
2461.169119697491
 20
971.6912382409555
 30
0.0
 11
2462.003179750767
 21
974.8039927363461
 31
0.0
  0
LINE
  5
1A18
330
1F
100
AcDbEntity
  8
SPOJOVACÍ
100
AcDbLine
 10
2459.2683657863
 20
971.5951233358847
 30
0.0
 11
2460.164356306746
 21
974.9390054813048
 31
0.0
  0
LINE
  5
1A19
330
1F
100
AcDbEntity
  8
SPOJOVACÍ
100
AcDbLine
 10
2444.127996658857
 20
971.0712586204644
 30
0.0
 11
2445.361810699584
 21
975.6759153075345
 31
0.0
  0
LINE
  5
1A1A
330
1F
100
AcDbEntity
  8
SPOJOVACÍ
100
AcDbLine
 10
2445.982623519949
 20
970.9952250309452
 30
0.0
 11
2447.080056453689
 21
975.0909004975611
 31
0.0
  0
LINE
  5
1A1B
330
1F
100
AcDbEntity
  8
SPOJOVACÍ
100
AcDbLine
 10
2447.839837957826
 20
970.9288484094596
 30
0.0
 11
2449.077892358107
 21
975.5493303338525
 31
0.0
  0
LINE
  5
1A1C
330
1F
100
AcDbEntity
  8
SPOJOVACÍ
100
AcDbLine
 10
2455.443604057878
 20
971.3161087669577
 30
0.0
 11
2456.479095672444
 21
975.1806160833421
 31
0.0
  0
LINE
  5
1A1D
330
1F
100
AcDbEntity
  8
SPOJOVACÍ
100
AcDbLine
 10
2453.540724786888
 20
971.2120619111502
 30
0.0
 11
2454.632642642389
 21
975.2871548255606
 31
0.0
  0
LINE
  5
1A1E
330
1F
100
AcDbEntity
  8
SPOJOVACÍ
100
AcDbLine
 10
2451.640633521563
 20
971.1184200341321
 30
0.0
 11
2452.776713298544
 21
975.3583274832799
 31
0.0
  0
LINE
  5
1A1F
330
1F
100
AcDbEntity
  8
SPOJOVACÍ
100
AcDbLine
 10
2449.743315842074
 20
971.0351293203784
 30
0.0
 11
2450.932049668407
 21
975.471544356913
 31
0.0
  0
LINE
  5
1A20
330
1F
100
AcDbEntity
  8
SPOJOVACÍ
100
AcDbLine
 10
2457.429081875021
 20
971.7284175936638
 30
0.0
 11
2458.322997545785
 21
975.0645562946193
 31
0.0
  0
LINE
  5
1A21
330
1F
100
AcDbEntity
  8
SPOJOVACÍ
  6
DASHED
100
AcDbLine
 10
2488.368323633725
 20
973.2133161258344
 30
0.0
 11
2484.57946249217
 21
966.6508161258352
 31
0.0
  0
LINE
  5
1A22
330
1F
100
AcDbEntity
  8
SPOJOVACÍ
  6
DASHED
100
AcDbLine
 10
2478.993323633725
 20
973.2133161258333
 30
0.0
 11
2476.359163030547
 21
968.6508161258343
 31
0.0
  0
LINE
  5
1A23
330
1F
100
AcDbEntity
  8
SPOJOVACÍ
100
AcDbLine
 10
2463.083302706325
 20
971.8374712207205
 30
0.0
 11
2463.848955650375
 21
974.6949269088682
 31
0.0
  0
LINE
  5
1A24
330
1F
100
AcDbEntity
  8
SPOJOVACÍ
100
AcDbLine
 10
2465.000351531232
 20
971.9943995716766
 30
0.0
 11
2465.673250645826
 21
974.5056932557044
 31
0.0
  0
LINE
  5
1A25
330
1F
100
AcDbEntity
  8
SPOJOVACÍ
100
AcDbLine
 10
2466.920282937181
 20
972.1620858615224
 30
0.0
 11
2467.504512473728
 21
974.3424601751994
 31
0.0
  0
LINE
  5
1A26
330
1F
100
AcDbEntity
  8
SPOJOVACÍ
100
AcDbLine
 10
2468.843114111818
 20
972.3405942354602
 30
0.0
 11
2469.333267744705
 21
974.1698724969028
 31
0.0
  0
LINE
  5
1A27
330
1F
100
AcDbEntity
  8
SPOJOVACÍ
100
AcDbLine
 10
2472.697546691697
 20
972.7303419295258
 30
0.0
 11
2472.983284787171
 21
973.7967310194845
 31
0.0
  0
LINE
  5
1A28
330
1F
100
AcDbEntity
  8
SPOJOVACÍ
100
AcDbLine
 10
2474.629184677715
 20
972.9417177709729
 30
0.0
 11
2474.804559072023
 21
973.5962239208893
 31
0.0
  0
LINE
  5
1A29
330
1F
100
AcDbEntity
  8
SPOJOVACÍ
100
AcDbLine
 10
2476.563795615946
 20
973.164188821158
 30
0.0
 11
2476.623351832042
 21
973.3864556455392
 31
0.0
  0
LINE
  5
1A2A
330
1F
100
AcDbEntity
  8
SPOJOVACÍ
100
AcDbLine
 10
2470.76886267551
 20
972.529990453555
 30
0.0
 11
2471.159523059081
 21
973.9879548535464
 31
0.0
  0
LINE
  5
1A2B
330
1F
100
AcDbEntity
  8
SPOJOVACÍ
  6
DASHED
100
AcDbLine
 10
2478.993323633725
 20
973.2133161258344
 30
0.0
 11
2476.359163030544
 21
977.7758161258407
 31
0.0
  0
LINE
  5
1A2C
330
1F
100
AcDbEntity
  8
SPOJOVACÍ
  6
DASHED
100
AcDbLine
 10
2488.368323633725
 20
973.2133161258344
 30
0.0
 11
2484.579462492167
 21
979.7758161258343
 31
0.0
  0
LINE
  5
1A2D
330
1F
100
AcDbEntity
  8
SPOJOVACÍ
100
AcDbLine
 10
2442.181505099177
 20
970.8044484874326
 30
0.0
 11
2443.499867387088
 21
975.7246435286951
 31
0.0
  0
LINE
  5
1A2E
330
1F
100
AcDbEntity
  8
SPOJOVACÍ
100
AcDbLine
 10
2440.29785146349
 20
970.7721526793729
 30
0.0
 11
2441.635309317286
 21
975.7636133427132
 31
0.0
  0
LINE
  5
1A2F
330
1F
100
AcDbEntity
  8
SPOJOVACÍ
100
AcDbLine
 10
2438.416892242805
 20
970.749912565
 30
0.0
 11
2439.768126312634
 21
975.7927867665257
 31
0.0
  0
LINE
  5
1A30
330
1F
100
AcDbEntity
  8
SPOJOVACÍ
100
AcDbLine
 10
2436.538615402676
 20
970.7376832311583
 30
0.0
 11
2437.898307908906
 21
975.8121247470835
 31
0.0
  0
LINE
  5
1A31
330
1F
100
AcDbEntity
  8
SPOJOVACÍ
100
AcDbLine
 10
2434.663009223431
 20
970.7354209394052
 30
0.0
 11
2436.025843350156
 21
975.8215871426383
 31
0.0
  0
LINE
  5
1A32
330
1F
100
AcDbEntity
  8
SPOJOVACÍ
100
AcDbLine
 10
2432.790062294317
 20
970.7430831042611
 30
0.0
 11
2434.15072158351
 21
975.821132703324
 31
0.0
  0
LINE
  5
1A33
330
1F
100
AcDbEntity
  8
SPOJOVACÍ
100
AcDbLine
 10
2427.187067417608
 20
970.8252073424146
 30
0.0
 11
2428.509297939154
 21
975.7598388281312
 31
0.0
  0
LINE
  5
1A34
330
1F
100
AcDbEntity
  8
SPOJOVACÍ
100
AcDbLine
 10
2429.044763507901
 20
970.7606282722117
 30
0.0
 11
2430.392460697925
 21
975.7903026586063
 31
0.0
  0
LINE
  5
1A35
330
1F
100
AcDbEntity
  8
SPOJOVACÍ
100
AcDbLine
 10
2430.919763507901
 20
970.7606282722117
 30
0.0
 11
2432.27293125379
 21
975.8107190510418
 31
0.0
  0
LINE
  5
1A36
330
1F
100
AcDbEntity
  8
SPOJOVACÍ
100
AcDbLine
 10
2431.217327085533
 20
971.8711506624195
 30
0.0
 11
2431.85572505964
 21
974.25368433724
 31
0.0
  0
LINE
  5
1A37
330
1F
100
AcDbEntity
  8
SPOJOVACÍ
100
AcDbLine
 10
2429.383094066155
 20
972.0232951053731
 30
0.0
 11
2429.949263897359
 21
974.136269681141
 31
0.0
  0
LINE
  5
1A38
330
1F
100
AcDbEntity
  8
SPOJOVACÍ
100
AcDbLine
 10
2427.551375704699
 20
972.184824379461
 30
0.0
 11
2428.042039095386
 21
974.0160050829226
 31
0.0
  0
LINE
  5
1A39
330
1F
100
AcDbEntity
  8
SPOJOVACÍ
100
AcDbLine
 10
2423.464837957826
 20
970.9288484094596
 30
0.0
 11
2424.734846301157
 21
975.6685840728078
 31
0.0
  0
LINE
  5
1A3A
330
1F
100
AcDbEntity
  8
SPOJOVACÍ
100
AcDbLine
 10
2425.294763507901
 20
970.7606282722117
 30
0.0
 11
2426.623430681013
 21
975.7192816686311
 31
0.0
  0
LWPOLYLINE
  5
1A3B
330
1F
100
AcDbEntity
  8
STAVBA OBRYS
100
AcDbPolyline
 90
        2
 70
     0
 43
0.0
 10
2426.781182191398
 20
966.176218693211
 42
0.0020939004487291
 10
2426.27211195461
 20
967.033942136206
  0
LINE
  5
1A3C
330
1F
100
AcDbEntity
  8
SPOJOVACÍ
100
AcDbLine
 10
2419.844853133158
 20
970.8044484874326
 30
0.0
 11
2421.163215421069
 21
975.7246435286951
 31
0.0
  0
LINE
  5
1A3D
330
1F
100
AcDbEntity
  8
SPOJOVACÍ
100
AcDbLine
 10
2421.791344692838
 20
971.0712586204644
 30
0.0
 11
2423.025158733564
 21
975.6759153075345
 31
0.0
  0
TEXT
  5
1A3E
330
1F
100
AcDbEntity
  8
POPIS
100
AcDbText
 10
2156.86297621159
 20
-38.18631486285858
 30
0.0
 40
25.0
  1
09
 41
0.85
  7
SIMPLEX7
100
AcDbText
  0
TEXT
  5
1A3F
330
1F
100
AcDbEntity
  8
POPIS
100
AcDbText
 10
2156.86297621159
 20
-4.517881611955544
 30
0.0
 40
25.0
  1
08
 41
0.85
  7
SIMPLEX7
100
AcDbText
  0
TEXT
  5
1A40
330
1F
100
AcDbEntity
  8
POPIS
100
AcDbText
 10
2212.740977995623
 20
-3.318515940675297
 30
0.0
 40
25.0
  1
Silikonový tmel
 41
0.7
  7
SIMPLEX7
100
AcDbText
  0
TEXT
  5
1A41
330
1F
100
AcDbEntity
  8
POPIS
100
AcDbText
 10
2158.575891372735
 20
176.7388088290485
 30
0.0
 40
25.0
  1
03
 41
0.85
  7
SIMPLEX7
100
AcDbText
  0
TEXT
  5
1A42
330
1F
100
AcDbEntity
  8
POPIS
100
AcDbText
 10
2212.697206575021
 20
139.919192323849
 30
0.0
 40
25.0
  1
Vzduchová mezera - min. 25 mm
 41
0.7
  7
SIMPLEX7
100
AcDbText
  0
TEXT
  5
1A43
330
1F
100
AcDbEntity
  8
POPIS
100
AcDbText
 10
2213.584660917362
 20
68.82437164282919
 30
0.0
 40
25.0
  1
Vodorovná dřevěná lať š=100 mm (tloušťka dle izolace)
 41
0.7
  7
SIMPLEX7
100
AcDbText
  0
TEXT
  5
1A44
330
1F
100
AcDbEntity
  8
POPIS
100
AcDbText
 10
2213.584660917362
 20
104.4432603409181
 30
0.0
 40
25.0
  1
Pojistná fólie - parozábrana
 41
0.7
  7
SIMPLEX7
100
AcDbText
  0
TEXT
  5
1A45
330
1F
100
AcDbEntity
  8
POPIS
100
AcDbText
 10
2212.697206575021
 20
176.2177440258987
 30
0.0
 40
25.0
  1
Svislá dřevěné lať 50x25 (100x25), impregnovaná
 41
0.7
  7
SIMPLEX7
100
AcDbText
  0
TEXT
  5
1A46
330
1F
100
AcDbEntity
  8
POPIS
100
AcDbText
 10
2212.740977995623
 20
34.09082768353573
 30
0.0
 40
25.0
  1
Tepelná izolace (np. ORSIL, ROCKWOOL, ISOVER, NOBASIL)
 41
0.7
  7
SIMPLEX7
100
AcDbText
  0
TEXT
  5
1A47
330
1F
100
AcDbEntity
  8
POPIS
100
AcDbText
 10
2158.27686344223
 20
140.2848343953251
 30
0.0
 40
25.0
  1
04
 41
0.85
  7
SIMPLEX7
100
AcDbText
  0
TEXT
  5
1A48
330
1F
100
AcDbEntity
  8
POPIS
100
AcDbText
 10
2156.86297621159
 20
68.51035071034448
 30
0.0
 40
25.0
  1
06
 41
0.85
  7
SIMPLEX7
100
AcDbText
  0
TEXT
  5
1A49
330
1F
100
AcDbEntity
  8
POPIS
100
AcDbText
 10
2156.86297621159
 20
32.89146201225548
 30
0.0
 40
25.0
  1
07
 41
0.85
  7
SIMPLEX7
100
AcDbText
  0
TEXT
  5
1A4A
330
1F
100
AcDbEntity
  8
POPIS
100
AcDbText
 10
2155.975521869249
 20
103.9862826932753
 30
0.0
 40
25.0
  1
05
 41
0.85
  7
SIMPLEX7
100
AcDbText
  0
LINE
  5
1A4B
330
1F
100
AcDbEntity
  8
POPIS
100
AcDbLine
 10
2325.595763290019
 20
705.479194096943
 30
0.0
 11
2329.015237077756
 21
710.8604907444214
 31
0.0
  0
LINE
  5
1A4C
330
1F
100
AcDbEntity
  8
POPIS
100
AcDbLine
 10
2332.4347108655
 20
705.479194096943
 30
0.0
 11
2329.015237077763
 21
710.8604907444214
 31
0.0
  0
HATCH
  5
1A4D
330
1F
100
AcDbEntity
  8
POPIS
100
AcDbHatch
 10
0.0
 20
0.0
 30
0.0
210
0.0
220
0.0
230
1.0
  2
SOLID
 70
     1
 71
     0
 91
        1
 92
        7
 72
     0
 73
     1
 93
        8
 10
2330.908964917545
 20
718.4148379960269
 10
2334.58780625514
 20
718.4148379960265
 10
2329.015237077759
 20
726.2156900789245
 10
2323.442667900379
 20
718.4148379960261
 10
2327.121509237973
 20
718.4148379960269
 10
2325.595763290019
 20
705.4791940969453
 10
2329.015237077759
 20
710.8604907444268
 10
2332.434710865503
 20
705.4791940969421
 97
        0
 75
     0
 76
     1
 47
0.3835833255279223
 98
        1
 10
2329.423419825014
 20
715.5066548155268
  0
LINE
  5
1A4E
330
1F
100
AcDbEntity
  8
POPIS
100
AcDbLine
 10
2329.015237077759
 20
726.2156900789237
 30
0.0
 11
2323.442667900379
 21
718.4148379960265
 31
0.0
  0
LINE
  5
1A4F
330
1F
100
AcDbEntity
  8
POPIS
100
AcDbLine
 10
2323.442667900379
 20
718.4148379960265
 30
0.0
 11
2327.121509237977
 21
718.4148379960265
 31
0.0
  0
LINE
  5
1A50
330
1F
100
AcDbEntity
  8
POPIS
100
AcDbLine
 10
2327.121509237977
 20
718.4148379960265
 30
0.0
 11
2325.595763290019
 21
705.479194096943
 31
0.0
  0
LINE
  5
1A51
330
1F
100
AcDbEntity
  8
POPIS
100
AcDbLine
 10
2330.908964917542
 20
718.4148379960265
 30
0.0
 11
2332.4347108655
 21
705.479194096943
 31
0.0
  0
LINE
  5
1A52
330
1F
100
AcDbEntity
  8
POPIS
100
AcDbLine
 10
2334.58780625514
 20
718.4148379960265
 30
0.0
 11
2330.908964917542
 21
718.4148379960265
 31
0.0
  0
LINE
  5
1A53
330
1F
100
AcDbEntity
  8
POPIS
100
AcDbLine
 10
2329.015237077759
 20
726.2156900789237
 30
0.0
 11
2334.58780625514
 21
718.4148379960265
 31
0.0
  0
LINE
  5
1A54
330
1F
100
AcDbEntity
  8
POPIS
100
AcDbLine
 10
2325.595763290019
 20
923.5877990097929
 30
0.0
 11
2329.015237077756
 21
928.9690956572712
 31
0.0
  0
LINE
  5
1A55
330
1F
100
AcDbEntity
  8
POPIS
100
AcDbLine
 10
2332.4347108655
 20
923.5877990097929
 30
0.0
 11
2329.015237077763
 21
928.9690956572712
 31
0.0
  0
HATCH
  5
1A56
330
1F
100
AcDbEntity
  8
POPIS
100
AcDbHatch
 10
0.0
 20
0.0
 30
0.0
210
0.0
220
0.0
230
1.0
  2
SOLID
 70
     1
 71
     0
 91
        1
 92
        7
 72
     0
 73
     1
 93
        8
 10
2330.908964917542
 20
936.5234429088763
 10
2334.587806255143
 20
936.5234429088769
 10
2329.015237077759
 20
944.3242949917753
 10
2323.442667900379
 20
936.5234429088763
 10
2327.121509237977
 20
936.5234429088769
 10
2325.595763290015
 20
923.5877990097902
 10
2329.015237077759
 20
928.9690956572794
 10
2332.434710865503
 20
923.587799009787
 97
        0
 75
     0
 76
     1
 47
0.3835833255279223
 98
        1
 10
2329.423419825014
 20
933.6152597283767
  0
LINE
  5
1A57
330
1F
100
AcDbEntity
  8
POPIS
100
AcDbLine
 10
2329.015237077759
 20
944.3242949917735
 30
0.0
 11
2323.442667900379
 21
936.5234429088763
 31
0.0
  0
LINE
  5
1A58
330
1F
100
AcDbEntity
  8
POPIS
100
AcDbLine
 10
2323.442667900379
 20
936.5234429088763
 30
0.0
 11
2327.121509237977
 21
936.5234429088763
 31
0.0
  0
LINE
  5
1A59
330
1F
100
AcDbEntity
  8
POPIS
100
AcDbLine
 10
2327.121509237977
 20
936.5234429088763
 30
0.0
 11
2325.595763290019
 21
923.5877990097929
 31
0.0
  0
LINE
  5
1A5A
330
1F
100
AcDbEntity
  8
POPIS
100
AcDbLine
 10
2330.908964917542
 20
936.5234429088763
 30
0.0
 11
2332.4347108655
 21
923.5877990097929
 31
0.0
  0
LINE
  5
1A5B
330
1F
100
AcDbEntity
  8
POPIS
100
AcDbLine
 10
2334.58780625514
 20
936.5234429088763
 30
0.0
 11
2330.908964917542
 21
936.5234429088763
 31
0.0
  0
LINE
  5
1A5C
330
1F
100
AcDbEntity
  8
POPIS
100
AcDbLine
 10
2329.015237077759
 20
944.3242949917735
 30
0.0
 11
2334.58780625514
 21
936.5234429088763
 31
0.0
  0
LINE
  5
1A5D
330
1F
100
AcDbEntity
  8
POPIS
100
AcDbLine
 10
2329.015237077759
 20
529.4480309784526
 30
0.0
 11
2334.58780625514
 21
521.6471788955555
 31
0.0
  0
LINE
  5
1A5E
330
1F
100
AcDbEntity
  8
POPIS
100
AcDbLine
 10
2334.58780625514
 20
521.6471788955555
 30
0.0
 11
2330.908964917542
 21
521.6471788955555
 31
0.0
  0
LINE
  5
1A5F
330
1F
100
AcDbEntity
  8
POPIS
100
AcDbLine
 10
2330.908964917542
 20
521.6471788955555
 30
0.0
 11
2332.4347108655
 21
508.711534996472
 31
0.0
  0
LINE
  5
1A60
330
1F
100
AcDbEntity
  8
POPIS
100
AcDbLine
 10
2327.121509237977
 20
521.6471788955555
 30
0.0
 11
2325.595763290019
 21
508.711534996472
 31
0.0
  0
LINE
  5
1A61
330
1F
100
AcDbEntity
  8
POPIS
100
AcDbLine
 10
2323.442667900379
 20
521.6471788955555
 30
0.0
 11
2327.121509237977
 21
521.6471788955555
 31
0.0
  0
LINE
  5
1A62
330
1F
100
AcDbEntity
  8
POPIS
100
AcDbLine
 10
2329.015237077759
 20
529.4480309784526
 30
0.0
 11
2323.442667900379
 21
521.6471788955555
 31
0.0
  0
HATCH
  5
1A63
330
1F
100
AcDbEntity
  8
POPIS
100
AcDbHatch
 10
0.0
 20
0.0
 30
0.0
210
0.0
220
0.0
230
1.0
  2
SOLID
 70
     1
 71
     0
 91
        1
 92
        7
 72
     0
 73
     1
 93
        8
 10
2330.908964917545
 20
521.6471788955555
 10
2334.587806255143
 20
521.6471788955555
 10
2329.015237077759
 20
529.4480309784526
 10
2323.442667900383
 20
521.647178895555
 10
2327.121509237977
 20
521.6471788955559
 10
2325.595763290019
 20
508.711534996472
 10
2329.015237077759
 20
514.0928316439567
 10
2332.434710865496
 20
508.7115349964729
 97
        0
 75
     0
 76
     1
 47
0.3835833255279223
 98
        1
 10
2329.423419825014
 20
518.7389957150558
  0
LINE
  5
1A64
330
1F
100
AcDbEntity
  8
POPIS
100
AcDbLine
 10
2332.4347108655
 20
508.711534996472
 30
0.0
 11
2329.015237077763
 21
514.0928316439503
 31
0.0
  0
LINE
  5
1A65
330
1F
100
AcDbEntity
  8
POPIS
100
AcDbLine
 10
2325.595763290019
 20
508.711534996472
 30
0.0
 11
2329.015237077756
 21
514.0928316439503
 31
0.0
  0
LINE
  5
1A66
330
1F
100
AcDbEntity
  8
PROFILY
100
AcDbLine
 10
2519.301621392891
 20
1051.502931936331
 30
0.0
 11
2519.301621392891
 21
1001.674280786683
 31
0.0
  0
LINE
  5
1A67
330
1F
100
AcDbEntity
  8
PROFILY
100
AcDbLine
 10
2568.06717912686
 20
1051.502931936331
 30
0.0
 11
2568.06717912686
 21
1001.674280786683
 31
0.0
  0
LINE
  5
1A68
330
1F
100
AcDbEntity
  8
SPOJOVACÍ
  6
Continuous
100
AcDbLine
 10
2306.029985660445
 20
494.4287162584751
 30
0.0
 11
2304.763551891081
 21
493.5501931947169
 31
0.0
  0
LINE
  5
1A69
330
1F
100
AcDbEntity
  8
SPOJOVACÍ
  6
Continuous
100
AcDbLine
 10
2307.480318002375
 20
494.9495888301007
 30
0.0
 11
2306.029985660445
 21
494.4287162584751
 31
0.0
  0
LINE
  5
1A6A
330
1F
100
AcDbEntity
  8
SPOJOVACÍ
  6
Continuous
100
AcDbLine
 10
2309.015380766026
 20
495.0781835654847
 30
0.0
 11
2307.480318002375
 21
494.9495888301007
 31
0.0
  0
LINE
  5
1A6B
330
1F
100
AcDbEntity
  8
SPOJOVACÍ
  6
Continuous
100
AcDbLine
 10
2302.188438512736
 20
491.7595151776118
 30
0.0
 11
2303.385885734629
 21
491.6824151109162
 31
0.0
  0
LINE
  5
1A6C
330
1F
100
AcDbEntity
  8
SPOJOVACÍ
  6
Continuous
100
AcDbLine
 10
2302.843848847087
 20
501.9387448166662
 30
0.0
 11
2302.188438512736
 21
491.7595151776118
 31
0.0
  0
LINE
  5
1A6D
330
1F
100
AcDbEntity
  8
SPOJOVACÍ
  6
Continuous
100
AcDbLine
 10
2302.843848847087
 20
501.9387448166662
 30
0.0
 11
2304.041296068984
 21
501.8616447499712
 31
0.0
  0
LINE
  5
1A6E
330
1F
100
AcDbEntity
  8
SPOJOVACÍ
  6
Continuous
100
AcDbLine
 10
2304.041296068984
 20
501.8616447499712
 30
0.0
 11
2303.385885734629
 21
491.6824151109162
 31
0.0
  0
LINE
  5
1A6F
330
1F
100
AcDbEntity
  8
SPOJOVACÍ
  6
Continuous
100
AcDbLine
 10
2303.767874761944
 20
492.3746063422095
 30
0.0
 11
2303.385885734629
 21
491.6824151109162
 31
0.0
  0
LINE
  5
1A70
330
1F
100
AcDbEntity
  8
SPOJOVACÍ
  6
Continuous
100
AcDbLine
 10
2304.763551891081
 20
493.5501931947169
 30
0.0
 11
2303.767874761944
 21
492.3746063422095
 31
0.0
  0
LINE
  5
1A71
330
1F
100
AcDbEntity
  8
SPOJOVACÍ
  6
Continuous
100
AcDbLine
 10
2308.407766928137
 20
497.8884450007463
 30
0.0
 11
2309.188826032534
 21
497.7719756909086
 31
0.0
  0
LINE
  5
1A72
330
1F
100
AcDbEntity
  8
SPOJOVACÍ
  6
Continuous
100
AcDbLine
 10
2306.957480147774
 20
498.410591532454
 30
0.0
 11
2308.407766928137
 21
497.8884450007463
 31
0.0
  0
LINE
  5
1A73
330
1F
100
AcDbEntity
  8
SPOJOVACÍ
  6
Continuous
100
AcDbLine
 10
2305.692377432018
 20
499.289926969614
 30
0.0
 11
2306.957480147774
 21
498.410591532454
 31
0.0
  0
LINE
  5
1A74
330
1F
100
AcDbEntity
  8
SPOJOVACÍ
  6
Continuous
100
AcDbLine
 10
2304.697176363641
 20
500.4669346902478
 30
0.0
 11
2305.692377432018
 21
499.289926969614
 31
0.0
  0
LINE
  5
1A75
330
1F
100
AcDbEntity
  8
SPOJOVACÍ
  6
Continuous
100
AcDbLine
 10
2304.041296068984
 20
501.8616447499712
 30
0.0
 11
2304.697176363641
 21
500.4669346902478
 31
0.0
  0
LINE
  5
1A76
330
1F
100
AcDbEntity
  8
SPOJOVACÍ
  6
Continuous
100
AcDbLine
 10
2309.015380766026
 20
495.0781835654847
 30
0.0
 11
2313.948120716753
 21
494.7605791047322
 31
0.0
  0
LINE
  5
1A77
330
1F
100
AcDbEntity
  8
SPOJOVACÍ
  6
Continuous
100
AcDbLine
 10
2309.188826032534
 20
497.7719756909086
 30
0.0
 11
2313.218375171878
 21
497.5125250013802
 31
0.0
  0
LINE
  5
1A78
330
1F
100
AcDbEntity
  8
SPOJOVACÍ
  6
Continuous
100
AcDbLine
 10
2313.812457514317
 20
497.4742738055142
 30
0.0
 11
2316.326168426336
 21
497.3124234329675
 31
0.0
  0
LINE
  5
1A79
330
1F
100
AcDbEntity
  8
SPOJOVACÍ
  6
Continuous
100
AcDbLine
 10
2316.928605051691
 20
497.273634329661
 30
0.0
 11
2319.444172471119
 21
497.1116644221215
 31
0.0
  0
LINE
  5
1A7A
330
1F
100
AcDbEntity
  8
SPOJOVACÍ
  6
Continuous
100
AcDbLine
 10
2320.037326559986
 20
497.0734729937426
 30
0.0
 11
2322.560320008493
 21
496.9110249462687
 31
0.0
  0
LINE
  5
1A7B
330
1F
100
AcDbEntity
  8
SPOJOVACÍ
  6
Continuous
100
AcDbLine
 10
2314.550557342108
 20
494.7217900014252
 30
0.0
 11
2317.064268254127
 21
494.5599396288785
 31
0.0
  0
LINE
  5
1A7C
330
1F
100
AcDbEntity
  8
SPOJOVACÍ
  6
Continuous
100
AcDbLine
 10
2317.659278850404
 20
494.5216286655072
 30
0.0
 11
2320.182272298907
 21
494.3591806180329
 31
0.0
  0
LINE
  5
1A7D
330
1F
100
AcDbEntity
  8
SPOJOVACÍ
  6
Continuous
100
AcDbLine
 10
2320.775426387777
 20
494.320989189654
 30
0.0
 11
2323.290993807206
 21
494.1590192821145
 31
0.0
  0
LINE
  5
1A7E
330
1F
100
AcDbEntity
  8
SPOJOVACÍ
  6
Continuous
100
AcDbLine
 10
2323.163684887682
 20
496.8721760754565
 30
0.0
 11
2325.676467546132
 21
496.7103854703977
 31
0.0
  0
LINE
  5
1A7F
330
1F
100
AcDbEntity
  8
SPOJOVACÍ
  6
Continuous
100
AcDbLine
 10
2326.271478142409
 20
496.6720745070261
 30
0.0
 11
2327.516266300555
 21
496.5919262981874
 31
0.0
  0
LINE
  5
1A80
330
1F
100
AcDbEntity
  8
SPOJOVACÍ
  6
Continuous
100
AcDbLine
 10
2323.890645671586
 20
494.1204094812879
 30
0.0
 11
2326.404356583601
 21
493.958559108742
 31
0.0
  0
LINE
  5
1A81
330
1F
100
AcDbEntity
  8
SPOJOVACÍ
  6
Continuous
100
AcDbLine
 10
2327.006793209226
 20
493.9197700054178
 30
0.0
 11
2327.342821034048
 21
493.8981341727635
 31
0.0
  0
LINE
  5
1A82
330
1F
100
AcDbEntity
  8
SPOJOVACÍ
  6
Continuous
100
AcDbLine
 10
2327.516266300555
 20
496.5919262981874
 30
0.0
 11
2328.701306195047
 21
496.3655566950678
 31
0.0
  0
LINE
  5
1A83
330
1F
100
AcDbEntity
  8
SPOJOVACÍ
  6
Continuous
100
AcDbLine
 10
2338.207496916771
 20
494.5510698699945
 30
0.0
 11
2335.354480091499
 21
494.3796363103488
 31
0.0
  0
LINE
  5
1A84
330
1F
100
AcDbEntity
  8
SPOJOVACÍ
  6
Continuous
100
AcDbLine
 10
2329.315490684451
 20
496.2486467215899
 30
0.0
 11
2331.613764362164
 21
495.8098519144609
 31
0.0
  0
LINE
  5
1A85
330
1F
100
AcDbEntity
  8
SPOJOVACÍ
  6
Continuous
100
AcDbLine
 10
2332.238040106977
 20
495.6904279925061
 30
0.0
 11
2334.535385531397
 21
495.2516929572225
 31
0.0
  0
LINE
  5
1A86
330
1F
100
AcDbEntity
  8
SPOJOVACÍ
  6
Continuous
100
AcDbLine
 10
2335.149570020798
 20
495.1347829837437
 30
0.0
 11
2338.207496916771
 21
494.5510698699945
 31
0.0
  0
LINE
  5
1A87
330
1F
100
AcDbEntity
  8
SPOJOVACÍ
  6
Continuous
100
AcDbLine
 10
2334.781786754311
 20
494.3447384836203
 30
0.0
 11
2332.624020775763
 21
494.2152252704691
 31
0.0
  0
LINE
  5
1A88
330
1F
100
AcDbEntity
  8
SPOJOVACÍ
  6
Continuous
100
AcDbLine
 10
2332.048542677881
 20
494.1805067505779
 30
0.0
 11
2329.899190749567
 21
494.0513838808296
 31
0.0
  0
LINE
  5
1A89
330
1F
100
AcDbEntity
  8
SPOJOVACÍ
  6
Continuous
100
AcDbLine
 10
2329.325569158534
 20
494.0165458216069
 30
0.0
 11
2327.342821034048
 21
493.8981341727635
 31
0.0
  0
LINE
  5
1A8A
330
1F
100
AcDbEntity
  8
SPOJOVACÍ
  6
Continuous
100
AcDbLine
 10
2313.448297062592
 20
498.55006407274
 30
0.0
 11
2314.337344017511
 21
493.6831751195418
 31
0.0
  0
LINE
  5
1A8B
330
1F
100
AcDbEntity
  8
SPOJOVACÍ
  6
Continuous
100
AcDbLine
 10
2313.448297062592
 20
498.55006407274
 30
0.0
 11
2313.641242816402
 21
498.1592074909772
 31
0.0
  0
LINE
  5
1A8C
330
1F
100
AcDbEntity
  8
SPOJOVACÍ
  6
Continuous
100
AcDbLine
 10
2313.448297062592
 20
498.55006407274
 30
0.0
 11
2313.046232220395
 21
498.1975184543312
 31
0.0
  0
LINE
  5
1A8D
330
1F
100
AcDbEntity
  8
SPOJOVACÍ
  6
Continuous
100
AcDbLine
 10
2314.337344017511
 20
493.6831751195418
 30
0.0
 11
2314.738480605856
 21
494.0357805010812
 31
0.0
  0
LINE
  5
1A8E
330
1F
100
AcDbEntity
  8
SPOJOVACÍ
  6
Continuous
100
AcDbLine
 10
2314.337344017511
 20
493.6831751195418
 30
0.0
 11
2314.143470009576
 21
494.0740914644534
 31
0.0
  0
LINE
  5
1A8F
330
1F
100
AcDbEntity
  8
SPOJOVACÍ
  6
Continuous
100
AcDbLine
 10
2313.641242816402
 20
498.1592074909772
 30
0.0
 11
2314.738480605856
 21
494.0357805010812
 31
0.0
  0
LINE
  5
1A90
330
1F
100
AcDbEntity
  8
SPOJOVACÍ
  6
Continuous
100
AcDbLine
 10
2313.046232220395
 20
498.1975184543312
 30
0.0
 11
2314.143470009576
 21
494.0740914644534
 31
0.0
  0
LINE
  5
1A91
330
1F
100
AcDbEntity
  8
SPOJOVACÍ
  6
Continuous
100
AcDbLine
 10
2316.561659838991
 20
498.3496038993666
 30
0.0
 11
2317.450706794186
 21
493.4827149461511
 31
0.0
  0
LINE
  5
1A92
330
1F
100
AcDbEntity
  8
SPOJOVACÍ
  6
Continuous
100
AcDbLine
 10
2316.561659838991
 20
498.3496038993666
 30
0.0
 11
2316.755533846643
 21
497.9586875500991
 31
0.0
  0
LINE
  5
1A93
330
1F
100
AcDbEntity
  8
SPOJOVACÍ
  6
Continuous
100
AcDbLine
 10
2316.561659838991
 20
498.3496038993666
 30
0.0
 11
2316.160523250359
 21
497.9969985134707
 31
0.0
  0
LINE
  5
1A94
330
1F
100
AcDbEntity
  8
SPOJOVACÍ
  6
Continuous
100
AcDbLine
 10
2317.450706794186
 20
493.4827149461511
 30
0.0
 11
2317.851843382251
 21
493.8353203277087
 31
0.0
  0
LINE
  5
1A95
330
1F
100
AcDbEntity
  8
SPOJOVACÍ
  6
Continuous
100
AcDbLine
 10
2317.450706794186
 20
493.4827149461511
 30
0.0
 11
2317.256832786248
 21
493.8736312910623
 31
0.0
  0
LINE
  5
1A96
330
1F
100
AcDbEntity
  8
SPOJOVACÍ
  6
Continuous
100
AcDbLine
 10
2316.755533846643
 20
497.9586875500991
 30
0.0
 11
2317.851843382251
 21
493.8353203277087
 31
0.0
  0
LINE
  5
1A97
330
1F
100
AcDbEntity
  8
SPOJOVACÍ
  6
Continuous
100
AcDbLine
 10
2316.160523250359
 20
497.9969985134707
 30
0.0
 11
2317.256832786248
 21
493.8736312910623
 31
0.0
  0
LINE
  5
1A98
330
1F
100
AcDbEntity
  8
SPOJOVACÍ
  6
Continuous
100
AcDbLine
 10
2328.957023004413
 20
497.2970394916406
 30
0.0
 11
2329.150837244751
 21
496.9051948915289
 31
0.0
  0
LINE
  5
1A99
330
1F
100
AcDbEntity
  8
SPOJOVACÍ
  6
Continuous
100
AcDbLine
 10
2328.957023004413
 20
497.2970394916406
 30
0.0
 11
2328.555826648471
 21
496.943505854901
 31
0.0
  0
LINE
  5
1A9A
330
1F
100
AcDbEntity
  8
SPOJOVACÍ
  6
Continuous
100
AcDbLine
 10
2329.662907499145
 20
493.1177177117142
 30
0.0
 11
2330.064972341335
 21
493.4702633257484
 31
0.0
  0
LINE
  5
1A9B
330
1F
100
AcDbEntity
  8
SPOJOVACÍ
  6
Continuous
100
AcDbLine
 10
2329.662907499145
 20
493.1177177117142
 30
0.0
 11
2329.469961745055
 21
493.5085742891201
 31
0.0
  0
LINE
  5
1A9C
330
1F
100
AcDbEntity
  8
SPOJOVACÍ
  6
Continuous
100
AcDbLine
 10
2329.150837244751
 20
496.9051948915289
 30
0.0
 11
2330.064972341335
 21
493.4702633257484
 31
0.0
  0
LINE
  5
1A9D
330
1F
100
AcDbEntity
  8
SPOJOVACÍ
  6
Continuous
100
AcDbLine
 10
2328.555826648471
 20
496.943505854901
 30
0.0
 11
2329.469961745055
 21
493.5085742891201
 31
0.0
  0
LINE
  5
1A9E
330
1F
100
AcDbEntity
  8
SPOJOVACÍ
  6
Continuous
100
AcDbLine
 10
2328.957023004413
 20
497.2970394916406
 30
0.0
 11
2329.662907499145
 21
493.1177177117142
 31
0.0
  0
LINE
  5
1A9F
330
1F
100
AcDbEntity
  8
SPOJOVACÍ
  6
Continuous
100
AcDbLine
 10
2331.929214248999
 20
496.5398830751787
 30
0.0
 11
2332.122160002805
 21
496.1490264934168
 31
0.0
  0
LINE
  5
1AA0
330
1F
100
AcDbEntity
  8
SPOJOVACÍ
  6
Continuous
100
AcDbLine
 10
2331.929214248999
 20
496.5398830751787
 30
0.0
 11
2331.527149406525
 21
496.1873374567881
 31
0.0
  0
LINE
  5
1AA1
330
1F
100
AcDbEntity
  8
SPOJOVACÍ
  6
Continuous
100
AcDbLine
 10
2332.361133888031
 20
493.3895316496714
 30
0.0
 11
2332.763198729948
 21
493.7420772637233
 31
0.0
  0
LINE
  5
1AA2
330
1F
100
AcDbEntity
  8
SPOJOVACÍ
  6
Continuous
100
AcDbLine
 10
2332.361133888031
 20
493.3895316496714
 30
0.0
 11
2332.168188133941
 21
493.7803882270773
 31
0.0
  0
LINE
  5
1AA3
330
1F
100
AcDbEntity
  8
SPOJOVACÍ
  6
Continuous
100
AcDbLine
 10
2332.122160002805
 20
496.1490264934168
 30
0.0
 11
2332.763198729948
 21
493.7420772637233
 31
0.0
  0
LINE
  5
1AA4
330
1F
100
AcDbEntity
  8
SPOJOVACÍ
  6
Continuous
100
AcDbLine
 10
2331.527149406525
 20
496.1873374567881
 30
0.0
 11
2332.168188133941
 21
493.7803882270773
 31
0.0
  0
LINE
  5
1AA5
330
1F
100
AcDbEntity
  8
SPOJOVACÍ
  6
Continuous
100
AcDbLine
 10
2331.929214248999
 20
496.5398830751787
 30
0.0
 11
2332.361133888031
 21
493.3895316496714
 31
0.0
  0
LINE
  5
1AA6
330
1F
100
AcDbEntity
  8
SPOJOVACÍ
  6
Continuous
100
AcDbLine
 10
2334.90047723946
 20
495.7827864218656
 30
0.0
 11
2335.094351247384
 21
495.3918700769549
 31
0.0
  0
LINE
  5
1AA7
330
1F
100
AcDbEntity
  8
SPOJOVACÍ
  6
Continuous
100
AcDbLine
 10
2334.90047723946
 20
495.7827864218656
 30
0.0
 11
2334.499340651114
 21
495.4301810403262
 31
0.0
  0
LINE
  5
1AA8
330
1F
100
AcDbEntity
  8
SPOJOVACÍ
  6
Continuous
100
AcDbLine
 10
2335.072092446999
 20
493.6129886034454
 30
0.0
 11
2335.474157288912
 21
493.9655342174979
 31
0.0
  0
LINE
  5
1AA9
330
1F
100
AcDbEntity
  8
SPOJOVACÍ
  6
Continuous
100
AcDbLine
 10
2335.072092446999
 20
493.6129886034454
 30
0.0
 11
2334.879146692639
 21
494.0038451808686
 31
0.0
  0
LINE
  5
1AAA
330
1F
100
AcDbEntity
  8
SPOJOVACÍ
  6
Continuous
100
AcDbLine
 10
2335.094351247384
 20
495.3918700769549
 30
0.0
 11
2335.474157288912
 21
493.9655342174979
 31
0.0
  0
LINE
  5
1AAB
330
1F
100
AcDbEntity
  8
SPOJOVACÍ
  6
Continuous
100
AcDbLine
 10
2334.499340651114
 20
495.4301810403262
 30
0.0
 11
2334.879146692639
 21
494.0038451808686
 31
0.0
  0
LINE
  5
1AAC
330
1F
100
AcDbEntity
  8
SPOJOVACÍ
  6
Continuous
100
AcDbLine
 10
2334.90047723946
 20
495.7827864218656
 30
0.0
 11
2335.072092446999
 21
493.6129886034454
 31
0.0
  0
LINE
  5
1AAD
330
1F
100
AcDbEntity
  8
SPOJOVACÍ
  6
Continuous
100
AcDbLine
 10
2319.675022615663
 20
498.149143725976
 30
0.0
 11
2320.564069570582
 21
493.2822547727782
 31
0.0
  0
LINE
  5
1AAE
330
1F
100
AcDbEntity
  8
SPOJOVACÍ
  6
Continuous
100
AcDbLine
 10
2319.675022615663
 20
498.149143725976
 30
0.0
 11
2319.868896623315
 21
497.7582273767084
 31
0.0
  0
LINE
  5
1AAF
330
1F
100
AcDbEntity
  8
SPOJOVACÍ
  6
Continuous
100
AcDbLine
 10
2319.675022615663
 20
498.149143725976
 30
0.0
 11
2319.273886027031
 21
497.7965383400801
 31
0.0
  0
LINE
  5
1AB0
330
1F
100
AcDbEntity
  8
SPOJOVACÍ
  6
Continuous
100
AcDbLine
 10
2320.564069570582
 20
493.2822547727782
 30
0.0
 11
2320.966134412496
 21
493.6348003868301
 31
0.0
  0
LINE
  5
1AB1
330
1F
100
AcDbEntity
  8
SPOJOVACÍ
  6
Continuous
100
AcDbLine
 10
2320.564069570582
 20
493.2822547727782
 30
0.0
 11
2320.371123816223
 21
493.6731113502014
 31
0.0
  0
LINE
  5
1AB2
330
1F
100
AcDbEntity
  8
SPOJOVACÍ
  6
Continuous
100
AcDbLine
 10
2319.868896623315
 20
497.7582273767084
 30
0.0
 11
2320.966134412496
 21
493.6348003868301
 31
0.0
  0
LINE
  5
1AB3
330
1F
100
AcDbEntity
  8
SPOJOVACÍ
  6
Continuous
100
AcDbLine
 10
2319.273886027031
 20
497.7965383400801
 30
0.0
 11
2320.371123816223
 21
493.6731113502014
 31
0.0
  0
LINE
  5
1AB4
330
1F
100
AcDbEntity
  8
SPOJOVACÍ
  6
Continuous
100
AcDbLine
 10
2322.78838539207
 20
497.9486835526026
 30
0.0
 11
2323.677432346989
 21
493.0817945994053
 31
0.0
  0
LINE
  5
1AB5
330
1F
100
AcDbEntity
  8
SPOJOVACÍ
  6
Continuous
100
AcDbLine
 10
2322.78838539207
 20
497.9486835526026
 30
0.0
 11
2322.98225939971
 21
497.5577672033355
 31
0.0
  0
LINE
  5
1AB6
330
1F
100
AcDbEntity
  8
SPOJOVACÍ
  6
Continuous
100
AcDbLine
 10
2322.78838539207
 20
497.9486835526026
 30
0.0
 11
2322.387248803441
 21
497.5960781667067
 31
0.0
  0
LINE
  5
1AB7
330
1F
100
AcDbEntity
  8
SPOJOVACÍ
  6
Continuous
100
AcDbLine
 10
2323.677432346989
 20
493.0817945994053
 30
0.0
 11
2324.079497188899
 21
493.4343402134568
 31
0.0
  0
LINE
  5
1AB8
330
1F
100
AcDbEntity
  8
SPOJOVACÍ
  6
Continuous
100
AcDbLine
 10
2323.677432346989
 20
493.0817945994053
 30
0.0
 11
2323.484486592895
 21
493.4726511768108
 31
0.0
  0
LINE
  5
1AB9
330
1F
100
AcDbEntity
  8
SPOJOVACÍ
  6
Continuous
100
AcDbLine
 10
2322.98225939971
 20
497.5577672033355
 30
0.0
 11
2324.079497188899
 21
493.4343402134568
 31
0.0
  0
LINE
  5
1ABA
330
1F
100
AcDbEntity
  8
SPOJOVACÍ
  6
Continuous
100
AcDbLine
 10
2322.387248803441
 20
497.5960781667067
 30
0.0
 11
2323.484486592895
 21
493.4726511768108
 31
0.0
  0
LINE
  5
1ABB
330
1F
100
AcDbEntity
  8
SPOJOVACÍ
  6
Continuous
100
AcDbLine
 10
2325.90267642231
 20
497.7481636117245
 30
0.0
 11
2326.791723377226
 21
492.8812746585268
 31
0.0
  0
LINE
  5
1ABC
330
1F
100
AcDbEntity
  8
SPOJOVACÍ
  6
Continuous
100
AcDbLine
 10
2325.90267642231
 20
497.7481636117245
 30
0.0
 11
2326.095622176117
 21
497.3573070299621
 31
0.0
  0
LINE
  5
1ABD
330
1F
100
AcDbEntity
  8
SPOJOVACÍ
  6
Continuous
100
AcDbLine
 10
2325.90267642231
 20
497.7481636117245
 30
0.0
 11
2325.500611579836
 21
497.3956179933338
 31
0.0
  0
LINE
  5
1ABE
330
1F
100
AcDbEntity
  8
SPOJOVACÍ
  6
Continuous
100
AcDbLine
 10
2326.791723377226
 20
492.8812746585268
 30
0.0
 11
2327.192859965574
 21
493.2338800400661
 31
0.0
  0
LINE
  5
1ABF
330
1F
100
AcDbEntity
  8
SPOJOVACÍ
  6
Continuous
100
AcDbLine
 10
2326.791723377226
 20
492.8812746585268
 30
0.0
 11
2326.59784936929
 21
493.2721910034383
 31
0.0
  0
LINE
  5
1AC0
330
1F
100
AcDbEntity
  8
SPOJOVACÍ
  6
Continuous
100
AcDbLine
 10
2326.095622176117
 20
497.3573070299621
 30
0.0
 11
2327.192859965574
 21
493.2338800400661
 31
0.0
  0
LINE
  5
1AC1
330
1F
100
AcDbEntity
  8
SPOJOVACÍ
  6
Continuous
100
AcDbLine
 10
2325.500611579836
 20
497.3956179933338
 30
0.0
 11
2326.59784936929
 21
493.2721910034383
 31
0.0
  0
LINE
  5
1AC2
330
1F
100
AcDbEntity
  8
SPOJOVACÍ
  6
Continuous
100
AcDbLine
 10
2305.949984035245
 20
739.6234047662469
 30
0.0
 11
2304.683550265881
 21
738.7448817024883
 31
0.0
  0
LINE
  5
1AC3
330
1F
100
AcDbEntity
  8
SPOJOVACÍ
  6
Continuous
100
AcDbLine
 10
2307.400316377175
 20
740.1442773378725
 30
0.0
 11
2305.949984035245
 21
739.6234047662469
 31
0.0
  0
LINE
  5
1AC4
330
1F
100
AcDbEntity
  8
SPOJOVACÍ
  6
Continuous
100
AcDbLine
 10
2308.935379140826
 20
740.2728720732571
 30
0.0
 11
2307.400316377175
 21
740.1442773378725
 31
0.0
  0
LINE
  5
1AC5
330
1F
100
AcDbEntity
  8
SPOJOVACÍ
  6
Continuous
100
AcDbLine
 10
2302.108436887536
 20
736.9542036853832
 30
0.0
 11
2303.30588410943
 21
736.8771036186877
 31
0.0
  0
LINE
  5
1AC6
330
1F
100
AcDbEntity
  8
SPOJOVACÍ
  6
Continuous
100
AcDbLine
 10
2302.763847221887
 20
747.1334333244381
 30
0.0
 11
2302.108436887536
 21
736.9542036853832
 31
0.0
  0
LINE
  5
1AC7
330
1F
100
AcDbEntity
  8
SPOJOVACÍ
  6
Continuous
100
AcDbLine
 10
2302.763847221887
 20
747.1334333244381
 30
0.0
 11
2303.961294443785
 21
747.0563332577426
 31
0.0
  0
LINE
  5
1AC8
330
1F
100
AcDbEntity
  8
SPOJOVACÍ
  6
Continuous
100
AcDbLine
 10
2303.961294443785
 20
747.0563332577426
 30
0.0
 11
2303.30588410943
 21
736.8771036186877
 31
0.0
  0
LINE
  5
1AC9
330
1F
100
AcDbEntity
  8
SPOJOVACÍ
  6
Continuous
100
AcDbLine
 10
2303.687873136745
 20
737.5692948499813
 30
0.0
 11
2303.30588410943
 21
736.8771036186877
 31
0.0
  0
LINE
  5
1ACA
330
1F
100
AcDbEntity
  8
SPOJOVACÍ
  6
Continuous
100
AcDbLine
 10
2304.683550265881
 20
738.7448817024883
 30
0.0
 11
2303.687873136745
 21
737.5692948499813
 31
0.0
  0
LINE
  5
1ACB
330
1F
100
AcDbEntity
  8
SPOJOVACÍ
  6
Continuous
100
AcDbLine
 10
2308.327765302938
 20
743.0831335085181
 30
0.0
 11
2309.108824407334
 21
742.9666641986805
 31
0.0
  0
LINE
  5
1ACC
330
1F
100
AcDbEntity
  8
SPOJOVACÍ
  6
Continuous
100
AcDbLine
 10
2306.877478522574
 20
743.6052800402258
 30
0.0
 11
2308.327765302938
 21
743.0831335085181
 31
0.0
  0
LINE
  5
1ACD
330
1F
100
AcDbEntity
  8
SPOJOVACÍ
  6
Continuous
100
AcDbLine
 10
2305.612375806818
 20
744.4846154773863
 30
0.0
 11
2306.877478522574
 21
743.6052800402258
 31
0.0
  0
LINE
  5
1ACE
330
1F
100
AcDbEntity
  8
SPOJOVACÍ
  6
Continuous
100
AcDbLine
 10
2304.617174738441
 20
745.6616231980192
 30
0.0
 11
2305.612375806818
 21
744.4846154773863
 31
0.0
  0
LINE
  5
1ACF
330
1F
100
AcDbEntity
  8
SPOJOVACÍ
  6
Continuous
100
AcDbLine
 10
2303.961294443785
 20
747.0563332577426
 30
0.0
 11
2304.617174738441
 21
745.6616231980192
 31
0.0
  0
LINE
  5
1AD0
330
1F
100
AcDbEntity
  8
SPOJOVACÍ
  6
Continuous
100
AcDbLine
 10
2308.935379140826
 20
740.2728720732571
 30
0.0
 11
2313.868119091554
 21
739.9552676125035
 31
0.0
  0
LINE
  5
1AD1
330
1F
100
AcDbEntity
  8
SPOJOVACÍ
  6
Continuous
100
AcDbLine
 10
2309.108824407334
 20
742.9666641986805
 30
0.0
 11
2313.138373546678
 21
742.707213509152
 31
0.0
  0
LINE
  5
1AD2
330
1F
100
AcDbEntity
  8
SPOJOVACÍ
  6
Continuous
100
AcDbLine
 10
2313.732455889117
 20
742.6689623132856
 30
0.0
 11
2316.246166801136
 21
742.5071119407394
 31
0.0
  0
LINE
  5
1AD3
330
1F
100
AcDbEntity
  8
SPOJOVACÍ
  6
Continuous
100
AcDbLine
 10
2316.848603426491
 20
742.4683228374329
 30
0.0
 11
2319.36417084592
 21
742.3063529298937
 31
0.0
  0
LINE
  5
1AD4
330
1F
100
AcDbEntity
  8
SPOJOVACÍ
  6
Continuous
100
AcDbLine
 10
2319.957324934786
 20
742.2681615015148
 30
0.0
 11
2322.480318383293
 21
742.1057134540401
 31
0.0
  0
LINE
  5
1AD5
330
1F
100
AcDbEntity
  8
SPOJOVACÍ
  6
Continuous
100
AcDbLine
 10
2314.470555716908
 20
739.9164785091966
 30
0.0
 11
2316.984266628927
 21
739.7546281366508
 31
0.0
  0
LINE
  5
1AD6
330
1F
100
AcDbEntity
  8
SPOJOVACÍ
  6
Continuous
100
AcDbLine
 10
2317.579277225204
 20
739.7163171732791
 30
0.0
 11
2320.102270673707
 21
739.5538691258048
 31
0.0
  0
LINE
  5
1AD7
330
1F
100
AcDbEntity
  8
SPOJOVACÍ
  6
Continuous
100
AcDbLine
 10
2320.695424762578
 20
739.5156776974259
 30
0.0
 11
2323.210992182006
 21
739.3537077898868
 31
0.0
  0
LINE
  5
1AD8
330
1F
100
AcDbEntity
  8
SPOJOVACÍ
  6
Continuous
100
AcDbLine
 10
2323.083683262483
 20
742.0668645832288
 30
0.0
 11
2325.596465920932
 21
741.9050739781701
 31
0.0
  0
LINE
  5
1AD9
330
1F
100
AcDbEntity
  8
SPOJOVACÍ
  6
Continuous
100
AcDbLine
 10
2326.191476517209
 20
741.8667630147979
 30
0.0
 11
2327.436264675356
 21
741.7866148059593
 31
0.0
  0
LINE
  5
1ADA
330
1F
100
AcDbEntity
  8
SPOJOVACÍ
  6
Continuous
100
AcDbLine
 10
2323.810644046387
 20
739.3150979890601
 30
0.0
 11
2326.324354958402
 21
739.1532476165134
 31
0.0
  0
LINE
  5
1ADB
330
1F
100
AcDbEntity
  8
SPOJOVACÍ
  6
Continuous
100
AcDbLine
 10
2326.926791584026
 20
739.1144585131891
 30
0.0
 11
2327.262819408848
 21
739.0928226805349
 31
0.0
  0
LINE
  5
1ADC
330
1F
100
AcDbEntity
  8
SPOJOVACÍ
  6
Continuous
100
AcDbLine
 10
2327.436264675356
 20
741.7866148059593
 30
0.0
 11
2328.621304569848
 21
741.5602452028402
 31
0.0
  0
LINE
  5
1ADD
330
1F
100
AcDbEntity
  8
SPOJOVACÍ
  6
Continuous
100
AcDbLine
 10
2338.127495291572
 20
739.7457583777663
 30
0.0
 11
2335.274478466299
 21
739.5743248181202
 31
0.0
  0
LINE
  5
1ADE
330
1F
100
AcDbEntity
  8
SPOJOVACÍ
  6
Continuous
100
AcDbLine
 10
2329.235489059252
 20
741.4433352293613
 30
0.0
 11
2331.533762736964
 21
741.0045404222328
 31
0.0
  0
LINE
  5
1ADF
330
1F
100
AcDbEntity
  8
SPOJOVACÍ
  6
Continuous
100
AcDbLine
 10
2332.158038481777
 20
740.8851165002779
 30
0.0
 11
2334.455383906197
 21
740.4463814649939
 31
0.0
  0
LINE
  5
1AE0
330
1F
100
AcDbEntity
  8
SPOJOVACÍ
  6
Continuous
100
AcDbLine
 10
2335.069568395598
 20
740.3294714915155
 30
0.0
 11
2338.127495291572
 21
739.7457583777663
 31
0.0
  0
LINE
  5
1AE1
330
1F
100
AcDbEntity
  8
SPOJOVACÍ
  6
Continuous
100
AcDbLine
 10
2334.701785129111
 20
739.5394269913922
 30
0.0
 11
2332.544019150564
 21
739.4099137782409
 31
0.0
  0
LINE
  5
1AE2
330
1F
100
AcDbEntity
  8
SPOJOVACÍ
  6
Continuous
100
AcDbLine
 10
2331.968541052682
 20
739.3751952583492
 30
0.0
 11
2329.819189124367
 21
739.246072388602
 31
0.0
  0
LINE
  5
1AE3
330
1F
100
AcDbEntity
  8
SPOJOVACÍ
  6
Continuous
100
AcDbLine
 10
2329.245567533335
 20
739.2112343293788
 30
0.0
 11
2327.262819408848
 21
739.0928226805349
 31
0.0
  0
LINE
  5
1AE4
330
1F
100
AcDbEntity
  8
SPOJOVACÍ
  6
Continuous
100
AcDbLine
 10
2313.368295437392
 20
743.7447525805119
 30
0.0
 11
2314.257342392311
 21
738.8778636273141
 31
0.0
  0
LINE
  5
1AE5
330
1F
100
AcDbEntity
  8
SPOJOVACÍ
  6
Continuous
100
AcDbLine
 10
2313.368295437392
 20
743.7447525805119
 30
0.0
 11
2313.561241191202
 21
743.3538959987495
 31
0.0
  0
LINE
  5
1AE6
330
1F
100
AcDbEntity
  8
SPOJOVACÍ
  6
Continuous
100
AcDbLine
 10
2313.368295437392
 20
743.7447525805119
 30
0.0
 11
2312.966230595195
 21
743.3922069621026
 31
0.0
  0
LINE
  5
1AE7
330
1F
100
AcDbEntity
  8
SPOJOVACÍ
  6
Continuous
100
AcDbLine
 10
2314.257342392311
 20
738.8778636273141
 30
0.0
 11
2314.658478980657
 21
739.2304690088535
 31
0.0
  0
LINE
  5
1AE8
330
1F
100
AcDbEntity
  8
SPOJOVACÍ
  6
Continuous
100
AcDbLine
 10
2314.257342392311
 20
738.8778636273141
 30
0.0
 11
2314.063468384376
 21
739.2687799722247
 31
0.0
  0
LINE
  5
1AE9
330
1F
100
AcDbEntity
  8
SPOJOVACÍ
  6
Continuous
100
AcDbLine
 10
2313.561241191202
 20
743.3538959987495
 30
0.0
 11
2314.658478980657
 21
739.2304690088535
 31
0.0
  0
LINE
  5
1AEA
330
1F
100
AcDbEntity
  8
SPOJOVACÍ
  6
Continuous
100
AcDbLine
 10
2312.966230595195
 20
743.3922069621026
 30
0.0
 11
2314.063468384376
 21
739.2687799722247
 31
0.0
  0
LINE
  5
1AEB
330
1F
100
AcDbEntity
  8
SPOJOVACÍ
  6
Continuous
100
AcDbLine
 10
2316.481658213791
 20
743.5442924071385
 30
0.0
 11
2317.370705168987
 21
738.677403453923
 31
0.0
  0
LINE
  5
1AEC
330
1F
100
AcDbEntity
  8
SPOJOVACÍ
  6
Continuous
100
AcDbLine
 10
2316.481658213791
 20
743.5442924071385
 30
0.0
 11
2316.675532221443
 21
743.1533760578709
 31
0.0
  0
LINE
  5
1AED
330
1F
100
AcDbEntity
  8
SPOJOVACÍ
  6
Continuous
100
AcDbLine
 10
2316.481658213791
 20
743.5442924071385
 30
0.0
 11
2316.080521625159
 21
743.1916870212425
 31
0.0
  0
LINE
  5
1AEE
330
1F
100
AcDbEntity
  8
SPOJOVACÍ
  6
Continuous
100
AcDbLine
 10
2317.370705168987
 20
738.677403453923
 30
0.0
 11
2317.771841757052
 21
739.0300088354802
 31
0.0
  0
LINE
  5
1AEF
330
1F
100
AcDbEntity
  8
SPOJOVACÍ
  6
Continuous
100
AcDbLine
 10
2317.370705168987
 20
738.677403453923
 30
0.0
 11
2317.176831161048
 21
739.0683197988342
 31
0.0
  0
LINE
  5
1AF0
330
1F
100
AcDbEntity
  8
SPOJOVACÍ
  6
Continuous
100
AcDbLine
 10
2316.675532221443
 20
743.1533760578709
 30
0.0
 11
2317.771841757052
 21
739.0300088354802
 31
0.0
  0
LINE
  5
1AF1
330
1F
100
AcDbEntity
  8
SPOJOVACÍ
  6
Continuous
100
AcDbLine
 10
2316.080521625159
 20
743.1916870212425
 30
0.0
 11
2317.176831161048
 21
739.0683197988342
 31
0.0
  0
LINE
  5
1AF2
330
1F
100
AcDbEntity
  8
SPOJOVACÍ
  6
Continuous
100
AcDbLine
 10
2328.877021379214
 20
742.4917279994128
 30
0.0
 11
2329.070835619551
 21
742.0998833993012
 31
0.0
  0
LINE
  5
1AF3
330
1F
100
AcDbEntity
  8
SPOJOVACÍ
  6
Continuous
100
AcDbLine
 10
2328.877021379214
 20
742.4917279994128
 30
0.0
 11
2328.475825023271
 21
742.1381943626725
 31
0.0
  0
LINE
  5
1AF4
330
1F
100
AcDbEntity
  8
SPOJOVACÍ
  6
Continuous
100
AcDbLine
 10
2329.582905873945
 20
738.3124062194861
 30
0.0
 11
2329.984970716135
 21
738.6649518335202
 31
0.0
  0
LINE
  5
1AF5
330
1F
100
AcDbEntity
  8
SPOJOVACÍ
  6
Continuous
100
AcDbLine
 10
2329.582905873945
 20
738.3124062194861
 30
0.0
 11
2329.389960119855
 21
738.703262796892
 31
0.0
  0
LINE
  5
1AF6
330
1F
100
AcDbEntity
  8
SPOJOVACÍ
  6
Continuous
100
AcDbLine
 10
2329.070835619551
 20
742.0998833993012
 30
0.0
 11
2329.984970716135
 21
738.6649518335202
 31
0.0
  0
LINE
  5
1AF7
330
1F
100
AcDbEntity
  8
SPOJOVACÍ
  6
Continuous
100
AcDbLine
 10
2328.475825023271
 20
742.1381943626725
 30
0.0
 11
2329.389960119855
 21
738.703262796892
 31
0.0
  0
LINE
  5
1AF8
330
1F
100
AcDbEntity
  8
SPOJOVACÍ
  6
Continuous
100
AcDbLine
 10
2328.877021379214
 20
742.4917279994128
 30
0.0
 11
2329.582905873945
 21
738.3124062194861
 31
0.0
  0
LINE
  5
1AF9
330
1F
100
AcDbEntity
  8
SPOJOVACÍ
  6
Continuous
100
AcDbLine
 10
2331.849212623799
 20
741.734571582951
 30
0.0
 11
2332.042158377606
 21
741.3437150011882
 31
0.0
  0
LINE
  5
1AFA
330
1F
100
AcDbEntity
  8
SPOJOVACÍ
  6
Continuous
100
AcDbLine
 10
2331.849212623799
 20
741.734571582951
 30
0.0
 11
2331.447147781326
 21
741.3820259645599
 31
0.0
  0
LINE
  5
1AFB
330
1F
100
AcDbEntity
  8
SPOJOVACÍ
  6
Continuous
100
AcDbLine
 10
2332.281132262831
 20
738.5842201574432
 30
0.0
 11
2332.683197104748
 21
738.9367657714951
 31
0.0
  0
LINE
  5
1AFC
330
1F
100
AcDbEntity
  8
SPOJOVACÍ
  6
Continuous
100
AcDbLine
 10
2332.281132262831
 20
738.5842201574432
 30
0.0
 11
2332.088186508741
 21
738.9750767348491
 31
0.0
  0
LINE
  5
1AFD
330
1F
100
AcDbEntity
  8
SPOJOVACÍ
  6
Continuous
100
AcDbLine
 10
2332.042158377606
 20
741.3437150011882
 30
0.0
 11
2332.683197104748
 21
738.9367657714951
 31
0.0
  0
LINE
  5
1AFE
330
1F
100
AcDbEntity
  8
SPOJOVACÍ
  6
Continuous
100
AcDbLine
 10
2331.447147781326
 20
741.3820259645599
 30
0.0
 11
2332.088186508741
 21
738.9750767348491
 31
0.0
  0
LINE
  5
1AFF
330
1F
100
AcDbEntity
  8
SPOJOVACÍ
  6
Continuous
100
AcDbLine
 10
2331.849212623799
 20
741.734571582951
 30
0.0
 11
2332.281132262831
 21
738.5842201574432
 31
0.0
  0
LINE
  5
1B00
330
1F
100
AcDbEntity
  8
SPOJOVACÍ
  6
Continuous
100
AcDbLine
 10
2334.82047561426
 20
740.9774749296375
 30
0.0
 11
2335.014349622184
 21
740.5865585847273
 31
0.0
  0
LINE
  5
1B01
330
1F
100
AcDbEntity
  8
SPOJOVACÍ
  6
Continuous
100
AcDbLine
 10
2334.82047561426
 20
740.9774749296375
 30
0.0
 11
2334.419339025915
 21
740.624869548098
 31
0.0
  0
LINE
  5
1B02
330
1F
100
AcDbEntity
  8
SPOJOVACÍ
  6
Continuous
100
AcDbLine
 10
2334.992090821799
 20
738.8076771112168
 30
0.0
 11
2335.394155663713
 21
739.1602227252697
 31
0.0
  0
LINE
  5
1B03
330
1F
100
AcDbEntity
  8
SPOJOVACÍ
  6
Continuous
100
AcDbLine
 10
2334.992090821799
 20
738.8076771112168
 30
0.0
 11
2334.79914506744
 21
739.1985336886405
 31
0.0
  0
LINE
  5
1B04
330
1F
100
AcDbEntity
  8
SPOJOVACÍ
  6
Continuous
100
AcDbLine
 10
2335.014349622184
 20
740.5865585847273
 30
0.0
 11
2335.394155663713
 21
739.1602227252697
 31
0.0
  0
LINE
  5
1B05
330
1F
100
AcDbEntity
  8
SPOJOVACÍ
  6
Continuous
100
AcDbLine
 10
2334.419339025915
 20
740.624869548098
 30
0.0
 11
2334.79914506744
 21
739.1985336886405
 31
0.0
  0
LINE
  5
1B06
330
1F
100
AcDbEntity
  8
SPOJOVACÍ
  6
Continuous
100
AcDbLine
 10
2334.82047561426
 20
740.9774749296375
 30
0.0
 11
2334.992090821799
 21
738.8076771112168
 31
0.0
  0
LINE
  5
1B07
330
1F
100
AcDbEntity
  8
SPOJOVACÍ
  6
Continuous
100
AcDbLine
 10
2319.595020990464
 20
743.3438322337479
 30
0.0
 11
2320.484067945382
 21
738.4769432805501
 31
0.0
  0
LINE
  5
1B08
330
1F
100
AcDbEntity
  8
SPOJOVACÍ
  6
Continuous
100
AcDbLine
 10
2319.595020990464
 20
743.3438322337479
 30
0.0
 11
2319.788894998115
 21
742.9529158844802
 31
0.0
  0
LINE
  5
1B09
330
1F
100
AcDbEntity
  8
SPOJOVACÍ
  6
Continuous
100
AcDbLine
 10
2319.595020990464
 20
743.3438322337479
 30
0.0
 11
2319.193884401831
 21
742.9912268478515
 31
0.0
  0
LINE
  5
1B0A
330
1F
100
AcDbEntity
  8
SPOJOVACÍ
  6
Continuous
100
AcDbLine
 10
2320.484067945382
 20
738.4769432805501
 30
0.0
 11
2320.886132787296
 21
738.8294888946025
 31
0.0
  0
LINE
  5
1B0B
330
1F
100
AcDbEntity
  8
SPOJOVACÍ
  6
Continuous
100
AcDbLine
 10
2320.484067945382
 20
738.4769432805501
 30
0.0
 11
2320.291122191023
 21
738.8677998579733
 31
0.0
  0
LINE
  5
1B0C
330
1F
100
AcDbEntity
  8
SPOJOVACÍ
  6
Continuous
100
AcDbLine
 10
2319.788894998115
 20
742.9529158844802
 30
0.0
 11
2320.886132787296
 21
738.8294888946025
 31
0.0
  0
LINE
  5
1B0D
330
1F
100
AcDbEntity
  8
SPOJOVACÍ
  6
Continuous
100
AcDbLine
 10
2319.193884401831
 20
742.9912268478515
 30
0.0
 11
2320.291122191023
 21
738.8677998579733
 31
0.0
  0
LINE
  5
1B0E
330
1F
100
AcDbEntity
  8
SPOJOVACÍ
  6
Continuous
100
AcDbLine
 10
2322.70838376687
 20
743.1433720603745
 30
0.0
 11
2323.597430721789
 21
738.2764831071767
 31
0.0
  0
LINE
  5
1B0F
330
1F
100
AcDbEntity
  8
SPOJOVACÍ
  6
Continuous
100
AcDbLine
 10
2322.70838376687
 20
743.1433720603745
 30
0.0
 11
2322.902257774511
 21
742.7524557111069
 31
0.0
  0
LINE
  5
1B10
330
1F
100
AcDbEntity
  8
SPOJOVACÍ
  6
Continuous
100
AcDbLine
 10
2322.70838376687
 20
743.1433720603745
 30
0.0
 11
2322.307247178241
 21
742.7907666744786
 31
0.0
  0
LINE
  5
1B11
330
1F
100
AcDbEntity
  8
SPOJOVACÍ
  6
Continuous
100
AcDbLine
 10
2323.597430721789
 20
738.2764831071767
 30
0.0
 11
2323.999495563699
 21
738.6290287212291
 31
0.0
  0
LINE
  5
1B12
330
1F
100
AcDbEntity
  8
SPOJOVACÍ
  6
Continuous
100
AcDbLine
 10
2323.597430721789
 20
738.2764831071767
 30
0.0
 11
2323.404484967695
 21
738.6673396845826
 31
0.0
  0
LINE
  5
1B13
330
1F
100
AcDbEntity
  8
SPOJOVACÍ
  6
Continuous
100
AcDbLine
 10
2322.902257774511
 20
742.7524557111069
 30
0.0
 11
2323.999495563699
 21
738.6290287212291
 31
0.0
  0
LINE
  5
1B14
330
1F
100
AcDbEntity
  8
SPOJOVACÍ
  6
Continuous
100
AcDbLine
 10
2322.307247178241
 20
742.7907666744786
 30
0.0
 11
2323.404484967695
 21
738.6673396845826
 31
0.0
  0
LINE
  5
1B15
330
1F
100
AcDbEntity
  8
SPOJOVACÍ
  6
Continuous
100
AcDbLine
 10
2325.822674797111
 20
742.9428521194964
 30
0.0
 11
2326.711721752026
 21
738.075963166299
 31
0.0
  0
LINE
  5
1B16
330
1F
100
AcDbEntity
  8
SPOJOVACÍ
  6
Continuous
100
AcDbLine
 10
2325.822674797111
 20
742.9428521194964
 30
0.0
 11
2326.015620550917
 21
742.551995537734
 31
0.0
  0
LINE
  5
1B17
330
1F
100
AcDbEntity
  8
SPOJOVACÍ
  6
Continuous
100
AcDbLine
 10
2325.822674797111
 20
742.9428521194964
 30
0.0
 11
2325.420609954637
 21
742.5903065011056
 31
0.0
  0
LINE
  5
1B18
330
1F
100
AcDbEntity
  8
SPOJOVACÍ
  6
Continuous
100
AcDbLine
 10
2326.711721752026
 20
738.075963166299
 30
0.0
 11
2327.112858340375
 21
738.428568547838
 31
0.0
  0
LINE
  5
1B19
330
1F
100
AcDbEntity
  8
SPOJOVACÍ
  6
Continuous
100
AcDbLine
 10
2326.711721752026
 20
738.075963166299
 30
0.0
 11
2326.517847744091
 21
738.4668795112097
 31
0.0
  0
LINE
  5
1B1A
330
1F
100
AcDbEntity
  8
SPOJOVACÍ
  6
Continuous
100
AcDbLine
 10
2326.015620550917
 20
742.551995537734
 30
0.0
 11
2327.112858340375
 21
738.428568547838
 31
0.0
  0
LINE
  5
1B1B
330
1F
100
AcDbEntity
  8
SPOJOVACÍ
  6
Continuous
100
AcDbLine
 10
2325.420609954637
 20
742.5903065011056
 30
0.0
 11
2326.517847744091
 21
738.4668795112097
 31
0.0
  0
LINE
  5
1B1C
330
1F
100
AcDbEntity
  8
SPOJOVACÍ
  6
Continuous
100
AcDbLine
 10
2305.449567953159
 20
985.0883091132919
 30
0.0
 11
2304.183134183795
 21
984.2097860495337
 31
0.0
  0
LINE
  5
1B1D
330
1F
100
AcDbEntity
  8
SPOJOVACÍ
  6
Continuous
100
AcDbLine
 10
2306.899900295089
 20
985.6091816849176
 30
0.0
 11
2305.449567953159
 21
985.0883091132919
 31
0.0
  0
LINE
  5
1B1E
330
1F
100
AcDbEntity
  8
SPOJOVACÍ
  6
Continuous
100
AcDbLine
 10
2308.43496305874
 20
985.7377764203015
 30
0.0
 11
2306.899900295089
 21
985.6091816849176
 31
0.0
  0
LINE
  5
1B1F
330
1F
100
AcDbEntity
  8
SPOJOVACÍ
  6
Continuous
100
AcDbLine
 10
2301.60802080545
 20
982.4191080324284
 30
0.0
 11
2302.805468027343
 21
982.342007965733
 31
0.0
  0
LINE
  5
1B20
330
1F
100
AcDbEntity
  8
SPOJOVACÍ
  6
Continuous
100
AcDbLine
 10
2302.263431139801
 20
992.598337671483
 30
0.0
 11
2301.60802080545
 21
982.4191080324284
 31
0.0
  0
LINE
  5
1B21
330
1F
100
AcDbEntity
  8
SPOJOVACÍ
  6
Continuous
100
AcDbLine
 10
2302.263431139801
 20
992.598337671483
 30
0.0
 11
2303.460878361698
 21
992.5212376047879
 31
0.0
  0
LINE
  5
1B22
330
1F
100
AcDbEntity
  8
SPOJOVACÍ
  6
Continuous
100
AcDbLine
 10
2303.460878361698
 20
992.5212376047879
 30
0.0
 11
2302.805468027343
 21
982.342007965733
 31
0.0
  0
LINE
  5
1B23
330
1F
100
AcDbEntity
  8
SPOJOVACÍ
  6
Continuous
100
AcDbLine
 10
2303.187457054658
 20
983.0341991970263
 30
0.0
 11
2302.805468027343
 21
982.342007965733
 31
0.0
  0
LINE
  5
1B24
330
1F
100
AcDbEntity
  8
SPOJOVACÍ
  6
Continuous
100
AcDbLine
 10
2304.183134183795
 20
984.2097860495337
 30
0.0
 11
2303.187457054658
 21
983.0341991970263
 31
0.0
  0
LINE
  5
1B25
330
1F
100
AcDbEntity
  8
SPOJOVACÍ
  6
Continuous
100
AcDbLine
 10
2307.827349220852
 20
988.548037855563
 30
0.0
 11
2308.608408325248
 21
988.4315685457254
 31
0.0
  0
LINE
  5
1B26
330
1F
100
AcDbEntity
  8
SPOJOVACÍ
  6
Continuous
100
AcDbLine
 10
2306.377062440487
 20
989.0701843872706
 30
0.0
 11
2307.827349220852
 21
988.548037855563
 31
0.0
  0
LINE
  5
1B27
330
1F
100
AcDbEntity
  8
SPOJOVACÍ
  6
Continuous
100
AcDbLine
 10
2305.111959724732
 20
989.9495198244308
 30
0.0
 11
2306.377062440487
 21
989.0701843872706
 31
0.0
  0
LINE
  5
1B28
330
1F
100
AcDbEntity
  8
SPOJOVACÍ
  6
Continuous
100
AcDbLine
 10
2304.116758656355
 20
991.1265275450645
 30
0.0
 11
2305.111959724732
 21
989.9495198244308
 31
0.0
  0
LINE
  5
1B29
330
1F
100
AcDbEntity
  8
SPOJOVACÍ
  6
Continuous
100
AcDbLine
 10
2303.460878361698
 20
992.5212376047879
 30
0.0
 11
2304.116758656355
 21
991.1265275450645
 31
0.0
  0
LINE
  5
1B2A
330
1F
100
AcDbEntity
  8
SPOJOVACÍ
  6
Continuous
100
AcDbLine
 10
2308.43496305874
 20
985.7377764203015
 30
0.0
 11
2313.367703009467
 21
985.420171959549
 31
0.0
  0
LINE
  5
1B2B
330
1F
100
AcDbEntity
  8
SPOJOVACÍ
  6
Continuous
100
AcDbLine
 10
2308.608408325248
 20
988.4315685457254
 30
0.0
 11
2312.637957464592
 21
988.1721178561971
 31
0.0
  0
LINE
  5
1B2C
330
1F
100
AcDbEntity
  8
SPOJOVACÍ
  6
Continuous
100
AcDbLine
 10
2313.232039807031
 20
988.133866660331
 30
0.0
 11
2315.74575071905
 21
987.9720162877843
 31
0.0
  0
LINE
  5
1B2D
330
1F
100
AcDbEntity
  8
SPOJOVACÍ
  6
Continuous
100
AcDbLine
 10
2316.348187344405
 20
987.9332271844777
 30
0.0
 11
2318.863754763833
 21
987.7712572769382
 31
0.0
  0
LINE
  5
1B2E
330
1F
100
AcDbEntity
  8
SPOJOVACÍ
  6
Continuous
100
AcDbLine
 10
2319.4569088527
 20
987.7330658485593
 30
0.0
 11
2321.979902301207
 21
987.5706178010855
 31
0.0
  0
LINE
  5
1B2F
330
1F
100
AcDbEntity
  8
SPOJOVACÍ
  6
Continuous
100
AcDbLine
 10
2313.970139634823
 20
985.3813828562421
 30
0.0
 11
2316.483850546841
 21
985.2195324836953
 31
0.0
  0
LINE
  5
1B30
330
1F
100
AcDbEntity
  8
SPOJOVACÍ
  6
Continuous
100
AcDbLine
 10
2317.078861143118
 20
985.181221520324
 30
0.0
 11
2319.601854591621
 21
985.0187734728496
 31
0.0
  0
LINE
  5
1B31
330
1F
100
AcDbEntity
  8
SPOJOVACÍ
  6
Continuous
100
AcDbLine
 10
2320.195008680491
 20
984.9805820444707
 30
0.0
 11
2322.71057609992
 21
984.8186121369312
 31
0.0
  0
LINE
  5
1B32
330
1F
100
AcDbEntity
  8
SPOJOVACÍ
  6
Continuous
100
AcDbLine
 10
2322.583267180396
 20
987.5317689302733
 30
0.0
 11
2325.096049838847
 21
987.3699783252146
 31
0.0
  0
LINE
  5
1B33
330
1F
100
AcDbEntity
  8
SPOJOVACÍ
  6
Continuous
100
AcDbLine
 10
2325.691060435123
 20
987.3316673618429
 30
0.0
 11
2326.93584859327
 21
987.2515191530041
 31
0.0
  0
LINE
  5
1B34
330
1F
100
AcDbEntity
  8
SPOJOVACÍ
  6
Continuous
100
AcDbLine
 10
2323.3102279643
 20
984.7800023361045
 30
0.0
 11
2325.823938876315
 21
984.6181519635589
 31
0.0
  0
LINE
  5
1B35
330
1F
100
AcDbEntity
  8
SPOJOVACÍ
  6
Continuous
100
AcDbLine
 10
2326.42637550194
 20
984.5793628602345
 30
0.0
 11
2326.762403326762
 21
984.5577270275803
 31
0.0
  0
LINE
  5
1B36
330
1F
100
AcDbEntity
  8
SPOJOVACÍ
  6
Continuous
100
AcDbLine
 10
2326.93584859327
 20
987.2515191530041
 30
0.0
 11
2328.120888487761
 21
987.0251495498846
 31
0.0
  0
LINE
  5
1B37
330
1F
100
AcDbEntity
  8
SPOJOVACÍ
  6
Continuous
100
AcDbLine
 10
2337.627079209485
 20
985.2106627248113
 30
0.0
 11
2334.774062384212
 21
985.0392291651656
 31
0.0
  0
LINE
  5
1B38
330
1F
100
AcDbEntity
  8
SPOJOVACÍ
  6
Continuous
100
AcDbLine
 10
2328.735072977166
 20
986.9082395764067
 30
0.0
 11
2331.033346654878
 21
986.4694447692777
 31
0.0
  0
LINE
  5
1B39
330
1F
100
AcDbEntity
  8
SPOJOVACÍ
  6
Continuous
100
AcDbLine
 10
2331.65762239969
 20
986.3500208473228
 30
0.0
 11
2333.95496782411
 21
985.9112858120393
 31
0.0
  0
LINE
  5
1B3A
330
1F
100
AcDbEntity
  8
SPOJOVACÍ
  6
Continuous
100
AcDbLine
 10
2334.569152313512
 20
985.7943758385603
 30
0.0
 11
2337.627079209485
 21
985.2106627248113
 31
0.0
  0
LINE
  5
1B3B
330
1F
100
AcDbEntity
  8
SPOJOVACÍ
  6
Continuous
100
AcDbLine
 10
2334.201369047025
 20
985.0043313384372
 30
0.0
 11
2332.043603068477
 21
984.8748181252858
 31
0.0
  0
LINE
  5
1B3C
330
1F
100
AcDbEntity
  8
SPOJOVACÍ
  6
Continuous
100
AcDbLine
 10
2331.468124970595
 20
984.8400996053946
 30
0.0
 11
2329.318773042281
 21
984.7109767356464
 31
0.0
  0
LINE
  5
1B3D
330
1F
100
AcDbEntity
  8
SPOJOVACÍ
  6
Continuous
100
AcDbLine
 10
2328.745151451248
 20
984.6761386764237
 30
0.0
 11
2326.762403326762
 21
984.5577270275803
 31
0.0
  0
LINE
  5
1B3E
330
1F
100
AcDbEntity
  8
SPOJOVACÍ
  6
Continuous
100
AcDbLine
 10
2312.867879355306
 20
989.2096569275567
 30
0.0
 11
2313.756926310225
 21
984.3427679743586
 31
0.0
  0
LINE
  5
1B3F
330
1F
100
AcDbEntity
  8
SPOJOVACÍ
  6
Continuous
100
AcDbLine
 10
2312.867879355306
 20
989.2096569275567
 30
0.0
 11
2313.060825109116
 21
988.8188003457939
 31
0.0
  0
LINE
  5
1B40
330
1F
100
AcDbEntity
  8
SPOJOVACÍ
  6
Continuous
100
AcDbLine
 10
2312.867879355306
 20
989.2096569275567
 30
0.0
 11
2312.465814513108
 21
988.8571113091479
 31
0.0
  0
LINE
  5
1B41
330
1F
100
AcDbEntity
  8
SPOJOVACÍ
  6
Continuous
100
AcDbLine
 10
2313.756926310225
 20
984.3427679743586
 30
0.0
 11
2314.15806289857
 21
984.6953733558979
 31
0.0
  0
LINE
  5
1B42
330
1F
100
AcDbEntity
  8
SPOJOVACÍ
  6
Continuous
100
AcDbLine
 10
2313.756926310225
 20
984.3427679743586
 30
0.0
 11
2313.56305230229
 21
984.7336843192701
 31
0.0
  0
LINE
  5
1B43
330
1F
100
AcDbEntity
  8
SPOJOVACÍ
  6
Continuous
100
AcDbLine
 10
2313.060825109116
 20
988.8188003457939
 30
0.0
 11
2314.15806289857
 21
984.6953733558979
 31
0.0
  0
LINE
  5
1B44
330
1F
100
AcDbEntity
  8
SPOJOVACÍ
  6
Continuous
100
AcDbLine
 10
2312.465814513108
 20
988.8571113091479
 30
0.0
 11
2313.56305230229
 21
984.7336843192701
 31
0.0
  0
LINE
  5
1B45
330
1F
100
AcDbEntity
  8
SPOJOVACÍ
  6
Continuous
100
AcDbLine
 10
2315.981242131705
 20
989.0091967541835
 30
0.0
 11
2316.870289086901
 21
984.1423078009679
 31
0.0
  0
LINE
  5
1B46
330
1F
100
AcDbEntity
  8
SPOJOVACÍ
  6
Continuous
100
AcDbLine
 10
2315.981242131705
 20
989.0091967541835
 30
0.0
 11
2316.175116139356
 21
988.6182804049157
 31
0.0
  0
LINE
  5
1B47
330
1F
100
AcDbEntity
  8
SPOJOVACÍ
  6
Continuous
100
AcDbLine
 10
2315.981242131705
 20
989.0091967541835
 30
0.0
 11
2315.580105543073
 21
988.6565913682876
 31
0.0
  0
LINE
  5
1B48
330
1F
100
AcDbEntity
  8
SPOJOVACÍ
  6
Continuous
100
AcDbLine
 10
2316.870289086901
 20
984.1423078009679
 30
0.0
 11
2317.271425674966
 21
984.4949131825256
 31
0.0
  0
LINE
  5
1B49
330
1F
100
AcDbEntity
  8
SPOJOVACÍ
  6
Continuous
100
AcDbLine
 10
2316.870289086901
 20
984.1423078009679
 30
0.0
 11
2316.676415078962
 21
984.5332241458791
 31
0.0
  0
LINE
  5
1B4A
330
1F
100
AcDbEntity
  8
SPOJOVACÍ
  6
Continuous
100
AcDbLine
 10
2316.175116139356
 20
988.6182804049157
 30
0.0
 11
2317.271425674966
 21
984.4949131825256
 31
0.0
  0
LINE
  5
1B4B
330
1F
100
AcDbEntity
  8
SPOJOVACÍ
  6
Continuous
100
AcDbLine
 10
2315.580105543073
 20
988.6565913682876
 30
0.0
 11
2316.676415078962
 21
984.5332241458791
 31
0.0
  0
LINE
  5
1B4C
330
1F
100
AcDbEntity
  8
SPOJOVACÍ
  6
Continuous
100
AcDbLine
 10
2328.376605297127
 20
987.9566323464572
 30
0.0
 11
2328.570419537465
 21
987.5647877463457
 31
0.0
  0
LINE
  5
1B4D
330
1F
100
AcDbEntity
  8
SPOJOVACÍ
  6
Continuous
100
AcDbLine
 10
2328.376605297127
 20
987.9566323464572
 30
0.0
 11
2327.975408941185
 21
987.6030987097179
 31
0.0
  0
LINE
  5
1B4E
330
1F
100
AcDbEntity
  8
SPOJOVACÍ
  6
Continuous
100
AcDbLine
 10
2329.082489791859
 20
983.7773105665309
 30
0.0
 11
2329.484554634049
 21
984.1298561805652
 31
0.0
  0
LINE
  5
1B4F
330
1F
100
AcDbEntity
  8
SPOJOVACÍ
  6
Continuous
100
AcDbLine
 10
2329.082489791859
 20
983.7773105665309
 30
0.0
 11
2328.889544037769
 21
984.1681671439369
 31
0.0
  0
LINE
  5
1B50
330
1F
100
AcDbEntity
  8
SPOJOVACÍ
  6
Continuous
100
AcDbLine
 10
2328.570419537465
 20
987.5647877463457
 30
0.0
 11
2329.484554634049
 21
984.1298561805652
 31
0.0
  0
LINE
  5
1B51
330
1F
100
AcDbEntity
  8
SPOJOVACÍ
  6
Continuous
100
AcDbLine
 10
2327.975408941185
 20
987.6030987097179
 30
0.0
 11
2328.889544037769
 21
984.1681671439369
 31
0.0
  0
LINE
  5
1B52
330
1F
100
AcDbEntity
  8
SPOJOVACÍ
  6
Continuous
100
AcDbLine
 10
2328.376605297127
 20
987.9566323464572
 30
0.0
 11
2329.082489791859
 21
983.7773105665309
 31
0.0
  0
LINE
  5
1B53
330
1F
100
AcDbEntity
  8
SPOJOVACÍ
  6
Continuous
100
AcDbLine
 10
2331.348796541713
 20
987.1994759299955
 30
0.0
 11
2331.541742295519
 21
986.8086193482335
 31
0.0
  0
LINE
  5
1B54
330
1F
100
AcDbEntity
  8
SPOJOVACÍ
  6
Continuous
100
AcDbLine
 10
2331.348796541713
 20
987.1994759299955
 30
0.0
 11
2330.946731699239
 21
986.8469303116048
 31
0.0
  0
LINE
  5
1B55
330
1F
100
AcDbEntity
  8
SPOJOVACÍ
  6
Continuous
100
AcDbLine
 10
2331.780716180745
 20
984.0491245044882
 30
0.0
 11
2332.182781022662
 21
984.4016701185401
 31
0.0
  0
LINE
  5
1B56
330
1F
100
AcDbEntity
  8
SPOJOVACÍ
  6
Continuous
100
AcDbLine
 10
2331.780716180745
 20
984.0491245044882
 30
0.0
 11
2331.587770426655
 21
984.439981081894
 31
0.0
  0
LINE
  5
1B57
330
1F
100
AcDbEntity
  8
SPOJOVACÍ
  6
Continuous
100
AcDbLine
 10
2331.541742295519
 20
986.8086193482335
 30
0.0
 11
2332.182781022662
 21
984.4016701185401
 31
0.0
  0
LINE
  5
1B58
330
1F
100
AcDbEntity
  8
SPOJOVACÍ
  6
Continuous
100
AcDbLine
 10
2330.946731699239
 20
986.8469303116048
 30
0.0
 11
2331.587770426655
 21
984.439981081894
 31
0.0
  0
LINE
  5
1B59
330
1F
100
AcDbEntity
  8
SPOJOVACÍ
  6
Continuous
100
AcDbLine
 10
2331.348796541713
 20
987.1994759299955
 30
0.0
 11
2331.780716180745
 21
984.0491245044882
 31
0.0
  0
LINE
  5
1B5A
330
1F
100
AcDbEntity
  8
SPOJOVACÍ
  6
Continuous
100
AcDbLine
 10
2334.320059532174
 20
986.4423792766825
 30
0.0
 11
2334.513933540098
 21
986.0514629317718
 31
0.0
  0
LINE
  5
1B5B
330
1F
100
AcDbEntity
  8
SPOJOVACÍ
  6
Continuous
100
AcDbLine
 10
2334.320059532174
 20
986.4423792766825
 30
0.0
 11
2333.918922943829
 21
986.0897738951431
 31
0.0
  0
LINE
  5
1B5C
330
1F
100
AcDbEntity
  8
SPOJOVACÍ
  6
Continuous
100
AcDbLine
 10
2334.491674739712
 20
984.2725814582623
 30
0.0
 11
2334.893739581626
 21
984.6251270723145
 31
0.0
  0
LINE
  5
1B5D
330
1F
100
AcDbEntity
  8
SPOJOVACÍ
  6
Continuous
100
AcDbLine
 10
2334.491674739712
 20
984.2725814582623
 30
0.0
 11
2334.298728985353
 21
984.6634380356855
 31
0.0
  0
LINE
  5
1B5E
330
1F
100
AcDbEntity
  8
SPOJOVACÍ
  6
Continuous
100
AcDbLine
 10
2334.513933540098
 20
986.0514629317718
 30
0.0
 11
2334.893739581626
 21
984.6251270723145
 31
0.0
  0
LINE
  5
1B5F
330
1F
100
AcDbEntity
  8
SPOJOVACÍ
  6
Continuous
100
AcDbLine
 10
2333.918922943829
 20
986.0897738951431
 30
0.0
 11
2334.298728985353
 21
984.6634380356855
 31
0.0
  0
LINE
  5
1B60
330
1F
100
AcDbEntity
  8
SPOJOVACÍ
  6
Continuous
100
AcDbLine
 10
2334.320059532174
 20
986.4423792766825
 30
0.0
 11
2334.491674739712
 21
984.2725814582623
 31
0.0
  0
LINE
  5
1B61
330
1F
100
AcDbEntity
  8
SPOJOVACÍ
  6
Continuous
100
AcDbLine
 10
2319.094604908377
 20
988.8087365807928
 30
0.0
 11
2319.983651863296
 21
983.941847627595
 31
0.0
  0
LINE
  5
1B62
330
1F
100
AcDbEntity
  8
SPOJOVACÍ
  6
Continuous
100
AcDbLine
 10
2319.094604908377
 20
988.8087365807928
 30
0.0
 11
2319.288478916028
 21
988.4178202315252
 31
0.0
  0
LINE
  5
1B63
330
1F
100
AcDbEntity
  8
SPOJOVACÍ
  6
Continuous
100
AcDbLine
 10
2319.094604908377
 20
988.8087365807928
 30
0.0
 11
2318.693468319744
 21
988.4561311948969
 31
0.0
  0
LINE
  5
1B64
330
1F
100
AcDbEntity
  8
SPOJOVACÍ
  6
Continuous
100
AcDbLine
 10
2319.983651863296
 20
983.941847627595
 30
0.0
 11
2320.38571670521
 21
984.2943932416469
 31
0.0
  0
LINE
  5
1B65
330
1F
100
AcDbEntity
  8
SPOJOVACÍ
  6
Continuous
100
AcDbLine
 10
2319.983651863296
 20
983.941847627595
 30
0.0
 11
2319.790706108937
 21
984.3327042050182
 31
0.0
  0
LINE
  5
1B66
330
1F
100
AcDbEntity
  8
SPOJOVACÍ
  6
Continuous
100
AcDbLine
 10
2319.288478916028
 20
988.4178202315252
 30
0.0
 11
2320.38571670521
 21
984.2943932416469
 31
0.0
  0
LINE
  5
1B67
330
1F
100
AcDbEntity
  8
SPOJOVACÍ
  6
Continuous
100
AcDbLine
 10
2318.693468319744
 20
988.4561311948969
 30
0.0
 11
2319.790706108937
 21
984.3327042050182
 31
0.0
  0
LINE
  5
1B68
330
1F
100
AcDbEntity
  8
SPOJOVACÍ
  6
Continuous
100
AcDbLine
 10
2322.207967684784
 20
988.6082764074194
 30
0.0
 11
2323.097014639702
 21
983.7413874542221
 31
0.0
  0
LINE
  5
1B69
330
1F
100
AcDbEntity
  8
SPOJOVACÍ
  6
Continuous
100
AcDbLine
 10
2322.207967684784
 20
988.6082764074194
 30
0.0
 11
2322.401841692424
 21
988.2173600581522
 31
0.0
  0
LINE
  5
1B6A
330
1F
100
AcDbEntity
  8
SPOJOVACÍ
  6
Continuous
100
AcDbLine
 10
2322.207967684784
 20
988.6082764074194
 30
0.0
 11
2321.806831096155
 21
988.2556710215235
 31
0.0
  0
LINE
  5
1B6B
330
1F
100
AcDbEntity
  8
SPOJOVACÍ
  6
Continuous
100
AcDbLine
 10
2323.097014639702
 20
983.7413874542221
 30
0.0
 11
2323.499079481613
 21
984.0939330682736
 31
0.0
  0
LINE
  5
1B6C
330
1F
100
AcDbEntity
  8
SPOJOVACÍ
  6
Continuous
100
AcDbLine
 10
2323.097014639702
 20
983.7413874542221
 30
0.0
 11
2322.904068885609
 21
984.1322440316275
 31
0.0
  0
LINE
  5
1B6D
330
1F
100
AcDbEntity
  8
SPOJOVACÍ
  6
Continuous
100
AcDbLine
 10
2322.401841692424
 20
988.2173600581522
 30
0.0
 11
2323.499079481613
 21
984.0939330682736
 31
0.0
  0
LINE
  5
1B6E
330
1F
100
AcDbEntity
  8
SPOJOVACÍ
  6
Continuous
100
AcDbLine
 10
2321.806831096155
 20
988.2556710215235
 30
0.0
 11
2322.904068885609
 21
984.1322440316275
 31
0.0
  0
LINE
  5
1B6F
330
1F
100
AcDbEntity
  8
SPOJOVACÍ
  6
Continuous
100
AcDbLine
 10
2325.322258715024
 20
988.4077564665412
 30
0.0
 11
2326.21130566994
 21
983.5408675133434
 31
0.0
  0
LINE
  5
1B70
330
1F
100
AcDbEntity
  8
SPOJOVACÍ
  6
Continuous
100
AcDbLine
 10
2325.322258715024
 20
988.4077564665412
 30
0.0
 11
2325.515204468831
 21
988.0168998847789
 31
0.0
  0
LINE
  5
1B71
330
1F
100
AcDbEntity
  8
SPOJOVACÍ
  6
Continuous
100
AcDbLine
 10
2325.322258715024
 20
988.4077564665412
 30
0.0
 11
2324.92019387255
 21
988.0552108481506
 31
0.0
  0
LINE
  5
1B72
330
1F
100
AcDbEntity
  8
SPOJOVACÍ
  6
Continuous
100
AcDbLine
 10
2326.21130566994
 20
983.5408675133434
 30
0.0
 11
2326.612442258289
 21
983.893472894883
 31
0.0
  0
LINE
  5
1B73
330
1F
100
AcDbEntity
  8
SPOJOVACÍ
  6
Continuous
100
AcDbLine
 10
2326.21130566994
 20
983.5408675133434
 30
0.0
 11
2326.017431662005
 21
983.9317838582552
 31
0.0
  0
LINE
  5
1B74
330
1F
100
AcDbEntity
  8
SPOJOVACÍ
  6
Continuous
100
AcDbLine
 10
2325.515204468831
 20
988.0168998847789
 30
0.0
 11
2326.612442258289
 21
983.893472894883
 31
0.0
  0
LINE
  5
1B75
330
1F
100
AcDbEntity
  8
SPOJOVACÍ
  6
Continuous
100
AcDbLine
 10
2324.92019387255
 20
988.0552108481506
 30
0.0
 11
2326.017431662005
 21
983.9317838582552
 31
0.0
  0
HATCH
  5
1B76
330
1F
100
AcDbEntity
  8
STAVBA OBRYS
100
AcDbHatch
 10
0.0
 20
0.0
 30
0.0
210
0.0
220
0.0
230
1.0
  2
AR-SAND
 70
     0
 71
     0
 91
        1
 92
        7
 72
     0
 73
     1
 93
        6
 10
2875.438959444551
 20
622.0274322684531
 10
2712.577542095017
 20
622.0274322684535
 10
2712.577542095021
 20
507.2042397872801
 10
2722.577542095018
 20
507.2042397872801
 10
2722.577542095021
 20
612.0274322684531
 10
2875.438959444554
 20
612.0274322684527
 97
        0
 75
     0
 76
     1
 52
0.0
 41
0.1
 77
     0
 78
     4
 53
37.5
 43
-17386.63818891597
 44
-1999.397383092778
 45
-0.1600031295984046
 46
4.894132373293423
 79
     6
 49
0.0
 49
-3.8608
 49
0.0
 49
-4.318
 49
0.0
 49
-4.1275
 53
7.499999999999999
 43
-17386.63818891597
 44
-1999.397383092778
 45
4.495232831380026
 46
7.168251005683543
 79
     6
 49
0.0
 49
-2.0828
 49
0.0
 49
-3.4798
 49
0.0
 49
-1.3335
 53
327.4999999999999
 43
-17389.76238891597
 44
-1999.397383092778
 45
7.909923702414579
 46
0.0143718467854569
 79
     6
 49
0.0
 49
-1.27
 49
0.0
 49
-4.572
 49
0.0
 49
-5.969
 53
317.5
 43
-17389.76238891597
 44
-1999.397383092778
 45
7.635564524722972
 46
2.229293232572162
 79
     6
 49
0.0
 49
-0.635
 49
0.0
 49
-2.997199999999999
 49
0.0
 49
-3.429
 47
0.2101902595085301
 98
        1
 10
2763.720063060047
 20
615.3351886362802
  0
LINE
  5
1B77
330
1F
100
AcDbEntity
  8
STAVBA OBRYS
100
AcDbLine
 10
2722.577542095018
 20
612.0274322684531
 30
0.0
 11
2875.438959444554
 21
612.0274322684531
 31
0.0
  0
LINE
  5
1B78
330
1F
100
AcDbEntity
  8
STAVBA OBRYS
100
AcDbLine
 10
2722.577542095018
 20
507.2042397872801
 30
0.0
 11
2722.577542095018
 21
612.0274322684531
 31
0.0
  0
LINE
  5
1B79
330
1F
100
AcDbEntity
  8
POPIS
100
AcDbLine
 10
2141.93697027728
 20
535.4665581366025
 30
0.0
 11
2241.995123490304
 21
535.4665581366023
 31
0.0
  0
TEXT
  5
1B7A
330
1F
100
AcDbEntity
  8
POPIS
100
AcDbText
 10
2101.959483934011
 20
522.0232166872319
 30
0.0
 40
25.0
  1
08
 41
0.7
  7
SIMPLEX7
100
AcDbText
  0
LWPOLYLINE
  5
1B7B
330
1F
100
AcDbEntity
  8
PROFILY
100
AcDbPolyline
 90
        2
 70
     1
 43
2.5
 10
2303.311077671105
 20
518.0876905083569
 42
-1.0
 10
2300.811858881685
 20
518.0251969676251
 42
-1.0
  0
LINE
  5
1B7C
330
1F
100
AcDbEntity
  8
PROFILY
100
AcDbLine
 10
2303.969515456321
 20
505.783420806516
 30
0.0
 11
2298.973113592523
 21
506.1020103683813
 31
0.0
  0
HATCH
  5
1B7D
330
1F
100
AcDbEntity
  8
PROFILY
100
AcDbHatch
 10
0.0
 20
0.0
 30
0.0
210
0.0
220
0.0
230
1.0
  2
SOLID
 70
     1
 71
     0
 91
        1
 92
        1
 93
        4
 72
     1
 10
2304.577978639879
 20
518.0247182129269
 11
2299.581576776085
 21
518.3433077747918
 72
     1
 10
2299.581576776088
 20
518.3433077747913
 11
2298.973113592523
 21
506.1020103683809
 72
     1
 10
2298.973113592523
 20
506.1020103683813
 11
2303.969515456318
 21
505.783420806516
 72
     1
 10
2303.969515456321
 20
505.783420806516
 11
2304.577978639887
 21
518.0247182129269
 97
        0
 75
     0
 76
     1
 98
        1
 10
-17352.82305431254
 20
-2750.721521041485
  0
LWPOLYLINE
  5
1B7E
330
1F
100
AcDbEntity
  8
PROFILY
100
AcDbPolyline
 90
        2
 70
     1
 43
2.5
 10
2302.759305075904
 20
505.9715150294655
 42
-1.0
 10
2300.260086286491
 20
505.9090214887337
 42
-1.0
  0
LWPOLYLINE
  5
1B7F
330
1F
100
AcDbEntity
  8
PROFILY
100
AcDbPolyline
 90
        2
 70
     1
 43
2.5
 10
2303.047689216297
 20
755.4091571833296
 42
-1.0
 10
2300.547689216297
 20
755.4091571833296
 42
-1.0
  0
LWPOLYLINE
  5
1B80
330
1F
100
AcDbEntity
  8
PROFILY
100
AcDbPolyline
 90
        2
 70
     1
 43
2.5
 10
2303.902162473578
 20
767.5077536591479
 42
-1.0
 10
2301.402162473578
 20
767.5077536591479
 42
-1.0
  0
HATCH
  5
1B81
330
1F
100
AcDbEntity
  8
PROFILY
100
AcDbHatch
 10
0.0
 20
0.0
 30
0.0
210
0.0
220
0.0
230
1.0
  2
SOLID
 70
     1
 71
     1
 91
        1
 92
        1
 93
        4
 72
     1
 10
2305.167093411093
 20
767.4131317906494
 11
2300.180216760012
 21
767.8565189356536
 72
     1
 10
2300.180216760012
 20
767.8565189356536
 11
2299.265942904368
 21
755.6342567491829
 72
     1
 10
2299.265942904368
 20
755.6342567491829
 11
2304.252819555449
 21
755.1908696041782
 72
     1
 10
2304.252819555449
 20
755.1908696041782
 11
2305.167093411093
 21
767.4131317906494
 97
        4
330
1B82
330
1B83
330
1B85
330
1B84
 75
     0
 76
     1
 98
        1
 10
-17427.80152213765
 20
-2008.927438947626
  0
LINE
  5
1B82
102
{ACAD_REACTORS
330
1B81
102
}
330
1F
100
AcDbEntity
  8
PROFILY
100
AcDbLine
 10
2305.167093411093
 20
767.4131317906494
 30
0.0
 11
2300.180216760012
 21
767.8565189356536
 31
0.0
  0
LINE
  5
1B83
102
{ACAD_REACTORS
330
1B81
102
}
330
1F
100
AcDbEntity
  8
PROFILY
100
AcDbLine
 10
2300.180216760012
 20
767.8565189356536
 30
0.0
 11
2299.265942904368
 21
755.6342567491829
 31
0.0
  0
LINE
  5
1B84
102
{ACAD_REACTORS
330
1B81
102
}
330
1F
100
AcDbEntity
  8
PROFILY
100
AcDbLine
 10
2305.167093411093
 20
767.4131317906494
 30
0.0
 11
2304.252819555449
 21
755.1908696041782
 31
0.0
  0
LINE
  5
1B85
102
{ACAD_REACTORS
330
1B81
102
}
330
1F
100
AcDbEntity
  8
PROFILY
100
AcDbLine
 10
2304.252819555449
 20
755.1908696041782
 30
0.0
 11
2299.265942904368
 21
755.6342567491829
 31
0.0
  0
LINE
  5
1B86
330
1F
100
AcDbEntity
  8
PROFILY
100
AcDbLine
 10
2548.798555666328
 20
-70.57024664145638
 30
0.0
 11
2548.798555666328
 21
-92.30103679184276
 31
0.0
  0
LINE
  5
1B87
330
1F
100
AcDbEntity
  8
PROFILY
100
AcDbLine
 10
2551.236055666328
 20
-68.19003288391605
 30
0.0
 11
2551.236055666328
 21
-96.25466656036634
 31
0.0
  0
ARC
  5
1B88
330
1F
100
AcDbEntity
  8
PROFILY
100
AcDbCircle
 10
2550.423555666327
 20
-96.25466656036634
 30
0.0
 40
0.8125
100
AcDbArc
 50
224.6867669083551
 51
0.0
  0
LINE
  5
1B89
330
1F
100
AcDbEntity
  8
PROFILY
100
AcDbLine
 10
2548.798555666328
 20
-92.30103679184276
 30
0.0
 11
2542.406525326029
 21
-85.83873175839427
 31
0.0
  0
LINE
  5
1B8A
330
1F
100
AcDbEntity
  8
PROFILY
100
AcDbLine
 10
2540.673555666328
 20
-87.55285614377271
 30
0.0
 11
2542.406525326029
 21
-85.83873175839427
 31
0.0
  0
LINE
  5
1B8B
330
1F
100
AcDbEntity
  8
PROFILY
100
AcDbLine
 10
2549.845899113095
 20
-96.82604135549674
 30
0.0
 11
2540.673555666328
 21
-87.55285614377271
 31
0.0
  0
LINE
  5
1B8C
330
1F
100
AcDbEntity
  8
PROFILY
100
AcDbLine
 10
2546.990723526413
 20
-85.68423386167387
 30
0.0
 11
2544.55953856553
 21
-85.85957905259466
 31
0.0
  0
LINE
  5
1B8D
330
1F
100
AcDbEntity
  8
PROFILY
100
AcDbLine
 10
2546.076949065007
 20
-73.01462646297569
 30
0.0
 11
2546.990723526413
 21
-85.68423386167387
 31
0.0
  0
LINE
  5
1B8E
330
1F
100
AcDbEntity
  8
PROFILY
100
AcDbLine
 10
2543.804342261845
 20
-75.38867941516355
 30
0.0
 11
2544.55953856553
 21
-85.85957905259466
 31
0.0
  0
LINE
  5
1B8F
330
1F
100
AcDbEntity
  8
PROFILY
100
AcDbLine
 10
2546.076949065007
 20
-73.01462646297569
 30
0.0
 11
2237.483360040418
 21
-68.3343880954635
 31
0.0
  0
LINE
  5
1B90
330
1F
100
AcDbEntity
  8
PROFILY
100
AcDbLine
 10
2543.804342261845
 20
-75.38867941516355
 30
0.0
 11
2239.770005564178
 21
-70.51379227393226
 31
0.0
  0
LINE
  5
1B91
330
1F
100
AcDbEntity
  8
PROFILY
100
AcDbLine
 10
2548.798555666328
 20
-70.57024664145638
 30
0.0
 11
2234.781376056727
 21
-65.53529457771356
 31
0.0
  0
LINE
  5
1B92
330
1F
100
AcDbEntity
  8
PROFILY
100
AcDbLine
 10
2551.236055666328
 20
-68.19003288391605
 30
0.0
 11
2232.343876056727
 21
-63.35360248746519
 31
0.0
  0
HATCH
  5
1B93
330
1F
100
AcDbEntity
  8
PROFILY
100
AcDbHatch
 10
0.0
 20
0.0
 30
0.0
210
0.0
220
0.0
230
1.0
  2
SOLID
 70
     1
 71
     0
 91
        2
 92
        7
 72
     1
 73
     1
 93
       18
 10
2548.798555666328
 20
-70.57024664145638
 42
0.0
 10
2548.798555666328
 20
-92.3010367918423
 42
0.0
 10
2542.406525326029
 20
-85.83873175839427
 42
0.0
 10
2540.673555666328
 20
-87.55285614377317
 42
0.0
 10
2549.845899113095
 20
-96.82604135549491
 42
0.6701573805495633
 10
2551.236055666328
 20
-96.25466656036905
 42
0.0
 10
2551.236055666328
 20
-68.1900328839165
 42
0.0
 10
2235.033648940558
 20
-63.39439652434293
 42
-0.1548638422138271
 10
2235.262374515694
 20
-64.11515900194172
 42
-1.0
 10
2232.762374515694
 20
-64.11515900194172
 42
-0.1626375651849663
 10
2233.013427450432
 20
-63.36375713822054
 42
0.0
 10
2232.343876056727
 20
-63.35360248746519
 42
0.0
 10
2232.343876056727
 20
-91.3023579260448
 42
0.6701573805506788
 10
2233.734032609964
 20
-91.87373272117339
 42
0.0
 10
2242.906376056728
 20
-82.60054750945119
 42
0.0
 10
2241.173406397027
 20
-80.88642312407273
 42
0.0
 10
2234.781376056727
 20
-87.34872815752124
 42
0.0
 10
2234.781376056727
 20
-65.53529457771401
 42
0.0
 97
        0
 92
       23
 72
     0
 73
     1
 93
        8
 10
2543.804342261845
 20
-75.38867941516355
 10
2544.55953856553
 20
-85.85957905259466
 10
2546.990723526413
 20
-85.68423386167387
 10
2546.076949065007
 20
-73.01462646297569
 10
2237.483360040418
 20
-68.33438809546397
 10
2236.589208196643
 20
-80.73192522735235
 10
2239.020393157525
 20
-80.90727041827312
 10
2239.770005564178
 20
-70.51379227393181
 97
        0
 75
     0
 76
     1
 47
0.4153941033642652
 98
        2
 10
2397.35231277827
 20
-67.13532358204384
 10
2396.521015899974
 20
-72.12005861589341
  0
LINE
  5
1B94
330
1F
100
AcDbEntity
  8
PROFILY
100
AcDbLine
 10
2236.589208196643
 20
-80.73192522735235
 30
0.0
 11
2239.020393157525
 21
-80.90727041827312
 31
0.0
  0
LINE
  5
1B95
330
1F
100
AcDbEntity
  8
PROFILY
100
AcDbLine
 10
2239.770005564178
 20
-70.51379227393226
 30
0.0
 11
2239.020393157525
 21
-80.90727041827312
 31
0.0
  0
LINE
  5
1B96
330
1F
100
AcDbEntity
  8
PROFILY
100
AcDbLine
 10
2237.483360040418
 20
-68.3343880954635
 30
0.0
 11
2236.589208196643
 21
-80.73192522735235
 31
0.0
  0
LINE
  5
1B97
330
1F
100
AcDbEntity
  8
PROFILY
100
AcDbLine
 10
2233.73403260996
 20
-91.8737327211752
 30
0.0
 11
2242.906376056728
 21
-82.60054750945119
 31
0.0
  0
LINE
  5
1B98
330
1F
100
AcDbEntity
  8
PROFILY
100
AcDbLine
 10
2242.906376056728
 20
-82.60054750945119
 30
0.0
 11
2241.173406397027
 21
-80.88642312407273
 31
0.0
  0
LINE
  5
1B99
330
1F
100
AcDbEntity
  8
PROFILY
100
AcDbLine
 10
2234.781376056727
 20
-87.34872815752124
 30
0.0
 11
2241.173406397027
 21
-80.88642312407273
 31
0.0
  0
ARC
  5
1B9A
330
1F
100
AcDbEntity
  8
PROFILY
100
AcDbCircle
 10
2233.156376056727
 20
-91.3023579260448
 30
0.0
 40
0.8125
100
AcDbArc
 50
180.0
 51
315.3132330916447
  0
LINE
  5
1B9B
330
1F
100
AcDbEntity
  8
PROFILY
100
AcDbLine
 10
2232.343876056727
 20
-63.35360248746519
 30
0.0
 11
2232.343876056727
 21
-91.3023579260448
 31
0.0
  0
LINE
  5
1B9C
330
1F
100
AcDbEntity
  8
PROFILY
100
AcDbLine
 10
2234.781376056727
 20
-65.53529457771356
 30
0.0
 11
2234.781376056727
 21
-87.34872815752124
 31
0.0
  0
INSERT
  5
1B9D
330
1F
100
AcDbEntity
  8
POPIS
100
AcDbBlockReference
  2
E_PUNKT
 10
2302.16248132874
 20
499.2776719915259
 30
0.0
  0
TEXT
  5
1B9E
330
1F
100
AcDbEntity
  8
POPIS
100
AcDbText
 10
2158.321987623482
 20
249.1720346080914
 30
0.0
 40
25.0
  1
01
 41
0.85
  7
SIMPLEX7
100
AcDbText
  0
TEXT
  5
1B9F
330
1F
100
AcDbEntity
  8
POPIS
100
AcDbText
 10
2212.665690783223
 20
249.1720346080914
 30
0.0
 40
25.0
  1
Deska CETRIS   (BASIC,FINISH,LASUR)
 41
0.7
  7
SIMPLEX7
100
AcDbText
  0
TEXT
  5
1BA0
330
1F
100
AcDbEntity
  8
POPIS
100
AcDbText
 10
2158.321987623482
 20
212.5770229924642
 30
0.0
 40
25.0
  1
02
 41
0.85
  7
SIMPLEX7
100
AcDbText
  0
TEXT
  5
1BA1
330
1F
100
AcDbEntity
  8
POPIS
100
AcDbText
 10
2212.665690783223
 20
212.5770229924642
 30
0.0
 40
25.0
  1
Vrut se zápustnou hlavou
 41
0.7
  7
SIMPLEX7
100
AcDbText
  0
TEXT
  5
1BA2
330
1F
100
AcDbEntity
  8
POPIS
100
AcDbText
 10
2212.665690783223
 20
-37.96230465150938
 30
0.0
 40
25.0
  1
Oplechování - klempířský výrobek
 41
0.7
  7
SIMPLEX7
100
AcDbText
  0
TEXT
  5
1BA3
330
1F
100
AcDbEntity
  8
POPIS
100
AcDbText
 10
2380.291876022269
 20
274.1473447163721
 30
0.0
 40
12.0
  1
R
 41
0.85
  7
SIMPLEX7
100
AcDbText
  0
CIRCLE
  5
1BA4
330
1F
100
AcDbEntity
  8
POPIS
100
AcDbCircle
 10
2385.05090507745
 20
279.6926904613596
 30
0.0
 40
11.13656048292026
  0
HATCH
  5
1BA5
330
1F
100
AcDbEntity
  8
STAVBA OBRYS
100
AcDbHatch
 10
0.0
 20
0.0
 30
0.0
210
0.0
220
0.0
230
1.0
  2
BRICK
 70
     0
 71
     0
 91
        1
 92
        7
 72
     0
 73
     1
 93
       22
 10
2712.577542095017
 20
622.0274322684531
 10
2660.58761832836
 20
622.0274322684531
 10
2605.082999715463
 20
622.0274322684526
 10
2605.082999715463
 20
727.8679519138977
 10
2660.587618328356
 20
727.8679519138977
 10
2660.58761832836
 20
772.2620746362295
 10
2660.58761832836
 20
831.9825976858414
 10
2660.58761832836
 20
1023.372996262169
 10
2591.684025914934
 20
1023.372996262169
 10
2599.754687151251
 20
987.5229114666849
 10
2487.614113368499
 20
987.5229114666835
 10
2491.083881949847
 20
1002.935712750177
 10
2487.373323696874
 20
1002.935712750176
 10
2484.739163093696
 20
998.3732127501767
 10
2426.781182191398
 20
998.3732127501779
 10
2426.781182191398
 20
554.721686187188
 10
2484.739163093692
 20
554.7216861871861
 10
2487.373323696871
 20
550.1591861871875
 10
2484.739163093692
 20
545.5966861871879
 10
2426.781182191405
 20
545.5966861871888
 10
2426.781182191398
 20
487.3847441584585
 10
2712.577542095014
 20
507.2042397872796
 97
        0
 75
     0
 76
     1
 52
0.0
 41
10.0
 77
     0
 78
     3
 53
0.0
 43
-21623.75014010157
 44
-1974.28610668574
 45
0.0
 46
63.5
 79
     0
 53
90.0
 43
-21623.75014010157
 44
-1974.28610668574
 45
-127.0
 46
0.0000000000000078
 79
     2
 49
63.5
 49
-63.5
 53
90.0
 43
-21560.25014010157
 44
-1974.28610668574
 45
-127.0
 46
0.0000000000000078
 79
     2
 49
-63.5
 49
63.5
 47
2.579186593745692
 98
        1
 10
2566.511102381302
 20
565.4432499770851
  0
LWPOLYLINE
  5
1BA6
330
1F
100
AcDbEntity
  8
NOSNÉ KONSTRUKCE
100
AcDbPolyline
 90
        5
 70
     0
 43
0.0
 10
2497.478579170647
 20
1024.870347486735
 42
-0.0064239028828688
 10
2497.439710730466
 20
1024.651233827385
 42
-0.0832048017309575
 10
2496.655528127785
 20
1022.32102024773
 42
-0.0336767237692336
 10
2494.952711568863
 20
1019.592745728269
 42
-0.0177433486341018
 10
2494.785262787418
 20
1019.377341633082
 42
-0.0495829410719565
  0
LWPOLYLINE
  5
1BAD
330
1F
100
AcDbEntity
  8
NOSNÉ KONSTRUKCE
100
AcDbPolyline
 90
        8
 70
     0
 43
0.0
 10
2504.706630191385
 20
1023.447374333165
 42
-0.0072417954699014
 10
2504.651059823542
 20
1023.03596912189
 42
-0.0707158694326265
 10
2504.119933307122
 20
1021.099865669296
 42
-0.033952657250207
 10
2501.871277467713
 20
1016.746827944123
 42
-0.0571374688189033
 10
2500.085120707861
 20
1014.439903660436
 42
-0.0274923553235744
 10
2497.487814977308
 20
1012.054828337302
 42
-0.0255412025538677
 10
2494.436384939597
 20
1009.798114660282
 42
-0.0141615844778286
 10
2492.33370645252
 20
1008.487465337518
 42
-0.056967459841729
  0
LWPOLYLINE
  5
1BB7
330
1F
100
AcDbEntity
  8
NOSNÉ KONSTRUKCE
100
AcDbPolyline
 90
        4
 70
     0
 43
0.0
 10
2539.33741242263
 20
1023.447374333166
 42
-0.0135911980674878
 10
2535.618281065401
 20
1003.1186811507
 42
-0.0219777111230329
 10
2534.712168563417
 20
999.600567894865
 42
-0.1070002876461039
 10
2527.968858741753
 20
987.5229114666845
  0
LWPOLYLINE
  5
1BB8
330
1F
100
AcDbEntity
  8
NOSNÉ KONSTRUKCE
100
AcDbPolyline
 90
       10
 70
     0
 43
0.0
 10
2511.65640821507
 20
1023.447374333166
 42
-0.0168162630274195
 10
2511.521382636006
 20
1021.756336181047
 42
-0.0575155827655532
 10
2510.841350355664
 20
1018.656711520329
 42
-0.0310289133982999
 10
2507.838549010836
 20
1011.411683995685
 42
-0.0882970623535771
 10
2506.201327090742
 20
1009.171314944885
 42
-0.0171636441953577
 10
2503.387963028885
 20
1006.65739758964
 42
-0.0157521173632038
 10
2500.149108191848
 20
1004.125901537133
 42
-0.0073640874174249
 10
2495.515458835527
 20
1000.837500111397
 42
-0.0194185739168057
 10
2493.69341551585
 20
999.6859311121161
 42
-0.0356804197216853
 10
2489.940550911158
 20
997.8570068689682
 42
-0.0356804197216853
  0
LWPOLYLINE
  5
1BB9
330
1F
100
AcDbEntity
  8
NOSNÉ KONSTRUKCE
100
AcDbPolyline
 90
        3
 70
     0
 43
0.0
 10
2494.32252181415
 20
1017.930043637647
 10
2511.077739433878
 20
1009.546302769679
 10
2519.244844083003
 20
1001.365001068582
  0
LWPOLYLINE
  5
1BBA
330
1F
100
AcDbEntity
  8
NOSNÉ KONSTRUKCE
100
AcDbPolyline
 90
        8
 70
     0
 43
0.0
 10
2520.523467438581
 20
1023.447374333166
 42
-0.0120721047703142
 10
2520.454484748543
 20
1021.713486194422
 42
-0.044358077361292
 10
2520.05885701387
 20
1019.017686176005
 42
-0.0188067511131767
 10
2518.039033565486
 20
1011.775457000699
 42
-0.0457786284636091
 10
2516.831010675871
 20
1008.926846617819
 42
-0.0295006114745606
 10
2514.414950221571
 20
1004.999947404417
 42
-0.0258674098621065
 10
2511.182274907607
 20
1000.854167325663
 42
-0.0572870346127908
 10
2496.650919465739
 20
987.5229114666845
 42
-0.0093759062953949
  0
LWPOLYLINE
  5
1BBB
330
1F
100
AcDbEntity
  8
NOSNÉ KONSTRUKCE
100
AcDbPolyline
 90
        3
 70
     0
 43
0.0
 10
2513.615099439395
 20
1016.948204763911
 10
2533.611351871388
 20
1007.732175713391
 10
2537.611289505103
 20
1007.086778238049
  0
LWPOLYLINE
  5
1BBC
330
1F
100
AcDbEntity
  8
NOSNÉ KONSTRUKCE
100
AcDbPolyline
 90
        6
 70
     0
 43
0.0
 10
2529.147682818622
 20
1023.447374333166
 42
-0.0128837512779302
 10
2528.862890858397
 20
1020.11420951142
 42
-0.0351641677647434
 10
2528.235131136875
 20
1016.510500057081
 42
-0.0187319685742942
 10
2524.851115255884
 20
1004.752262714938
 42
-0.0582629403736403
 10
2523.191615387803
 20
1001.172428516006
 42
-0.0816602129375907
 10
2511.377732985712
 20
987.5229114666845
  0
LWPOLYLINE
  5
1BBD
330
1F
100
AcDbEntity
  8
NOSNÉ KONSTRUKCE
100
AcDbPolyline
 90
        5
 70
     0
 43
0.0
 10
2556.713830286013
 20
1023.447374333166
 42
-0.0271305467450453
 10
2557.050380065759
 20
1020.643816191182
 42
-0.0187319685742942
 10
2557.390052474163
 20
1008.413021796217
 42
-0.0582629403736403
 10
2556.893850352737
 20
1004.498569579278
 42
-0.0816602129375907
 10
2549.773660542442
 20
987.9100184021712
  0
LWPOLYLINE
  5
1BBE
330
1F
100
AcDbEntity
  8
NOSNÉ KONSTRUKCE
100
AcDbPolyline
 90
        3
 70
     0
 43
0.0
 10
2542.985614349918
 20
1016.628934174951
 10
2564.834725236289
 20
1013.908335663764
 10
2568.842092556248
 20
1014.505869041671
  0
LWPOLYLINE
  5
1BBF
330
1F
100
AcDbEntity
  8
NOSNÉ KONSTRUKCE
100
AcDbPolyline
 90
        8
 70
     0
 43
0.0
 10
2548.007139365041
 20
1023.447374333166
 42
-0.0014639050271321
 10
2548.058596961329
 20
1023.243308366308
 42
-0.044358077361292
 10
2548.498804155292
 20
1020.554428177434
 42
-0.0188067511131767
 10
2548.769470604185
 20
1013.040686774927
 42
-0.0457786284636091
 10
2548.481834070304
 20
1009.959913229263
 42
-0.0295006114745606
 10
2547.369882798089
 20
1005.485379743046
 42
-0.0258674098621065
 10
2545.546095599404
 20
1000.554712201952
 42
-0.0428837646945547
 10
2538.566297007955
 20
987.5229114666845
 42
-0.0428837646945547
  0
LWPOLYLINE
  5
1BC0
330
1F
100
AcDbEntity
  8
NOSNÉ KONSTRUKCE
100
AcDbPolyline
 90
        3
 70
     0
 43
0.0
 10
2526.670960477471
 20
1001.158050858848
 10
2545.179241263451
 20
998.2480730629204
 10
2555.442159240921
 20
992.9275645851635
  0
LWPOLYLINE
  5
1BC1
330
1F
100
AcDbEntity
  8
NOSNÉ KONSTRUKCE
100
AcDbPolyline
 90
        4
 70
     0
 43
0.0
 10
2566.572458817258
 20
1023.447374333166
 42
-0.0088245455510375
 10
2568.145775274495
 20
1010.120322396328
 42
-0.0219777111230329
 10
2568.348799044919
 20
1006.493072460664
 42
-0.1553492186195029
 10
2562.558091782352
 20
987.5229114666845
  0
LWPOLYLINE
  5
1BC2
330
1F
100
AcDbEntity
  8
NOSNÉ KONSTRUKCE
100
AcDbPolyline
 90
        2
 70
     0
 43
0.0
 10
2595.103359851137
 20
991.773969724702
 10
2598.752051486217
 20
991.9766448793383
  0
LWPOLYLINE
  5
1BC3
330
1F
100
AcDbEntity
  8
NOSNÉ KONSTRUKCE
100
AcDbPolyline
 90
        2
 70
     0
 43
0.0
 10
2602.889167686522
 20
1022.614205955507
 10
2617.372310803935
 20
1023.885592331762
  0
LWPOLYLINE
  5
1BC4
330
1F
100
AcDbEntity
  8
NOSNÉ KONSTRUKCE
100
AcDbPolyline
 90
        6
 70
     0
 43
0.0
 10
2588.141104946064
 20
1023.447374333166
 42
-0.0070251906669479
 10
2588.349513560455
 20
1021.634990487273
 42
-0.0351641677647434
 10
2588.492035475244
 20
1017.979789863086
 42
-0.0187319685742942
 10
2587.651053491934
 20
1005.773215479553
 42
-0.0582629403736403
 10
2586.779801633185
 20
1001.924829726716
 42
-0.0735859658646911
 10
2579.172889762229
 20
987.5229114666845
 42
-0.0735859658646911
  0
LWPOLYLINE
  5
1BC5
330
1F
100
AcDbEntity
  8
NOSNÉ KONSTRUKCE
100
AcDbPolyline
 90
        2
 70
     0
 43
0.0
 10
2574.105734164584
 20
1015.339477979109
 10
2594.522449682989
 20
1010.764644877983
  0
LWPOLYLINE
  5
1BC6
330
1F
100
AcDbEntity
  8
NOSNÉ KONSTRUKCE
100
AcDbPolyline
 90
        8
 70
     0
 43
0.0
 10
2579.496287568568
 20
1023.143751648126
 42
-0.0120721047703137
 10
2579.792727824029
 20
1021.434000243932
 42
-0.044358077361292
 10
2579.97167146815
 20
1018.715206721803
 42
-0.0188067511131767
 10
2579.516738002455
 20
1011.21036790061
 42
-0.0457786284636091
 10
2578.933448579201
 20
1008.171671821038
 42
-0.0295006114745606
 10
2577.395322506299
 20
1003.825172800571
 42
-0.0258674098621065
 10
2575.104703682629
 20
999.0932865433233
 42
-0.0401932733088106
 10
2567.476134965536
 20
987.5229114666845
 42
-0.0401932733088106
  0
LWPOLYLINE
  5
1BC7
330
1F
100
AcDbEntity
  8
NOSNÉ KONSTRUKCE
100
AcDbPolyline
 90
        2
 70
     0
 43
0.0
 10
2597.494877055769
 20
997.5610460349122
 42
-0.0845311465651848
 10
2593.058917018336
 20
987.5229114666845
  0
LINE
  5
1BC8
330
1F
100
AcDbEntity
  8
STAVBA OBRYS
100
AcDbLine
 10
2599.754687151251
 20
987.5229114666845
 30
0.0
 11
2591.684025914934
 21
1023.372996262169
 31
0.0
  0
LINE
  5
1BC9
330
1F
100
AcDbEntity
  8
STAVBA OBRYS
100
AcDbLine
 10
2487.614113368499
 20
987.522911466684
 30
0.0
 11
2495.684774604831
 21
1023.372996262169
 31
0.0
  0
LINE
  5
1BCA
330
1F
100
AcDbEntity
  8
STAVBA OBRYS
100
AcDbLine
 10
2599.754687151251
 20
987.5229114666845
 30
0.0
 11
2487.614113368499
 21
987.522911466684
 31
0.0
  0
LINE
  5
1BCB
330
1F
100
AcDbEntity
  8
NOSNÉ KONSTRUKCE
100
AcDbLine
 10
2318.175303467056
 20
539.5921024799559
 30
0.0
 11
2317.300321298129
 21
561.163593257947
 31
0.0
  0
LINE
  5
1BCC
330
1F
100
AcDbEntity
  8
SPOJOVACÍ
100
AcDbLine
 10
2316.690120803558
 20
561.4091861871884
 30
0.0
 11
2318.151638507117
 21
561.4091861871884
 31
0.0
  0
LINE
  5
1BCD
330
1F
100
AcDbEntity
  8
SPOJOVACÍ
100
AcDbLine
 10
2316.690120803558
 20
561.4091861871884
 30
0.0
 11
2316.690120803558
 21
550.1591861871884
 31
0.0
  0
LINE
  5
1BCE
330
1F
100
AcDbEntity
  8
SPOJOVACÍ
100
AcDbLine
 10
2316.690120803558
 20
561.4091861871884
 30
0.0
 11
2316.690120803558
 21
550.1591861871884
 31
0.0
  0
LINE
  5
1BCF
330
1F
100
AcDbEntity
  8
SPOJOVACÍ
100
AcDbLine
 10
2316.690120803558
 20
550.1591861871884
 30
0.0
 11
2316.690120803558
 21
538.9091861871884
 31
0.0
  0
LINE
  5
1BD0
330
1F
100
AcDbEntity
  8
SPOJOVACÍ
100
AcDbLine
 10
2316.690120803558
 20
550.1591861871884
 30
0.0
 11
2316.690120803558
 21
538.9091861871884
 31
0.0
  0
HATCH
  5
1BD1
330
1F
100
AcDbEntity
  8
CETRIS
100
AcDbHatch
 10
0.0
 20
0.0
 30
0.0
210
0.0
220
0.0
230
1.0
  2
ANSI31
 70
     0
 71
     0
 91
        4
 92
        7
 72
     0
 73
     1
 93
        4
 10
2316.610119178354
 20
781.1961266683215
 10
2304.632415570604
 20
781.9273012609328
 10
2302.762386787968
 20
751.2935091096115
 10
2314.776640777179
 20
751.1610829421552
 97
        0
 92
        7
 72
     0
 73
     1
 93
        6
 10
2314.776640777176
 20
751.1610829421543
 10
2302.762386787975
 20
751.293509109611
 10
2302.537905018858
 20
747.6161711345635
 10
2303.015484314606
 20
747.5870174788665
 10
2304.919709173018
 20
744.1208003979677
 10
2314.286111126608
 20
743.1254935977431
 97
        0
 92
        7
 72
     0
 73
     1
 93
        6
 10
2314.060731032202
 20
739.4334397474531
 10
2304.641710499783
 20
739.5667776721052
 10
2302.330008134022
 20
736.357920346601
 10
2301.852428838289
 20
736.3870740022985
 10
2300.738867880938
 20
718.1453254089561
 10
2312.753121870142
 20
718.0128992414993
 97
        0
 92
        7
 72
     0
 73
     1
 93
        5
 10
2312.753121870139
 20
718.0128992414989
 10
2300.738867880938
 20
718.1453254089555
 10
2286.535844403495
 20
485.4791369691074
 10
2287.971623415387
 20
483.8566683336543
 10
2298.496584611469
 20
484.4700772082465
 97
        0
 75
     0
 76
     1
 52
-0.6315126386698318
 41
1.0
 77
     0
 78
     1
 53
44.36848736133017
 43
-21735.28506483831
 44
-1709.499927712465
 45
-2.220183123871582
 46
2.269672200225358
 79
     0
 47
0.5099526698904395
 98
        4
 10
2311.672229693312
 20
766.474947505374
 10
2310.438254294296
 20
747.1091694611581
 10
2308.13892061405
 20
723.6752612526302
 10
2307.094750820206
 20
675.2383219299304
  0
HATCH
  5
1BD2
330
1F
100
AcDbEntity
  8
CETRIS
100
AcDbHatch
 10
0.0
 20
0.0
 30
0.0
210
0.0
220
0.0
230
1.0
  2
ANSI31
 70
     0
 71
     0
 91
        2
 92
        7
 72
     0
 73
     1
 93
        7
 10
2316.690120803554
 20
532.9671650618511
 10
2316.690120803554
 20
536.0014381605501
 10
2304.856386844485
 20
536.59298974704
 10
2303.140172271168
 20
502.260858549891
 10
2303.618043882454
 20
502.2369704254169
 10
2305.560356859515
 20
498.7919517806944
 10
2314.937159909577
 20
497.8999395929199
 97
        0
 92
        7
 72
     0
 73
     1
 93
        7
 10
2314.752486405674
 20
494.2056259195364
 10
2305.546076769215
 20
494.2344726475425
 10
2305.553201143915
 20
496.5082110028097
 10
2302.859337159125
 20
496.642873444905
 10
2302.578502047117
 20
491.0248883399171
 10
2302.252766894516
 20
484.5086973166553
 10
2314.309547012211
 20
485.3448146868027
 97
        0
 75
     0
 76
     1
 52
90.0
 41
1.0
 77
     0
 78
     1
 53
135.0
 43
-21706.80607124985
 44
-1974.28610668574
 45
-2.245064030267288
 46
-2.245064030267287
 79
     0
 47
0.5099526698904395
 98
        2
 10
2308.849840729521
 20
516.7011367122109
 10
2309.870296379116
 20
489.1636840511278
  0
LINE
  5
1BD3
330
1F
100
AcDbEntity
  8
CETRIS
100
AcDbLine
 10
2316.841421735125
 20
535.9938748414474
 30
0.0
 11
2314.312217072934
 21
485.3982280982882
 31
0.0
  0
LINE
  5
1BD4
330
1F
100
AcDbEntity
  8
CETRIS
100
AcDbLine
 10
2304.856386844485
 20
536.5929897470409
 30
0.0
 11
2302.255436955243
 21
484.5621107281417
 31
0.0
  0
LINE
  5
1BD5
330
1F
100
AcDbEntity
  8
CETRIS
100
AcDbLine
 10
2304.856386844485
 20
536.5929897470409
 30
0.0
 11
2316.841421735125
 21
535.9938748414474
 31
0.0
  0
LINE
  5
1BD6
330
1F
100
AcDbEntity
  8
CETRIS
100
AcDbLine
 10
2289.718741498937
 20
727.6885955870016
 30
0.0
 11
2286.897856537986
 21
730.8576030084305
 31
0.0
  0
LINE
  5
1BD7
330
1F
100
AcDbEntity
  8
CETRIS
100
AcDbLine
 10
2289.718741498937
 20
727.6885955870016
 30
0.0
 11
2298.703580072508
 21
727.1664118962885
 31
0.0
  0
LINE
  5
1BD8
330
1F
100
AcDbEntity
  8
STAVBA OBRYS
100
AcDbLine
 10
2712.577542095017
 20
507.2042397872796
 30
0.0
 11
2712.577542095014
 21
622.0274322684531
 31
0.0
  0
HATCH
  5
1BD9
330
1F
100
AcDbEntity
  8
STAVBA OBRYS
100
AcDbHatch
 10
0.0
 20
0.0
 30
0.0
210
0.0
220
0.0
230
1.0
  2
SOLID
 70
     1
 71
     0
 91
        1
 92
        7
 72
     0
 73
     1
 93
        4
 10
2662.601778451613
 20
890.8355929017712
 10
2660.58761832836
 20
890.8355929017707
 10
2660.587618328356
 20
871.9192476152565
 10
2662.601778451617
 20
871.9192476152565
 97
        0
 75
     0
 76
     1
 47
0.3035924524470049
 98
        1
 10
2661.865788267883
 20
881.7408366159474
  0
HATCH
  5
1BDA
330
1F
100
AcDbEntity
  8
STAVBA OBRYS
100
AcDbHatch
 10
0.0
 20
0.0
 30
0.0
210
0.0
220
0.0
230
1.0
  2
SOLID
 70
     1
 71
     0
 91
       10
 92
        7
 72
     0
 73
     1
 93
        4
 10
2662.60177845162
 20
927.1037045605957
 10
2660.587618328356
 20
927.1037045605957
 10
2660.58761832836
 20
908.1873592740812
 10
2662.60177845162
 20
908.1873592740818
 97
        0
 92
        7
 72
     0
 73
     1
 93
        4
 10
2662.601778451617
 20
964.9363951336235
 10
2660.58761832836
 20
964.9363951336241
 10
2660.587618328364
 20
946.0200498471099
 10
2662.60177845162
 20
946.0200498471099
 97
        0
 92
        7
 72
     0
 73
     1
 93
        4
 10
2662.601778451617
 20
1002.769085706652
 10
2660.58761832836
 20
1002.769085706652
 10
2660.58761832836
 20
983.8527404201382
 10
2662.60177845162
 20
983.8527404201386
 97
        0
 92
        7
 72
     0
 73
     1
 93
        4
 10
2660.587618328364
 20
1025.476955618557
 10
2642.236032241237
 20
1025.476955618557
 10
2642.236032241237
 20
1023.372996262169
 10
2660.587618328356
 20
1023.372996262169
 97
        0
 92
        7
 72
     0
 73
     1
 93
        4
 10
2623.884446154113
 20
1025.476955618557
 10
2605.532860066987
 20
1025.476955618556
 10
2605.532860066994
 20
1023.37299626217
 10
2623.884446154113
 20
1023.37299626217
 97
        0
 92
        7
 72
     0
 73
     1
 93
        4
 10
2587.181273979868
 20
1025.476955618557
 10
2568.829687892745
 20
1025.476955618557
 10
2568.829687892745
 20
1023.372996262169
 10
2587.181273979868
 20
1023.372996262169
 97
        0
 92
        7
 72
     0
 73
     1
 93
        4
 10
2550.478101805622
 20
1025.476955618557
 10
2532.126515718498
 20
1025.476955618557
 10
2532.126515718498
 20
1023.372996262169
 10
2550.478101805622
 20
1023.372996262169
 97
        0
 92
        7
 72
     0
 73
     1
 93
        4
 10
2513.774929631376
 20
1025.476955618557
 10
2495.423343544253
 20
1025.476955618557
 10
2495.423343544253
 20
1023.372996262169
 10
2513.774929631376
 20
1023.372996262168
 97
        0
 92
        7
 72
     0
 73
     1
 93
        4
 10
2477.071757457126
 20
1025.476955618557
 10
2458.720171370007
 20
1025.476955618557
 10
2458.720171370007
 20
1023.372996262169
 10
2477.07175745713
 20
1023.372996262169
 97
        0
 92
        7
 72
     0
 73
     1
 93
        4
 10
2440.368585282884
 20
1025.476955618557
 10
2426.781182191398
 20
1025.476955618556
 10
2426.781182191394
 20
1023.372996262169
 10
2440.368585282887
 20
1023.372996262169
 97
        0
 75
     0
 76
     1
 47
0.2893199503048111
 98
       10
 10
2661.799692816336
 20
915.3280135726095
 10
2661.799692816336
 20
953.5182596446579
 10
2661.510199209517
 20
991.4191746806686
 10
2652.246925401212
 20
1024.401646317998
 10
2619.246442600649
 20
1024.401646317998
 10
2571.48256826716
 20
1024.690977354036
 10
2535.587298429806
 20
1024.690977354036
 10
2506.060552621822
 20
1024.401646317998
 10
2464.375745968742
 20
1024.112338308703
 10
2433.401606642359
 20
1024.98028536333
  0
LINE
  5
1BDB
330
1F
100
AcDbEntity
  8
STAVBA OBRYS
100
AcDbLine
 10
2440.368585282884
 20
1023.372996262169
 30
0.0
 11
2440.368585282884
 21
1025.476955618557
 31
0.0
  0
LINE
  5
1BDC
330
1F
100
AcDbEntity
  8
STAVBA OBRYS
100
AcDbLine
 10
2458.720171370007
 20
1023.372996262169
 30
0.0
 11
2458.720171370007
 21
1025.476955618557
 31
0.0
  0
LINE
  5
1BDD
330
1F
100
AcDbEntity
  8
STAVBA OBRYS
100
AcDbLine
 10
2550.478101805622
 20
1023.372996262169
 30
0.0
 11
2550.478101805622
 21
1025.476955618557
 31
0.0
  0
LINE
  5
1BDE
330
1F
100
AcDbEntity
  8
STAVBA OBRYS
100
AcDbLine
 10
2532.126515718498
 20
1023.372996262169
 30
0.0
 11
2532.126515718498
 21
1025.476955618557
 31
0.0
  0
LINE
  5
1BDF
330
1F
100
AcDbEntity
  8
STAVBA OBRYS
100
AcDbLine
 10
2513.774929631376
 20
1023.372996262169
 30
0.0
 11
2513.774929631376
 21
1025.476955618557
 31
0.0
  0
LINE
  5
1BE0
330
1F
100
AcDbEntity
  8
STAVBA OBRYS
100
AcDbLine
 10
2495.423343544253
 20
1023.372996262169
 30
0.0
 11
2495.423343544253
 21
1025.476955618557
 31
0.0
  0
LINE
  5
1BE1
330
1F
100
AcDbEntity
  8
STAVBA OBRYS
100
AcDbLine
 10
2477.07175745713
 20
1023.372996262169
 30
0.0
 11
2477.07175745713
 21
1025.476955618557
 31
0.0
  0
LINE
  5
1BE2
330
1F
100
AcDbEntity
  8
NOSNÉ KONSTRUKCE
100
AcDbLine
 10
2316.690120803561
 20
1027.794683072647
 30
0.0
 11
2340.690120803554
 21
1027.794683072647
 31
0.0
  0
LINE
  5
1BE3
330
1F
100
AcDbEntity
  8
NOSNÉ KONSTRUKCE
100
AcDbLine
 10
2324.761035088327
 20
531.9647588884822
 30
0.0
 11
2325.63414919645
 21
544.1817708839393
 31
0.0
  0
LINE
  5
1BE4
330
1F
100
AcDbEntity
  8
NOSNÉ KONSTRUKCE
100
AcDbLine
 10
2317.907528625752
 20
514.7586939476155
 30
0.0
 11
2318.462809700637
 21
520.7841729344677
 31
0.0
  0
LINE
  5
1BE5
330
1F
100
AcDbEntity
  8
NOSNÉ KONSTRUKCE
100
AcDbLine
 10
2318.462809700637
 20
520.7841729344677
 30
0.0
 11
2318.938960887268
 21
531.1401351576701
 31
0.0
  0
LINE
  5
1BE6
330
1F
100
AcDbEntity
  8
NOSNÉ KONSTRUKCE
100
AcDbLine
 10
2318.938960887268
 20
531.1401351576701
 30
0.0
 11
2318.38367981239
 21
546.520994904366
 31
0.0
  0
LINE
  5
1BE7
330
1F
100
AcDbEntity
  8
NOSNÉ KONSTRUKCE
100
AcDbLine
 10
2324.823069170323
 20
531.2724188622528
 30
0.0
 11
2324.761035088327
 21
531.9647588884822
 31
0.0
  0
LINE
  5
1BE8
330
1F
100
AcDbEntity
  8
NOSNÉ KONSTRUKCE
100
AcDbLine
 10
2329.235354363214
 20
531.2724188622528
 30
0.0
 11
2330.337955496923
 21
549.0421657866449
 31
0.0
  0
LINE
  5
1BE9
330
1F
100
AcDbEntity
  8
NOSNÉ KONSTRUKCE
100
AcDbLine
 10
2318.462809700637
 20
509.1296159465151
 30
0.0
 11
2317.907528625752
 21
514.7586939476155
 31
0.0
  0
LINE
  5
1BEA
330
1F
100
AcDbEntity
  8
NOSNÉ KONSTRUKCE
100
AcDbLine
 10
2316.479658834856
 20
499.2192665907992
 30
0.0
 11
2318.462809700637
 21
509.1296159465151
 31
0.0
  0
LINE
  5
1BEB
330
1F
100
AcDbEntity
  8
NOSNÉ KONSTRUKCE
100
AcDbLine
 10
2317.746355140452
 20
485.5831515351024
 30
0.0
 11
2320.832007007558
 21
499.2406254133661
 31
0.0
  0
LINE
  5
1BEC
330
1F
100
AcDbEntity
  8
NOSNÉ KONSTRUKCE
100
AcDbLine
 10
2320.832007007558
 20
499.2406254133661
 30
0.0
 11
2322.723768836049
 21
509.130590082003
 31
0.0
  0
LINE
  5
1BED
330
1F
100
AcDbEntity
  8
NOSNÉ KONSTRUKCE
100
AcDbLine
 10
2327.607844120173
 20
486.26702916669
 30
0.0
 11
2327.376203464331
 21
500.6226530787776
 31
0.0
  0
LINE
  5
1BEE
330
1F
100
AcDbEntity
  8
NOSNÉ KONSTRUKCE
100
AcDbLine
 10
2327.376203464331
 20
500.6226530787776
 30
0.0
 11
2327.770522235123
 21
507.1910902825552
 31
0.0
  0
LINE
  5
1BEF
330
1F
100
AcDbEntity
  8
NOSNÉ KONSTRUKCE
100
AcDbLine
 10
2335.528812198869
 20
507.1910902825552
 30
0.0
 11
2335.779003670266
 21
499.522763914198
 31
0.0
  0
LINE
  5
1BF0
330
1F
100
AcDbEntity
  8
NOSNÉ KONSTRUKCE
100
AcDbLine
 10
2335.779003670266
 20
499.522763914198
 30
0.0
 11
2335.452894168616
 21
486.8110701586588
 31
0.0
  0
LINE
  5
1BF1
330
1F
100
AcDbEntity
  8
CETRIS
100
AcDbLine
 10
2287.971623415387
 20
483.8566683336548
 30
0.0
 11
2286.535844403499
 21
485.4791369691056
 31
0.0
  0
LINE
  5
1BF2
330
1F
100
AcDbEntity
  8
NOSNÉ KONSTRUKCE
100
AcDbLine
 10
2340.331584610723
 20
870.5558364173215
 30
0.0
 11
2339.547553652332
 21
833.8988834598371
 31
0.0
  0
LINE
  5
1BF3
330
1F
100
AcDbEntity
  8
NOSNÉ KONSTRUKCE
100
AcDbLine
 10
2340.017604452894
 20
890.7970730271795
 30
0.0
 11
2340.331584610723
 21
870.5558364173215
 31
0.0
  0
LINE
  5
1BF4
330
1F
100
AcDbEntity
  8
NOSNÉ KONSTRUKCE
100
AcDbLine
 10
2320.015576869549
 20
808.1427050569896
 30
0.0
 11
2321.500218195915
 21
820.507911923562
 31
0.0
  0
LINE
  5
1BF5
330
1F
100
AcDbEntity
  8
NOSNÉ KONSTRUKCE
100
AcDbLine
 10
2326.35098834269
 20
803.3699643087262
 30
0.0
 11
2326.361758880777
 21
809.8420663776469
 31
0.0
  0
LINE
  5
1BF6
330
1F
100
AcDbEntity
  8
NOSNÉ KONSTRUKCE
100
AcDbLine
 10
2331.604267216471
 20
814.8238493859848
 30
0.0
 11
2331.818831513222
 21
822.2691488873048
 31
0.0
  0
LINE
  5
1BF7
330
1F
100
AcDbEntity
  8
NOSNÉ KONSTRUKCE
100
AcDbLine
 10
2316.701257548085
 20
822.4711376848631
 30
0.0
 11
2316.701257548085
 21
836.5628301530856
 31
0.0
  0
LINE
  5
1BF8
330
1F
100
AcDbEntity
  8
NOSNÉ KONSTRUKCE
100
AcDbLine
 10
2326.361758880777
 20
816.6375453497552
 30
0.0
 11
2326.651658567267
 21
826.3165014477912
 31
0.0
  0
LINE
  5
1BF9
330
1F
100
AcDbEntity
  8
NOSNÉ KONSTRUKCE
100
AcDbLine
 10
2326.361758880777
 20
809.6564033692979
 30
0.0
 11
2326.361758880777
 21
816.6375453497552
 31
0.0
  0
LINE
  5
1BFA
330
1F
100
AcDbEntity
  8
NOSNÉ KONSTRUKCE
100
AcDbLine
 10
2321.500218195915
 20
820.507911923562
 30
0.0
 11
2322.110169237852
 21
828.1790304628216
 31
0.0
  0
LINE
  5
1BFB
330
1F
100
AcDbEntity
  8
NOSNÉ KONSTRUKCE
100
AcDbLine
 10
2339.547553652332
 20
833.8988834598371
 30
0.0
 11
2337.977623674751
 21
806.9105679800291
 31
0.0
  0
LINE
  5
1BFC
330
1F
100
AcDbEntity
  8
NOSNÉ KONSTRUKCE
100
AcDbLine
 10
2316.690120803558
 20
821.648766552034
 30
0.0
 11
2318.175303467056
 21
837.9768491300369
 31
0.0
  0
LINE
  5
1BFD
330
1F
100
AcDbEntity
  8
NOSNÉ KONSTRUKCE
100
AcDbLine
 10
2337.104684697327
 20
800.8688894807878
 30
0.0
 11
2337.977623674751
 21
806.9105679800291
 31
0.0
  0
LINE
  5
1BFE
330
1F
100
AcDbEntity
  8
CETRIS
100
AcDbLine
 10
2304.632415570608
 20
781.9273012609324
 30
0.0
 11
2316.610119178354
 21
781.196126668322
 31
0.0
  0
LINE
  5
1BFF
330
1F
100
AcDbEntity
  8
NOSNÉ KONSTRUKCE
100
AcDbLine
 10
2319.520686697944
 20
783.1650232656016
 30
0.0
 11
2320.015576869549
 21
808.1427050569896
 31
0.0
  0
LINE
  5
1C00
330
1F
100
AcDbEntity
  8
NOSNÉ KONSTRUKCE
100
AcDbLine
 10
2328.681219068721
 20
760.2130201440691
 30
0.0
 11
2328.826752680967
 21
767.9213723064553
 31
0.0
  0
LINE
  5
1C01
330
1F
100
AcDbEntity
  8
NOSNÉ KONSTRUKCE
100
AcDbLine
 10
2328.826752680967
 20
767.9213723064553
 30
0.0
 11
2328.099142996639
 21
781.7382394863439
 31
0.0
  0
LINE
  5
1C02
330
1F
100
AcDbEntity
  8
NOSNÉ KONSTRUKCE
100
AcDbLine
 10
2328.099142996639
 20
781.7382394863439
 30
0.0
 11
2326.934990852476
 21
789.8829141499795
 31
0.0
  0
LINE
  5
1C03
330
1F
100
AcDbEntity
  8
NOSNÉ KONSTRUKCE
100
AcDbLine
 10
2326.934990852476
 20
789.8829141499795
 30
0.0
 11
2326.35098834269
 21
803.3699643087262
 31
0.0
  0
LINE
  5
1C04
330
1F
100
AcDbEntity
  8
NOSNÉ KONSTRUKCE
100
AcDbLine
 10
2333.508259005555
 20
784.3766493786556
 30
0.0
 11
2331.604267216471
 21
814.8238493859848
 31
0.0
  0
LINE
  5
1C05
330
1F
100
AcDbEntity
  8
NOSNÉ KONSTRUKCE
100
AcDbLine
 10
2337.104684697327
 20
800.8688894807878
 30
0.0
 11
2338.797118600023
 21
767.8844092765197
 31
0.0
  0
LINE
  5
1C06
330
1F
100
AcDbEntity
  8
NOSNÉ KONSTRUKCE
100
AcDbLine
 10
2321.747648687489
 20
757.9400192973321
 30
0.0
 11
2319.520686697944
 21
783.1650232656016
 31
0.0
  0
LINE
  5
1C07
330
1F
100
AcDbEntity
  8
NOSNÉ KONSTRUKCE
100
AcDbLine
 10
2328.39018103268
 20
752.2137983405468
 30
0.0
 11
2328.681219068721
 21
760.2130201440691
 31
0.0
  0
LINE
  5
1C08
330
1F
100
AcDbEntity
  8
NOSNÉ KONSTRUKCE
100
AcDbLine
 10
2334.356708873334
 20
756.7643820787257
 30
0.0
 11
2333.508259005555
 21
784.3766493786556
 31
0.0
  0
LINE
  5
1C09
330
1F
100
AcDbEntity
  8
NOSNÉ KONSTRUKCE
100
AcDbLine
 10
2317.300321298129
 20
757.6282598618258
 30
0.0
 11
2314.595801646051
 21
778.1769658306311
 31
0.0
  0
LINE
  5
1C0A
330
1F
100
AcDbEntity
  8
NOSNÉ KONSTRUKCE
100
AcDbLine
 10
2338.797118600023
 20
767.8844092765197
 30
0.0
 11
2340.690120803557
 21
750.2277430566396
 31
0.0
  0
LINE
  5
1C0B
330
1F
100
AcDbEntity
  8
NOSNÉ KONSTRUKCE
100
AcDbLine
 10
2330.28567898278
 20
729.9031191220187
 30
0.0
 11
2329.408828753048
 21
743.6328011756618
 31
0.0
  0
LINE
  5
1C0C
330
1F
100
AcDbEntity
  8
NOSNÉ KONSTRUKCE
100
AcDbLine
 10
2323.974581488584
 20
737.6611161152418
 30
0.0
 11
2321.747648687489
 21
757.9400192973321
 31
0.0
  0
LINE
  5
1C0D
330
1F
100
AcDbEntity
  8
NOSNÉ KONSTRUKCE
100
AcDbLine
 10
2329.408828753048
 20
743.6328011756618
 30
0.0
 11
2328.39018103268
 21
752.2137983405468
 31
0.0
  0
LINE
  5
1C0E
330
1F
100
AcDbEntity
  8
NOSNÉ KONSTRUKCE
100
AcDbLine
 10
2318.175303467056
 20
736.0567690838347
 30
0.0
 11
2317.300321298129
 21
757.6282598618258
 31
0.0
  0
LINE
  5
1C0F
330
1F
100
AcDbEntity
  8
NOSNÉ KONSTRUKCE
100
AcDbLine
 10
2334.149942935715
 20
728.0400779627239
 30
0.0
 11
2334.356708873334
 21
756.7643820787257
 31
0.0
  0
LINE
  5
1C10
330
1F
100
AcDbEntity
  8
NOSNÉ KONSTRUKCE
100
AcDbLine
 10
2323.564954035364
 20
728.0400779627239
 30
0.0
 11
2323.974581488584
 21
737.6611161152418
 31
0.0
  0
LINE
  5
1C11
330
1F
100
AcDbEntity
  8
NOSNÉ KONSTRUKCE
100
AcDbLine
 10
2330.150600474817
 20
728.0400779627239
 30
0.0
 11
2330.28567898278
 21
729.9031191220187
 31
0.0
  0
LINE
  5
1C12
330
1F
100
AcDbEntity
  8
NOSNÉ KONSTRUKCE
100
AcDbLine
 10
2328.248383542044
 20
697.6153081481556
 30
0.0
 11
2328.550615000839
 21
703.9587493830262
 31
0.0
  0
LINE
  5
1C13
330
1F
100
AcDbEntity
  8
NOSNÉ KONSTRUKCE
100
AcDbLine
 10
2316.425309940752
 20
716.8173586660218
 30
0.0
 11
2318.175303467056
 21
736.0567690838347
 31
0.0
  0
LINE
  5
1C14
330
1F
100
AcDbEntity
  8
NOSNÉ KONSTRUKCE
100
AcDbLine
 10
2320.554599977718
 20
691.455434542941
 30
0.0
 11
2322.242164501373
 21
707.3983597142792
 31
0.0
  0
LINE
  5
1C15
330
1F
100
AcDbEntity
  8
NOSNÉ KONSTRUKCE
100
AcDbLine
 10
2327.811841082215
 20
681.7622813221301
 30
0.0
 11
2328.248383542044
 21
697.6153081481556
 31
0.0
  0
LINE
  5
1C16
330
1F
100
AcDbEntity
  8
NOSNÉ KONSTRUKCE
100
AcDbLine
 10
2333.93359310055
 20
689.3153671113309
 30
0.0
 11
2334.014990999474
 21
703.9587493830262
 31
0.0
  0
LINE
  5
1C17
330
1F
100
AcDbEntity
  8
NOSNÉ KONSTRUKCE
100
AcDbLine
 10
2339.320088060632
 20
708.0073855426294
 30
0.0
 11
2337.525523771009
 21
688.2068009250819
 31
0.0
  0
LINE
  5
1C18
330
1F
100
AcDbEntity
  8
NOSNÉ KONSTRUKCE
100
AcDbLine
 10
2340.690120803557
 20
718.4811854525633
 30
0.0
 11
2339.320088060632
 21
708.0073855426294
 31
0.0
  0
LINE
  5
1C19
330
1F
100
AcDbEntity
  8
NOSNÉ KONSTRUKCE
100
AcDbLine
 10
2319.778566654664
 20
671.5023796818518
 30
0.0
 11
2320.554599977718
 21
691.455434542941
 31
0.0
  0
LINE
  5
1C1A
330
1F
100
AcDbEntity
  8
NOSNÉ KONSTRUKCE
100
AcDbLine
 10
2327.814030215967
 20
666.0982007018414
 30
0.0
 11
2327.377458567681
 21
675.4064080486628
 31
0.0
  0
LINE
  5
1C1B
330
1F
100
AcDbEntity
  8
NOSNÉ KONSTRUKCE
100
AcDbLine
 10
2327.377458567681
 20
675.4064080486628
 30
0.0
 11
2327.811841082215
 21
681.7622813221301
 31
0.0
  0
LINE
  5
1C1C
330
1F
100
AcDbEntity
  8
NOSNÉ KONSTRUKCE
100
AcDbLine
 10
2333.512199446321
 20
668.2214011578566
 30
0.0
 11
2333.93359310055
 21
689.3153671113309
 31
0.0
  0
LINE
  5
1C1D
330
1F
100
AcDbEntity
  8
NOSNÉ KONSTRUKCE
100
AcDbLine
 10
2337.525523771009
 20
688.2068009250819
 30
0.0
 11
2337.637694984778
 21
668.5882353275724
 31
0.0
  0
LINE
  5
1C1E
330
1F
100
AcDbEntity
  8
NOSNÉ KONSTRUKCE
100
AcDbLine
 10
2337.637694984778
 20
668.5882353275724
 30
0.0
 11
2338.98369117312
 21
661.3013410804583
 31
0.0
  0
LINE
  5
1C1F
330
1F
100
AcDbEntity
  8
NOSNÉ KONSTRUKCE
100
AcDbLine
 10
2338.98369117312
 20
661.3013410804583
 30
0.0
 11
2340.017604452894
 21
634.4852130680687
 31
0.0
  0
LINE
  5
1C20
330
1F
100
AcDbEntity
  8
NOSNÉ KONSTRUKCE
100
AcDbLine
 10
2340.331584610723
 20
614.2439764582109
 30
0.0
 11
2339.547553652332
 21
577.5870235007264
 31
0.0
  0
LINE
  5
1C21
330
1F
100
AcDbEntity
  8
NOSNÉ KONSTRUKCE
100
AcDbLine
 10
2340.017604452894
 20
634.4852130680687
 30
0.0
 11
2340.331584610723
 21
614.2439764582109
 31
0.0
  0
LINE
  5
1C22
330
1F
100
AcDbEntity
  8
NOSNÉ KONSTRUKCE
100
AcDbLine
 10
2321.332968376789
 20
627.2262440383006
 30
0.0
 11
2319.55653011468
 21
655.0791588830529
 31
0.0
  0
LINE
  5
1C23
330
1F
100
AcDbEntity
  8
NOSNÉ KONSTRUKCE
100
AcDbLine
 10
2319.55653011468
 20
655.0791588830529
 30
0.0
 11
2319.778566654664
 21
671.5023796818518
 31
0.0
  0
LINE
  5
1C24
330
1F
100
AcDbEntity
  8
NOSNÉ KONSTRUKCE
100
AcDbLine
 10
2329.271030080077
 20
614.2185948168648
 30
0.0
 11
2330.433372540335
 21
627.7018747104762
 31
0.0
  0
LINE
  5
1C25
330
1F
100
AcDbEntity
  8
NOSNÉ KONSTRUKCE
100
AcDbLine
 10
2330.433372540335
 20
627.7018747104762
 30
0.0
 11
2328.105068252008
 21
652.4267863820701
 31
0.0
  0
LINE
  5
1C26
330
1F
100
AcDbEntity
  8
NOSNÉ KONSTRUKCE
100
AcDbLine
 10
2328.105068252008
 20
652.4267863820701
 30
0.0
 11
2327.814030215967
 21
666.0982007018414
 31
0.0
  0
LINE
  5
1C27
330
1F
100
AcDbEntity
  8
NOSNÉ KONSTRUKCE
100
AcDbLine
 10
2333.089258804235
 20
626.5679449224249
 30
0.0
 11
2332.66614303145
 21
649.4033404180395
 31
0.0
  0
LINE
  5
1C28
330
1F
100
AcDbEntity
  8
NOSNÉ KONSTRUKCE
100
AcDbLine
 10
2332.66614303145
 20
649.4033404180395
 30
0.0
 11
2333.512199446321
 21
668.2214011578566
 31
0.0
  0
LINE
  5
1C29
330
1F
100
AcDbEntity
  8
NOSNÉ KONSTRUKCE
100
AcDbLine
 10
2321.555034105216
 20
601.4955735536191
 30
0.0
 11
2321.332968376789
 21
627.2262440383006
 31
0.0
  0
LINE
  5
1C2A
330
1F
100
AcDbEntity
  8
NOSNÉ KONSTRUKCE
100
AcDbLine
 10
2326.942696603308
 20
597.347470128227
 30
0.0
 11
2327.233734639349
 21
606.6556774750447
 31
0.0
  0
LINE
  5
1C2B
330
1F
100
AcDbEntity
  8
NOSNÉ KONSTRUKCE
100
AcDbLine
 10
2327.233734639349
 20
606.6556774750447
 30
0.0
 11
2329.271030080077
 21
614.2185948168648
 31
0.0
  0
LINE
  5
1C2C
330
1F
100
AcDbEntity
  8
NOSNÉ KONSTRUKCE
100
AcDbLine
 10
2317.300321298129
 20
603.2364799489173
 30
0.0
 11
2316.690120803558
 21
613.0047250168423
 31
0.0
  0
LINE
  5
1C2D
330
1F
100
AcDbEntity
  8
CETRIS
100
AcDbLine
 10
2304.632415570608
 20
781.9273012609324
 30
0.0
 11
2286.535844403499
 21
485.4791369691056
 31
0.0
  0
LINE
  5
1C2E
330
1F
100
AcDbEntity
  8
CETRIS
100
AcDbLine
 10
2316.610119178354
 20
781.196126668322
 30
0.0
 11
2298.330754363092
 21
481.7535364745572
 31
0.0
  0
LINE
  5
1C2F
330
1F
100
AcDbEntity
  8
NOSNÉ KONSTRUKCE
100
AcDbLine
 10
2322.110169237852
 20
591.0646028977776
 30
0.0
 11
2321.555034105216
 21
601.4955735536191
 31
0.0
  0
LINE
  5
1C30
330
1F
100
AcDbEntity
  8
NOSNÉ KONSTRUKCE
100
AcDbLine
 10
2333.089258804235
 20
590.8347610410587
 30
0.0
 11
2333.089258804235
 21
626.5679449224249
 31
0.0
  0
LINE
  5
1C31
330
1F
100
AcDbEntity
  8
NOSNÉ KONSTRUKCE
100
AcDbLine
 10
2318.175303467056
 20
581.6649891709261
 30
0.0
 11
2317.300321298129
 21
603.2364799489173
 31
0.0
  0
LINE
  5
1C32
330
1F
100
AcDbEntity
  8
NOSNÉ KONSTRUKCE
100
AcDbLine
 10
2322.110169237852
 20
571.8671705037109
 30
0.0
 11
2322.110169237852
 21
591.0646028977776
 31
0.0
  0
LINE
  5
1C33
330
1F
100
AcDbEntity
  8
NOSNÉ KONSTRUKCE
100
AcDbLine
 10
2326.651658567267
 20
570.0046414886806
 30
0.0
 11
2326.942696603308
 21
597.347470128227
 31
0.0
  0
LINE
  5
1C34
330
1F
100
AcDbEntity
  8
NOSNÉ KONSTRUKCE
100
AcDbLine
 10
2331.818831513222
 20
565.9572889281939
 30
0.0
 11
2333.089258804235
 21
590.8347610410587
 31
0.0
  0
LINE
  5
1C35
330
1F
100
AcDbEntity
  8
NOSNÉ KONSTRUKCE
100
AcDbLine
 10
2316.425309940752
 20
562.4255787531133
 30
0.0
 11
2318.175303467056
 21
581.6649891709261
 31
0.0
  0
LINE
  5
1C36
330
1F
100
AcDbEntity
  8
NOSNÉ KONSTRUKCE
100
AcDbLine
 10
2318.38367981239
 20
546.520994904366
 30
0.0
 11
2319.970188829635
 21
553.6564291225172
 31
0.0
  0
LINE
  5
1C37
330
1F
100
AcDbEntity
  8
NOSNÉ KONSTRUKCE
100
AcDbLine
 10
2319.970188829635
 20
553.6564291225172
 30
0.0
 11
2322.110169237852
 21
571.8671705037109
 31
0.0
  0
LINE
  5
1C38
330
1F
100
AcDbEntity
  8
NOSNÉ KONSTRUKCE
100
AcDbLine
 10
2325.63414919645
 20
544.1817708839393
 30
0.0
 11
2326.361758880777
 21
553.3445434101873
 31
0.0
  0
LINE
  5
1C39
330
1F
100
AcDbEntity
  8
NOSNÉ KONSTRUKCE
100
AcDbLine
 10
2326.361758880777
 20
553.3445434101873
 30
0.0
 11
2326.361758880777
 21
560.3256853906446
 31
0.0
  0
LINE
  5
1C3A
330
1F
100
AcDbEntity
  8
NOSNÉ KONSTRUKCE
100
AcDbLine
 10
2326.361758880777
 20
560.3256853906446
 30
0.0
 11
2326.651658567267
 21
570.0046414886806
 31
0.0
  0
LINE
  5
1C3B
330
1F
100
AcDbEntity
  8
NOSNÉ KONSTRUKCE
100
AcDbLine
 10
2330.337955496923
 20
549.0421657866449
 30
0.0
 11
2331.818831513222
 21
565.9572889281939
 31
0.0
  0
LINE
  5
1C3C
330
1F
100
AcDbEntity
  8
NOSNÉ KONSTRUKCE
100
AcDbLine
 10
2337.977623674751
 20
550.5987080209183
 30
0.0
 11
2335.868613220815
 21
521.6525299270419
 31
0.0
  0
LINE
  5
1C3D
330
1F
100
AcDbEntity
  8
NOSNÉ KONSTRUKCE
100
AcDbLine
 10
2338.797118600023
 20
1024.19626923563
 30
0.0
 11
2340.690120803557
 21
1006.53960301575
 31
0.0
  0
LINE
  5
1C3E
330
1F
100
AcDbEntity
  8
NOSNÉ KONSTRUKCE
100
AcDbLine
 10
2334.356708873334
 20
1013.076242037836
 30
0.0
 11
2333.904451215015
 21
1027.794683072647
 31
0.0
  0
LINE
  5
1C3F
330
1F
100
AcDbEntity
  8
NOSNÉ KONSTRUKCE
100
AcDbLine
 10
2328.39018103268
 20
1008.525658299657
 30
0.0
 11
2328.681219068721
 21
1016.524880103179
 31
0.0
  0
LINE
  5
1C40
330
1F
100
AcDbEntity
  8
NOSNÉ KONSTRUKCE
100
AcDbLine
 10
2321.747648687489
 20
1014.251879256443
 30
0.0
 11
2320.552037009152
 21
1027.794683072647
 31
0.0
  0
LINE
  5
1C41
330
1F
100
AcDbEntity
  8
NOSNÉ KONSTRUKCE
100
AcDbLine
 10
2328.681219068721
 20
1016.524880103179
 30
0.0
 11
2328.826752680967
 21
1024.233232265566
 31
0.0
  0
LINE
  5
1C42
330
1F
100
AcDbEntity
  8
NOSNÉ KONSTRUKCE
100
AcDbLine
 10
2329.408828753048
 20
999.9446611347725
 30
0.0
 11
2328.39018103268
 21
1008.525658299657
 31
0.0
  0
LINE
  5
1C43
330
1F
100
AcDbEntity
  8
NOSNÉ KONSTRUKCE
100
AcDbLine
 10
2338.612483961673
 20
1027.794683072647
 30
0.0
 11
2338.797118600023
 21
1024.19626923563
 31
0.0
  0
LINE
  5
1C44
330
1F
100
AcDbEntity
  8
SPOJOVACÍ
100
AcDbLine
 10
2316.690120803558
 20
1002.935712750178
 30
0.0
 11
2316.690120803558
 21
991.685712750178
 31
0.0
  0
LINE
  5
1C45
330
1F
100
AcDbEntity
  8
SPOJOVACÍ
100
AcDbLine
 10
2316.690120803558
 20
1002.935712750178
 30
0.0
 11
2316.690120803558
 21
991.685712750178
 31
0.0
  0
LINE
  5
1C46
330
1F
100
AcDbEntity
  8
NOSNÉ KONSTRUKCE
100
AcDbLine
 10
2328.099142996639
 20
1005.396633923754
 30
0.0
 11
2326.934990852476
 21
1013.54130858739
 31
0.0
  0
LINE
  5
1C47
330
1F
100
AcDbEntity
  8
NOSNÉ KONSTRUKCE
100
AcDbLine
 10
2328.826752680967
 20
991.579766743866
 30
0.0
 11
2328.099142996639
 21
1005.396633923754
 31
0.0
  0
LINE
  5
1C48
330
1F
100
AcDbEntity
  8
NOSNÉ KONSTRUKCE
100
AcDbLine
 10
2340.690120803557
 20
974.793045411674
 30
0.0
 11
2339.320088060632
 21
964.3192455017402
 31
0.0
  0
LINE
  5
1C49
330
1F
100
AcDbEntity
  8
NOSNÉ KONSTRUKCE
100
AcDbLine
 10
2339.320088060632
 20
964.3192455017402
 30
0.0
 11
2337.525523771009
 21
944.5186608841927
 31
0.0
  0
LINE
  5
1C4A
330
1F
100
AcDbEntity
  8
NOSNÉ KONSTRUKCE
100
AcDbLine
 10
2320.554599977718
 20
947.7672945020517
 30
0.0
 11
2322.984830333824
 21
970.726405204738
 31
0.0
  0
LINE
  5
1C4B
330
1F
100
AcDbEntity
  8
NOSNÉ KONSTRUKCE
100
AcDbLine
 10
2328.248383542044
 20
953.9271681072664
 30
0.0
 11
2328.830459614126
 21
966.14418010272
 31
0.0
  0
LINE
  5
1C4C
330
1F
100
AcDbEntity
  8
NOSNÉ KONSTRUKCE
100
AcDbLine
 10
2337.525523771009
 20
944.5186608841927
 30
0.0
 11
2337.637694984778
 21
924.9000952866831
 31
0.0
  0
LINE
  5
1C4D
330
1F
100
AcDbEntity
  8
NOSNÉ KONSTRUKCE
100
AcDbLine
 10
2328.034188542309
 20
946.1486828755736
 30
0.0
 11
2328.248383542044
 21
953.9271681072664
 31
0.0
  0
LINE
  5
1C4E
330
1F
100
AcDbEntity
  8
NOSNÉ KONSTRUKCE
100
AcDbLine
 10
2327.377458567681
 20
931.7182680077735
 30
0.0
 11
2327.811841082215
 21
938.0741412812408
 31
0.0
  0
LINE
  5
1C4F
330
1F
100
AcDbEntity
  8
NOSNÉ KONSTRUKCE
100
AcDbLine
 10
2319.778566654664
 20
927.8142396409625
 30
0.0
 11
2320.554599977718
 21
947.7672945020517
 31
0.0
  0
LINE
  5
1C50
330
1F
100
AcDbEntity
  8
NOSNÉ KONSTRUKCE
100
AcDbLine
 10
2337.637694984778
 20
924.9000952866831
 30
0.0
 11
2338.98369117312
 21
917.613201039569
 31
0.0
  0
LINE
  5
1C51
330
1F
100
AcDbEntity
  8
NOSNÉ KONSTRUKCE
100
AcDbLine
 10
2338.98369117312
 20
917.613201039569
 30
0.0
 11
2340.017604452894
 21
890.7970730271795
 31
0.0
  0
LINE
  5
1C52
330
1F
100
AcDbEntity
  8
NOSNÉ KONSTRUKCE
100
AcDbLine
 10
2340.690120803557
 20
487.1742629944015
 30
0.0
 11
2340.690120803557
 21
1027.794683072647
 31
0.0
  0
LINE
  5
1C53
330
1F
100
AcDbEntity
  8
NOSNÉ KONSTRUKCE
100
AcDbLine
 10
2334.145150986938
 20
983.6862315894927
 30
0.0
 11
2334.356708873334
 21
1013.076242037836
 31
0.0
  0
LINE
  5
1C54
330
1F
100
AcDbEntity
  8
NOSNÉ KONSTRUKCE
100
AcDbLine
 10
2323.974581488584
 20
993.9729760743526
 30
0.0
 11
2321.747648687489
 21
1014.251879256443
 31
0.0
  0
LINE
  5
1C55
330
1F
100
AcDbEntity
  8
NOSNÉ KONSTRUKCE
100
AcDbLine
 10
2318.175303467056
 20
992.3686290429454
 30
0.0
 11
2317.300321298129
 21
1013.940119820936
 31
0.0
  0
LINE
  5
1C56
330
1F
100
AcDbEntity
  8
NOSNÉ KONSTRUKCE
100
AcDbLine
 10
2316.425309940752
 20
973.1292186251325
 30
0.0
 11
2318.175303467056
 21
992.3686290429454
 31
0.0
  0
LINE
  5
1C57
330
1F
100
AcDbEntity
  8
NOSNÉ KONSTRUKCE
100
AcDbLine
 10
2333.93359310055
 20
945.6272270704417
 30
0.0
 11
2334.145150986938
 21
983.6862315894927
 31
0.0
  0
LINE
  5
1C58
330
1F
100
AcDbEntity
  8
NOSNÉ KONSTRUKCE
100
AcDbLine
 10
2328.830459614126
 20
966.14418010272
 30
0.0
 11
2330.28567898278
 21
986.2149790811296
 31
0.0
  0
LINE
  5
1C59
330
1F
100
AcDbEntity
  8
NOSNÉ KONSTRUKCE
100
AcDbLine
 10
2322.984830333824
 20
970.726405204738
 30
0.0
 11
2323.974581488584
 21
993.9729760743526
 31
0.0
  0
LINE
  5
1C5A
330
1F
100
AcDbEntity
  8
NOSNÉ KONSTRUKCE
100
AcDbLine
 10
2330.28567898278
 20
986.2149790811296
 30
0.0
 11
2329.408828753048
 21
999.9446611347725
 31
0.0
  0
LINE
  5
1C5B
330
1F
100
AcDbEntity
  8
CETRIS
100
AcDbLine
 10
2304.129918331504
 20
1027.357275936317
 30
0.0
 11
2316.109703096268
 21
1026.661031015366
 31
0.0
  0
HATCH
  5
1C5C
330
1F
100
AcDbEntity
  8
CETRIS
100
AcDbHatch
 10
0.0
 20
0.0
 30
0.0
210
0.0
220
0.0
230
1.0
  2
ANSI31
 70
     0
 71
     0
 91
        2
 92
        7
 72
     0
 73
     1
 93
        7
 10
2313.682104317225
 20
984.8910877195212
 10
2304.262735020447
 20
984.9969595441757
 10
2301.960399398021
 20
981.7813750179961
 10
2301.482737121646
 20
981.8091359452914
 10
2286.897856537986
 20
730.8576030084305
 10
2289.718741498937
 20
727.688595587002
 10
2298.703580072508
 20
727.1664118962889
 97
        0
 92
        7
 72
     0
 73
     1
 93
        6
 10
2316.109703096268
 20
1026.661031015366
 10
2304.129918331511
 20
1027.357275936317
 10
2302.135466735037
 20
993.040184162257
 10
2302.613129011426
 20
993.0124232349603
 10
2304.527453141441
 20
989.5517735432772
 10
2313.896717554065
 20
988.583783073725
 97
        0
 75
     0
 76
     1
 52
-0.4644399208049363
 41
1.0
 77
     0
 78
     1
 53
44.53556007919505
 43
-7858.747218658365
 44
4147.018722866309
 45
-2.226791969343653
 46
2.263188574835647
 79
     0
 47
1.163336804849115
 98
        2
 10
2300.834676249303
 20
867.2526052106446
 10
2307.776484250733
 20
1005.637961069046
  0
LINE
  5
1C5D
330
1F
100
AcDbEntity
  8
CETRIS
100
AcDbLine
 10
2304.129918331504
 20
1027.357275936317
 30
0.0
 11
2286.897856537986
 21
730.8576030084305
 31
0.0
  0
LINE
  5
1C5E
330
1F
100
AcDbEntity
  8
CETRIS
100
AcDbLine
 10
2316.109703096268
 20
1026.661031015366
 30
0.0
 11
2298.703580072508
 21
727.1664118962885
 31
0.0
  0
LINE
  5
1C5F
330
1F
100
AcDbEntity
  8
NOSNÉ KONSTRUKCE
100
AcDbLine
 10
2316.690120803554
 20
485.5099034649374
 30
0.0
 11
2316.690120803561
 21
1027.794683072647
 31
0.0
  0
LINE
  5
1C60
330
1F
100
AcDbEntity
  8
NOSNÉ KONSTRUKCE
100
AcDbLine
 10
2332.66614303145
 20
905.7152003771502
 30
0.0
 11
2333.401332746862
 21
922.0673542958762
 31
0.0
  0
LINE
  5
1C61
330
1F
100
AcDbEntity
  8
NOSNÉ KONSTRUKCE
100
AcDbLine
 10
2333.089258804235
 20
882.8798048815356
 30
0.0
 11
2332.66614303145
 21
905.7152003771502
 31
0.0
  0
LINE
  5
1C62
330
1F
100
AcDbEntity
  8
NOSNÉ KONSTRUKCE
100
AcDbLine
 10
2328.105068252008
 20
908.7386463411808
 30
0.0
 11
2327.814030215967
 21
922.4100606609523
 31
0.0
  0
LINE
  5
1C63
330
1F
100
AcDbEntity
  8
NOSNÉ KONSTRUKCE
100
AcDbLine
 10
2330.433372540335
 20
884.0137346695868
 30
0.0
 11
2328.105068252008
 21
908.7386463411808
 31
0.0
  0
LINE
  5
1C64
330
1F
100
AcDbEntity
  8
NOSNÉ KONSTRUKCE
100
AcDbLine
 10
2319.55653011468
 20
911.3910188421638
 30
0.0
 11
2319.778566654664
 21
927.8142396409625
 31
0.0
  0
LINE
  5
1C65
330
1F
100
AcDbEntity
  8
NOSNÉ KONSTRUKCE
100
AcDbLine
 10
2321.332968376789
 20
883.5381039974112
 30
0.0
 11
2319.55653011468
 21
911.3910188421638
 31
0.0
  0
LINE
  5
1C66
330
1F
100
AcDbEntity
  8
NOSNÉ KONSTRUKCE
100
AcDbLine
 10
2331.818831513222
 20
822.2691488873048
 30
0.0
 11
2333.089258804235
 21
847.1466210001695
 31
0.0
  0
LINE
  5
1C67
330
1F
100
AcDbEntity
  8
NOSNÉ KONSTRUKCE
100
AcDbLine
 10
2326.651658567267
 20
826.3165014477912
 30
0.0
 11
2326.942696603308
 21
853.6593300873377
 31
0.0
  0
LINE
  5
1C68
330
1F
100
AcDbEntity
  8
NOSNÉ KONSTRUKCE
100
AcDbLine
 10
2322.110169237852
 20
828.1790304628216
 30
0.0
 11
2322.110169237852
 21
847.3764628568883
 31
0.0
  0
LINE
  5
1C69
330
1F
100
AcDbEntity
  8
NOSNÉ KONSTRUKCE
100
AcDbLine
 10
2333.089258804235
 20
847.1466210001695
 30
0.0
 11
2333.089258804235
 21
882.8798048815356
 31
0.0
  0
LINE
  5
1C6A
330
1F
100
AcDbEntity
  8
NOSNÉ KONSTRUKCE
100
AcDbLine
 10
2322.110169237852
 20
847.3764628568883
 30
0.0
 11
2321.555034105216
 21
857.8074335127299
 31
0.0
  0
LINE
  5
1C6B
330
1F
100
AcDbEntity
  8
NOSNÉ KONSTRUKCE
100
AcDbLine
 10
2317.300321298129
 20
859.5483399080281
 30
0.0
 11
2316.690120803558
 21
869.316584975953
 31
0.0
  0
LINE
  5
1C6C
330
1F
100
AcDbEntity
  8
NOSNÉ KONSTRUKCE
100
AcDbLine
 10
2318.175303467056
 20
837.9768491300369
 30
0.0
 11
2317.300321298129
 21
859.5483399080281
 31
0.0
  0
LINE
  5
1C6D
330
1F
100
AcDbEntity
  8
NOSNÉ KONSTRUKCE
100
AcDbLine
 10
2326.942696603308
 20
853.6593300873377
 30
0.0
 11
2327.233734639349
 21
862.9675374341555
 31
0.0
  0
LINE
  5
1C6E
330
1F
100
AcDbEntity
  8
NOSNÉ KONSTRUKCE
100
AcDbLine
 10
2321.555034105216
 20
857.8074335127299
 30
0.0
 11
2321.332968376789
 21
883.5381039974112
 31
0.0
  0
LINE
  5
1C6F
330
1F
100
AcDbEntity
  8
NOSNÉ KONSTRUKCE
100
AcDbLine
 10
2329.271030080077
 20
870.5304547759755
 30
0.0
 11
2330.433372540335
 21
884.0137346695868
 31
0.0
  0
LINE
  5
1C70
330
1F
100
AcDbEntity
  8
NOSNÉ KONSTRUKCE
100
AcDbLine
 10
2327.233734639349
 20
862.9675374341555
 30
0.0
 11
2329.271030080077
 21
870.5304547759755
 31
0.0
  0
HATCH
  5
1C71
330
1F
100
AcDbEntity
  8
STAVBA OBRYS
100
AcDbHatch
 10
0.0
 20
0.0
 30
0.0
210
0.0
220
0.0
230
1.0
  2
SOLID
 70
     1
 71
     0
 91
        8
 92
        7
 72
     0
 73
     1
 93
        4
 10
2662.601778451617
 20
853.0029023287429
 10
2660.58761832836
 20
853.0029023287429
 10
2660.58761832836
 20
834.0865570422288
 10
2662.60177845162
 20
834.0865570422293
 97
        0
 92
        7
 72
     0
 73
     1
 93
        4
 10
2692.745352382657
 20
834.0865570422288
 10
2672.016226079557
 20
834.0865570422288
 10
2672.016226079557
 20
831.9825976858414
 10
2692.745352382657
 20
831.9825976858419
 97
        0
 92
        7
 72
     0
 73
     1
 93
        4
 10
2734.203604988854
 20
834.0865570422288
 10
2713.474478685757
 20
834.0865570422288
 10
2713.474478685757
 20
831.9825976858414
 10
2734.203604988861
 20
831.982597685841
 97
        0
 92
        7
 72
     0
 73
     1
 93
        4
 10
2775.661857595054
 20
834.0865570422288
 10
2755.001965023928
 20
834.0865570422293
 10
2755.001965023928
 20
831.9825976858414
 10
2775.661857595061
 20
831.982597685841
 97
        0
 92
        7
 72
     0
 73
     1
 93
        4
 10
2817.189343933225
 20
834.0865570422288
 10
2796.460217630125
 20
834.0865570422288
 10
2796.460217630125
 20
831.9825976858414
 10
2817.189343933229
 20
831.982597685841
 97
        0
 92
        7
 72
     0
 73
     1
 93
        4
 10
2858.647596539425
 20
834.0865570422288
 10
2837.918470236329
 20
834.0865570422284
 10
2837.918470236329
 20
831.982597685841
 10
2858.647596539429
 20
831.9825976858405
 97
        0
 92
        7
 72
     0
 73
     1
 93
        4
 10
2900.10584914563
 20
834.0865570422288
 10
2879.376722842529
 20
834.0865570422288
 10
2879.376722842529
 20
831.9825976858414
 10
2900.105849145633
 20
831.9825976858414
 97
        0
 92
        7
 72
     0
 73
     1
 93
        4
 10
2931.19953860028
 20
834.0865570422293
 10
2920.834975448734
 20
834.0865570422288
 10
2920.83497544873
 20
831.9825976858414
 10
2929.185378477019
 20
831.982597685841
 97
        0
 75
     0
 76
     1
 47
0.3390471718564263
 98
        8
 10
2661.549386388384
 20
840.5206818246737
 10
2682.331958185214
 20
833.2503069452982
 10
2723.718316019231
 20
833.2503069452982
 10
2769.853906429534
 20
832.9112667273808
 10
2803.437897985963
 20
833.2503069452982
 10
2855.340452171238
 20
832.9112667273808
 10
2883.835937471109
 20
833.5893471632157
 10
2927.043214790888
 20
832.9122291736826
  0
LINE
  5
1C72
330
1F
100
AcDbEntity
  8
STAVBA OBRYS
100
AcDbLine
 10
2568.829687892745
 20
1023.372996262169
 30
0.0
 11
2568.829687892745
 21
1025.476955618557
 31
0.0
  0
LINE
  5
1C73
330
1F
100
AcDbEntity
  8
STAVBA OBRYS
100
AcDbLine
 10
2587.181273979868
 20
1023.372996262169
 30
0.0
 11
2587.181273979868
 21
1025.476955618557
 31
0.0
  0
LINE
  5
1C74
330
1F
100
AcDbEntity
  8
STAVBA OBRYS
100
AcDbLine
 10
2662.601778451617
 20
1020.436897916763
 30
0.0
 11
2660.58761832836
 21
1020.436897916763
 31
0.0
  0
LINE
  5
1C75
330
1F
100
AcDbEntity
  8
STAVBA OBRYS
100
AcDbLine
 10
2662.601778451617
 20
947.5846287613135
 30
0.0
 11
2660.58761832836
 21
947.5846287613135
 31
0.0
  0
LINE
  5
1C76
330
1F
100
AcDbEntity
  8
STAVBA OBRYS
100
AcDbLine
 10
2662.601778451617
 20
909.7519381882852
 30
0.0
 11
2660.58761832836
 21
909.7519381882852
 31
0.0
  0
LINE
  5
1C77
330
1F
100
AcDbEntity
  8
STAVBA OBRYS
100
AcDbLine
 10
2662.601778451617
 20
890.8355929017712
 30
0.0
 11
2660.58761832836
 21
890.8355929017712
 31
0.0
  0
LINE
  5
1C78
330
1F
100
AcDbEntity
  8
STAVBA OBRYS
100
AcDbLine
 10
2662.601778451617
 20
871.9192476152571
 30
0.0
 11
2660.58761832836
 21
871.9192476152571
 31
0.0
  0
LINE
  5
1C79
330
1F
100
AcDbEntity
  8
STAVBA OBRYS
100
AcDbLine
 10
2662.601778451617
 20
853.0029023287429
 30
0.0
 11
2660.58761832836
 21
853.0029023287429
 31
0.0
  0
LINE
  5
1C7A
330
1F
100
AcDbEntity
  8
STAVBA OBRYS
100
AcDbLine
 10
2662.601778451617
 20
834.0865570422288
 30
0.0
 11
2660.58761832836
 21
834.0865570422288
 31
0.0
  0
LINE
  5
1C7B
330
1F
100
AcDbEntity
  8
STAVBA OBRYS
100
AcDbLine
 10
2692.745352382657
 20
831.9825976858414
 30
0.0
 11
2692.745352382657
 21
834.0865570422288
 31
0.0
  0
LINE
  5
1C7C
330
1F
100
AcDbEntity
  8
STAVBA OBRYS
100
AcDbLine
 10
2672.016226079557
 20
831.9825976858414
 30
0.0
 11
2672.016226079557
 21
834.0865570422288
 31
0.0
  0
LINE
  5
1C7D
330
1F
100
AcDbEntity
  8
STAVBA OBRYS
100
AcDbLine
 10
2734.203604988858
 20
831.9825976858414
 30
0.0
 11
2734.203604988858
 21
834.0865570422288
 31
0.0
  0
LINE
  5
1C7E
330
1F
100
AcDbEntity
  8
STAVBA OBRYS
100
AcDbLine
 10
2713.474478685757
 20
831.9825976858414
 30
0.0
 11
2713.474478685757
 21
834.0865570422288
 31
0.0
  0
LINE
  5
1C7F
330
1F
100
AcDbEntity
  8
STAVBA OBRYS
100
AcDbLine
 10
2775.731091327028
 20
831.9825976858414
 30
0.0
 11
2775.731091327028
 21
834.0865570422288
 31
0.0
  0
LINE
  5
1C80
330
1F
100
AcDbEntity
  8
STAVBA OBRYS
100
AcDbLine
 10
2755.001965023928
 20
831.9825976858414
 30
0.0
 11
2755.001965023928
 21
834.0865570422288
 31
0.0
  0
LINE
  5
1C81
330
1F
100
AcDbEntity
  8
STAVBA OBRYS
100
AcDbLine
 10
2775.661857595058
 20
831.9825976858414
 30
0.0
 11
2775.661857595058
 21
834.0865570422288
 31
0.0
  0
LINE
  5
1C82
330
1F
100
AcDbEntity
  8
STAVBA OBRYS
100
AcDbLine
 10
2754.932731291957
 20
831.9825976858414
 30
0.0
 11
2754.932731291957
 21
834.0865570422288
 31
0.0
  0
LINE
  5
1C83
330
1F
100
AcDbEntity
  8
STAVBA OBRYS
100
AcDbLine
 10
2817.189343933229
 20
831.9825976858414
 30
0.0
 11
2817.189343933229
 21
834.0865570422288
 31
0.0
  0
LINE
  5
1C84
330
1F
100
AcDbEntity
  8
STAVBA OBRYS
100
AcDbLine
 10
2796.460217630128
 20
831.9825976858414
 30
0.0
 11
2796.460217630128
 21
834.0865570422288
 31
0.0
  0
LINE
  5
1C85
330
1F
100
AcDbEntity
  8
STAVBA OBRYS
100
AcDbLine
 10
2858.647596539429
 20
831.9825976858414
 30
0.0
 11
2858.647596539429
 21
834.0865570422288
 31
0.0
  0
LINE
  5
1C86
330
1F
100
AcDbEntity
  8
STAVBA OBRYS
100
AcDbLine
 10
2837.918470236329
 20
831.9825976858414
 30
0.0
 11
2837.918470236329
 21
834.0865570422288
 31
0.0
  0
LINE
  5
1C87
330
1F
100
AcDbEntity
  8
STAVBA OBRYS
100
AcDbLine
 10
2879.376722842529
 20
831.9825976858414
 30
0.0
 11
2879.376722842529
 21
834.0865570422288
 31
0.0
  0
LINE
  5
1C88
330
1F
100
AcDbEntity
  8
STAVBA OBRYS
100
AcDbLine
 10
2900.10584914563
 20
831.9825976858414
 30
0.0
 11
2900.10584914563
 21
834.0865570422288
 31
0.0
  0
LINE
  5
1C89
330
1F
100
AcDbEntity
  8
STAVBA OBRYS
100
AcDbLine
 10
2920.83497544873
 20
831.9825976858414
 30
0.0
 11
2920.83497544873
 21
834.0865570422288
 31
0.0
  0
LINE
  5
1C8A
330
1F
100
AcDbEntity
  8
STAVBA OBRYS
100
AcDbLine
 10
2929.185378477022
 20
831.9825976858414
 30
0.0
 11
2931.19953860028
 21
834.0865570422288
 31
0.0
  0
INSERT
  5
1C8B
330
1F
100
AcDbEntity
  8
POPIS
100
AcDbBlockReference
  2
E_PUNKT
 10
2329.618211434402
 20
963.7114007367218
 30
0.0
  0
TEXT
  5
1C8C
330
1F
100
AcDbEntity
  8
POPIS
100
AcDbText
 10
2101.959483934011
 20
485.8633988730284
 30
0.0
 40
25.0
  1
02
 41
0.7
  7
SIMPLEX7
100
AcDbText
  0
LINE
  5
1C8D
330
1F
100
AcDbEntity
  8
POPIS
100
AcDbLine
 10
2141.93697027728
 20
499.306740322399
 30
0.0
 11
2303.858439178179
 21
499.3067403223985
 31
0.0
  0
TEXT
  5
1C8E
330
1F
100
AcDbEntity
  8
POPIS
100
AcDbText
 10
2162.033687138909
 20
1185.933225320616
 30
0.0
 40
50.0
  1
HORNÍ ZAKONČENÍ
 41
0.85
  7
SIMPLEX7
100
AcDbText
  0
TEXT
  5
1C8F
330
1F
100
AcDbEntity
  8
POPIS
100
AcDbText
 10
2162.033687138909
 20
1131.308482294815
 30
0.0
 40
35.0
  1
ŘEZ-ATIKA, PL. STŘECHA
 41
0.85
  7
SIMPLEX7
100
AcDbText
  0
LINE
  5
1C90
330
1F
100
AcDbEntity
  8
STAVBA OBRYS
100
AcDbLine
 10
2426.781182191398
 20
1025.133306826214
 30
0.0
 11
2426.781182191402
 21
487.3847441584585
 31
0.0
  0
LINE
  5
1C91
330
1F
100
AcDbEntity
  8
PROFILY
100
AcDbLine
 10
2289.558011797873
 20
1039.01326858053
 30
0.0
 11
2289.558011797873
 21
1015.999536866648
 31
0.0
  0
LINE
  5
1C92
330
1F
100
AcDbEntity
  8
PROFILY
100
AcDbLine
 10
2287.120511797873
 20
1041.130008636917
 30
0.0
 11
2287.120511797873
 21
1012.045907098124
 31
0.0
  0
ARC
  5
1C93
330
1F
100
AcDbEntity
  8
PROFILY
100
AcDbCircle
 10
2287.933011797873
 20
1012.045907098124
 30
0.0
 40
0.8125
100
AcDbArc
 50
180.0
 51
315.3132330916447
  0
LINE
  5
1C94
330
1F
100
AcDbEntity
  8
PROFILY
100
AcDbLine
 10
2289.558011797873
 20
1015.999536866648
 30
0.0
 11
2295.950042138172
 21
1022.461841900096
 31
0.0
  0
LINE
  5
1C95
330
1F
100
AcDbEntity
  8
PROFILY
100
AcDbLine
 10
2297.683011797873
 20
1020.747717514718
 30
0.0
 11
2295.950042138172
 21
1022.461841900096
 31
0.0
  0
LINE
  5
1C96
330
1F
100
AcDbEntity
  8
PROFILY
100
AcDbLine
 10
2288.510668351106
 20
1011.474532302994
 30
0.0
 11
2297.683011797873
 21
1020.747717514718
 31
0.0
  0
INSERT
  5
1C97
330
1F
100
AcDbEntity
  8
POPIS
100
AcDbBlockReference
  2
E_PUNKT
 10
2288.761399881213
 20
1039.204037691355
 30
0.0
  0
LINE
  5
1C98
330
1F
100
AcDbEntity
  8
PROFILY
100
AcDbLine
 10
2680.872239220649
 20
1035.158232140253
 30
0.0
 11
2287.120511797873
 21
1041.130008636917
 31
0.0
  0
LINE
  5
1C99
330
1F
100
AcDbEntity
  8
PROFILY
100
AcDbLine
 10
2678.434739220649
 20
1032.778018382713
 30
0.0
 11
2289.558011797873
 21
1039.01326858053
 31
0.0
  0
LINE
  5
1C9A
330
1F
100
AcDbEntity
  8
STAVBA OBRYS
100
AcDbLine
 10
2426.781182191398
 20
1025.476955618557
 30
0.0
 11
2662.601778451613
 21
1025.476955618557
 31
0.0
  0
LINE
  5
1C9B
330
1F
100
AcDbEntity
  8
STAVBA OBRYS
100
AcDbLine
 10
2426.781182191398
 20
1023.372996262169
 30
0.0
 11
2660.58761832836
 21
1023.372996262169
 31
0.0
  0
LINE
  5
1C9C
330
1F
100
AcDbEntity
  8
PROFILY
100
AcDbLine
 10
2292.341791267868
 20
1036.147982489948
 30
0.0
 11
2291.365843937788
 21
1022.616339796817
 31
0.0
  0
LINE
  5
1C9D
330
1F
100
AcDbEntity
  8
PROFILY
100
AcDbLine
 10
2294.633110825782
 20
1034.033384431854
 30
0.0
 11
2293.797028898671
 21
1022.440994605896
 31
0.0
  0
LINE
  5
1C9E
330
1F
100
AcDbEntity
  8
PROFILY
100
AcDbLine
 10
2673.440525816166
 20
1027.959585609006
 30
0.0
 11
2294.633110825782
 21
1034.033384431854
 31
0.0
  0
LINE
  5
1C9F
330
1F
100
AcDbEntity
  8
PROFILY
100
AcDbLine
 10
2675.713132619328
 20
1030.333638561193
 30
0.0
 11
2292.341791267868
 21
1036.147982489948
 31
0.0
  0
LINE
  5
1CA0
330
1F
100
AcDbEntity
  8
PROFILY
100
AcDbLine
 10
2291.365843937788
 20
1022.616339796817
 30
0.0
 11
2293.797028898671
 21
1022.440994605896
 31
0.0
  0
LINE
  5
1CA1
330
1F
100
AcDbEntity
  8
STAVBA OBRYS
100
AcDbLine
 10
2660.58761832836
 20
831.9825976858414
 30
0.0
 11
2929.185378477022
 21
831.9825976858414
 31
0.0
  0
LINE
  5
1CA2
330
1F
100
AcDbEntity
  8
PROFILY
100
AcDbLine
 10
2673.440525816166
 20
1027.959585609006
 30
0.0
 11
2674.195722119852
 21
1017.488685971574
 31
0.0
  0
LINE
  5
1CA3
330
1F
100
AcDbEntity
  8
PROFILY
100
AcDbLine
 10
2675.713132619328
 20
1030.333638561193
 30
0.0
 11
2676.626907080734
 21
1017.664031162495
 31
0.0
  0
LINE
  5
1CA4
330
1F
100
AcDbEntity
  8
PROFILY
100
AcDbLine
 10
2676.626907080734
 20
1017.664031162495
 30
0.0
 11
2674.195722119852
 21
1017.488685971574
 31
0.0
  0
LINE
  5
1CA5
330
1F
100
AcDbEntity
  8
PROFILY
100
AcDbLine
 10
2679.482082667417
 20
1006.522223668672
 30
0.0
 11
2670.309739220649
 21
1015.795408880396
 31
0.0
  0
LINE
  5
1CA6
330
1F
100
AcDbEntity
  8
PROFILY
100
AcDbLine
 10
2670.309739220649
 20
1015.795408880396
 30
0.0
 11
2672.04270888035
 21
1017.509533265775
 31
0.0
  0
LINE
  5
1CA7
330
1F
100
AcDbEntity
  8
PROFILY
100
AcDbLine
 10
2678.434739220649
 20
1011.047228232326
 30
0.0
 11
2672.04270888035
 21
1017.509533265775
 31
0.0
  0
ARC
  5
1CA8
330
1F
100
AcDbEntity
  8
PROFILY
100
AcDbCircle
 10
2680.059739220649
 20
1007.093598463803
 30
0.0
 40
0.8125
100
AcDbArc
 50
224.6867669083551
 51
0.0
  0
LINE
  5
1CA9
330
1F
100
AcDbEntity
  8
PROFILY
100
AcDbLine
 10
2680.872239220649
 20
1035.158232140253
 30
0.0
 11
2680.872239220649
 21
1007.093598463803
 31
0.0
  0
LINE
  5
1CAA
330
1F
100
AcDbEntity
  8
PROFILY
100
AcDbLine
 10
2678.434739220649
 20
1032.778018382713
 30
0.0
 11
2678.434739220649
 21
1011.047228232326
 31
0.0
  0
LINE
  5
1CAB
330
1F
100
AcDbEntity
  8
STAVBA OBRYS
100
AcDbLine
 10
2660.58761832836
 20
622.0274322684531
 30
0.0
 11
2875.438959444554
 21
622.0274322684531
 31
0.0
  0
LINE
  5
1CAC
330
1F
100
AcDbEntity
  8
STAVBA OBRYS
100
AcDbLine
 10
2660.58761832836
 20
831.9825976858414
 30
0.0
 11
2660.58761832836
 21
1025.133306826214
 31
0.0
  0
LINE
  5
1CAD
330
1F
100
AcDbEntity
  8
STAVBA OBRYS
100
AcDbLine
 10
2662.601778451617
 20
834.0865570422288
 30
0.0
 11
2931.19953860028
 21
834.0865570422288
 31
0.0
  0
LINE
  5
1CAE
330
1F
100
AcDbEntity
  8
STAVBA OBRYS
100
AcDbLine
 10
2662.601778451617
 20
834.0865570422288
 30
0.0
 11
2662.601778451613
 21
1025.476955618557
 31
0.0
  0
LINE
  5
1CAF
330
1F
100
AcDbEntity
  8
STAVBA OBRYS
100
AcDbLine
 10
2660.58761832836
 20
622.0274322684531
 30
0.0
 11
2605.082999715463
 21
622.0274322684531
 31
0.0
  0
LINE
  5
1CB0
330
1F
100
AcDbEntity
  8
STAVBA OBRYS
100
AcDbLine
 10
2605.082999715463
 20
622.0274322684531
 30
0.0
 11
2605.082999715463
 21
727.8679519138973
 31
0.0
  0
LINE
  5
1CB1
330
1F
100
AcDbEntity
  8
STAVBA OBRYS
100
AcDbLine
 10
2605.082999715463
 20
727.8679519138973
 30
0.0
 11
2902.533072171763
 21
727.8679519138973
 31
0.0
  0
LINE
  5
1CB2
330
1F
100
AcDbEntity
  8
STAVBA OBRYS
100
AcDbLine
 10
2660.58761832836
 20
802.1223361610354
 30
0.0
 11
2921.541450664432
 21
802.122336161036
 31
0.0
  0
LINE
  5
1CB3
330
1F
100
AcDbEntity
  8
STAVBA OBRYS
100
AcDbLine
 10
2660.58761832836
 20
831.9825976858414
 30
0.0
 11
2660.58761832836
 21
772.2620746362295
 31
0.0
  0
LINE
  5
1CB4
330
1F
100
AcDbEntity
  8
STAVBA OBRYS
  6
IZOLACE
 48
1.399999999999999
100
AcDbLine
 10
2660.58761832836
 20
817.0524669234387
 30
0.0
 11
2925.363414570727
 21
817.0524669234382
 31
0.0
  0
LINE
  5
1CB5
330
1F
100
AcDbEntity
  8
STAVBA OBRYS
  6
IZOLACE
 48
1.399999999999999
100
AcDbLine
 10
2660.58761832836
 20
787.1922053986332
 30
0.0
 11
2917.719486758133
 21
787.1922053986322
 31
0.0
  0
LINE
  5
1CB6
330
1F
100
AcDbEntity
  8
STAVBA OBRYS
100
AcDbLine
 10
2660.58761832836
 20
772.2620746362295
 30
0.0
 11
2913.897522851837
 21
772.2620746362304
 31
0.0
  0
LINE
  5
1CB7
330
1F
100
AcDbEntity
  8
STAVBA OBRYS
100
AcDbLine
 10
2660.58761832836
 20
772.2620746362295
 30
0.0
 11
2660.58761832836
 21
727.8679519138973
 31
0.0
  0
HATCH
  5
1CB8
330
1F
100
AcDbEntity
  8
STAVBA OBRYS
100
AcDbHatch
 10
0.0
 20
0.0
 30
0.0
210
0.0
220
0.0
230
1.0
  2
AR-CONC
 70
     0
 71
     0
 91
        1
 92
        7
 72
     0
 73
     1
 93
        5
 10
2902.533072171763
 20
727.8679519138977
 10
2605.082999715463
 20
727.8679519138973
 10
2605.082999715463
 20
622.0274322684531
 10
2660.58761832836
 20
622.0274322684531
 10
2875.438959444554
 20
622.0274322684535
 97
        0
 75
     0
 76
     1
 52
0.0
 41
0.35
 77
     0
 78
    13
 53
50.0
 43
1510.031775691762
 44
-921.6399134098278
 45
63.7646341486014
 46
-5.57867993861608
 79
     2
 49
6.667499999999999
 49
-73.3425
 53
355.0
 43
1510.031775691762
 44
-921.6399134098278
 45
-12.33498909148344
 46
66.86982500876299
 79
     2
 49
5.333999999999999
 49
-58.67399999999999
 53
100.451
 43
1515.345475691761
 44
-922.104800909828
 45
51.42987558308573
 46
61.29084073710215
 79
     2
 49
5.6665
 49
-62.3315
 53
46.1842
 43
1510.031775691762
 44
-903.859913409828
 45
94.87766431224546
 46
-14.7148147764545
 79
     2
 49
10.00124999999999
 49
-110.0137499999999
 53
96.63559999999998
 43
1517.938240691763
 44
-905.0861384098276
 45
83.09148206318299
 46
86.59894456151723
 79
     2
 49
8.499749999999975
 49
-93.49724999999981
 53
351.184
 43
1510.031775691762
 44
-903.859913409828
 45
83.09161203487688
 46
86.59879125120918
 79
     2
 49
8.000999999999999
 49
-88.01099999999999
 53
21.0
 43
1518.921775691762
 44
-908.3049134098278
 45
53.06520794238414
 46
-35.79293148086687
 79
     2
 49
6.667499999999999
 49
-73.3425
 53
326.0
 43
1518.921775691762
 44
-908.3049134098278
 45
21.63070992167647
 46
64.46578814281174
 79
     2
 49
5.333999999999999
 49
-58.67399999999999
 53
71.45140000000001
 43
1523.343850691764
 44
-911.2876484098283
 45
74.69577176954356
 46
28.6730002006201
 79
     2
 49
5.6665
 49
-62.3315
 53
37.5
 43
1510.031775691762
 44
-921.6399134098278
 45
1.081011137707135
 46
29.59426360560359
 79
     6
 49
0.0
 49
-57.96279999999999
 49
0.0
 49
-59.56299999999999
 49
0.0
 49
-58.89624999999999
 53
7.499999999999999
 43
1510.031775691762
 44
-921.6399134098278
 45
23.38688187860701
 46
35.06320118634183
 79
     6
 49
0.0
 49
-33.95979999999999
 49
0.0
 49
-56.62929999999999
 49
0.0
 49
-22.44725
 53
327.4999999999999
 43
1490.207075691762
 44
-921.6399134098278
 45
47.45670830840498
 46
-2.005060397435712
 79
     6
 49
0.0
 49
-22.22499999999999
 49
0.0
 49
-69.342
 49
0.0
 49
-92.01149999999998
 53
317.5
 43
1481.317075691762
 44
-921.6399134098278
 45
51.84521348510632
 46
8.899271861666553
 79
     6
 49
0.0
 49
-28.8925
 49
0.0
 49
-46.05019999999999
 49
0.0
 49
-65.3415
 47
1.943322863705773
 98
        1
 10
2719.669746579804
 20
685.4827203633654
  0
HATCH
  5
1CB9
330
1F
100
AcDbEntity
  8
STAVBA OBRYS
100
AcDbHatch
 10
0.0
 20
0.0
 30
0.0
210
0.0
220
0.0
230
1.0
  2
AR-SAND
 70
     0
 71
     0
 91
        1
 92
        7
 72
     0
 73
     1
 93
        4
 10
2913.897522851837
 20
772.2620746362304
 10
2660.58761832836
 20
772.2620746362295
 10
2660.58761832836
 20
727.8679519138973
 10
2902.533072171763
 20
727.8679519138973
 97
        0
 75
     0
 76
     1
 52
0.0
 41
0.35
 77
     0
 78
     4
 53
37.5
 43
1510.031775691762
 44
-921.6399134098278
 45
-0.560010953594416
 46
17.12946330652698
 79
     6
 49
0.0
 49
-13.5128
 49
0.0
 49
-15.113
 49
0.0
 49
-14.44625
 53
7.499999999999999
 43
1510.031775691762
 44
-921.6399134098278
 45
15.73331490983009
 46
25.08887851989239
 79
     6
 49
0.0
 49
-7.2898
 49
0.0
 49
-12.17929999999999
 49
0.0
 49
-4.66725
 53
327.4999999999999
 43
1499.097075691764
 44
-921.6399134098278
 45
27.68473295845102
 46
0.0503014637490992
 79
     6
 49
0.0
 49
-4.444999999999999
 49
0.0
 49
-16.002
 49
0.0
 49
-20.89149999999999
 53
317.5
 43
1499.097075691764
 44
-921.6399134098278
 45
26.7244758365304
 46
7.802526314002567
 79
     6
 49
0.0
 49
-2.222499999999999
 49
0.0
 49
-10.49019999999999
 49
0.0
 49
-12.00149999999999
 47
0.9960938612785552
 98
        1
 10
2832.311668022268
 20
749.7237379322655
  0
TEXT
  5
1CBA
330
1F
100
AcDbEntity
  8
POPIS
100
AcDbText
 10
2100.557360239285
 20
1026.334267675739
 30
0.0
 40
25.0
  1
09
 41
0.7
  7
SIMPLEX7
100
AcDbText
  0
LINE
  5
1CBB
330
1F
100
AcDbEntity
  8
POPIS
100
AcDbLine
 10
2141.93697027728
 20
1039.77760912511
 30
0.0
 11
2287.963441756257
 21
1039.770107062366
 31
0.0
  0
LINE
  5
1CBC
330
1F
100
AcDbEntity
  8
POPIS
100
AcDbLine
 10
2141.93697027728
 20
963.5190665309233
 30
0.0
 11
2330.876057932388
 21
963.5190665309227
 31
0.0
  0
TEXT
  5
1CBD
330
1F
100
AcDbEntity
  8
POPIS
100
AcDbText
 10
2100.557360239285
 20
950.0757250815537
 30
0.0
 40
25.0
  1
03
 41
0.7
  7
SIMPLEX7
100
AcDbText
  0
LINE
  5
1CBE
330
1F
100
AcDbEntity
  8
POPIS
100
AcDbLine
 10
2141.93697027728
 20
598.4164415112814
 30
0.0
 11
2304.773500732602
 21
598.4164415112805
 31
0.0
  0
TEXT
  5
1CBF
330
1F
100
AcDbEntity
  8
POPIS
100
AcDbText
 10
2101.552472857651
 20
584.9731000619108
 30
0.0
 40
25.0
  1
01
 41
0.7
  7
SIMPLEX7
100
AcDbText
  0
TEXT
  5
1D21
330
1F
100
AcDbEntity
  8
POPIS
100
AcDbText
 10
2209.725460592661
 20
-137.5175493077836
 30
0.0
 40
25.0
  1
Podkladní EPDM páska tl.1 mm
 41
0.7
  7
SIMPLEX7
100
AcDbText
  0
TEXT
  5
1D22
330
1F
100
AcDbEntity
  8
POPIS
100
AcDbText
 10
2155.381757432918
 20
-137.5175493077836
 30
0.0
 40
25.0
  1
10
 41
0.85
  7
SIMPLEX7
100
AcDbText
  0
LINE
  5
1D23
330
1F
100
AcDbEntity
  8
POPIS
100
AcDbLine
 10
2161.898464050499
 20
787.014196741301
 30
0.0
 11
2161.898464050499
 21
722.6199119948041
 31
0.0
  0
LINE
  5
1D24
330
1F
100
AcDbEntity
  8
POPIS
100
AcDbLine
 10
2209.220975633725
 20
787.014196741301
 30
0.0
 11
2209.220975633725
 21
736.5939033241902
 31
0.0
  0
INSERT
  5
1D25
330
1F
100
AcDbEntity
  8
POPIS
100
AcDbBlockReference
  2
_ArchTick
 10
2209.220975633725
 20
741.8542370113007
 30
0.0
 41
15.0
 42
15.0
 43
15.0
 50
270.0
  0
LINE
  5
1D26
330
1F
100
AcDbEntity
  8
POPIS
100
AcDbLine
 10
2190.6925316734
 20
726.7601133233902
 30
0.0
 11
2149.398464050499
 21
726.7601133233902
 31
0.0
  0
INSERT
  5
1D27
330
1F
100
AcDbEntity
  8
POPIS
100
AcDbBlockReference
  2
_ArchTick
 10
2161.898464050499
 20
726.7601133233902
 30
0.0
 41
15.0
 42
15.0
 43
15.0
 50
270.0
  0
TEXT
  5
1D28
330
1F
100
AcDbEntity
  8
POPIS
100
AcDbText
 10
2156.288553658207
 20
742.8407325526595
 30
0.0
 40
25.0
  1
50
 50
90.0
 41
0.7
  7
SIMPLEX7
100
AcDbText
  0
LINE
  5
1D29
330
1F
100
AcDbEntity
  8
POPIS
100
AcDbLine
 10
2192.881473906402
 20
781.6056600803054
 30
0.0
 11
2149.398464050499
 21
781.6056600803054
 31
0.0
  0
INSERT
  5
1D2A
330
1F
100
AcDbEntity
  8
POPIS
100
AcDbBlockReference
  2
_ArchTick
 10
2161.898464050499
 20
781.6056600803054
 30
0.0
 41
15.0
 42
15.0
 43
15.0
 50
90.0
  0
INSERT
  5
1D2B
330
1F
100
AcDbEntity
  8
POPIS
100
AcDbBlockReference
  2
_ArchTick
 10
2209.220975633725
 20
781.6056600803054
 30
0.0
 41
15.0
 42
15.0
 43
15.0
 50
90.0
  0
LINE
  5
1D2C
330
1F
100
AcDbEntity
  8
POPIS
100
AcDbLine
 10
2238.015043256626
 20
741.8542370113007
 30
0.0
 11
2196.720975633725
 21
741.8542370113007
 31
0.0
  0
LINE
  5
1D2D
330
1F
100
AcDbEntity
  8
POPIS
100
AcDbLine
 10
2240.203985489628
 20
781.6056600803054
 30
0.0
 11
2196.720975633725
 21
781.6056600803054
 31
0.0
  0
TEXT
  5
1D2E
330
1F
100
AcDbEntity
  8
POPIS
100
AcDbText
 10
2203.611065241433
 20
749.2969736282102
 30
0.0
 40
25.0
  1
40
 50
90.0
 41
0.7
  7
SIMPLEX7
100
AcDbText
  0
LINE
  5
1D2F
330
1F
100
AcDbEntity
  8
PROFILY
  6
DASHED
370
    40
100
AcDbLine
 10
2317.027509543961
 20
485.5099034649374
 30
0.0
 11
2317.027509543961
 21
1027.78950765575
 31
0.0
  0
LINE
  5
1D30
330
1F
100
AcDbEntity
  8
PROFILY
100
AcDbLine
 10
2317.527509543961
 20
485.5099034649374
 30
0.0
 11
2317.527509543961
 21
1027.78950765575
 31
0.0
  0
LINE
  5
1D31
330
1F
100
AcDbEntity
  8
POPIS
100
AcDbLine
 10
2302.331269256436
 20
512.1220359589283
 30
0.0
 11
2245.706258252025
 21
534.752433366237
 31
0.0
  0
ARC
  5
1D32
330
1F
100
AcDbEntity
  8
POPIS
100
AcDbCircle
 10
2241.995123490304
 20
525.4665581366023
 30
0.0
 40
10.0
100
AcDbArc
 50
68.21569536147332
 51
89.99999999999984
  0
LINE
  5
1D35
330
1F
100
AcDbEntity
  8
POPIS
100
AcDbLine
 10
2141.93697027728
 20
647.758147920792
 30
0.0
 11
2317.527509543961
 21
647.7581479207915
 31
0.0
  0
TEXT
  5
1D36
330
1F
100
AcDbEntity
  8
POPIS
100
AcDbText
 10
2100.557360239285
 20
634.3148064714223
 30
0.0
 40
25.0
  1
10
 41
0.7
  7
SIMPLEX7
100
AcDbText
  0
LINE
  5
1D37
330
1F
100
AcDbEntity
  8
NOSNÉ KONSTRUKCE
100
AcDbLine
 10
2317.300321298129
 20
648.7360995437957
 30
0.0
 11
2316.690120803558
 21
658.5043446117206
 31
0.0
  0
LINE
  5
1D38
330
1F
100
AcDbEntity
  8
NOSNÉ KONSTRUKCE
100
AcDbLine
 10
2327.233734639349
 20
652.1552970699231
 30
0.0
 11
2329.271030080077
 21
659.7182144117432
 31
0.0
  0
LINE
  5
1D39
330
1F
100
AcDbEntity
  8
NOSNÉ KONSTRUKCE
100
AcDbLine
 10
2326.942696603308
 20
642.8470897231054
 30
0.0
 11
2327.233734639349
 21
652.1552970699231
 31
0.0
  0
LINE
  5
1D3A
330
1F
100
AcDbEntity
  8
NOSNÉ KONSTRUKCE
100
AcDbLine
 10
2322.110169237852
 20
636.564222492656
 30
0.0
 11
2321.555034105216
 21
646.9951931484975
 31
0.0
  0
INSERT
  5
1D3B
330
1F
100
AcDbEntity
  8
POPIS
100
AcDbBlockReference
  2
E_PUNKT
 10
2316.726493945883
 20
647.9504821265905
 30
0.0
  0
ENDSEC
  0
SECTION
  2
OBJECTS
  0
DICTIONARY
  5
C
330
0
100
AcDbDictionary
281
     1
  3
ACAD_GROUP
350
D
  3
ACAD_LAYOUT
350
1A
  3
ACAD_MLINESTYLE
350
17
  3
ACAD_PLOTSETTINGS
350
19
  3
ACAD_PLOTSTYLENAME
350
E
  3
AcDbVariableDictionary
350
1D3D
  0
DICTIONARY
  5
B56
330
1F
100
AcDbDictionary
280
     1
281
     1
  3
ACAD_LAYOUTSELFREF
360
1CFA
  0
DICTIONARY
  5
B58
330
1B
100
AcDbDictionary
280
     1
281
     1
  3
ACAD_LAYOUTSELFREF
360
1CF9
  0
DICTIONARY
  5
B5A
330
23
100
AcDbDictionary
280
     1
281
     1
  3
ACAD_LAYOUTSELFREF
360
1CFB
  0
DICTIONARY
  5
D
102
{ACAD_REACTORS
330
C
102
}
330
C
100
AcDbDictionary
281
     1
  0
DICTIONARY
  5
1A
102
{ACAD_REACTORS
330
C
102
}
330
C
100
AcDbDictionary
281
     1
  3
Model
350
22
  3
Rozvržení1
350
1E
  3
Rozvržení2
350
26
  0
DICTIONARY
  5
17
102
{ACAD_REACTORS
330
C
102
}
330
C
100
AcDbDictionary
281
     1
  3
Standard
350
18
  0
DICTIONARY
  5
19
102
{ACAD_REACTORS
330
C
102
}
330
C
100
AcDbDictionary
281
     1
  0
ACDBDICTIONARYWDFLT
  5
E
102
{ACAD_REACTORS
330
C
102
}
330
C
100
AcDbDictionary
281
     1
  3
Normal
350
F
100
AcDbDictionaryWithDefault
340
F
  0
DICTIONARY
  5
1D3D
102
{ACAD_REACTORS
330
C
102
}
330
C
100
AcDbDictionary
281
     1
  3
DIMASSOC
350
1D3E
  0
XRECORD
  5
1CFA
102
{ACAD_REACTORS
330
B56
102
}
330
B56
100
AcDbXrecord
280
     1
340
1F
  0
XRECORD
  5
1CF9
102
{ACAD_REACTORS
330
B58
102
}
330
B58
100
AcDbXrecord
280
     1
340
1B
  0
XRECORD
  5
1CFB
102
{ACAD_REACTORS
330
B5A
102
}
330
B5A
100
AcDbXrecord
280
     1
340
23
  0
LAYOUT
  5
22
102
{ACAD_REACTORS
330
1A
102
}
330
1A
100
AcDbPlotSettings
  1

  2
HP DeskJet 690C
  4

  6

 40
0.0
 41
0.0
 42
0.0
 43
0.0
 44
0.0
 45
0.0
 46
0.0
 47
0.0
 48
0.0
 49
0.0
140
0.0
141
0.0
142
1.0
143
1.0
 70
  1712
 72
     0
 73
     0
 74
     0
  7
monochrome.ctb
 75
     0
147
1.0
148
0.0
149
0.0
100
AcDbLayout
  1
Model
 70
     1
 71
     0
 10
0.0
 20
0.0
 11
12.0
 21
9.0
 12
0.0
 22
0.0
 32
0.0
 14
0.0
 24
0.0
 34
0.0
 15
0.0
 25
0.0
 35
0.0
146
0.0
 13
0.0
 23
0.0
 33
0.0
 16
1.0
 26
0.0
 36
0.0
 17
0.0
 27
1.0
 37
0.0
 76
     0
330
1F
  0
LAYOUT
  5
1E
102
{ACAD_REACTORS
330
1A
102
}
330
1A
100
AcDbPlotSettings
  1

  2
HP DeskJet 690C
  4

  6

 40
0.0
 41
0.0
 42
0.0
 43
0.0
 44
0.0
 45
0.0
 46
0.0
 47
0.0
 48
0.0
 49
0.0
140
0.0
141
0.0
142
1.0
143
1.0
 70
   688
 72
     0
 73
     0
 74
     5
  7
monochrome.ctb
 75
    16
147
1.0
148
0.0
149
0.0
100
AcDbLayout
  1
Rozvržení1
 70
     1
 71
     1
 10
0.0
 20
0.0
 11
420.0
 21
297.0
 12
0.0
 22
0.0
 32
0.0
 14
1.000000000000000E+20
 24
1.000000000000000E+20
 34
1.000000000000000E+20
 15
-1.000000000000000E+20
 25
-1.000000000000000E+20
 35
-1.000000000000000E+20
146
0.0
 13
0.0
 23
0.0
 33
0.0
 16
1.0
 26
0.0
 36
0.0
 17
0.0
 27
1.0
 37
0.0
 76
     0
330
1B
  0
LAYOUT
  5
26
102
{ACAD_REACTORS
330
1A
102
}
330
1A
100
AcDbPlotSettings
  1

  2
HP DeskJet 690C
  4

  6

 40
0.0
 41
0.0
 42
0.0
 43
0.0
 44
0.0
 45
0.0
 46
0.0
 47
0.0
 48
0.0
 49
0.0
140
0.0
141
0.0
142
1.0
143
1.0
 70
   688
 72
     0
 73
     0
 74
     5
  7
monochrome.ctb
 75
    16
147
1.0
148
0.0
149
0.0
100
AcDbLayout
  1
Rozvržení2
 70
     1
 71
     2
 10
0.0
 20
0.0
 11
12.0
 21
9.0
 12
0.0
 22
0.0
 32
0.0
 14
0.0
 24
0.0
 34
0.0
 15
0.0
 25
0.0
 35
0.0
146
0.0
 13
0.0
 23
0.0
 33
0.0
 16
1.0
 26
0.0
 36
0.0
 17
0.0
 27
1.0
 37
0.0
 76
     0
330
23
  0
MLINESTYLE
  5
18
102
{ACAD_REACTORS
330
17
102
}
330
17
100
AcDbMlineStyle
  2
STANDARD
 70
     0
  3

 62
   256
 51
90.0
 52
90.0
 71
     2
 49
0.5
 62
   256
  6
BYLAYER
 49
-0.5
 62
   256
  6
BYLAYER
  0
ACDBPLACEHOLDER
  5
F
102
{ACAD_REACTORS
330
E
102
}
330
E
  0
DICTIONARYVAR
  5
1D3E
102
{ACAD_REACTORS
330
1D3D
102
}
330
1D3D
100
DictionaryVariables
280
     0
  1
1
  0
ENDSEC
  0
EOF
