  0
SECTION
  2
HEADER
  9
$ACADVER
  1
AC1015
  9
$ACADMAINTVER
 70
    13
  9
$DWGCODEPAGE
  3
ANSI_1250
  9
$INSBASE
 10
0.0
 20
0.0
 30
0.0
  9
$EXTMIN
 10
-144.1996278884439
 20
-10.2499037927364
 30
0.0
  9
$EXTMAX
 10
1942.780974301221
 20
762.9979241247365
 30
0.0
  9
$LIMMIN
 10
0.0
 20
0.0
  9
$LIMMAX
 10
420.0
 20
297.0
  9
$ORTHOMODE
 70
     1
  9
$REGENMODE
 70
     1
  9
$FILLMODE
 70
     1
  9
$QTEXTMODE
 70
     0
  9
$MIRRTEXT
 70
     1
  9
$LTSCALE
 40
1.0
  9
$ATTMODE
 70
     1
  9
$TEXTSIZE
 40
2.5
  9
$TRACEWID
 40
1.0
  9
$TEXTSTYLE
  7
Standard
  9
$CLAYER
  8
0
  9
$CELTYPE
  6
ByLayer
  9
$CECOLOR
 62
   256
  9
$CELTSCALE
 40
1.0
  9
$DISPSILH
 70
     0
  9
$DIMSCALE
 40
1.0
  9
$DIMASZ
 40
2.5
  9
$DIMEXO
 40
0.625
  9
$DIMDLI
 40
3.75
  9
$DIMRND
 40
0.0
  9
$DIMDLE
 40
0.0
  9
$DIMEXE
 40
1.25
  9
$DIMTP
 40
0.0
  9
$DIMTM
 40
0.0
  9
$DIMTXT
 40
2.5
  9
$DIMCEN
 40
2.5
  9
$DIMTSZ
 40
0.0
  9
$DIMTOL
 70
     0
  9
$DIMLIM
 70
     0
  9
$DIMTIH
 70
     0
  9
$DIMTOH
 70
     0
  9
$DIMSE1
 70
     0
  9
$DIMSE2
 70
     0
  9
$DIMTAD
 70
     1
  9
$DIMZIN
 70
     8
  9
$DIMBLK
  1

  9
$DIMASO
 70
     1
  9
$DIMSHO
 70
     1
  9
$DIMPOST
  1

  9
$DIMAPOST
  1

  9
$DIMALT
 70
     0
  9
$DIMALTD
 70
     3
  9
$DIMALTF
 40
0.03937007874016
  9
$DIMLFAC
 40
1.0
  9
$DIMTOFL
 70
     1
  9
$DIMTVP
 40
0.0
  9
$DIMTIX
 70
     0
  9
$DIMSOXD
 70
     0
  9
$DIMSAH
 70
     0
  9
$DIMBLK1
  1

  9
$DIMBLK2
  1

  9
$DIMSTYLE
  2
ISO-25
  9
$DIMCLRD
 70
     0
  9
$DIMCLRE
 70
     0
  9
$DIMCLRT
 70
     0
  9
$DIMTFAC
 40
1.0
  9
$DIMGAP
 40
0.625
  9
$DIMJUST
 70
     0
  9
$DIMSD1
 70
     0
  9
$DIMSD2
 70
     0
  9
$DIMTOLJ
 70
     0
  9
$DIMTZIN
 70
     8
  9
$DIMALTZ
 70
     0
  9
$DIMALTTZ
 70
     0
  9
$DIMUPT
 70
     0
  9
$DIMDEC
 70
     2
  9
$DIMTDEC
 70
     2
  9
$DIMALTU
 70
     2
  9
$DIMALTTD
 70
     3
  9
$DIMTXSTY
  7
Standard
  9
$DIMAUNIT
 70
     0
  9
$DIMADEC
 70
     0
  9
$DIMALTRND
 40
0.0
  9
$DIMAZIN
 70
     0
  9
$DIMDSEP
 70
    44
  9
$DIMATFIT
 70
     3
  9
$DIMFRAC
 70
     0
  9
$DIMLDRBLK
  1

  9
$DIMLUNIT
 70
     2
  9
$DIMLWD
 70
    -2
  9
$DIMLWE
 70
    -2
  9
$DIMTMOVE
 70
     0
  9
$LUNITS
 70
     2
  9
$LUPREC
 70
     4
  9
$SKETCHINC
 40
1.0
  9
$FILLETRAD
 40
10.0
  9
$AUNITS
 70
     0
  9
$AUPREC
 70
     0
  9
$MENU
  1
.
  9
$ELEVATION
 40
0.0
  9
$PELEVATION
 40
0.0
  9
$THICKNESS
 40
0.0
  9
$LIMCHECK
 70
     0
  9
$CHAMFERA
 40
10.0
  9
$CHAMFERB
 40
10.0
  9
$CHAMFERC
 40
20.0
  9
$CHAMFERD
 40
0.0
  9
$SKPOLY
 70
     0
  9
$TDCREATE
 40
2452332.468649768
  9
$TDUCREATE
 40
2452332.426983101
  9
$TDUPDATE
 40
2455595.842823530
  9
$TDUUPDATE
 40
2455595.801156863
  9
$TDINDWG
 40
0.0414518403
  9
$TDUSRTIMER
 40
0.0414492940
  9
$USRTIMER
 70
     1
  9
$ANGBASE
 50
0.0
  9
$ANGDIR
 70
     0
  9
$PDMODE
 70
     0
  9
$PDSIZE
 40
0.0
  9
$PLINEWID
 40
0.0
  9
$SPLFRAME
 70
     0
  9
$SPLINETYPE
 70
     6
  9
$SPLINESEGS
 70
     8
  9
$HANDSEED
  5
55B0
  9
$SURFTAB1
 70
     6
  9
$SURFTAB2
 70
     6
  9
$SURFTYPE
 70
     6
  9
$SURFU
 70
     6
  9
$SURFV
 70
     6
  9
$UCSBASE
  2

  9
$UCSNAME
  2

  9
$UCSORG
 10
0.0
 20
0.0
 30
0.0
  9
$UCSXDIR
 10
1.0
 20
0.0
 30
0.0
  9
$UCSYDIR
 10
0.0
 20
1.0
 30
0.0
  9
$UCSORTHOREF
  2

  9
$UCSORTHOVIEW
 70
     0
  9
$UCSORGTOP
 10
0.0
 20
0.0
 30
0.0
  9
$UCSORGBOTTOM
 10
0.0
 20
0.0
 30
0.0
  9
$UCSORGLEFT
 10
0.0
 20
0.0
 30
0.0
  9
$UCSORGRIGHT
 10
0.0
 20
0.0
 30
0.0
  9
$UCSORGFRONT
 10
0.0
 20
0.0
 30
0.0
  9
$UCSORGBACK
 10
0.0
 20
0.0
 30
0.0
  9
$PUCSBASE
  2

  9
$PUCSNAME
  2

  9
$PUCSORG
 10
0.0
 20
0.0
 30
0.0
  9
$PUCSXDIR
 10
1.0
 20
0.0
 30
0.0
  9
$PUCSYDIR
 10
0.0
 20
1.0
 30
0.0
  9
$PUCSORTHOREF
  2

  9
$PUCSORTHOVIEW
 70
     0
  9
$PUCSORGTOP
 10
0.0
 20
0.0
 30
0.0
  9
$PUCSORGBOTTOM
 10
0.0
 20
0.0
 30
0.0
  9
$PUCSORGLEFT
 10
0.0
 20
0.0
 30
0.0
  9
$PUCSORGRIGHT
 10
0.0
 20
0.0
 30
0.0
  9
$PUCSORGFRONT
 10
0.0
 20
0.0
 30
0.0
  9
$PUCSORGBACK
 10
0.0
 20
0.0
 30
0.0
  9
$USERI1
 70
     0
  9
$USERI2
 70
     0
  9
$USERI3
 70
     0
  9
$USERI4
 70
     0
  9
$USERI5
 70
     0
  9
$USERR1
 40
0.0
  9
$USERR2
 40
0.0
  9
$USERR3
 40
0.0
  9
$USERR4
 40
0.0
  9
$USERR5
 40
0.0
  9
$WORLDVIEW
 70
     1
  9
$SHADEDGE
 70
     3
  9
$SHADEDIF
 70
    70
  9
$TILEMODE
 70
     1
  9
$MAXACTVP
 70
    64
  9
$PINSBASE
 10
0.0
 20
0.0
 30
0.0
  9
$PLIMCHECK
 70
     0
  9
$PEXTMIN
 10
1.000000000000000E+20
 20
1.000000000000000E+20
 30
1.000000000000000E+20
  9
$PEXTMAX
 10
-1.000000000000000E+20
 20
-1.000000000000000E+20
 30
-1.000000000000000E+20
  9
$PLIMMIN
 10
0.0
 20
0.0
  9
$PLIMMAX
 10
420.0
 20
297.0
  9
$UNITMODE
 70
     0
  9
$VISRETAIN
 70
     1
  9
$PLINEGEN
 70
     0
  9
$PSLTSCALE
 70
     1
  9
$TREEDEPTH
 70
  3020
  9
$CMLSTYLE
  2
Standard
  9
$CMLJUST
 70
     0
  9
$CMLSCALE
 40
20.0
  9
$PROXYGRAPHICS
 70
     1
  9
$MEASUREMENT
 70
     1
  9
$CELWEIGHT
370
    -1
  9
$ENDCAPS
280
     0
  9
$JOINSTYLE
280
     0
  9
$LWDISPLAY
290
     0
  9
$INSUNITS
 70
     4
  9
$HYPERLINKBASE
  1

  9
$STYLESHEET
  1

  9
$XEDIT
290
     1
  9
$CEPSNTYPE
380
     0
  9
$PSTYLEMODE
290
     1
  9
$FINGERPRINTGUID
  2
{A3477950-F6EC-44A0-8776-592C40033ABE}
  9
$VERSIONGUID
  2
{56649915-A22A-4F01-84EA-32540919A83C}
  9
$EXTNAMES
290
     1
  9
$PSVPSCALE
 40
0.0
  9
$OLESTARTUP
290
     0
  0
ENDSEC
  0
SECTION
  2
CLASSES
  0
CLASS
  1
ACDBDICTIONARYWDFLT
  2
AcDbDictionaryWithDefault
  3
AutoCAD 2000
 90
        0
280
     0
281
     0
  0
CLASS
  1
ACDBPLACEHOLDER
  2
AcDbPlaceHolder
  3
AutoCAD 2000
 90
        0
280
     0
281
     0
  0
CLASS
  1
LAYOUT
  2
AcDbLayout
  3
AutoCAD 2000
 90
        0
280
     0
281
     0
  0
CLASS
  1
DICTIONARYVAR
  2
AcDbDictionaryVar
  3
AutoCAD 2000
 90
        0
280
     0
281
     0
  0
ENDSEC
  0
SECTION
  2
TABLES
  0
TABLE
  2
VPORT
  5
8
330
0
100
AcDbSymbolTable
 70
     2
  0
VPORT
  5
55AF
330
8
100
AcDbSymbolTableRecord
100
AcDbViewportTableRecord
  2
*Active
 70
     0
 10
0.0
 20
0.0
 11
1.0
 21
1.0
 12
1011.638369946604
 22
346.7256477208675
 13
0.0
 23
0.0
 14
10.0
 24
10.0
 15
10.0
 25
10.0
 16
0.0
 26
0.0
 36
1.0
 17
0.0
 27
0.0
 37
0.0
 40
860.1132110873736
 41
2.229559748427672
 42
50.0
 43
0.0
 44
0.0
 50
0.0
 51
0.0
 71
     0
 72
   100
 73
     1
 74
     3
 75
     0
 76
     0
 77
     0
 78
     0
281
     0
 65
     1
110
0.0
120
0.0
130
0.0
111
1.0
121
0.0
131
0.0
112
0.0
122
1.0
132
0.0
 79
     0
146
0.0
  0
ENDTAB
  0
TABLE
  2
LTYPE
  5
5
330
0
100
AcDbSymbolTable
 70
     3
  0
LTYPE
  5
14
330
5
100
AcDbSymbolTableRecord
100
AcDbLinetypeTableRecord
  2
ByBlock
 70
     0
  3

 72
    65
 73
     0
 40
0.0
  0
LTYPE
  5
15
330
5
100
AcDbSymbolTableRecord
100
AcDbLinetypeTableRecord
  2
ByLayer
 70
     0
  3

 72
    65
 73
     0
 40
0.0
  0
LTYPE
  5
16
330
5
100
AcDbSymbolTableRecord
100
AcDbLinetypeTableRecord
  2
Continuous
 70
     0
  3
Solid line
 72
    65
 73
     0
 40
0.0
  0
LTYPE
  5
4F4B
330
5
100
AcDbSymbolTableRecord
100
AcDbLinetypeTableRecord
  2
DASHED
 70
     0
  3
Dashed __ __ __ __ __ __ __ __ __ __ __ __ __ _
 72
    65
 73
     2
 40
19.04999999999999
 49
12.7
 74
     0
 49
-6.349999999999999
 74
     0
  0
LTYPE
  5
4F4C
330
5
100
AcDbSymbolTableRecord
100
AcDbLinetypeTableRecord
  2
IZOLACE
 70
     0
  3
Izolace SSSSSSSSSSSSSSSSSSSSSSSSSSSSSSSSSSSSSSS
 72
    65
 73
     4
 40
10.16253999999999
 49
0.00254
 74
     0
 49
-2.54
 74
     4
 75
   134
340
4F54
 46
2.54
 50
0.0
 44
-2.54
 45
0.0
 49
-5.08
 74
     4
 75
   134
340
4F54
 46
2.54
 50
180.0
 44
2.54
 45
0.0
 49
-2.54
 74
     0
  0
ENDTAB
  0
TABLE
  2
LAYER
  5
2
330
0
100
AcDbSymbolTable
 70
     7
  0
LAYER
  5
10
330
2
100
AcDbSymbolTableRecord
100
AcDbLayerTableRecord
  2
0
 70
     0
 62
     7
  6
Continuous
370
    -3
390
F
  0
LAYER
  5
4F4D
330
2
100
AcDbSymbolTableRecord
100
AcDbLayerTableRecord
  2
POPIS
 70
     0
 62
    30
  6
Continuous
370
    -3
390
F
  0
LAYER
  5
4F4E
330
2
100
AcDbSymbolTableRecord
100
AcDbLayerTableRecord
  2
SPOJOVACÍ
 70
     0
 62
   180
  6
Continuous
370
    -3
390
F
  0
LAYER
  5
4F4F
330
2
100
AcDbSymbolTableRecord
100
AcDbLayerTableRecord
  2
CETRIS
 70
     0
 62
     1
  6
Continuous
370
    -3
390
F
  0
LAYER
  5
4F50
330
2
100
AcDbSymbolTableRecord
100
AcDbLayerTableRecord
  2
izolace
 70
     0
 62
    33
  6
Continuous
370
    -3
390
F
  0
LAYER
  5
4F51
330
2
100
AcDbSymbolTableRecord
100
AcDbLayerTableRecord
  2
nášlap_vrstvy
 70
     0
 62
    73
  6
Continuous
370
    -3
390
F
  0
LAYER
  5
4F52
330
2
100
AcDbSymbolTableRecord
100
AcDbLayerTableRecord
  2
STAVBA OBRYS
 70
     0
 62
     6
  6
Continuous
370
    -3
390
F
  0
ENDTAB
  0
TABLE
  2
STYLE
  5
3
330
0
100
AcDbSymbolTable
 70
     3
  0
STYLE
  5
11
330
3
100
AcDbSymbolTableRecord
100
AcDbTextStyleTableRecord
  2
Standard
 70
     0
 40
0.0
 41
1.0
 50
0.0
 71
     0
 42
2.5
  3
txt
  4

  0
STYLE
  5
4F53
330
3
100
AcDbSymbolTableRecord
100
AcDbTextStyleTableRecord
  2
SIMPLEX7
 70
     0
 40
0.0
 41
0.85
 50
0.0
 71
     0
 42
102.0
  3
ARIAL.TTF
  4

1001
ACAD
1000
Arial CE
1071
    60962
  0
STYLE
  5
4F54
330
3
100
AcDbSymbolTableRecord
100
AcDbTextStyleTableRecord
  2

 70
     1
 40
0.0
 41
1.0
 50
0.0
 71
     0
 42
2.5
  3
ltypeshp.shx
  4

  0
ENDTAB
  0
TABLE
  2
VIEW
  5
6
330
0
100
AcDbSymbolTable
 70
     0
  0
ENDTAB
  0
TABLE
  2
UCS
  5
7
330
0
100
AcDbSymbolTable
 70
     0
  0
ENDTAB
  0
TABLE
  2
APPID
  5
9
330
0
100
AcDbSymbolTable
 70
     1
  0
APPID
  5
12
330
9
100
AcDbSymbolTableRecord
100
AcDbRegAppTableRecord
  2
ACAD
 70
     0
  0
ENDTAB
  0
TABLE
  2
DIMSTYLE
  5
A
330
0
100
AcDbSymbolTable
 70
     1
100
AcDbDimStyleTable
 71
     0
  0
DIMSTYLE
105
27
330
A
100
AcDbSymbolTableRecord
100
AcDbDimStyleTableRecord
  2
ISO-25
 70
     0
 41
2.5
 42
0.625
 43
3.75
 44
1.25
 73
     0
 74
     0
 77
     1
 78
     8
140
2.5
141
2.5
143
0.03937007874016
147
0.625
171
     3
172
     1
271
     2
272
     2
274
     3
278
    44
283
     0
284
     8
340
11
  0
ENDTAB
  0
TABLE
  2
BLOCK_RECORD
  5
1
330
0
100
AcDbSymbolTable
 70
     2
  0
BLOCK_RECORD
  5
1F
330
1
100
AcDbSymbolTableRecord
100
AcDbBlockTableRecord
  2
*Model_Space
340
22
  0
BLOCK_RECORD
  5
1B
330
1
100
AcDbSymbolTableRecord
100
AcDbBlockTableRecord
  2
*Paper_Space
340
1E
  0
BLOCK_RECORD
  5
23
330
1
100
AcDbSymbolTableRecord
100
AcDbBlockTableRecord
  2
*Paper_Space0
340
26
  0
BLOCK_RECORD
  5
4F47
330
1
100
AcDbSymbolTableRecord
100
AcDbBlockTableRecord
  2
E_PUNKT
340
0
102
{BLKREFS
331
52BE
331
52C1
331
539D
331
5428
331
5449
331
5450
331
550C
102
}
  0
ENDTAB
  0
ENDSEC
  0
SECTION
  2
BLOCKS
  0
BLOCK
  5
20
330
1F
100
AcDbEntity
  8
0
100
AcDbBlockBegin
  2
*Model_Space
 70
     0
 10
0.0
 20
0.0
 30
0.0
  3
*Model_Space
  1

  0
ENDBLK
  5
21
330
1F
100
AcDbEntity
  8
0
100
AcDbBlockEnd
  0
BLOCK
  5
1C
330
1B
100
AcDbEntity
 67
     1
  8
0
100
AcDbBlockBegin
  2
*Paper_Space
 70
     0
 10
0.0
 20
0.0
 30
0.0
  3
*Paper_Space
  1

  0
ENDBLK
  5
1D
330
1B
100
AcDbEntity
 67
     1
  8
0
100
AcDbBlockEnd
  0
BLOCK
  5
24
330
23
100
AcDbEntity
  8
0
100
AcDbBlockBegin
  2
*Paper_Space0
 70
     0
 10
0.0
 20
0.0
 30
0.0
  3
*Paper_Space0
  1

  0
ENDBLK
  5
25
330
23
100
AcDbEntity
  8
0
100
AcDbBlockEnd
  0
BLOCK
  5
4F49
330
4F47
100
AcDbEntity
  8
0
100
AcDbBlockBegin
  2
E_PUNKT
 70
     0
 10
0.0
 20
0.0
 30
0.0
  3
E_PUNKT
  1

  0
LWPOLYLINE
  5
4F48
330
4F47
100
AcDbEntity
  8
POPIS
100
AcDbPolyline
 90
        2
 70
     1
 43
2.5
 10
1.27761037562675
 20
0.0290683308725193
 42
-1.0
 10
-1.222389624373249
 20
0.0290683308725193
 42
-1.0
  0
ENDBLK
  5
4F4A
330
4F47
100
AcDbEntity
  8
0
100
AcDbBlockEnd
  0
ENDSEC
  0
SECTION
  2
ENTITIES
  0
TEXT
  5
527E
330
1F
100
AcDbEntity
  8
POPIS
100
AcDbText
 10
342.7607370044952
 20
699.7646362666191
 30
0.0
 40
50.0
  1
Podlahová krytina -  lamino (dř. parkety - plovoucí)
 41
0.75
  7
SIMPLEX7
100
AcDbText
  0
TEXT
  5
527F
330
1F
100
AcDbEntity
  8
POPIS
100
AcDbText
 10
1420.944344014728
 20
354.9862714998153
 30
0.0
 40
25.0
  1
Měkčená PE fólie MIRELON
 41
0.7
  7
SIMPLEX7
100
AcDbText
  0
TEXT
  5
5280
330
1F
100
AcDbEntity
  8
POPIS
100
AcDbText
 10
1420.944344014728
 20
425.2953911089835
 30
0.0
 40
25.0
  1
Rohový profil (přilepen ke stěně)
 41
0.7
  7
SIMPLEX7
100
AcDbText
  0
TEXT
  5
5281
330
1F
100
AcDbEntity
  8
POPIS
100
AcDbText
 10
1420.944344014728
 20
318.4855024671806
 30
0.0
 40
25.0
  1
Podlahová deska CETRIS   PD (PDB)
 41
0.7
  7
SIMPLEX7
100
AcDbText
  0
TEXT
  5
5282
330
1F
100
AcDbEntity
  8
POPIS
100
AcDbText
 10
1420.944344014728
 20
282.0323893144877
 30
0.0
 40
25.0
  1
Stávající dřevěná podlaha
 41
0.7
  7
SIMPLEX7
100
AcDbText
  0
TEXT
  5
5283
330
1F
100
AcDbEntity
  8
POPIS
100
AcDbText
 10
1420.944344014728
 20
247.9315550113615
 30
0.0
 40
25.0
  1
Dilatační spára tl. 15 mm
 41
0.7
  7
SIMPLEX7
100
AcDbText
  0
TEXT
  5
5284
330
1F
100
AcDbEntity
  8
POPIS
100
AcDbText
 10
1420.944344014728
 20
216.1483946256203
 30
0.0
 40
25.0
  1
Stropní konstrukce
 41
0.7
  7
SIMPLEX7
100
AcDbText
  0
TEXT
  5
5285
330
1F
100
AcDbEntity
  8
POPIS
100
AcDbText
 10
1420.944344014728
 20
390.3904327179779
 30
0.0
 40
25.0
  1
Laminátová podlaha (Dřevěné parkety-plovoucí)
 41
0.7
  7
SIMPLEX7
100
AcDbText
  0
LINE
  5
5286
330
1F
100
AcDbEntity
  8
STAVBA OBRYS
100
AcDbLine
 10
352.0229906093427
 20
-10.2499037927364
 30
0.0
 11
352.0229906093391
 21
585.5253151983379
 31
0.0
  0
LINE
  5
5287
330
1F
100
AcDbEntity
  8
STAVBA OBRYS
100
AcDbLine
 10
362.0229906093427
 20
-10.2499037927364
 30
0.0
 11
362.0229906093391
 21
585.5253151983379
 31
0.0
  0
HATCH
  5
5288
330
1F
100
AcDbEntity
  8
STAVBA OBRYS
100
AcDbHatch
 10
0.0
 20
0.0
 30
0.0
210
0.0
220
0.0
230
1.0
  2
BRICK
 70
     0
 71
     0
 91
        3
 92
        7
 72
     0
 73
     1
 93
        4
 10
601.1035864378373
 20
585.5253151983406
 10
362.0229906093427
 20
585.5253151983379
 10
362.0229906093427
 20
310.1044351965929
 10
601.1035864378445
 20
310.1044351965929
 97
        0
 92
        7
 72
     0
 73
     1
 93
        4
 10
601.1035864378373
 20
96.49274511208297
 10
362.0229906093427
 20
96.49274511208478
 10
362.0229906093427
 20
-9.763651858037519
 10
601.1035864378409
 20
1.861688368987415
 97
        0
 92
       24
 93
        4
 72
     1
 10
499.9673819333711
 20
346.913712195238
 11
540.7988109920388
 21
346.913712195238
 72
     1
 10
540.7988109920388
 20
346.913712195238
 11
540.7988109920388
 21
385.2066862743649
 72
     1
 10
540.7988109920388
 20
385.2066862743658
 11
499.9673819333711
 21
385.2066862743658
 72
     1
 10
499.9673819333711
 20
385.2066862743658
 11
499.9673819333711
 21
346.9137121952399
 97
        0
 75
     0
 76
     1
 52
0.0
 41
10.0
 77
     0
 78
     3
 53
0.0
 43
-27086.28788068835
 44
3236.823665191384
 45
0.0
 46
63.5
 79
     0
 53
90.0
 43
-27086.28788068835
 44
3236.823665191384
 45
-127.0
 46
0.0000000000000078
 79
     2
 49
63.5
 49
-63.5
 53
90.0
 43
-27022.78788068835
 44
3236.823665191384
 45
-127.0
 46
0.0000000000000078
 79
     2
 49
-63.5
 49
63.5
 47
3.017070218097292
 98
        2
 10
525.2116587444306
 20
442.2244859841676
 10
495.0224213584497
 20
46.98828512747877
  0
HATCH
  5
5289
330
1F
100
AcDbEntity
  8
STAVBA OBRYS
100
AcDbHatch
 10
0.0
 20
0.0
 30
0.0
210
0.0
220
0.0
230
1.0
  2
AR-CONC
 70
     0
 71
     0
 91
        2
 92
        7
 72
     0
 73
     1
 93
        4
 10
611.1035864378372
 20
585.5253151983406
 10
601.1035864378373
 20
585.5253151983406
 10
601.1035864378373
 20
337.535863914537
 10
611.1035864378372
 20
332.6538046203431
 97
        0
 92
        7
 72
     0
 73
     1
 93
        4
 10
362.0229906093427
 20
585.5253151983379
 10
352.0229906093391
 20
585.525315198337
 10
352.0229906093427
 20
-10.2499037927364
 10
362.0229906093427
 20
-9.763651858039338
 97
        0
 75
     0
 76
     1
 52
90.0
 41
0.1
 77
     0
 78
    13
 53
140.0
 43
-27086.28788068835
 44
3236.823665191384
 45
1.593908553890309
 46
18.2184668996004
 79
     2
 49
1.905
 49
-20.955
 53
85.00000000000001
 43
-27086.28788068835
 44
3236.823665191384
 45
-19.10566428821799
 46
-3.524282597566697
 79
     2
 49
1.524
 49
-16.764
 53
190.4509999999999
 43
-27086.15505568835
 44
3238.341865191385
 45
-17.51166878202918
 46
14.69425016659592
 79
     2
 49
1.619
 49
-17.809
 53
136.1841999999999
 43
-27091.36788068835
 44
3236.823665191384
 45
4.204232793272717
 46
27.10790408921299
 79
     2
 49
2.857499999999999
 49
-31.4325
 53
186.6355999999999
 43
-27091.01753068835
 44
3239.082655191384
 45
-24.74255558900492
 46
23.74042344662371
 79
     2
 49
2.4285
 49
-26.7135
 53
81.18400000000004
 43
-27091.36788068835
 44
3236.823665191384
 45
-24.74251178605976
 46
23.74046058139339
 79
     2
 49
2.286
 49
-25.146
 53
111.0
 43
-27090.09788068835
 44
3239.363665191384
 45
10.22655185167625
 46
15.16148798353833
 79
     2
 49
1.905
 49
-20.955
 53
56.00000000000004
 43
-27090.09788068835
 44
3239.363665191384
 45
-18.41879661223192
 46
6.180202834764708
 79
     2
 49
1.524
 49
-16.764
 53
161.4514
 43
-27089.24567068835
 44
3240.627115191384
 45
-8.192285771605742
 46
21.34164907701245
 79
     2
 49
1.618999999999997
 49
-17.80899999999995
 53
127.5
 43
-27086.28788068835
 44
3236.823665191384
 45
-8.455503887315311
 46
0.3088603250591822
 79
     6
 49
0.0
 49
-16.5608
 49
0.0
 49
-17.018
 49
0.0
 49
-16.8275
 53
97.49999999999985
 43
-27086.28788068835
 44
3236.823665191384
 45
-10.01805748181195
 46
6.681966251030575
 79
     6
 49
0.0
 49
-9.702799999999998
 49
0.0
 49
-16.17979999999999
 49
0.0
 49
-6.413499999999999
 53
57.5
 43
-27086.28788068835
 44
3231.159465191384
 45
0.5728743992673473
 46
13.55905951668713
 79
     6
 49
0.0
 49
-6.35
 49
0.0
 49
-19.812
 49
0.0
 49
-26.289
 53
47.5
 43
-27086.28788068835
 44
3228.619465191384
 45
-2.5426491033333
 46
14.8129181386018
 79
     6
 49
0.0
 49
-8.255
 49
0.0
 49
-13.1572
 49
0.0
 49
-18.669
 47
1.255134839913078
 98
        2
 10
604.9862082135351
 20
434.0932595056483
 10
357.5727928795804
 20
382.6327198382832
  0
LINE
  5
528A
330
1F
100
AcDbEntity
  8
STAVBA OBRYS
100
AcDbLine
 10
486.5202585736478
 20
310.104435196591
 30
0.0
 11
1310.845466220735
 21
310.1044351965902
 31
0.0
  0
POLYLINE
  5
528B
330
1F
100
AcDbEntity
  8
STAVBA OBRYS
100
AcDb2dPolyline
 66
     1
 10
0.0
 20
0.0
 30
0.0
  0
VERTEX
  5
528C
330
528B
100
AcDbEntity
  8
STAVBA OBRYS
100
AcDbVertex
100
AcDb2dVertex
 10
925.3246066240263
 20
310.104435196591
 30
0.0
 42
0.0502247168465557
  0
VERTEX
  5
528D
330
528B
100
AcDbEntity
  8
STAVBA OBRYS
100
AcDbVertex
100
AcDb2dVertex
 10
923.7255594478611
 20
312.1119058693138
 30
0.0
 42
0.0274923553235744
  0
VERTEX
  5
528E
330
528B
100
AcDbEntity
  8
STAVBA OBRYS
100
AcDbVertex
100
AcDb2dVertex
 10
921.1282537173083
 20
314.496981192452
 30
0.0
 42
0.0255412025538677
  0
VERTEX
  5
528F
330
528B
100
AcDbEntity
  8
STAVBA OBRYS
100
AcDbVertex
100
AcDb2dVertex
 10
918.0768236795975
 20
316.7536948694678
 30
0.0
 42
0.0272796991712396
  0
VERTEX
  5
5290
330
528B
100
AcDbEntity
  8
STAVBA OBRYS
100
AcDbVertex
100
AcDb2dVertex
 10
913.9638245264123
 20
319.1700307511337
 30
0.0
 42
0.056967459841729
  0
VERTEX
  5
5291
330
528B
100
AcDbEntity
  8
STAVBA OBRYS
100
AcDbVertex
100
AcDb2dVertex
 10
911.8228772456804
 20
319.9827665863331
 30
0.0
 42
0.0373408083348504
  0
VERTEX
  5
5292
330
528B
100
AcDbEntity
  8
STAVBA OBRYS
100
AcDbVertex
100
AcDb2dVertex
 10
911.600522870207
 20
320.0219321272807
 30
0.0
 42
0.0052305969362967
  0
VERTEX
  5
5293
330
528B
100
AcDbEntity
  8
STAVBA OBRYS
100
AcDbVertex
100
AcDb2dVertex
 10
911.2545630964469
 20
320.052889094185
 30
0.0
  0
SEQEND
  5
5294
330
528B
100
AcDbEntity
  8
STAVBA OBRYS
  0
POLYLINE
  5
5295
330
1F
100
AcDbEntity
  8
STAVBA OBRYS
100
AcDb2dPolyline
 66
     1
 10
0.0
 20
0.0
 30
0.0
  0
VERTEX
  5
5296
330
5295
100
AcDbEntity
  8
STAVBA OBRYS
100
AcDbVertex
100
AcDb2dVertex
 10
916.2714606744902
 20
310.104435196591
 30
0.0
 42
0.0094186890201653
  0
VERTEX
  5
5297
330
5295
100
AcDbEntity
  8
STAVBA OBRYS
100
AcDbVertex
100
AcDb2dVertex
 10
915.9246621116162
 20
310.2631080673591
 30
0.0
 42
0.0322692699774654
  0
VERTEX
  5
5298
330
5295
100
AcDbEntity
  8
STAVBA OBRYS
100
AcDbVertex
100
AcDb2dVertex
 10
913.0333079305255
 20
311.3046315687597
 30
0.0
 42
0.0276160659512937
  0
VERTEX
  5
5299
330
5295
100
AcDbEntity
  8
STAVBA OBRYS
100
AcDbVertex
100
AcDb2dVertex
 10
912.1777314922383
 20
311.5013669977042
 30
0.0
 42
0.0126891984598699
  0
VERTEX
  5
529A
330
5295
100
AcDbEntity
  8
STAVBA OBRYS
100
AcDbVertex
100
AcDb2dVertex
 10
911.2545630964469
 20
311.6365693872458
 30
0.0
  0
SEQEND
  5
529B
330
5295
100
AcDbEntity
  8
STAVBA OBRYS
  0
LWPOLYLINE
  5
529C
330
1F
100
AcDbEntity
  8
izolace
100
AcDbPolyline
 90
        4
 70
     0
 43
0.0
 10
1310.905768121354
 20
328.1044351965907
 10
636.10358643783
 20
328.1044351965906
 10
636.10358643783
 20
331.1044351965906
 10
1310.845466220735
 20
331.1044351965906
  0
LINE
  5
529D
330
1F
100
AcDbEntity
  8
STAVBA OBRYS
100
AcDbLine
 10
611.1035864378372
 20
328.1044351965911
 30
0.0
 11
1310.905768121354
 21
328.1044351965907
 31
0.0
  0
HATCH
  5
529E
330
1F
100
AcDbEntity
  8
nášlap_vrstvy
100
AcDbHatch
 10
0.0
 20
0.0
 30
0.0
210
0.0
220
0.0
230
1.0
  2
ANSI31
 70
     0
 71
     0
 91
        2
 92
        7
 72
     1
 73
     1
 93
       14
 10
948.8942070553076
 20
357.1546524710402
 42
-0.2477181387933361
 10
949.9262457003151
 20
357.6993892327991
 42
0.0
 10
949.9262457003187
 20
371.3416473186043
 42
0.0
 10
867.1261767303603
 20
371.3416473186034
 42
0.0
 10
867.1261767303567
 20
366.1407854239296
 42
-1.0
 10
867.1261767303532
 20
363.6407854239296
 42
-1.0
 10
867.1261767303532
 20
366.1407854239296
 42
0.0
 10
867.1261767303532
 20
371.3416473186025
 42
0.0
 10
797.1883671749183
 20
371.3416473186025
 42
0.0
 10
797.1883671749147
 20
365.9939055400518
 42
0.0
 10
789.6046290353642
 20
365.9939055400509
 42
0.0
 10
789.6046290353606
 20
361.5687437058622
 42
0.0
 10
797.1883671749147
 20
361.5687437058622
 42
0.0
 10
797.1883671749183
 20
357.1546524710411
 42
0.0
 97
        0
 92
        7
 72
     1
 73
     1
 93
       12
 10
972.7953926842037
 20
357.1546524710402
 42
0.0
 10
977.1883671749147
 20
357.1546524710393
 42
0.0
 10
977.1883671749183
 20
361.5687437058622
 42
0.0
 10
969.6046290353606
 20
361.5687437058622
 42
0.0
 10
969.6046290353569
 20
365.9939055400509
 42
0.0
 10
977.1883671749147
 20
365.9939055400518
 42
0.0
 10
977.1883671749183
 20
371.3416473186043
 42
0.0
 10
949.9262457003114
 20
371.3416473186043
 42
0.0
 10
949.9262457003151
 20
357.6993892327991
 42
-0.2477181387933361
 10
950.9582843453227
 20
357.1546524710402
 42
0.0
 10
953.9087107304458
 20
357.1546524710402
 42
0.0
 10
960.9745263292879
 20
357.1546524710402
 42
0.0
 97
        0
 75
     0
 76
     1
 52
15.0
 41
1.0
 77
     0
 78
     1
 53
60.0
 43
-28425.01761071047
 44
8728.474144276736
 45
-2.749630657015592
 46
1.5875
 79
     0
 47
0.5385165309736958
 98
        2
 10
843.8522700575177
 20
362.6230294857059
 10
962.3986710314403
 20
364.238588940364
  0
LWPOLYLINE
  5
529F
330
1F
100
AcDbEntity
  8
nášlap_vrstvy
100
AcDbPolyline
 90
        4
 70
     1
 43
0.0
 10
960.9745263292879
 20
355.6546524710402
 10
611.1035864378372
 20
355.6546524710402
 10
611.1035864378372
 20
357.1546524710402
 10
960.9745263292879
 20
357.1546524710402
  0
HATCH
  5
52A0
330
1F
100
AcDbEntity
  8
CETRIS
100
AcDbHatch
 10
0.0
 20
0.0
 30
0.0
210
0.0
220
0.0
230
1.0
  2
ANSI31
 70
     0
 71
     0
 91
        3
 92
        7
 72
     1
 73
     1
 93
       42
 10
929.1571777962072
 20
339.6546524710399
 42
0.0
 10
919.1571777962071
 20
339.6546524710399
 42
0.0
 10
919.1571777962071
 20
347.6546524710399
 42
0.0
 10
929.1571777962072
 20
347.6546524710399
 42
0.0
 10
929.1571777962072
 20
355.65465247104
 42
0.0
 10
907.5595919008192
 20
355.65465247104
 42
0.0
 10
907.5595919008192
 20
354.4787242298432
 42
0.0
 10
906.8585928183784
 20
354.1487350647191
 42
0.0
 10
905.646201685653
 20
353.2490132244863
 42
0.0
 10
904.7072822370683
 20
352.0657924052436
 42
0.0
 10
904.1065561049036
 20
350.6802025397362
 42
0.0
 10
903.8841324718378
 20
349.1870471453764
 42
0.0
 10
903.8841324718378
 20
348.8964100913369
 42
-0.1200842046796913
 10
903.8841324718378
 20
348.3045241906008
 42
0.0
 10
903.8841324718378
 20
346.972995930894
 42
0.0
 10
904.5431992283029
 20
346.7513870077234
 42
0.0
 10
904.9132975718238
 20
346.5371675219382
 42
0.0
 10
904.5431992282974
 20
346.1670691762735
 42
0.0
 10
903.8841324718378
 20
346.388678099486
 42
0.0
 10
903.8841324718378
 20
343.9303481274407
 42
0.0
 10
904.5431992282956
 20
343.7087392042747
 42
0.0
 10
904.9132975718238
 20
343.4945197184867
 42
0.0
 10
904.5431992282974
 20
343.1244213728211
 42
0.0
 10
903.8841324718378
 20
343.3460302960354
 42
0.0
 10
903.8841324718378
 20
340.8727831213571
 42
0.0
 10
904.5431992283011
 20
340.6513257774165
 42
0.0
 10
904.9132975718238
 20
340.4371062916323
 42
0.0
 10
904.5431992282974
 20
340.0670079462386
 42
0.0
 10
903.8841324718378
 20
340.2884652901318
 42
0.0
 10
903.8841324718378
 20
337.8302868974076
 42
0.0
 10
904.5431992283011
 20
337.6086779742361
 42
0.0
 10
904.9132975718238
 20
337.3944584884527
 42
0.0
 10
904.5431992282974
 20
337.0243601427871
 42
0.0
 10
903.8841324718378
 20
337.2459690660004
 42
0.0
 10
903.8841324718378
 20
334.7727218913239
 42
0.0
 10
904.5431992283011
 20
334.5512645473861
 42
0.0
 10
904.9132975718238
 20
334.3370450615982
 42
0.0
 10
904.5431992282974
 20
333.9669467162055
 42
0.0
 10
903.8841324718378
 20
334.1884040600977
 42
0.0
 10
903.8841324718378
 20
331.7145484717764
 42
0.0
 10
904.0622636696571
 20
331.654652471039
 42
0.0
 10
929.1571777962072
 20
331.654652471039
 42
0.0
 97
        0
 92
        7
 72
     1
 73
     1
 93
       83
 10
901.2387497123564
 20
341.1773577031579
 42
0.0
 10
900.5796829558967
 20
341.3988150470511
 42
0.0
 10
900.2095846080919
 20
341.6130345328372
 42
0.0
 10
900.5796829558967
 20
341.9831328785028
 42
0.0
 10
901.2387497123564
 20
341.7616755345641
 42
0.0
 10
901.2387497123564
 20
344.2355311228782
 42
0.0
 10
900.5796829558967
 20
344.4571400460934
 42
0.0
 10
900.2095846080919
 20
344.6704479594198
 42
0.0
 10
900.5796829558967
 20
345.0414578772722
 42
0.0
 10
901.2387497123564
 20
344.8198489541034
 42
0.0
 10
901.2387497123564
 20
347.2781789263306
 42
0.0
 10
900.5796829558894
 20
347.4997878495457
 42
0.0
 10
900.2095846080919
 20
347.7130957628712
 42
0.0
 10
900.5796829558967
 20
348.0841056807255
 42
0.0
 10
901.2387497123564
 20
347.8624967575567
 42
0.0
 10
901.2063888962147
 20
349.5726422196992
 42
0.0
 10
901.1740280800731
 20
349.9582372940265
 42
0.0
 10
900.7547048330598
 20
351.4094603637429
 42
0.0
 10
899.9743989633261
 20
352.7020698564744
 42
0.0
 10
898.8859816609801
 20
353.7494664060957
 42
0.0
 10
897.5632902790966
 20
354.4787242298423
 42
0.0
 10
897.5632902790966
 20
355.65465247104
 42
0.0
 10
853.5811550813797
 20
355.65465247104
 42
0.0
 10
853.5811550813797
 20
335.2093550353481
 42
-1.0
 10
853.5811550813777
 20
332.7093550353481
 42
-1.0
 10
853.5811550813797
 20
335.2093550353481
 42
0.0
 10
853.5811550813797
 20
355.6546524710408
 42
0.0
 10
806.6988402672123
 20
355.6546524710418
 42
0.0
 10
806.6988402672123
 20
346.8504671409689
 42
-1.0
 10
806.6988402672105
 20
344.3504671409689
 42
-1.0
 10
806.6988402672123
 20
346.8504671409689
 42
0.0
 10
806.6988402672123
 20
355.65465247104
 42
0.0
 10
657.6644409334622
 20
355.65465247104
 42
0.0
 10
657.6644409334639
 20
354.4787242298432
 42
0.0
 10
656.9634418510213
 20
354.1487350647191
 42
0.0
 10
655.7510507182996
 20
353.2490132244854
 42
0.0
 10
654.8121312697112
 20
352.0657924052427
 42
0.0
 10
654.2114051375501
 20
350.6802025397344
 42
0.0
 10
653.9889815044825
 20
349.187047145371
 42
0.0
 10
653.9889815044808
 20
346.9729959308931
 42
0.0
 10
654.648048260944
 20
346.7513870077234
 42
0.0
 10
655.0181466044687
 20
346.5371675219391
 42
0.0
 10
654.6480482609422
 20
346.1670691762726
 42
0.0
 10
653.9889815044825
 20
346.3886780994869
 42
0.0
 10
653.9889815044825
 20
343.9303481274398
 42
0.0
 10
654.648048260944
 20
343.708739204272
 42
0.0
 10
655.0181466044705
 20
343.4945197184877
 42
0.0
 10
654.6480482609403
 20
343.1244213728211
 42
0.0
 10
653.9889815044844
 20
343.3460302960345
 42
0.0
 10
653.9889815044825
 20
340.8727831213571
 42
0.0
 10
654.6480482609403
 20
340.6513257774211
 42
0.0
 10
655.0181466044705
 20
340.4371062916331
 42
0.0
 10
654.6480482609422
 20
340.0670079462395
 42
0.0
 10
653.9889815044825
 20
340.2884652901327
 42
0.0
 10
653.9889815044825
 20
337.8302868974058
 42
0.0
 10
654.6480482609368
 20
337.6086779742415
 42
0.0
 10
655.0181466044687
 20
337.3944584884518
 42
0.0
 10
654.6480482609403
 20
337.0243601427862
 42
0.0
 10
653.9889815044844
 20
337.2459690660004
 42
0.0
 10
653.9889815044825
 20
334.772721891323
 42
0.0
 10
654.6480482609495
 20
334.5512645473843
 42
0.0
 10
655.0181466044705
 20
334.3370450616
 42
0.0
 10
654.6480482609403
 20
333.9669467162045
 42
0.0
 10
653.9889815044825
 20
334.1884040600959
 42
0.0
 10
653.9889815044825
 20
331.7145484717782
 42
0.0
 10
654.1671127023037
 20
331.654652471039
 42
0.0
 10
676.10358643783
 20
331.654652471039
 42
0.0
 10
901.2387497123564
 20
331.654652471039
 42
0.0
 10
901.2387497123564
 20
332.0197314669947
 42
0.0
 10
900.579682955893
 20
332.2413403901598
 42
0.0
 10
900.2095846080919
 20
332.4555598759504
 42
0.0
 10
900.5796829558967
 20
332.8256582216142
 42
0.0
 10
901.2387497123564
 20
332.6040492984454
 42
0.0
 10
901.2387497123564
 20
335.0772964731247
 42
0.0
 10
900.579682955893
 20
335.2987538170189
 42
0.0
 10
900.2095846080919
 20
335.5129733028022
 42
0.0
 10
900.5796829558967
 20
335.8830716484687
 42
0.0
 10
901.2387497123564
 20
335.661614304531
 42
0.0
 10
901.2387497123564
 20
338.1354698928441
 42
0.0
 10
900.5796829558949
 20
338.3570788160584
 42
0.0
 10
900.2095846080919
 20
338.5703867293857
 42
0.0
 10
900.5796829558967
 20
338.9413966472391
 42
0.0
 10
901.2387497123564
 20
338.7197877240721
 42
0.0
 97
        0
 92
        7
 72
     0
 73
     1
 93
       40
 10
651.3435987449993
 20
338.1354698928451
 10
650.6845319885433
 20
338.3570788160593
 10
650.3144336407367
 20
338.5703867293857
 10
650.6845319885396
 20
338.9413966472391
 10
651.3435987450011
 20
338.7197877240703
 10
651.3435987450011
 20
341.1773577031588
 10
650.6845319885488
 20
341.3988150470483
 10
650.3144336407367
 20
341.6130345328372
 10
650.6845319885415
 20
341.9831328785028
 10
651.3435987450011
 20
341.7616755345641
 10
651.3435987450011
 20
344.2355311228791
 10
650.6845319885378
 20
344.4571400460925
 10
650.3144336407386
 20
344.6704479594198
 10
650.6845319885396
 20
345.0414578772722
 10
651.3435987450011
 20
344.8198489541034
 10
651.3435987450011
 20
347.2781789263297
 10
650.6845319885433
 20
347.4997878495412
 10
650.3144336407367
 20
347.7130957628703
 10
650.6845319885415
 20
348.0841056807255
 10
651.3435987450011
 20
347.8624967575576
 10
651.3112379288614
 20
349.5726422196883
 10
651.2788771127198
 20
349.9582372940337
 10
650.8595538657028
 20
351.4094603637429
 10
650.0792479959746
 20
352.7020698564717
 10
648.9908306936231
 20
353.7494664060957
 10
647.6681393117415
 20
354.4787242298432
 10
647.6681393117415
 20
355.65465247104
 10
626.1035864378282
 20
355.65465247104
 10
626.10358643783
 20
331.654652471039
 10
651.3435987450011
 20
331.654652471039
 10
651.3435987449993
 20
332.0197314669937
 10
650.6845319885415
 20
332.2413403901607
 10
650.3144336407367
 20
332.4555598759486
 10
650.6845319885415
 20
332.8256582216151
 10
651.3435987450011
 20
332.6040492984454
 10
651.3435987450011
 20
335.0772964731247
 10
650.6845319885396
 20
335.298753817017
 10
650.3144336407367
 20
335.5129733028022
 10
650.6845319885415
 20
335.8830716484687
 10
651.3435987450011
 20
335.661614304531
 97
        0
 75
     0
 76
     1
 52
0.0
 41
1.0
 77
     0
 78
     1
 53
45.0
 43
-4580.059104716551
 44
-4802.913251040402
 45
-2.245064030267287
 46
2.245064030267288
 79
     0
 47
0.7293997082383822
 98
        3
 10
911.6924654582689
 20
338.4037720249987
 10
875.9299287461253
 20
339.1331787817296
 10
643.1085497858293
 20
336.2155853046213
  0
HATCH
  5
52A1
330
1F
100
AcDbEntity
  8
STAVBA OBRYS
100
AcDbHatch
 10
0.0
 20
0.0
 30
0.0
210
0.0
220
0.0
230
1.0
  2
AR-CONC
 70
     0
 71
     0
 91
        1
 92
        7
 72
     0
 73
     1
 93
        6
 10
1310.845466220735
 20
190.1044351965911
 10
601.1035864378409
 20
190.1044351965911
 10
601.1035864378336
 20
1.861688368989234
 10
611.10358643783
 20
2.3479403036863
 10
611.1035864378372
 20
180.1044351965911
 10
1310.845466220735
 20
180.1044351965911
 97
        0
 75
     0
 76
     1
 52
90.0
 41
0.1
 77
     0
 78
    13
 53
140.0
 43
-27086.28788068835
 44
3236.823665191384
 45
1.593908553890309
 46
18.2184668996004
 79
     2
 49
1.905
 49
-20.955
 53
85.00000000000001
 43
-27086.28788068835
 44
3236.823665191384
 45
-19.10566428821799
 46
-3.524282597566697
 79
     2
 49
1.524
 49
-16.764
 53
190.4509999999999
 43
-27086.15505568835
 44
3238.341865191385
 45
-17.51166878202918
 46
14.69425016659592
 79
     2
 49
1.619
 49
-17.809
 53
136.1841999999999
 43
-27091.36788068835
 44
3236.823665191384
 45
4.204232793272717
 46
27.10790408921299
 79
     2
 49
2.857499999999999
 49
-31.4325
 53
186.6355999999999
 43
-27091.01753068835
 44
3239.082655191384
 45
-24.74255558900492
 46
23.74042344662371
 79
     2
 49
2.4285
 49
-26.7135
 53
81.18400000000004
 43
-27091.36788068835
 44
3236.823665191384
 45
-24.74251178605976
 46
23.74046058139339
 79
     2
 49
2.286
 49
-25.146
 53
111.0
 43
-27090.09788068835
 44
3239.363665191384
 45
10.22655185167625
 46
15.16148798353833
 79
     2
 49
1.905
 49
-20.955
 53
56.00000000000004
 43
-27090.09788068835
 44
3239.363665191384
 45
-18.41879661223192
 46
6.180202834764708
 79
     2
 49
1.524
 49
-16.764
 53
161.4514
 43
-27089.24567068835
 44
3240.627115191384
 45
-8.192285771605742
 46
21.34164907701245
 79
     2
 49
1.618999999999997
 49
-17.80899999999995
 53
127.5
 43
-27086.28788068835
 44
3236.823665191384
 45
-8.455503887315311
 46
0.3088603250591822
 79
     6
 49
0.0
 49
-16.5608
 49
0.0
 49
-17.018
 49
0.0
 49
-16.8275
 53
97.49999999999985
 43
-27086.28788068835
 44
3236.823665191384
 45
-10.01805748181195
 46
6.681966251030575
 79
     6
 49
0.0
 49
-9.702799999999998
 49
0.0
 49
-16.17979999999999
 49
0.0
 49
-6.413499999999999
 53
57.5
 43
-27086.28788068835
 44
3231.159465191384
 45
0.5728743992673473
 46
13.55905951668713
 79
     6
 49
0.0
 49
-6.35
 49
0.0
 49
-19.812
 49
0.0
 49
-26.289
 53
47.5
 43
-27086.28788068835
 44
3228.619465191384
 45
-2.5426491033333
 46
14.8129181386018
 79
     6
 49
0.0
 49
-8.255
 49
0.0
 49
-13.1572
 49
0.0
 49
-18.669
 47
1.255134839913078
 98
        1
 10
784.7019348496887
 20
186.4322616159634
  0
LINE
  5
52A2
330
1F
100
AcDbEntity
  8
STAVBA OBRYS
100
AcDbLine
 10
362.0229906093391
 20
310.104435196591
 30
0.0
 11
1310.845466220735
 21
310.104435196591
 31
0.0
  0
LINE
  5
52A3
330
1F
100
AcDbEntity
  8
STAVBA OBRYS
100
AcDbLine
 10
601.1035864378373
 20
190.1044351965911
 30
0.0
 11
1310.845466220735
 21
190.1044351965911
 31
0.0
  0
LINE
  5
52A4
330
1F
100
AcDbEntity
  8
STAVBA OBRYS
100
AcDbLine
 10
611.1035864378337
 20
180.1044351965911
 30
0.0
 11
1310.845466220735
 21
180.1044351965911
 31
0.0
  0
LINE
  5
52A5
330
1F
100
AcDbEntity
  8
nášlap_vrstvy
100
AcDbLine
 10
621.8470138122593
 20
371.3416473186016
 30
0.0
 11
1310.845466220735
 21
371.3416473186053
 31
0.0
  0
LWPOLYLINE
  5
52A6
330
1F
100
AcDbEntity
  8
CETRIS
100
AcDbPolyline
 90
        4
 70
     0
 43
0.0
 10
1310.845466220731
 20
331.6546524710399
 10
626.10358643783
 20
331.6546524710399
 10
626.10358643783
 20
331.654652471039
 10
626.10358643783
 20
355.65465247104
  0
LINE
  5
52A7
330
1F
100
AcDbEntity
  8
CETRIS
100
AcDbLine
 10
626.10358643783
 20
355.65465247104
 30
0.0
 11
1310.845466220731
 21
355.65465247104
 31
0.0
  0
LINE
  5
52A8
330
1F
100
AcDbEntity
  8
STAVBA OBRYS
100
AcDbLine
 10
611.1035864378372
 20
310.104435196591
 30
0.0
 11
611.1035864378337
 21
585.5253151983406
 31
0.0
  0
LINE
  5
52A9
330
1F
100
AcDbEntity
  8
STAVBA OBRYS
100
AcDbLine
 10
601.1035864378373
 20
310.104435196591
 30
0.0
 11
601.1035864378336
 21
585.5253151983406
 31
0.0
  0
POLYLINE
  5
52AA
330
1F
100
AcDbEntity
  8
STAVBA OBRYS
100
AcDb2dPolyline
 66
     1
 10
0.0
 20
0.0
 30
0.0
  0
VERTEX
  5
52AB
330
52AA
100
AcDbEntity
  8
STAVBA OBRYS
100
AcDbVertex
100
AcDb2dVertex
 10
616.2714606744903
 20
310.104435196591
 30
0.0
 42
0.0094186890201653
  0
VERTEX
  5
52AC
330
52AA
100
AcDbEntity
  8
STAVBA OBRYS
100
AcDbVertex
100
AcDb2dVertex
 10
615.9246621116162
 20
310.2631080673591
 30
0.0
 42
0.0322692699774654
  0
VERTEX
  5
52AD
330
52AA
100
AcDbEntity
  8
STAVBA OBRYS
100
AcDbVertex
100
AcDb2dVertex
 10
613.0333079305255
 20
311.3046315687597
 30
0.0
 42
0.0276160659512937
  0
VERTEX
  5
52AE
330
52AA
100
AcDbEntity
  8
STAVBA OBRYS
100
AcDbVertex
100
AcDb2dVertex
 10
612.1777314922383
 20
311.5013669977042
 30
0.0
 42
0.0126891984598699
  0
VERTEX
  5
52AF
330
52AA
100
AcDbEntity
  8
STAVBA OBRYS
100
AcDbVertex
100
AcDb2dVertex
 10
611.2545630964469
 20
311.6365693872458
 30
0.0
  0
SEQEND
  5
52B0
330
52AA
100
AcDbEntity
  8
STAVBA OBRYS
  0
POLYLINE
  5
52B1
330
1F
100
AcDbEntity
  8
STAVBA OBRYS
100
AcDb2dPolyline
 66
     1
 10
0.0
 20
0.0
 30
0.0
  0
VERTEX
  5
52B2
330
52B1
100
AcDbEntity
  8
STAVBA OBRYS
100
AcDbVertex
100
AcDb2dVertex
 10
625.3246066240262
 20
310.104435196591
 30
0.0
 42
0.0502247168465557
  0
VERTEX
  5
52B3
330
52B1
100
AcDbEntity
  8
STAVBA OBRYS
100
AcDbVertex
100
AcDb2dVertex
 10
623.7255594478611
 20
312.1119058693138
 30
0.0
 42
0.0274923553235744
  0
VERTEX
  5
52B4
330
52B1
100
AcDbEntity
  8
STAVBA OBRYS
100
AcDbVertex
100
AcDb2dVertex
 10
621.1282537173083
 20
314.496981192452
 30
0.0
 42
0.0255412025538677
  0
VERTEX
  5
52B5
330
52B1
100
AcDbEntity
  8
STAVBA OBRYS
100
AcDbVertex
100
AcDb2dVertex
 10
618.0768236795975
 20
316.7536948694678
 30
0.0
 42
0.0272796991712396
  0
VERTEX
  5
52B6
330
52B1
100
AcDbEntity
  8
STAVBA OBRYS
100
AcDbVertex
100
AcDb2dVertex
 10
613.9638245264123
 20
319.1700307511337
 30
0.0
 42
0.056967459841729
  0
VERTEX
  5
52B7
330
52B1
100
AcDbEntity
  8
STAVBA OBRYS
100
AcDbVertex
100
AcDb2dVertex
 10
611.8228772456805
 20
319.9827665863331
 30
0.0
 42
0.0373408083348504
  0
VERTEX
  5
52B8
330
52B1
100
AcDbEntity
  8
STAVBA OBRYS
100
AcDbVertex
100
AcDb2dVertex
 10
611.600522870207
 20
320.0219321272807
 30
0.0
 42
0.0052305969362967
  0
VERTEX
  5
52B9
330
52B1
100
AcDbEntity
  8
STAVBA OBRYS
100
AcDbVertex
100
AcDb2dVertex
 10
611.2545630964469
 20
320.052889094185
 30
0.0
  0
SEQEND
  5
52BA
330
52B1
100
AcDbEntity
  8
STAVBA OBRYS
  0
HATCH
  5
52BB
330
1F
100
AcDbEntity
  8
STAVBA OBRYS
100
AcDbHatch
 10
0.0
 20
0.0
 30
0.0
210
0.0
220
0.0
230
1.0
  2
AR-CONC
 70
     0
 71
     0
 91
        1
 92
        7
 72
     0
 73
     1
 93
        5
 10
611.1035864378372
 20
307.1044351965911
 10
621.1035864378336
 20
307.1044351965911
 10
621.1035864378336
 20
310.1044351965902
 10
621.1035864378373
 20
329.6538046203468
 10
611.1035864378372
 20
334.5358639145351
 97
        0
 75
     0
 76
     1
 52
90.0
 41
0.1
 77
     0
 78
    13
 53
140.0
 43
-27076.28788068835
 44
3233.823665191383
 45
1.593908553890309
 46
18.2184668996004
 79
     2
 49
1.905
 49
-20.955
 53
85.00000000000001
 43
-27076.28788068835
 44
3233.823665191383
 45
-19.10566428821799
 46
-3.524282597566697
 79
     2
 49
1.524
 49
-16.764
 53
190.4509999999999
 43
-27076.15505568835
 44
3235.341865191383
 45
-17.51166878202918
 46
14.69425016659592
 79
     2
 49
1.619
 49
-17.809
 53
136.1841999999999
 43
-27081.36788068835
 44
3233.823665191383
 45
4.204232793272717
 46
27.10790408921299
 79
     2
 49
2.857499999999999
 49
-31.4325
 53
186.6355999999999
 43
-27081.01753068835
 44
3236.082655191383
 45
-24.74255558900492
 46
23.74042344662371
 79
     2
 49
2.4285
 49
-26.7135
 53
81.18400000000004
 43
-27081.36788068835
 44
3233.823665191383
 45
-24.74251178605976
 46
23.74046058139339
 79
     2
 49
2.286
 49
-25.146
 53
111.0
 43
-27080.09788068836
 44
3236.363665191383
 45
10.22655185167625
 46
15.16148798353833
 79
     2
 49
1.905
 49
-20.955
 53
56.00000000000004
 43
-27080.09788068836
 44
3236.363665191383
 45
-18.41879661223192
 46
6.180202834764708
 79
     2
 49
1.524
 49
-16.764
 53
161.4514
 43
-27079.24567068835
 44
3237.627115191383
 45
-8.192285771605742
 46
21.34164907701245
 79
     2
 49
1.618999999999997
 49
-17.80899999999995
 53
127.5
 43
-27076.28788068835
 44
3233.823665191383
 45
-8.455503887315311
 46
0.3088603250591822
 79
     6
 49
0.0
 49
-16.5608
 49
0.0
 49
-17.018
 49
0.0
 49
-16.8275
 53
97.49999999999985
 43
-27076.28788068835
 44
3233.823665191383
 45
-10.01805748181195
 46
6.681966251030575
 79
     6
 49
0.0
 49
-9.702799999999998
 49
0.0
 49
-16.17979999999999
 49
0.0
 49
-6.413499999999999
 53
57.5
 43
-27076.28788068835
 44
3228.159465191382
 45
0.5728743992673473
 46
13.55905951668713
 79
     6
 49
0.0
 49
-6.35
 49
0.0
 49
-19.812
 49
0.0
 49
-26.289
 53
47.5
 43
-27076.28788068835
 44
3225.619465191383
 45
-2.5426491033333
 46
14.8129181386018
 79
     6
 49
0.0
 49
-8.255
 49
0.0
 49
-13.1572
 49
0.0
 49
-18.669
 47
0.415434097446913
 98
        1
 10
613.689069821432
 20
315.0045445963587
  0
HATCH
  5
52BC
330
1F
100
AcDbEntity
  8
nášlap_vrstvy
100
AcDbHatch
 10
0.0
 20
0.0
 30
0.0
210
0.0
220
0.0
230
1.0
  2
SOLID
 70
     1
 71
     0
 91
        1
 92
        7
 72
     0
 73
     1
 93
        4
 10
622.924452792753
 20
357.1546524710402
 10
611.1035864378372
 20
357.1546524710402
 10
611.1035864378372
 20
355.6546524710402
 10
622.9244527927566
 20
355.6546524710402
 97
        0
 75
     0
 76
     1
 47
0.1901250437635136
 98
        3
 10
637.0461979248484
 20
356.2709300063461
 10
618.8781025111766
 20
356.1758666685154
 10
616.8805664165647
 20
356.4610566820074
  0
LWPOLYLINE
  5
52BD
330
1F
100
AcDbEntity
  8
nášlap_vrstvy
100
AcDbPolyline
 90
        4
 70
     1
 43
0.0
 10
622.924452792753
 20
357.1546524710402
 10
611.1035864378372
 20
357.1546524710402
 10
611.1035864378372
 20
355.6546524710402
 10
622.924452792753
 20
355.6546524710402
  0
INSERT
  5
52BE
330
1F
100
AcDbEntity
  8
POPIS
100
AcDbBlockReference
  2
E_PUNKT
 10
615.5456065636881
 20
330.5021664629393
 30
0.0
 50
270.0
  0
HATCH
  5
52BF
330
1F
100
AcDbEntity
  8
nášlap_vrstvy
100
AcDbHatch
 10
0.0
 20
0.0
 30
0.0
210
0.0
220
0.0
230
1.0
  2
ANSI31
 70
     0
 71
     0
 91
        1
 92
        7
 72
     1
 73
     1
 93
       14
 10
620.2734958314922
 20
386.0388112814089
 42
0.0
 10
616.2123962356509
 20
383.6434455361258
 42
-1.75082344709543
 10
615.1184146198811
 20
385.4981803741793
 42
-0.5711598172042837
 10
616.2123962356509
 20
383.6434455361258
 42
0.0
 10
620.2734958314922
 20
386.0388112814098
 42
-0.1456199930207341
 10
617.8334541918502
 20
394.2392652923818
 42
0.0
 10
617.8334541918502
 20
398.3667621802787
 42
0.4142135623730951
 10
613.3334541918502
 20
402.8667621802787
 42
0.0
 10
611.6128881674758
 20
402.8667621802787
 42
0.0
 10
611.6128881674722
 20
372.8667621802788
 42
0.0
 10
641.6128881674722
 20
372.8667621802788
 42
0.0
 10
641.6128881674649
 20
374.7392652924027
 42
0.4142135623722072
 10
637.1128881674612
 20
379.2392652923854
 42
0.0
 10
632.8334541918648
 20
379.2392652923818
 42
-0.2533142190166848
 97
        0
 75
     0
 76
     1
 52
0.0
 41
1.0
 77
     0
 78
     1
 53
45.0
 43
-28425.01761071047
 44
8728.474144276736
 45
-2.245064030267287
 46
2.245064030267288
 79
     0
 47
0.0967580026128457
 98
        1
 10
621.3602820898868
 20
378.3731973478397
  0
ARC
  5
52C0
330
1F
100
AcDbEntity
  8
nášlap_vrstvy
100
AcDbCircle
 10
613.3334541918502
 20
398.3667621802787
 30
0.0
 40
4.5
100
AcDbArc
 50
0.0
 51
90.0
  0
INSERT
  5
52C1
330
1F
100
AcDbEntity
  8
POPIS
100
AcDbBlockReference
  2
E_PUNKT
 10
615.0893462890071
 20
384.2757907498062
 30
0.0
 50
270.0
  0
LINE
  5
52C2
330
1F
100
AcDbEntity
  8
nášlap_vrstvy
100
AcDbLine
 10
611.6128881674722
 20
372.8667621802788
 30
0.0
 11
641.6128881674722
 21
372.8667621802788
 31
0.0
  0
LINE
  5
52C3
330
1F
100
AcDbEntity
  8
POPIS
100
AcDbLine
 10
615.6776296744046
 20
330.4207295908336
 30
0.0
 11
544.557940215318
 21
365.1417836832052
 31
0.0
  0
LWPOLYLINE
  5
52C4
330
1F
100
AcDbEntity
  8
izolace
100
AcDbPolyline
 90
        4
 70
     1
 43
0.0
 10
611.1035864378372
 20
355.6546524710402
 10
626.1035864378336
 20
355.6546524710402
 10
626.1035864378336
 20
328.1044351965911
 10
611.1035864378354
 20
328.1044351965911
  0
LINE
  5
52C5
330
1F
100
AcDbEntity
  8
STAVBA OBRYS
100
AcDbLine
 10
610.2864689902144
 20
310.104435196591
 30
0.0
 11
821.7141488820542
 21
310.104435196591
 31
0.0
  0
LINE
  5
52C6
330
1F
100
AcDbEntity
  8
STAVBA OBRYS
100
AcDbLine
 10
405.724202641466
 20
96.49274511208297
 30
0.0
 11
405.724202641466
 21
310.104435196591
 31
0.0
  0
LINE
  5
52C7
330
1F
100
AcDbEntity
  8
izolace
  6
IZOLACE
 48
2.1
100
AcDbLine
 10
384.4037047141082
 20
96.49274511208297
 30
0.0
 11
384.4037047141082
 21
310.104435196591
 31
0.0
  0
LINE
  5
52C8
330
1F
100
AcDbEntity
  8
STAVBA OBRYS
100
AcDbLine
 10
601.1035864378373
 20
96.49274511208297
 30
0.0
 11
362.0229906093427
 21
96.49274511208297
 31
0.0
  0
LINE
  5
52C9
330
1F
100
AcDbEntity
  8
STAVBA OBRYS
100
AcDbLine
 10
611.1035864378337
 20
180.1044351965911
 30
0.0
 11
611.1035864378337
 21
2.3479403036863
 31
0.0
  0
LINE
  5
52CA
330
1F
100
AcDbEntity
  8
STAVBA OBRYS
100
AcDbLine
 10
601.1035864378373
 20
190.1044351965911
 30
0.0
 11
601.1035864378373
 21
2.3479403036863
 31
0.0
  0
LINE
  5
52CB
330
1F
100
AcDbEntity
  8
nášlap_vrstvy
100
AcDbLine
 10
611.6128881674722
 20
402.8667621802787
 30
0.0
 11
613.3334541918502
 21
402.8667621802787
 31
0.0
  0
LINE
  5
52CC
330
1F
100
AcDbEntity
  8
nášlap_vrstvy
100
AcDbLine
 10
611.6128881674722
 20
402.8667621802787
 30
0.0
 11
611.6128881674722
 21
372.8667621802788
 31
0.0
  0
TEXT
  5
52CD
330
1F
100
AcDbEntity
  8
POPIS
100
AcDbText
 10
506.3495442798939
 20
353.7222046918277
 30
0.0
 40
25.0
  1
06
 41
0.85
  7
SIMPLEX7
100
AcDbText
  0
HATCH
  5
52CE
330
1F
100
AcDbEntity
  8
STAVBA OBRYS
100
AcDbHatch
 10
0.0
 20
0.0
 30
0.0
210
0.0
220
0.0
230
1.0
  2
AR-CONC
 70
     0
 71
     0
 91
        1
 92
        7
 72
     0
 73
     1
 93
        5
 10
601.1035864378373
 20
310.104435196591
 10
611.1035864378337
 20
310.104435196591
 10
611.1035864378337
 20
313.1044351965911
 10
611.10358643783
 20
332.6538046203477
 10
601.10358643783
 20
337.535863914536
 97
        0
 75
     0
 76
     1
 52
90.0
 41
0.1
 77
     0
 78
    13
 53
140.0
 43
-27086.28788068835
 44
3236.823665191384
 45
1.593908553890309
 46
18.2184668996004
 79
     2
 49
1.905
 49
-20.955
 53
85.00000000000001
 43
-27086.28788068835
 44
3236.823665191384
 45
-19.10566428821799
 46
-3.524282597566697
 79
     2
 49
1.524
 49
-16.764
 53
190.4509999999999
 43
-27086.15505568835
 44
3238.341865191385
 45
-17.51166878202918
 46
14.69425016659592
 79
     2
 49
1.619
 49
-17.809
 53
136.1841999999999
 43
-27091.36788068835
 44
3236.823665191384
 45
4.204232793272717
 46
27.10790408921299
 79
     2
 49
2.857499999999999
 49
-31.4325
 53
186.6355999999999
 43
-27091.01753068835
 44
3239.082655191384
 45
-24.74255558900492
 46
23.74042344662371
 79
     2
 49
2.4285
 49
-26.7135
 53
81.18400000000004
 43
-27091.36788068835
 44
3236.823665191384
 45
-24.74251178605976
 46
23.74046058139339
 79
     2
 49
2.286
 49
-25.146
 53
111.0
 43
-27090.09788068835
 44
3239.363665191384
 45
10.22655185167625
 46
15.16148798353833
 79
     2
 49
1.905
 49
-20.955
 53
56.00000000000004
 43
-27090.09788068835
 44
3239.363665191384
 45
-18.41879661223192
 46
6.180202834764708
 79
     2
 49
1.524
 49
-16.764
 53
161.4514
 43
-27089.24567068835
 44
3240.627115191384
 45
-8.192285771605742
 46
21.34164907701245
 79
     2
 49
1.618999999999997
 49
-17.80899999999995
 53
127.5
 43
-27086.28788068835
 44
3236.823665191384
 45
-8.455503887315311
 46
0.3088603250591822
 79
     6
 49
0.0
 49
-16.5608
 49
0.0
 49
-17.018
 49
0.0
 49
-16.8275
 53
97.49999999999985
 43
-27086.28788068835
 44
3236.823665191384
 45
-10.01805748181195
 46
6.681966251030575
 79
     6
 49
0.0
 49
-9.702799999999998
 49
0.0
 49
-16.17979999999999
 49
0.0
 49
-6.413499999999999
 53
57.5
 43
-27086.28788068835
 44
3231.159465191384
 45
0.5728743992673473
 46
13.55905951668713
 79
     6
 49
0.0
 49
-6.35
 49
0.0
 49
-19.812
 49
0.0
 49
-26.289
 53
47.5
 43
-27086.28788068835
 44
3228.619465191384
 45
-2.5426491033333
 46
14.8129181386018
 79
     6
 49
0.0
 49
-8.255
 49
0.0
 49
-13.1572
 49
0.0
 49
-18.669
 47
0.415434097446913
 98
        1
 10
603.6890698214319
 20
318.0045445963596
  0
LWPOLYLINE
  5
52CF
330
1F
100
AcDbEntity
  8
nášlap_vrstvy
100
AcDbPolyline
 90
        4
 70
     1
 43
0.0
 10
764.7748490517642
 20
357.1546524710402
 10
752.9539826968484
 20
357.1546524710402
 10
752.9539826968484
 20
355.6546524710402
 10
764.7748490517642
 20
355.6546524710402
  0
HATCH
  5
52D0
330
1F
100
AcDbEntity
  8
nášlap_vrstvy
100
AcDbHatch
 10
0.0
 20
0.0
 30
0.0
210
0.0
220
0.0
230
1.0
  2
SOLID
 70
     1
 71
     0
 91
        1
 92
        7
 72
     0
 73
     1
 93
        4
 10
764.7748490517678
 20
357.1546524710402
 10
752.9539826968484
 20
357.1546524710402
 10
752.9539826968484
 20
355.6546524710402
 10
764.7748490517678
 20
355.6546524710402
 97
        0
 75
     0
 76
     1
 47
0.1901250437635136
 98
        1
 10
757.6328800760184
 20
356.7462466955012
  0
HATCH
  5
52D1
330
1F
100
AcDbEntity
  8
nášlap_vrstvy
100
AcDbHatch
 10
0.0
 20
0.0
 30
0.0
210
0.0
220
0.0
230
1.0
  2
ANSI31
 70
     0
 71
     0
 91
        1
 92
        7
 72
     0
 73
     1
 93
       12
 10
621.8470138122629
 20
371.3416473186007
 10
621.8470138122484
 20
365.9939055400509
 10
614.263275672698
 20
365.9939055400509
 10
614.2632756727016
 20
361.5687437058622
 10
621.8470138122484
 20
361.5687437058632
 10
621.847013812252
 20
357.1546524710411
 10
797.1883671749147
 20
357.1546524710411
 10
797.1883671749074
 20
361.5687437058632
 10
789.6046290353606
 20
361.5687437058641
 10
789.6046290353606
 20
365.9939055400518
 10
797.1883671749183
 20
365.99390554005
 10
797.1883671749256
 20
371.3416473186025
 97
        0
 75
     0
 76
     1
 52
75.0
 41
1.0
 77
     0
 78
     1
 53
120.0
 43
-28425.01761071047
 44
8728.474144276736
 45
-2.749630657015592
 46
-1.587499999999999
 79
     0
 47
0.5385165309736958
 98
        1
 10
735.5439685797955
 20
365.8541216677012
  0
LINE
  5
52D2
330
1F
100
AcDbEntity
  8
STAVBA OBRYS
100
AcDbLine
 10
761.1035864378372
 20
328.1044351965902
 30
0.0
 11
761.1035864378372
 21
310.104435196591
 31
0.0
  0
LWPOLYLINE
  5
52D3
330
1F
100
AcDbEntity
  8
STAVBA OBRYS
100
AcDbPolyline
 90
        3
 70
     0
 43
0.0
 10
755.7110960955797
 20
310.104435196591
 42
0.0052038508054843
 10
752.5126991555971
 20
326.5082616785885
 42
0.0065712046643719
 10
752.162273385833
 20
328.1044351965911
  0
LWPOLYLINE
  5
52D4
330
1F
100
AcDbEntity
  8
STAVBA OBRYS
100
AcDbPolyline
 90
        4
 70
     0
 43
0.0
 10
672.009665616677
 20
310.104435196591
 42
0.0334776267545482
 10
671.5723878219705
 20
314.1514101253278
 42
0.0091133963862869
 10
669.094783497052
 20
326.8431399107876
 42
0.007828075361276
 10
668.8038843618942
 20
328.1044351965911
  0
LWPOLYLINE
  5
52D5
330
1F
100
AcDbEntity
  8
STAVBA OBRYS
100
AcDbPolyline
 90
        5
 70
     0
 43
0.0
 10
661.7655272418833
 20
310.104435196591
 42
0.0133579731639958
 10
661.3787167528553
 20
312.6222374841463
 42
0.0072443097182286
 10
659.258719805397
 20
323.4331283790534
 42
0.0219777111230329
 10
658.3526073034136
 20
326.9512416348888
 42
0.0092752982622242
 10
657.9773803414664
 20
328.1044351965911
  0
HATCH
  5
52D6
330
1F
100
AcDbEntity
  8
izolace
100
AcDbHatch
 10
0.0
 20
0.0
 30
0.0
210
0.0
220
0.0
230
1.0
  2
SOLID
 70
     1
 71
     0
 91
        1
 92
        7
 72
     0
 73
     1
 93
        4
 10
659.7453191476652
 20
331.1044351965906
 10
636.1035864378337
 20
331.1044351965906
 10
636.10358643783
 20
328.1044351965906
 10
659.7453191476688
 20
328.1044351965906
 97
        0
 75
     0
 76
     1
 47
0.1901250437635136
 98
        3
 10
687.9888094118523
 20
329.3369902672025
 10
651.6526185845123
 20
329.1468635915411
 10
647.6575463952849
 20
329.7172436185251
  0
HATCH
  5
52D7
330
1F
100
AcDbEntity
  8
izolace
100
AcDbHatch
 10
0.0
 20
0.0
 30
0.0
210
0.0
220
0.0
230
1.0
  2
SOLID
 70
     1
 71
     0
 91
        1
 92
        7
 72
     0
 73
     1
 93
        4
 10
707.0287845673392
 20
331.1044351965906
 10
683.387051857504
 20
331.1044351965906
 10
683.3870518575004
 20
328.1044351965906
 10
707.0287845673392
 20
328.1044351965906
 97
        0
 75
     0
 76
     1
 47
0.1901250437635136
 98
        1
 10
692.7448466158439
 20
330.2876236455108
  0
LWPOLYLINE
  5
52D8
330
1F
100
AcDbEntity
  8
izolace
100
AcDbPolyline
 90
        4
 70
     1
 43
0.0
 10
754.312249987006
 20
331.1044351965906
 10
730.6705172771708
 20
331.1044351965906
 10
730.6705172771708
 20
328.1044351965906
 10
754.312249987006
 20
328.1044351965906
  0
HATCH
  5
52D9
330
1F
100
AcDbEntity
  8
izolace
100
AcDbHatch
 10
0.0
 20
0.0
 30
0.0
210
0.0
220
0.0
230
1.0
  2
SOLID
 70
     1
 71
     0
 91
        1
 92
        7
 72
     0
 73
     1
 93
        4
 10
754.3122499870096
 20
331.1044351965906
 10
730.6705172771744
 20
331.1044351965906
 10
730.6705172771708
 20
328.1044351965906
 10
754.3122499870096
 20
328.1044351965906
 97
        0
 75
     0
 76
     1
 47
0.1901250437635136
 98
        1
 10
740.0283120355143
 20
330.2876236455108
  0
LWPOLYLINE
  5
52DA
330
1F
100
AcDbEntity
  8
STAVBA OBRYS
100
AcDbPolyline
 90
        4
 70
     0
 43
0.0
 10
744.2585582326119
 20
310.104435196591
 42
0.0334776267545482
 10
743.8212804379054
 20
314.1514101253278
 42
0.0091133963862869
 10
741.3436761129869
 20
326.8431399107876
 42
0.007828075361276
 10
741.052776977829
 20
328.1044351965911
  0
LWPOLYLINE
  5
52DB
330
1F
100
AcDbEntity
  8
STAVBA OBRYS
100
AcDbPolyline
 90
        3
 70
     0
 43
0.0
 10
725.5640872391049
 20
310.104435196591
 42
0.0052038508054843
 10
722.3656902991224
 20
326.5082616785885
 42
0.0065712046643719
 10
722.0152645293583
 20
328.1044351965911
  0
LWPOLYLINE
  5
52DC
330
1F
100
AcDbEntity
  8
STAVBA OBRYS
100
AcDbPolyline
 90
        4
 70
     0
 43
0.0
 10
714.1115493761372
 20
310.104435196591
 42
0.0334776267545482
 10
713.6742715814307
 20
314.1514101253278
 42
0.0091133963862869
 10
711.1966672565122
 20
326.8431399107876
 42
0.007828075361276
 10
710.9057681213544
 20
328.1044351965911
  0
LWPOLYLINE
  5
52DD
330
1F
100
AcDbEntity
  8
STAVBA OBRYS
100
AcDbPolyline
 90
        4
 70
     0
 43
0.0
 10
693.9618071274471
 20
310.104435196591
 42
0.0186324019486548
 10
690.5934377553403
 20
321.7995468148155
 42
0.0582629403736403
 10
688.9339378872591
 20
325.3793810137513
 42
0.0146402521923566
 10
687.1495299056751
 20
328.1044351965911
  0
LWPOLYLINE
  5
52DE
330
1F
100
AcDbEntity
  8
STAVBA OBRYS
100
AcDbPolyline
 90
        5
 70
     0
 43
0.0
 10
703.8674110013435
 20
310.104435196591
 42
0.0133579731639958
 10
703.4806005123154
 20
312.6222374841463
 42
0.0072443097182286
 10
701.3606035648572
 20
323.4331283790534
 42
0.0219777111230329
 10
700.4544910628737
 20
326.9512416348888
 42
0.0092752982622242
 10
700.0792641009265
 20
328.1044351965911
  0
LWPOLYLINE
  5
52DF
330
1F
100
AcDbEntity
  8
STAVBA OBRYS
100
AcDbPolyline
 90
        5
 70
     0
 43
0.0
 10
734.0144198578181
 20
310.104435196591
 42
0.0133579731639958
 10
733.6276093687902
 20
312.6222374841463
 42
0.0072443097182286
 10
731.5076124213319
 20
323.4331283790534
 42
0.0219777111230329
 10
730.6014999193485
 20
326.9512416348888
 42
0.0092752982622242
 10
730.2262729574013
 20
328.1044351965911
  0
LWPOLYLINE
  5
52E0
330
1F
100
AcDbEntity
  8
STAVBA OBRYS
100
AcDbPolyline
 90
        4
 70
     0
 43
0.0
 10
709.5044307953267
 20
309.6036047658426
 10
729.5006832273193
 20
318.8196338163625
 10
746.2785737985377
 20
321.5267780790536
 10
749.5421850462426
 20
321.6570794434237
  0
LWPOLYLINE
  5
52E1
330
1F
100
AcDbEntity
  8
STAVBA OBRYS
100
AcDbPolyline
 90
        3
 70
     0
 43
0.0
 10
683.4622034796447
 20
310.104435196591
 42
0.0052038508054843
 10
680.2638065396622
 20
326.5082616785885
 42
0.0065712046643719
 10
679.9133807698981
 20
328.1044351965911
  0
LWPOLYLINE
  5
52E2
330
1F
100
AcDbEntity
  8
STAVBA OBRYS
100
AcDbPolyline
 90
        4
 70
     0
 43
0.0
 10
679.357421938852
 20
309.6036047658426
 10
699.3536743708446
 20
318.8196338163625
 10
716.131564942063
 20
321.5267780790536
 10
719.3951761897679
 20
321.6570794434237
  0
LWPOLYLINE
  5
52E3
330
1F
100
AcDbEntity
  8
STAVBA OBRYS
100
AcDbPolyline
 90
        4
 70
     0
 43
0.0
 10
637.2555381793918
 20
309.6036047658426
 10
657.2517906113844
 20
318.8196338163625
 10
674.0296811826028
 20
321.5267780790536
 10
677.2932924303077
 20
321.6570794434237
  0
LWPOLYLINE
  5
52E4
330
1F
100
AcDbEntity
  8
STAVBA OBRYS
100
AcDbPolyline
 90
        8
 70
     0
 43
0.0
 10
633.6766580113417
 20
310.104435196591
 42
0.0217273703039143
 10
631.4789877508319
 20
315.1401255340688
 42
0.0882970623535771
 10
629.8417658307389
 20
317.3804945848687
 42
0.0171636441953577
 10
627.0284017688809
 20
319.8944119401139
 42
0.0157521173632038
 10
623.7895469318446
 20
322.4259079926205
 42
0.0073640874174249
 10
619.1558975755233
 20
325.7143094183565
 42
0.0194185739168057
 10
617.3338542558467
 20
326.8658784176377
 42
0.0229547400386702
 10
614.9483961918321
 20
328.1044351965911
  0
LWPOLYLINE
  5
52E5
330
1F
100
AcDbEntity
  8
STAVBA OBRYS
100
AcDbPolyline
 90
        3
 70
     0
 43
0.0
 10
620.926130247235
 20
310.104435196591
 10
634.7181781738745
 20
317.0055067600778
 10
642.8852828229992
 20
325.1868084611714
  0
LWPOLYLINE
  5
52E6
330
1F
100
AcDbEntity
  8
STAVBA OBRYS
100
AcDbPolyline
 90
        6
 70
     0
 43
0.0
 10
643.0494620191439
 20
310.104435196591
 42
0.0121757200102759
 10
641.6794723054827
 20
314.7763525290583
 42
0.0457786284636091
 10
640.471449415867
 20
317.6249629119347
 42
0.0295006114745606
 10
638.0553889615676
 20
321.5518621253368
 42
0.0258674098621065
 10
634.8227136476034
 20
325.6976422040906
 42
0.0093759062953949
 10
632.6569014679462
 20
328.1044351965911
  0
LWPOLYLINE
  5
52E7
330
1F
100
AcDbEntity
  8
STAVBA OBRYS
100
AcDbPolyline
 90
        4
 70
     0
 43
0.0
 10
651.859923367987
 20
310.104435196591
 42
0.0186324019486548
 10
648.4915539958802
 20
321.7995468148155
 42
0.0582629403736403
 10
646.8320541277989
 20
325.3793810137513
 42
0.0146402521923566
 10
645.0476461462149
 20
328.1044351965911
  0
LWPOLYLINE
  5
52E8
330
1F
100
AcDbEntity
  8
nášlap_vrstvy
100
AcDbPolyline
 90
        4
 70
     1
 43
0.0
 10
717.4913836320938
 20
357.1546524710402
 10
705.670517277178
 20
357.1546524710402
 10
705.670517277178
 20
355.6546524710402
 10
717.4913836320938
 20
355.6546524710402
  0
HATCH
  5
52E9
330
1F
100
AcDbEntity
  8
nášlap_vrstvy
100
AcDbHatch
 10
0.0
 20
0.0
 30
0.0
210
0.0
220
0.0
230
1.0
  2
SOLID
 70
     1
 71
     0
 91
        1
 92
        7
 72
     0
 73
     1
 93
        4
 10
717.4913836320975
 20
357.1546524710402
 10
705.670517277178
 20
357.1546524710402
 10
705.670517277178
 20
355.6546524710402
 10
717.4913836320975
 20
355.6546524710402
 97
        0
 75
     0
 76
     1
 47
0.1901250437635136
 98
        1
 10
710.3494146563479
 20
356.7462466955012
  0
LWPOLYLINE
  5
52EA
330
1F
100
AcDbEntity
  8
nášlap_vrstvy
100
AcDbPolyline
 90
        4
 70
     1
 43
0.0
 10
670.2079182124235
 20
357.1546524710402
 10
658.3870518575077
 20
357.1546524710402
 10
658.3870518575077
 20
355.6546524710402
 10
670.2079182124235
 20
355.6546524710402
  0
HATCH
  5
52EB
330
1F
100
AcDbEntity
  8
nášlap_vrstvy
100
AcDbHatch
 10
0.0
 20
0.0
 30
0.0
210
0.0
220
0.0
230
1.0
  2
SOLID
 70
     1
 71
     0
 91
        1
 92
        7
 72
     0
 73
     1
 93
        4
 10
670.2079182124271
 20
357.1546524710402
 10
658.3870518575077
 20
357.1546524710402
 10
658.3870518575077
 20
355.6546524710402
 10
670.2079182124271
 20
355.6546524710402
 97
        0
 75
     0
 76
     1
 47
0.1901250437635136
 98
        1
 10
663.0659492366776
 20
356.7462466955012
  0
LWPOLYLINE
  5
52EC
330
1F
100
AcDbEntity
  8
nášlap_vrstvy
100
AcDbPolyline
 90
        4
 70
     1
 43
0.0
 10
693.8496509222622
 20
357.1546524710402
 10
682.0287845673428
 20
357.1546524710402
 10
682.0287845673428
 20
355.6546524710402
 10
693.8496509222622
 20
355.6546524710402
  0
HATCH
  5
52ED
330
1F
100
AcDbEntity
  8
nášlap_vrstvy
100
AcDbHatch
 10
0.0
 20
0.0
 30
0.0
210
0.0
220
0.0
230
1.0
  2
SOLID
 70
     1
 71
     0
 91
        1
 92
        7
 72
     0
 73
     1
 93
        4
 10
693.8496509222622
 20
357.1546524710402
 10
682.0287845673465
 20
357.1546524710402
 10
682.0287845673428
 20
355.6546524710402
 10
693.8496509222622
 20
355.6546524710402
 97
        0
 75
     0
 76
     1
 47
0.1901250437635136
 98
        1
 10
686.7076819465165
 20
356.7462466955012
  0
LWPOLYLINE
  5
52EE
330
1F
100
AcDbEntity
  8
nášlap_vrstvy
100
AcDbPolyline
 90
        4
 70
     1
 43
0.0
 10
741.1331163419326
 20
357.1546524710402
 10
729.3122499870133
 20
357.1546524710402
 10
729.3122499870133
 20
355.6546524710402
 10
741.1331163419326
 20
355.6546524710402
  0
HATCH
  5
52EF
330
1F
100
AcDbEntity
  8
nášlap_vrstvy
100
AcDbHatch
 10
0.0
 20
0.0
 30
0.0
210
0.0
220
0.0
230
1.0
  2
SOLID
 70
     1
 71
     0
 91
        1
 92
        7
 72
     0
 73
     1
 93
        4
 10
741.1331163419326
 20
357.1546524710402
 10
729.3122499870169
 20
357.1546524710402
 10
729.3122499870133
 20
355.6546524710402
 10
741.1331163419326
 20
355.6546524710402
 97
        0
 75
     0
 76
     1
 47
0.1901250437635136
 98
        1
 10
733.9911473661868
 20
356.7462466955012
  0
LINE
  5
52F0
330
1F
100
AcDbEntity
  8
SPOJOVACÍ
  6
DASHED
100
AcDbLine
 10
653.0837902305884
 20
317.441964426617
 30
0.0
 11
653.346323046333
 21
319.5440501039017
 31
0.0
  0
LINE
  5
52F1
330
1F
100
AcDbEntity
  8
SPOJOVACÍ
  6
DASHED
100
AcDbLine
 10
651.9279165788557
 20
320.0144214003819
 30
0.0
 11
652.2123271271066
 21
317.7400485622336
 31
0.0
  0
LINE
  5
52F2
330
1F
100
AcDbEntity
  8
SPOJOVACÍ
  6
DASHED
100
AcDbLine
 10
651.6699416235151
 20
317.4164404026857
 30
0.0
 11
653.7811430221426
 21
317.1119752612273
 31
0.0
  0
LINE
  5
52F3
330
1F
100
AcDbEntity
  8
SPOJOVACÍ
  6
DASHED
100
AcDbLine
 10
652.0400399670416
 20
317.7865387483514
 30
0.0
 11
653.4110446786162
 21
317.3252831748184
 31
0.0
  0
LINE
  5
52F4
330
1F
100
AcDbEntity
  8
SPOJOVACÍ
  6
DASHED
100
AcDbLine
 10
652.0400399670416
 20
317.2022209169069
 30
0.0
 11
653.4110446786162
 21
316.740965343374
 31
0.0
  0
LINE
  5
52F5
330
1F
100
AcDbEntity
  8
SPOJOVACÍ
  6
DASHED
100
AcDbLine
 10
653.7811430221426
 20
317.1119752612273
 30
0.0
 11
653.4110446786162
 21
317.3252831748184
 31
0.0
  0
LINE
  5
52F6
330
1F
100
AcDbEntity
  8
SPOJOVACÍ
  6
DASHED
100
AcDbLine
 10
653.7811430221426
 20
317.1119752612273
 30
0.0
 11
653.4110446786162
 21
316.740965343374
 31
0.0
  0
LINE
  5
52F7
330
1F
100
AcDbEntity
  8
SPOJOVACÍ
  6
DASHED
100
AcDbLine
 10
651.6699416235151
 20
317.4164404026857
 30
0.0
 11
652.0400399670416
 21
317.7865387483514
 31
0.0
  0
LINE
  5
52F8
330
1F
100
AcDbEntity
  8
SPOJOVACÍ
  6
DASHED
100
AcDbLine
 10
651.6699416235151
 20
317.4164404026857
 30
0.0
 11
652.0400399670416
 21
317.2022209169069
 31
0.0
  0
LINE
  5
52F9
330
1F
100
AcDbEntity
  8
SPOJOVACÍ
  6
DASHED
100
AcDbLine
 10
652.287987627782
 20
317.1320298514972
 30
0.0
 11
652.6662901226027
 21
314.1046983100484
 31
0.0
  0
LINE
  5
52FA
330
1F
100
AcDbEntity
  8
SPOJOVACÍ
  6
DASHED
100
AcDbLine
 10
652.6662901226027
 20
314.1046983100484
 30
0.0
 11
653.0135991641091
 21
316.8840821912915
 31
0.0
  0
LINE
  5
52FB
330
1F
100
AcDbEntity
  8
SPOJOVACÍ
  6
DASHED
100
AcDbLine
 10
651.3435987450011
 20
332.0335019104975
 30
0.0
 11
651.3435987450011
 21
329.5558484538858
 31
0.0
  0
LINE
  5
52FC
330
1F
100
AcDbEntity
  8
SPOJOVACÍ
  6
DASHED
100
AcDbLine
 10
650.6845319885415
 20
326.7108313684427
 30
0.0
 11
654.6480482609422
 21
325.3781126951714
 31
0.0
  0
LINE
  5
52FD
330
1F
100
AcDbEntity
  8
SPOJOVACÍ
  6
DASHED
100
AcDbLine
 10
650.6845319885415
 20
326.126513536991
 30
0.0
 11
654.6480482609422
 21
324.7937948637197
 31
0.0
  0
LINE
  5
52FE
330
1F
100
AcDbEntity
  8
SPOJOVACÍ
  6
DASHED
100
AcDbLine
 10
655.0181466044687
 20
325.1638932093853
 30
0.0
 11
654.6480482609422
 21
325.3781126951714
 31
0.0
  0
LINE
  5
52FF
330
1F
100
AcDbEntity
  8
SPOJOVACÍ
  6
DASHED
100
AcDbLine
 10
655.0181466044687
 20
325.1638932093853
 30
0.0
 11
654.6480482609422
 21
324.7937948637197
 31
0.0
  0
LINE
  5
5300
330
1F
100
AcDbEntity
  8
SPOJOVACÍ
  6
DASHED
100
AcDbLine
 10
650.6845319885415
 20
329.7682447950253
 30
0.0
 11
654.6480482609422
 21
328.435526121754
 31
0.0
  0
LINE
  5
5301
330
1F
100
AcDbEntity
  8
SPOJOVACÍ
  6
DASHED
100
AcDbLine
 10
650.6845319885415
 20
329.1839269635809
 30
0.0
 11
654.6480482609422
 21
327.8512082905733
 31
0.0
  0
LINE
  5
5302
330
1F
100
AcDbEntity
  8
SPOJOVACÍ
  6
DASHED
100
AcDbLine
 10
655.0181466044687
 20
328.2222182084267
 30
0.0
 11
654.6480482609422
 21
328.435526121754
 31
0.0
  0
LINE
  5
5303
330
1F
100
AcDbEntity
  8
SPOJOVACÍ
  6
DASHED
100
AcDbLine
 10
655.0181466044687
 20
328.2222182084267
 30
0.0
 11
654.6480482609422
 21
327.8512082905733
 31
0.0
  0
LINE
  5
5304
330
1F
100
AcDbEntity
  8
SPOJOVACÍ
  6
DASHED
100
AcDbLine
 10
651.116617247253
 20
320.369934589439
 30
0.0
 11
654.1703843853556
 21
319.7491538670044
 31
0.0
  0
LINE
  5
5305
330
1F
100
AcDbEntity
  8
SPOJOVACÍ
  6
DASHED
100
AcDbLine
 10
651.4867155950578
 20
320.7409445075634
 30
0.0
 11
653.8002860418291
 21
319.9624617803317
 31
0.0
  0
LINE
  5
5306
330
1F
100
AcDbEntity
  8
SPOJOVACÍ
  6
DASHED
100
AcDbLine
 10
651.4867155950578
 20
320.1566266761117
 30
0.0
 11
653.8002860418291
 21
319.378143949151
 31
0.0
  0
LINE
  5
5307
330
1F
100
AcDbEntity
  8
SPOJOVACÍ
  6
DASHED
100
AcDbLine
 10
654.1703843853556
 20
319.7491538670044
 30
0.0
 11
653.8002860418291
 21
319.9624617803317
 31
0.0
  0
LINE
  5
5308
330
1F
100
AcDbEntity
  8
SPOJOVACÍ
  6
DASHED
100
AcDbLine
 10
654.1703843853556
 20
319.7491538670044
 30
0.0
 11
653.8002860418291
 21
319.378143949151
 31
0.0
  0
LINE
  5
5309
330
1F
100
AcDbEntity
  8
SPOJOVACÍ
  6
DASHED
100
AcDbLine
 10
651.116617247253
 20
320.369934589439
 30
0.0
 11
651.4867155950578
 21
320.7409445075634
 31
0.0
  0
LINE
  5
530A
330
1F
100
AcDbEntity
  8
SPOJOVACÍ
  6
DASHED
100
AcDbLine
 10
651.116617247253
 20
320.369934589439
 30
0.0
 11
651.4867155950578
 21
320.1566266761117
 31
0.0
  0
LINE
  5
530B
330
1F
100
AcDbEntity
  8
SPOJOVACÍ
  6
DASHED
100
AcDbLine
 10
650.5632928752693
 20
323.324340348651
 30
0.0
 11
654.6061159349574
 21
322.3708357439925
 31
0.0
  0
LINE
  5
530C
330
1F
100
AcDbEntity
  8
SPOJOVACÍ
  6
DASHED
100
AcDbLine
 10
650.9343027925879
 20
323.6944386943166
 30
0.0
 11
654.2360175914309
 21
322.5841436573198
 31
0.0
  0
LINE
  5
530D
330
1F
100
AcDbEntity
  8
SPOJOVACÍ
  6
DASHED
100
AcDbLine
 10
650.9343027925879
 20
323.1101208628649
 30
0.0
 11
654.2360175914309
 21
321.9998258258681
 31
0.0
  0
LINE
  5
530E
330
1F
100
AcDbEntity
  8
SPOJOVACÍ
  6
DASHED
100
AcDbLine
 10
654.6061159349574
 20
322.3708357439925
 30
0.0
 11
654.2360175914309
 21
322.5841436573198
 31
0.0
  0
LINE
  5
530F
330
1F
100
AcDbEntity
  8
SPOJOVACÍ
  6
DASHED
100
AcDbLine
 10
654.6061159349574
 20
322.3708357439925
 30
0.0
 11
654.2360175914309
 21
321.9998258258681
 31
0.0
  0
LINE
  5
5310
330
1F
100
AcDbEntity
  8
SPOJOVACÍ
  6
DASHED
100
AcDbLine
 10
650.5632928752693
 20
323.324340348651
 30
0.0
 11
650.9343027925879
 21
323.6944386943166
 31
0.0
  0
LINE
  5
5311
330
1F
100
AcDbEntity
  8
SPOJOVACÍ
  6
DASHED
100
AcDbLine
 10
650.5632928752693
 20
323.324340348651
 30
0.0
 11
650.9343027925879
 21
323.1101208628649
 31
0.0
  0
LINE
  5
5312
330
1F
100
AcDbEntity
  8
SPOJOVACÍ
  6
DASHED
100
AcDbLine
 10
653.7483264212442
 20
322.7573423906421
 30
0.0
 11
653.9889815044825
 21
324.6889640517026
 31
0.0
  0
LINE
  5
5313
330
1F
100
AcDbEntity
  8
SPOJOVACÍ
  6
DASHED
100
AcDbLine
 10
653.4165141085341
 20
320.1046670560615
 30
0.0
 11
653.6781353547649
 21
322.1985485828579
 31
0.0
  0
LINE
  5
5314
330
1F
100
AcDbEntity
  8
SPOJOVACÍ
  6
DASHED
100
AcDbLine
 10
651.5660223823451
 20
322.9077518165965
 30
0.0
 11
651.8504329348743
 21
320.6324674062532
 31
0.0
  0
LINE
  5
5315
330
1F
100
AcDbEntity
  8
SPOJOVACÍ
  6
DASHED
100
AcDbLine
 10
651.3435987450011
 20
324.6889640517026
 30
0.0
 11
651.4903618816697
 21
323.5157705273329
 31
0.0
  0
LINE
  5
5316
330
1F
100
AcDbEntity
  8
SPOJOVACÍ
  6
DASHED
100
AcDbLine
 10
653.9889815044825
 20
325.0189532168285
 30
0.0
 11
653.9889815044825
 21
324.6889640517026
 31
0.0
  0
LINE
  5
5317
330
1F
100
AcDbEntity
  8
SPOJOVACÍ
  6
DASHED
100
AcDbLine
 10
653.9889815044825
 20
328.0791013605091
 30
0.0
 11
653.9889815044825
 21
325.6105636265808
 31
0.0
  0
LINE
  5
5318
330
1F
100
AcDbEntity
  8
SPOJOVACÍ
  6
DASHED
100
AcDbLine
 10
651.3435987450011
 20
325.9113824787534
 30
0.0
 11
651.3435987450011
 21
324.6889640517026
 31
0.0
  0
LINE
  5
5319
330
1F
100
AcDbEntity
  8
SPOJOVACÍ
  6
DASHED
100
AcDbLine
 10
651.3435987450011
 20
328.9633264719457
 30
0.0
 11
651.3435987450011
 21
326.4957003102051
 31
0.0
  0
LINE
  5
531A
330
1F
100
AcDbEntity
  8
SPOJOVACÍ
  6
DASHED
100
AcDbLine
 10
653.9889815044825
 20
331.1383379317383
 30
0.0
 11
653.9889815044825
 21
328.6679770531634
 31
0.0
  0
LINE
  5
531B
330
1F
100
AcDbEntity
  8
SPOJOVACÍ
  6
DASHED
100
AcDbLine
 10
657.6644409334639
 20
355.65465247104
 30
0.0
 11
657.6644409334639
 21
354.4787242298432
 31
0.0
  0
LINE
  5
531C
330
1F
100
AcDbEntity
  8
SPOJOVACÍ
  6
DASHED
100
AcDbLine
 10
656.9634418510195
 20
354.1487350647173
 30
0.0
 11
657.6644409334639
 21
354.4787242298432
 31
0.0
  0
LINE
  5
531D
330
1F
100
AcDbEntity
  8
SPOJOVACÍ
  6
DASHED
100
AcDbLine
 10
655.7510507182978
 20
353.2490132244845
 30
0.0
 11
656.9634418510195
 21
354.1487350647173
 31
0.0
  0
LINE
  5
531E
330
1F
100
AcDbEntity
  8
SPOJOVACÍ
  6
DASHED
100
AcDbLine
 10
654.812131269713
 20
352.0657924052436
 30
0.0
 11
655.7510507182978
 21
353.2490132244845
 31
0.0
  0
LINE
  5
531F
330
1F
100
AcDbEntity
  8
SPOJOVACÍ
  6
DASHED
100
AcDbLine
 10
654.2114051375484
 20
350.6802025397344
 30
0.0
 11
654.812131269713
 21
352.0657924052436
 31
0.0
  0
LINE
  5
5320
330
1F
100
AcDbEntity
  8
SPOJOVACÍ
  6
DASHED
100
AcDbLine
 10
653.9889815044825
 20
349.1870471453737
 30
0.0
 11
654.2114051375484
 21
350.6802025397344
 31
0.0
  0
LINE
  5
5321
330
1F
100
AcDbEntity
  8
SPOJOVACÍ
  6
DASHED
100
AcDbLine
 10
653.9889815044825
 20
349.1870471453755
 30
0.0
 11
653.9889815044825
 21
346.972995930894
 31
0.0
  0
LINE
  5
5322
330
1F
100
AcDbEntity
  8
SPOJOVACÍ
  6
DASHED
100
AcDbLine
 10
650.6845319885415
 20
348.0841056807246
 30
0.0
 11
654.6480482609422
 21
346.7513870077243
 31
0.0
  0
LINE
  5
5323
330
1F
100
AcDbEntity
  8
SPOJOVACÍ
  6
DASHED
100
AcDbLine
 10
655.0181466044687
 20
346.5371675219382
 30
0.0
 11
654.6480482609422
 21
346.7513870077243
 31
0.0
  0
LINE
  5
5324
330
1F
100
AcDbEntity
  8
SPOJOVACÍ
  6
DASHED
100
AcDbLine
 10
655.0181466044687
 20
346.5371675219382
 30
0.0
 11
654.6480482609422
 21
346.1670691762726
 31
0.0
  0
LINE
  5
5325
330
1F
100
AcDbEntity
  8
SPOJOVACÍ
  6
DASHED
100
AcDbLine
 10
650.6845319885415
 20
347.4997878495439
 30
0.0
 11
654.6480482609422
 21
346.1670691762726
 31
0.0
  0
LINE
  5
5326
330
1F
100
AcDbEntity
  8
SPOJOVACÍ
  6
DASHED
100
AcDbLine
 10
653.9889815044825
 20
346.3940506740207
 30
0.0
 11
653.9889815044825
 21
343.9255129400923
 31
0.0
  0
LINE
  5
5327
330
1F
100
AcDbEntity
  8
SPOJOVACÍ
  6
DASHED
100
AcDbLine
 10
650.6845319885415
 20
345.0414578772731
 30
0.0
 11
654.6480482609422
 21
343.7087392042728
 31
0.0
  0
LINE
  5
5328
330
1F
100
AcDbEntity
  8
SPOJOVACÍ
  6
DASHED
100
AcDbLine
 10
655.0181466044687
 20
343.4945197184867
 30
0.0
 11
654.6480482609422
 21
343.7087392042728
 31
0.0
  0
LINE
  5
5329
330
1F
100
AcDbEntity
  8
SPOJOVACÍ
  6
DASHED
100
AcDbLine
 10
655.0181466044687
 20
343.4945197184867
 30
0.0
 11
654.6480482609422
 21
343.1244213728211
 31
0.0
  0
LINE
  5
532A
330
1F
100
AcDbEntity
  8
SPOJOVACÍ
  6
DASHED
100
AcDbLine
 10
650.6845319885415
 20
344.4571400460925
 30
0.0
 11
654.6480482609422
 21
343.1244213728211
 31
0.0
  0
LINE
  5
532B
330
1F
100
AcDbEntity
  8
SPOJOVACÍ
  6
DASHED
100
AcDbLine
 10
653.9889815044825
 20
343.3514028705692
 30
0.0
 11
653.9889815044825
 21
340.8828651366409
 31
0.0
  0
LINE
  5
532C
330
1F
100
AcDbEntity
  8
SPOJOVACÍ
  6
DASHED
100
AcDbLine
 10
650.6845319885415
 20
341.9831328785028
 30
0.0
 11
654.6480482609422
 21
340.6513257774193
 31
0.0
  0
LINE
  5
532D
330
1F
100
AcDbEntity
  8
SPOJOVACÍ
  6
DASHED
100
AcDbLine
 10
655.0181466044687
 20
340.4371062916331
 30
0.0
 11
654.6480482609422
 21
340.6513257774193
 31
0.0
  0
LINE
  5
532E
330
1F
100
AcDbEntity
  8
SPOJOVACÍ
  6
DASHED
100
AcDbLine
 10
655.0181466044687
 20
340.4371062916331
 30
0.0
 11
654.6480482609422
 21
340.0670079462386
 31
0.0
  0
LINE
  5
532F
330
1F
100
AcDbEntity
  8
SPOJOVACÍ
  6
DASHED
100
AcDbLine
 10
650.6845319885415
 20
341.3988150470511
 30
0.0
 11
654.6480482609422
 21
340.0670079462386
 31
0.0
  0
LINE
  5
5330
330
1F
100
AcDbEntity
  8
SPOJOVACÍ
  6
DASHED
100
AcDbLine
 10
653.9889815044825
 20
340.2985473051892
 30
0.0
 11
653.9889815044825
 21
337.8208938485775
 31
0.0
  0
LINE
  5
5331
330
1F
100
AcDbEntity
  8
SPOJOVACÍ
  6
DASHED
100
AcDbLine
 10
650.6845319885415
 20
338.9413966472391
 30
0.0
 11
654.6480482609422
 21
337.6086779742388
 31
0.0
  0
LINE
  5
5332
330
1F
100
AcDbEntity
  8
SPOJOVACÍ
  6
DASHED
100
AcDbLine
 10
655.0181466044687
 20
337.3944584884527
 30
0.0
 11
654.6480482609422
 21
337.6086779742388
 31
0.0
  0
LINE
  5
5333
330
1F
100
AcDbEntity
  8
SPOJOVACÍ
  6
DASHED
100
AcDbLine
 10
655.0181466044687
 20
337.3944584884527
 30
0.0
 11
654.6480482609422
 21
337.0243601427871
 31
0.0
  0
LINE
  5
5334
330
1F
100
AcDbEntity
  8
SPOJOVACÍ
  6
DASHED
100
AcDbLine
 10
650.6845319885415
 20
338.3570788160584
 30
0.0
 11
654.6480482609422
 21
337.0243601427871
 31
0.0
  0
LINE
  5
5335
330
1F
100
AcDbEntity
  8
SPOJOVACÍ
  6
DASHED
100
AcDbLine
 10
653.9889815044825
 20
337.2513416405352
 30
0.0
 11
653.9889815044825
 21
334.7828039066068
 31
0.0
  0
LINE
  5
5336
330
1F
100
AcDbEntity
  8
SPOJOVACÍ
  6
DASHED
100
AcDbLine
 10
650.6845319885415
 20
335.8830716484687
 30
0.0
 11
654.6480482609422
 21
334.5512645473852
 31
0.0
  0
LINE
  5
5337
330
1F
100
AcDbEntity
  8
SPOJOVACÍ
  6
DASHED
100
AcDbLine
 10
655.0181466044687
 20
334.3370450615991
 30
0.0
 11
654.6480482609422
 21
334.5512645473852
 31
0.0
  0
LINE
  5
5338
330
1F
100
AcDbEntity
  8
SPOJOVACÍ
  6
DASHED
100
AcDbLine
 10
655.0181466044687
 20
334.3370450615991
 30
0.0
 11
654.6480482609422
 21
333.9669467162045
 31
0.0
  0
LINE
  5
5339
330
1F
100
AcDbEntity
  8
SPOJOVACÍ
  6
DASHED
100
AcDbLine
 10
650.6845319885415
 20
335.298753817017
 30
0.0
 11
654.6480482609422
 21
333.9669467162045
 31
0.0
  0
LINE
  5
533A
330
1F
100
AcDbEntity
  8
SPOJOVACÍ
  6
DASHED
100
AcDbLine
 10
653.9889815044825
 20
334.1984860751551
 30
0.0
 11
653.9889815044825
 21
331.7208326185434
 31
0.0
  0
LINE
  5
533B
330
1F
100
AcDbEntity
  8
SPOJOVACÍ
  6
DASHED
100
AcDbLine
 10
650.6845319885415
 20
332.8256582216151
 30
0.0
 11
654.6480482609422
 21
331.4929395486076
 31
0.0
  0
LINE
  5
533C
330
1F
100
AcDbEntity
  8
SPOJOVACÍ
  6
DASHED
100
AcDbLine
 10
651.3435987450011
 20
341.1864187059116
 30
0.0
 11
651.3435987450011
 21
338.7160578273367
 31
0.0
  0
LINE
  5
533D
330
1F
100
AcDbEntity
  8
SPOJOVACÍ
  6
DASHED
100
AcDbLine
 10
651.3435987450011
 20
344.2465668493284
 30
0.0
 11
651.3435987450011
 21
341.7780291154001
 31
0.0
  0
LINE
  5
533E
330
1F
100
AcDbEntity
  8
SPOJOVACÍ
  6
DASHED
100
AcDbLine
 10
651.3435987450011
 20
347.2892146527799
 30
0.0
 11
651.3435987450011
 21
344.8206769188516
 31
0.0
  0
LINE
  5
533F
330
1F
100
AcDbEntity
  8
SPOJOVACÍ
  6
DASHED
100
AcDbLine
 10
651.3112379288595
 20
349.5726422197037
 30
0.0
 11
651.3435987450011
 21
347.8624967575567
 31
0.0
  0
LINE
  5
5340
330
1F
100
AcDbEntity
  8
SPOJOVACÍ
  6
DASHED
100
AcDbLine
 10
651.2788771127179
 20
349.9582372940337
 30
0.0
 11
651.3435987450011
 21
349.1870471453737
 31
0.0
  0
LINE
  5
5341
330
1F
100
AcDbEntity
  8
SPOJOVACÍ
  6
DASHED
100
AcDbLine
 10
650.8595538657045
 20
351.4094603637429
 30
0.0
 11
651.2788771127179
 21
349.9582372940337
 31
0.0
  0
LINE
  5
5342
330
1F
100
AcDbEntity
  8
SPOJOVACÍ
  6
DASHED
100
AcDbLine
 10
650.6845319885415
 20
332.2413403901634
 30
0.0
 11
654.6480482609422
 21
330.9086217171632
 31
0.0
  0
LINE
  5
5343
330
1F
100
AcDbEntity
  8
SPOJOVACÍ
  6
DASHED
100
AcDbLine
 10
651.3435987450011
 20
335.0863574758775
 30
0.0
 11
651.3435987450011
 21
332.6159965973026
 31
0.0
  0
LINE
  5
5344
330
1F
100
AcDbEntity
  8
SPOJOVACÍ
  6
DASHED
100
AcDbLine
 10
651.3435987450011
 20
338.1465056192944
 30
0.0
 11
651.3435987450011
 21
335.6779678853661
 31
0.0
  0
LINE
  5
5345
330
1F
100
AcDbEntity
  8
SPOJOVACÍ
  6
DASHED
100
AcDbLine
 10
655.0181466044687
 20
331.2796316350166
 30
0.0
 11
654.6480482609422
 21
331.4929395486076
 31
0.0
  0
LINE
  5
5346
330
1F
100
AcDbEntity
  8
SPOJOVACÍ
  6
DASHED
100
AcDbLine
 10
655.0181466044687
 20
331.2796316350166
 30
0.0
 11
654.6480482609422
 21
330.9086217171632
 31
0.0
  0
LINE
  5
5347
330
1F
100
AcDbEntity
  8
nášlap_vrstvy
100
AcDbLine
 10
614.2632756726944
 20
365.9939055400509
 30
0.0
 11
614.2632756726944
 21
361.5687437058632
 31
0.0
  0
HATCH
  5
5348
330
1F
100
AcDbEntity
  8
nášlap_vrstvy
100
AcDbHatch
 10
0.0
 20
0.0
 30
0.0
210
0.0
220
0.0
230
1.0
  2
SOLID
 70
     1
 71
     0
 91
        1
 92
        7
 72
     0
 73
     1
 93
        4
 10
646.5661855025919
 20
357.1546524710402
 10
634.7453191476761
 20
357.1546524710402
 10
634.7453191476724
 20
355.6546524710402
 10
646.5661855025919
 20
355.6546524710402
 97
        0
 75
     0
 76
     1
 47
0.1901250437635136
 98
        1
 10
639.424216526846
 20
356.7462466955012
  0
LWPOLYLINE
  5
5349
330
1F
100
AcDbEntity
  8
nášlap_vrstvy
100
AcDbPolyline
 90
        4
 70
     1
 43
0.0
 10
646.5661855025919
 20
357.1546524710402
 10
634.7453191476724
 20
357.1546524710402
 10
634.7453191476724
 20
355.6546524710402
 10
646.5661855025919
 20
355.6546524710402
  0
LINE
  5
534A
330
1F
100
AcDbEntity
  8
nášlap_vrstvy
100
AcDbLine
 10
621.847013812252
 20
357.1546524709947
 30
0.0
 11
621.8470138122484
 21
361.5687437058632
 31
0.0
  0
LINE
  5
534B
330
1F
100
AcDbEntity
  8
nášlap_vrstvy
100
AcDbLine
 10
614.2632756726944
 20
361.5687437058632
 30
0.0
 11
621.847013812252
 21
361.5687437058632
 31
0.0
  0
ARC
  5
534C
330
1F
100
AcDbEntity
  8
nášlap_vrstvy
100
AcDbCircle
 10
637.1128881674649
 20
374.7392652923854
 30
0.0
 40
4.5
100
AcDbArc
 50
0.0
 51
90.0
  0
LINE
  5
534D
330
1F
100
AcDbEntity
  8
nášlap_vrstvy
100
AcDbLine
 10
632.8334541918575
 20
379.2392652923818
 30
0.0
 11
637.1128881674649
 21
379.2392652923854
 31
0.0
  0
LINE
  5
534E
330
1F
100
AcDbEntity
  8
nášlap_vrstvy
100
AcDbLine
 10
641.6128881674722
 20
372.8667621802788
 30
0.0
 11
641.6128881674649
 21
374.7392652923854
 31
0.0
  0
LINE
  5
534F
330
1F
100
AcDbEntity
  8
nášlap_vrstvy
100
AcDbLine
 10
621.8470138122484
 20
365.9939055400509
 30
0.0
 11
614.2632756726944
 21
365.9939055400509
 31
0.0
  0
LINE
  5
5350
330
1F
100
AcDbEntity
  8
nášlap_vrstvy
100
AcDbLine
 10
621.847013812252
 20
365.9939055400509
 30
0.0
 11
621.8470138122593
 21
371.3416473186016
 31
0.0
  0
LINE
  5
5351
330
1F
100
AcDbEntity
  8
nášlap_vrstvy
100
AcDbLine
 10
617.8334541918502
 20
398.3667621802787
 30
0.0
 11
617.8334541918502
 21
394.2392652923818
 31
0.0
  0
ARC
  5
5352
330
1F
100
AcDbEntity
  8
nášlap_vrstvy
100
AcDbCircle
 10
632.8334541918502
 20
394.2392652923818
 30
0.0
 40
15.0
100
AcDbArc
 50
180.0
 51
270.0
  0
LINE
  5
5353
330
1F
100
AcDbEntity
  8
SPOJOVACÍ
  6
DASHED
100
AcDbLine
 10
648.9908306936213
 20
353.7494664060984
 30
0.0
 11
650.0792479959727
 21
352.7020698564744
 31
0.0
  0
LINE
  5
5354
330
1F
100
AcDbEntity
  8
SPOJOVACÍ
  6
DASHED
100
AcDbLine
 10
647.6681393117415
 20
354.4787242298432
 30
0.0
 11
648.9908306936213
 21
353.7494664060984
 31
0.0
  0
LINE
  5
5355
330
1F
100
AcDbEntity
  8
SPOJOVACÍ
  6
DASHED
100
AcDbLine
 10
647.6681393117415
 20
355.65465247104
 30
0.0
 11
647.6681393117415
 21
354.4787242298432
 31
0.0
  0
LINE
  5
5356
330
1F
100
AcDbEntity
  8
izolace
  6
IZOLACE
 48
0.7
100
AcDbLine
 10
618.6035864378336
 20
355.6546524710402
 30
0.0
 11
618.6349843549833
 21
328.1044351965911
 31
0.0
  0
LINE
  5
5357
330
1F
100
AcDbEntity
  8
POPIS
100
AcDbLine
 10
615.1184146198793
 20
384.2481803741794
 30
0.0
 11
691.3264619160454
 21
449.3978939497783
 31
0.0
  0
LINE
  5
5358
330
1F
100
AcDbEntity
  8
SPOJOVACÍ
  6
DASHED
100
AcDbLine
 10
650.3144336407367
 20
326.3398214503183
 30
0.0
 11
650.6845319885415
 21
326.7108313684427
 31
0.0
  0
LINE
  5
5359
330
1F
100
AcDbEntity
  8
SPOJOVACÍ
  6
DASHED
100
AcDbLine
 10
650.3144336407367
 20
326.3398214503183
 30
0.0
 11
650.6845319885415
 21
326.126513536991
 31
0.0
  0
LINE
  5
535A
330
1F
100
AcDbEntity
  8
SPOJOVACÍ
  6
DASHED
100
AcDbLine
 10
650.3144336407367
 20
326.3398214503183
 30
0.0
 11
655.0181466044687
 21
325.1638932093853
 31
0.0
  0
LINE
  5
535B
330
1F
100
AcDbEntity
  8
SPOJOVACÍ
  6
DASHED
100
AcDbLine
 10
650.3144336407367
 20
329.3981464493597
 30
0.0
 11
650.6845319885415
 21
329.7682447950253
 31
0.0
  0
LINE
  5
535C
330
1F
100
AcDbEntity
  8
SPOJOVACÍ
  6
DASHED
100
AcDbLine
 10
650.3144336407367
 20
329.3981464493597
 30
0.0
 11
650.6845319885415
 21
329.1839269635809
 31
0.0
  0
LINE
  5
535D
330
1F
100
AcDbEntity
  8
SPOJOVACÍ
  6
DASHED
100
AcDbLine
 10
650.3144336407367
 20
329.3981464493597
 30
0.0
 11
655.0181466044687
 21
328.2222182084267
 31
0.0
  0
LINE
  5
535E
330
1F
100
AcDbEntity
  8
SPOJOVACÍ
  6
DASHED
100
AcDbLine
 10
650.3144336407367
 20
338.5703867293857
 30
0.0
 11
650.6845319885415
 21
338.3570788160584
 31
0.0
  0
LINE
  5
535F
330
1F
100
AcDbEntity
  8
SPOJOVACÍ
  6
DASHED
100
AcDbLine
 10
650.3144336407367
 20
338.5703867293857
 30
0.0
 11
650.6845319885415
 21
338.9413966472391
 31
0.0
  0
LINE
  5
5360
330
1F
100
AcDbEntity
  8
SPOJOVACÍ
  6
DASHED
100
AcDbLine
 10
650.3144336407367
 20
341.6130345328372
 30
0.0
 11
650.6845319885415
 21
341.3988150470511
 31
0.0
  0
LINE
  5
5361
330
1F
100
AcDbEntity
  8
SPOJOVACÍ
  6
DASHED
100
AcDbLine
 10
650.3144336407367
 20
341.6130345328372
 30
0.0
 11
650.6845319885415
 21
341.9831328785028
 31
0.0
  0
LINE
  5
5362
330
1F
100
AcDbEntity
  8
SPOJOVACÍ
  6
DASHED
100
AcDbLine
 10
650.3144336407367
 20
344.6704479594198
 30
0.0
 11
650.6845319885415
 21
344.4571400460925
 31
0.0
  0
LINE
  5
5363
330
1F
100
AcDbEntity
  8
SPOJOVACÍ
  6
DASHED
100
AcDbLine
 10
650.3144336407367
 20
344.6704479594198
 30
0.0
 11
650.6845319885415
 21
345.0414578772731
 31
0.0
  0
LINE
  5
5364
330
1F
100
AcDbEntity
  8
SPOJOVACÍ
  6
DASHED
100
AcDbLine
 10
650.3144336407367
 20
347.7130957628712
 30
0.0
 11
650.6845319885415
 21
347.4997878495439
 31
0.0
  0
LINE
  5
5365
330
1F
100
AcDbEntity
  8
SPOJOVACÍ
  6
DASHED
100
AcDbLine
 10
650.3144336407367
 20
347.7130957628712
 30
0.0
 11
650.6845319885415
 21
348.0841056807246
 31
0.0
  0
LINE
  5
5366
330
1F
100
AcDbEntity
  8
SPOJOVACÍ
  6
DASHED
100
AcDbLine
 10
650.0792479959727
 20
352.7020698564744
 30
0.0
 11
650.8595538657045
 21
351.4094603637429
 31
0.0
  0
LINE
  5
5367
330
1F
100
AcDbEntity
  8
SPOJOVACÍ
  6
DASHED
100
AcDbLine
 10
650.3144336407367
 20
332.4555598759495
 30
0.0
 11
650.6845319885415
 21
332.2413403901634
 31
0.0
  0
LINE
  5
5368
330
1F
100
AcDbEntity
  8
SPOJOVACÍ
  6
DASHED
100
AcDbLine
 10
650.3144336407367
 20
332.4555598759495
 30
0.0
 11
650.6845319885415
 21
332.8256582216151
 31
0.0
  0
LINE
  5
5369
330
1F
100
AcDbEntity
  8
SPOJOVACÍ
  6
DASHED
100
AcDbLine
 10
650.3144336407367
 20
335.5129733028031
 30
0.0
 11
650.6845319885415
 21
335.298753817017
 31
0.0
  0
LINE
  5
536A
330
1F
100
AcDbEntity
  8
SPOJOVACÍ
  6
DASHED
100
AcDbLine
 10
650.3144336407367
 20
335.5129733028031
 30
0.0
 11
650.6845319885415
 21
335.8830716484687
 31
0.0
  0
LINE
  5
536B
330
1F
100
AcDbEntity
  8
SPOJOVACÍ
  6
DASHED
100
AcDbLine
 10
647.6681393117415
 20
354.4787242298432
 30
0.0
 11
657.6644409334639
 21
354.4787242298432
 31
0.0
  0
LINE
  5
536C
330
1F
100
AcDbEntity
  8
SPOJOVACÍ
  6
DASHED
100
AcDbLine
 10
650.3144336407367
 20
347.7130957628712
 30
0.0
 11
655.0181466044687
 21
346.5371675219382
 31
0.0
  0
LINE
  5
536D
330
1F
100
AcDbEntity
  8
SPOJOVACÍ
  6
DASHED
100
AcDbLine
 10
650.3144336407367
 20
344.6704479594198
 30
0.0
 11
655.0181466044687
 21
343.4945197184867
 31
0.0
  0
LINE
  5
536E
330
1F
100
AcDbEntity
  8
SPOJOVACÍ
  6
DASHED
100
AcDbLine
 10
650.3144336407367
 20
341.6130345328372
 30
0.0
 11
655.0181466044687
 21
340.4371062916331
 31
0.0
  0
LINE
  5
536F
330
1F
100
AcDbEntity
  8
SPOJOVACÍ
  6
DASHED
100
AcDbLine
 10
650.3144336407367
 20
338.5703867293857
 30
0.0
 11
655.0181466044687
 21
337.3944584884527
 31
0.0
  0
LINE
  5
5370
330
1F
100
AcDbEntity
  8
SPOJOVACÍ
  6
DASHED
100
AcDbLine
 10
650.3144336407367
 20
332.4555598759495
 30
0.0
 11
655.0181466044687
 21
331.2796316350166
 31
0.0
  0
LINE
  5
5371
330
1F
100
AcDbEntity
  8
SPOJOVACÍ
  6
DASHED
100
AcDbLine
 10
650.3144336407367
 20
335.5129733028031
 30
0.0
 11
655.0181466044687
 21
334.3370450615991
 31
0.0
  0
LINE
  5
5372
330
1F
100
AcDbEntity
  8
SPOJOVACÍ
  6
DASHED
100
AcDbLine
 10
647.6681393117415
 20
355.65465247104
 30
0.0
 11
657.6644409334639
 21
355.65465247104
 31
0.0
  0
TEXT
  5
5373
330
1F
100
AcDbEntity
  8
POPIS
100
AcDbText
 10
676.4819779943555
 20
458.247255022502
 30
0.0
 40
25.0
  1
01
 41
0.85
  7
SIMPLEX7
100
AcDbText
  0
LINE
  5
5374
330
1F
100
AcDbEntity
  8
STAVBA OBRYS
100
AcDbLine
 10
911.1035864378372
 20
328.1044351965902
 30
0.0
 11
911.1035864378372
 21
310.104435196591
 31
0.0
  0
POLYLINE
  5
5375
330
1F
100
AcDbEntity
  8
STAVBA OBRYS
100
AcDb2dPolyline
 66
     1
 10
0.0
 20
0.0
 30
0.0
  0
VERTEX
  5
5376
330
5375
100
AcDbEntity
  8
STAVBA OBRYS
100
AcDbVertex
100
AcDb2dVertex
 10
905.9357122011842
 20
310.104435196591
 30
0.0
 42
-0.0094186890201653
  0
VERTEX
  5
5377
330
5375
100
AcDbEntity
  8
STAVBA OBRYS
100
AcDbVertex
100
AcDb2dVertex
 10
906.2825107640582
 20
310.2631080673591
 30
0.0
 42
-0.0322692699774654
  0
VERTEX
  5
5378
330
5375
100
AcDbEntity
  8
STAVBA OBRYS
100
AcDbVertex
100
AcDb2dVertex
 10
909.1738649451491
 20
311.3046315687597
 30
0.0
 42
-0.0276160659512937
  0
VERTEX
  5
5379
330
5375
100
AcDbEntity
  8
STAVBA OBRYS
100
AcDbVertex
100
AcDb2dVertex
 10
910.0294413834362
 20
311.5013669977042
 30
0.0
 42
-0.0126891984598699
  0
VERTEX
  5
537A
330
5375
100
AcDbEntity
  8
STAVBA OBRYS
100
AcDbVertex
100
AcDb2dVertex
 10
910.9526097792278
 20
311.6365693872458
 30
0.0
  0
SEQEND
  5
537B
330
5375
100
AcDbEntity
  8
STAVBA OBRYS
  0
LWPOLYLINE
  5
537C
330
1F
100
AcDbEntity
  8
izolace
100
AcDbPolyline
 90
        4
 70
     1
 43
0.0
 10
848.8791808263467
 20
331.1044351965906
 10
825.2374481165116
 20
331.1044351965906
 10
825.2374481165116
 20
328.1044351965906
 10
848.8791808263467
 20
328.1044351965906
  0
HATCH
  5
537D
330
1F
100
AcDbEntity
  8
izolace
100
AcDbHatch
 10
0.0
 20
0.0
 30
0.0
210
0.0
220
0.0
230
1.0
  2
SOLID
 70
     1
 71
     0
 91
        1
 92
        7
 72
     0
 73
     1
 93
        4
 10
848.8791808263504
 20
331.1044351965906
 10
825.2374481165151
 20
331.1044351965906
 10
825.2374481165116
 20
328.1044351965906
 10
848.8791808263504
 20
328.1044351965906
 97
        0
 75
     0
 76
     1
 47
0.1901250437635136
 98
        1
 10
834.5952428748551
 20
330.2876236455108
  0
LWPOLYLINE
  5
537E
330
1F
100
AcDbEntity
  8
izolace
100
AcDbPolyline
 90
        4
 70
     1
 43
0.0
 10
801.5957154066764
 20
331.1044351965906
 10
777.9539826968411
 20
331.1044351965906
 10
777.9539826968411
 20
328.1044351965906
 10
801.5957154066764
 20
328.1044351965906
  0
HATCH
  5
537F
330
1F
100
AcDbEntity
  8
izolace
100
AcDbHatch
 10
0.0
 20
0.0
 30
0.0
210
0.0
220
0.0
230
1.0
  2
SOLID
 70
     1
 71
     0
 91
        1
 92
        7
 72
     0
 73
     1
 93
        4
 10
801.59571540668
 20
331.1044351965906
 10
777.9539826968448
 20
331.1044351965906
 10
777.9539826968411
 20
328.1044351965906
 10
801.59571540668
 20
328.1044351965906
 97
        0
 75
     0
 76
     1
 47
0.1901250437635136
 98
        1
 10
787.3117774551847
 20
330.2876236455108
  0
LWPOLYLINE
  5
5380
330
1F
100
AcDbEntity
  8
STAVBA OBRYS
100
AcDbPolyline
 90
        4
 70
     0
 43
0.0
 10
850.1975072589976
 20
310.104435196591
 42
-0.0334776267545482
 10
850.6347850537039
 20
314.1514101253278
 42
-0.0091133963862869
 10
853.1123893786226
 20
326.8431399107876
 42
-0.007828075361276
 10
853.4032885137802
 20
328.1044351965911
  0
LWPOLYLINE
  5
5381
330
1F
100
AcDbEntity
  8
STAVBA OBRYS
100
AcDbPolyline
 90
        5
 70
     0
 43
0.0
 10
860.4416456337913
 20
310.104435196591
 42
-0.0133579731639958
 10
860.8284561228192
 20
312.6222374841463
 42
-0.0072443097182286
 10
862.9484530702775
 20
323.4331283790534
 42
-0.0219777111230329
 10
863.8545655722609
 20
326.9512416348888
 42
-0.0092752982622242
 10
864.2297925342081
 20
328.1044351965911
  0
LWPOLYLINE
  5
5382
330
1F
100
AcDbEntity
  8
STAVBA OBRYS
100
AcDbPolyline
 90
        4
 70
     0
 43
0.0
 10
808.0956234995374
 20
310.104435196591
 42
-0.0334776267545482
 10
808.5329012942437
 20
314.1514101253278
 42
-0.0091133963862869
 10
811.0105056191624
 20
326.8431399107876
 42
-0.007828075361276
 10
811.3014047543201
 20
328.1044351965911
  0
LWPOLYLINE
  5
5383
330
1F
100
AcDbEntity
  8
STAVBA OBRYS
100
AcDbPolyline
 90
        5
 70
     0
 43
0.0
 10
818.339761874331
 20
310.104435196591
 42
-0.0133579731639958
 10
818.726572363359
 20
312.6222374841463
 42
-0.0072443097182286
 10
820.8465693108173
 20
323.4331283790534
 42
-0.0219777111230329
 10
821.7526818128007
 20
326.9512416348888
 42
-0.0092752982622242
 10
822.1279087747479
 20
328.1044351965911
  0
LWPOLYLINE
  5
5384
330
1F
100
AcDbEntity
  8
STAVBA OBRYS
100
AcDbPolyline
 90
        5
 70
     0
 43
0.0
 10
788.1927530178564
 20
310.104435196591
 42
-0.0133579731639958
 10
788.5795635068843
 20
312.6222374841463
 42
-0.0072443097182286
 10
790.6995604543426
 20
323.4331283790534
 42
-0.0219777111230329
 10
791.605672956326
 20
326.9512416348888
 42
-0.0092752982622242
 10
791.9808999182732
 20
328.1044351965911
  0
LWPOLYLINE
  5
5385
330
1F
100
AcDbEntity
  8
STAVBA OBRYS
100
AcDbPolyline
 90
        3
 70
     0
 43
0.0
 10
796.6430856365696
 20
310.104435196591
 42
-0.0052038508054843
 10
799.8414825765522
 20
326.5082616785885
 42
-0.0065712046643719
 10
800.1919083463162
 20
328.1044351965911
  0
LWPOLYLINE
  5
5386
330
1F
100
AcDbEntity
  8
STAVBA OBRYS
100
AcDbPolyline
 90
        4
 70
     0
 43
0.0
 10
828.2453657482275
 20
310.104435196591
 42
-0.0186324019486548
 10
831.6137351203343
 20
321.7995468148155
 42
-0.0582629403736403
 10
833.2732349884153
 20
325.3793810137513
 42
-0.0146402521923566
 10
835.0576429699994
 20
328.1044351965911
  0
LWPOLYLINE
  5
5387
330
1F
100
AcDbEntity
  8
STAVBA OBRYS
100
AcDbPolyline
 90
        4
 70
     0
 43
0.0
 10
842.8497509368225
 20
309.6036047658426
 10
822.85349850483
 20
318.8196338163625
 10
806.0756079336115
 20
321.5267780790536
 10
802.8119966859067
 20
321.6570794434237
  0
LWPOLYLINE
  5
5388
330
1F
100
AcDbEntity
  8
STAVBA OBRYS
100
AcDbPolyline
 90
        3
 70
     0
 43
0.0
 10
838.7449693960297
 20
310.104435196591
 42
-0.0052038508054843
 10
841.9433663360123
 20
326.5082616785885
 42
-0.0065712046643719
 10
842.2937921057764
 20
328.1044351965911
  0
LWPOLYLINE
  5
5389
330
1F
100
AcDbEntity
  8
STAVBA OBRYS
100
AcDbPolyline
 90
        3
 70
     0
 43
0.0
 10
766.4960767800948
 20
310.104435196591
 42
-0.0052038508054843
 10
769.6944737200774
 20
326.5082616785885
 42
-0.0065712046643719
 10
770.0448994898415
 20
328.1044351965911
  0
LWPOLYLINE
  5
538A
330
1F
100
AcDbEntity
  8
STAVBA OBRYS
100
AcDbPolyline
 90
        4
 70
     0
 43
0.0
 10
812.7027420803479
 20
309.6036047658426
 10
792.7064896483552
 20
318.8196338163625
 10
775.9285990771368
 20
321.5267780790536
 10
772.664987829432
 20
321.6570794434237
  0
LWPOLYLINE
  5
538B
330
1F
100
AcDbEntity
  8
STAVBA OBRYS
100
AcDbPolyline
 90
        4
 70
     0
 43
0.0
 10
777.9486146430627
 20
310.104435196591
 42
-0.0334776267545482
 10
778.3858924377691
 20
314.1514101253278
 42
-0.0091133963862869
 10
780.8634967626876
 20
326.8431399107876
 42
-0.007828075361276
 10
781.1543958978455
 20
328.1044351965911
  0
LWPOLYLINE
  5
538C
330
1F
100
AcDbEntity
  8
STAVBA OBRYS
100
AcDbPolyline
 90
        6
 70
     0
 43
0.0
 10
879.1577108565306
 20
310.104435196591
 42
-0.0121757200102759
 10
880.5277005701919
 20
314.7763525290583
 42
-0.0457786284636091
 10
881.7357234598075
 20
317.6249629119347
 42
-0.0295006114745606
 10
884.151783914107
 20
321.5518621253368
 42
-0.0258674098621065
 10
887.3844592280711
 20
325.6976422040906
 42
-0.0093759062953949
 10
889.5502714077283
 20
328.1044351965911
  0
LWPOLYLINE
  5
538D
330
1F
100
AcDbEntity
  8
STAVBA OBRYS
100
AcDbPolyline
 90
        3
 70
     0
 43
0.0
 10
901.2810426284396
 20
310.104435196591
 10
887.4889947018001
 20
317.0055067600778
 10
879.3218900526753
 20
325.1868084611714
  0
LWPOLYLINE
  5
538E
330
1F
100
AcDbEntity
  8
STAVBA OBRYS
100
AcDbPolyline
 90
        8
 70
     0
 43
0.0
 10
888.5305148643329
 20
310.104435196591
 42
-0.0217273703039143
 10
890.7281851248425
 20
315.1401255340688
 42
-0.0882970623535771
 10
892.3654070449357
 20
317.3804945848687
 42
-0.0171636441953577
 10
895.1787711067936
 20
319.8944119401139
 42
-0.0157521173632038
 10
898.4176259438299
 20
322.4259079926205
 42
-0.0073640874174249
 10
903.0512753001513
 20
325.7143094183565
 42
-0.0194185739168057
 10
904.8733186198278
 20
326.8658784176377
 42
-0.0229547400386702
 10
907.2587766838424
 20
328.1044351965911
  0
POLYLINE
  5
538F
330
1F
100
AcDbEntity
  8
STAVBA OBRYS
100
AcDb2dPolyline
 66
     1
 10
0.0
 20
0.0
 30
0.0
  0
VERTEX
  5
5390
330
538F
100
AcDbEntity
  8
STAVBA OBRYS
100
AcDbVertex
100
AcDb2dVertex
 10
896.8825662516483
 20
310.104435196591
 30
0.0
 42
-0.0502247168465557
  0
VERTEX
  5
5391
330
538F
100
AcDbEntity
  8
STAVBA OBRYS
100
AcDbVertex
100
AcDb2dVertex
 10
898.4816134278135
 20
312.1119058693138
 30
0.0
 42
-0.0274923553235744
  0
VERTEX
  5
5392
330
538F
100
AcDbEntity
  8
STAVBA OBRYS
100
AcDbVertex
100
AcDb2dVertex
 10
901.0789191583663
 20
314.496981192452
 30
0.0
 42
-0.0255412025538677
  0
VERTEX
  5
5393
330
538F
100
AcDbEntity
  8
STAVBA OBRYS
100
AcDbVertex
100
AcDb2dVertex
 10
904.1303491960771
 20
316.7536948694678
 30
0.0
 42
-0.0272796991712396
  0
VERTEX
  5
5394
330
538F
100
AcDbEntity
  8
STAVBA OBRYS
100
AcDbVertex
100
AcDb2dVertex
 10
908.2433483492623
 20
319.1700307511337
 30
0.0
 42
-0.056967459841729
  0
VERTEX
  5
5395
330
538F
100
AcDbEntity
  8
STAVBA OBRYS
100
AcDbVertex
100
AcDb2dVertex
 10
910.384295629994
 20
319.9827665863331
 30
0.0
 42
-0.0373408083348504
  0
VERTEX
  5
5396
330
538F
100
AcDbEntity
  8
STAVBA OBRYS
100
AcDbVertex
100
AcDb2dVertex
 10
910.6066500054676
 20
320.0219321272807
 30
0.0
 42
-0.0052305969362967
  0
VERTEX
  5
5397
330
538F
100
AcDbEntity
  8
STAVBA OBRYS
100
AcDbVertex
100
AcDb2dVertex
 10
910.9526097792278
 20
320.052889094185
 30
0.0
  0
SEQEND
  5
5398
330
538F
100
AcDbEntity
  8
STAVBA OBRYS
  0
LWPOLYLINE
  5
5399
330
1F
100
AcDbEntity
  8
STAVBA OBRYS
100
AcDbPolyline
 90
        4
 70
     0
 43
0.0
 10
870.3472495076876
 20
310.104435196591
 42
-0.0186324019486548
 10
873.7156188797944
 20
321.7995468148155
 42
-0.0582629403736403
 10
875.3751187478755
 20
325.3793810137513
 42
-0.0146402521923566
 10
877.1595267294596
 20
328.1044351965911
  0
LWPOLYLINE
  5
539A
330
1F
100
AcDbEntity
  8
STAVBA OBRYS
100
AcDbPolyline
 90
        4
 70
     0
 43
0.0
 10
884.9516346962827
 20
309.6036047658426
 10
864.9553822642902
 20
318.8196338163625
 10
848.1774916930717
 20
321.5267780790536
 10
844.9138804453669
 20
321.6570794434237
  0
LWPOLYLINE
  5
539B
330
1F
100
AcDbEntity
  8
izolace
100
AcDbPolyline
 90
        4
 70
     1
 43
0.0
 10
896.1626462460172
 20
331.1044351965906
 10
872.520913536182
 20
331.1044351965906
 10
872.520913536182
 20
328.1044351965906
 10
896.1626462460172
 20
328.1044351965906
  0
HATCH
  5
539C
330
1F
100
AcDbEntity
  8
izolace
100
AcDbHatch
 10
0.0
 20
0.0
 30
0.0
210
0.0
220
0.0
230
1.0
  2
SOLID
 70
     1
 71
     0
 91
        1
 92
        7
 72
     0
 73
     1
 93
        4
 10
896.1626462460207
 20
331.1044351965906
 10
872.5209135361856
 20
331.1044351965906
 10
872.520913536182
 20
328.1044351965906
 10
896.1626462460207
 20
328.1044351965906
 97
        0
 75
     0
 76
     1
 47
0.1901250437635136
 98
        1
 10
881.8787082945254
 20
330.2876236455108
  0
INSERT
  5
539D
330
1F
100
AcDbEntity
  8
POPIS
100
AcDbBlockReference
  2
E_PUNKT
 10
867.0971083994791
 20
364.9183957995564
 30
0.0
 50
270.0
  0
LINE
  5
539E
330
1F
100
AcDbEntity
  8
POPIS
100
AcDbLine
 10
867.1261767303532
 20
449.3978939497783
 30
0.0
 11
867.1261767303512
 21
364.8907854239297
 31
0.0
  0
LWPOLYLINE
  5
539F
330
1F
100
AcDbEntity
  8
nášlap_vrstvy
100
AcDbPolyline
 90
        4
 70
     1
 43
0.0
 10
906.6252453107754
 20
357.1546524710402
 10
894.8043789558596
 20
357.1546524710402
 10
894.8043789558596
 20
355.6546524710402
 10
906.6252453107754
 20
355.6546524710402
  0
HATCH
  5
53A0
330
1F
100
AcDbEntity
  8
nášlap_vrstvy
100
AcDbHatch
 10
0.0
 20
0.0
 30
0.0
210
0.0
220
0.0
230
1.0
  2
SOLID
 70
     1
 71
     0
 91
        1
 92
        7
 72
     0
 73
     1
 93
        4
 10
906.6252453107791
 20
357.1546524710402
 10
894.8043789558596
 20
357.1546524710402
 10
894.8043789558596
 20
355.6546524710402
 10
906.6252453107791
 20
355.6546524710402
 97
        0
 75
     0
 76
     1
 47
0.1901250437635136
 98
        1
 10
899.4832763350295
 20
356.7462466955012
  0
HATCH
  5
53A1
330
1F
100
AcDbEntity
  8
nášlap_vrstvy
100
AcDbHatch
 10
0.0
 20
0.0
 30
0.0
210
0.0
220
0.0
230
1.0
  2
SOLID
 70
     1
 71
     0
 91
        1
 92
        7
 72
     0
 73
     1
 93
        4
 10
859.3417798911087
 20
357.1546524710402
 10
847.5209135361891
 20
357.1546524710402
 10
847.5209135361891
 20
355.6546524710402
 10
859.3417798911087
 20
355.6546524710402
 97
        0
 75
     0
 76
     1
 47
0.1901250437635136
 98
        1
 10
852.1998109153592
 20
356.7462466955012
  0
LWPOLYLINE
  5
53A2
330
1F
100
AcDbEntity
  8
nášlap_vrstvy
100
AcDbPolyline
 90
        4
 70
     1
 43
0.0
 10
882.9835126009438
 20
357.1546524710402
 10
871.1626462460245
 20
357.1546524710402
 10
871.1626462460245
 20
355.6546524710402
 10
882.9835126009438
 20
355.6546524710402
  0
HATCH
  5
53A3
330
1F
100
AcDbEntity
  8
nášlap_vrstvy
100
AcDbHatch
 10
0.0
 20
0.0
 30
0.0
210
0.0
220
0.0
230
1.0
  2
SOLID
 70
     1
 71
     0
 91
        1
 92
        7
 72
     0
 73
     1
 93
        4
 10
882.9835126009438
 20
357.1546524710402
 10
871.162646246028
 20
357.1546524710402
 10
871.1626462460245
 20
355.6546524710402
 10
882.9835126009438
 20
355.6546524710402
 97
        0
 75
     0
 76
     1
 47
0.1901250437635136
 98
        1
 10
875.8415436251979
 20
356.7462466955012
  0
LINE
  5
53A4
330
1F
100
AcDbEntity
  8
SPOJOVACÍ
  6
DASHED
100
AcDbLine
 10
901.823067546211
 20
320.0144214003819
 30
0.0
 11
902.1074780944617
 21
317.7400485622336
 31
0.0
  0
LINE
  5
53A5
330
1F
100
AcDbEntity
  8
SPOJOVACÍ
  6
DASHED
100
AcDbLine
 10
902.9789411979436
 20
317.441964426617
 30
0.0
 11
903.2414740136882
 21
319.5440501039017
 31
0.0
  0
LINE
  5
53A6
330
1F
100
AcDbEntity
  8
SPOJOVACÍ
  6
DASHED
100
AcDbLine
 10
902.561441089958
 20
314.1046983100484
 30
0.0
 11
902.9087501314643
 21
316.8840821912915
 31
0.0
  0
LINE
  5
53A7
330
1F
100
AcDbEntity
  8
SPOJOVACÍ
  6
DASHED
100
AcDbLine
 10
902.1831385951372
 20
317.1320298514972
 30
0.0
 11
902.561441089958
 21
314.1046983100484
 31
0.0
  0
LINE
  5
53A8
330
1F
100
AcDbEntity
  8
SPOJOVACÍ
  6
DASHED
100
AcDbLine
 10
901.5650925908703
 20
317.4164404026857
 30
0.0
 11
901.9351909343967
 21
317.2022209169069
 31
0.0
  0
LINE
  5
53A9
330
1F
100
AcDbEntity
  8
SPOJOVACÍ
  6
DASHED
100
AcDbLine
 10
901.5650925908703
 20
317.4164404026857
 30
0.0
 11
901.9351909343967
 21
317.7865387483514
 31
0.0
  0
LINE
  5
53AA
330
1F
100
AcDbEntity
  8
SPOJOVACÍ
  6
DASHED
100
AcDbLine
 10
903.6762939894979
 20
317.1119752612273
 30
0.0
 11
903.3061956459714
 21
316.740965343374
 31
0.0
  0
LINE
  5
53AB
330
1F
100
AcDbEntity
  8
SPOJOVACÍ
  6
DASHED
100
AcDbLine
 10
903.6762939894979
 20
317.1119752612273
 30
0.0
 11
903.3061956459714
 21
317.3252831748184
 31
0.0
  0
LINE
  5
53AC
330
1F
100
AcDbEntity
  8
SPOJOVACÍ
  6
DASHED
100
AcDbLine
 10
901.9351909343967
 20
317.2022209169069
 30
0.0
 11
903.3061956459714
 21
316.740965343374
 31
0.0
  0
LINE
  5
53AD
330
1F
100
AcDbEntity
  8
SPOJOVACÍ
  6
DASHED
100
AcDbLine
 10
901.9351909343967
 20
317.7865387483514
 30
0.0
 11
903.3061956459714
 21
317.3252831748184
 31
0.0
  0
LINE
  5
53AE
330
1F
100
AcDbEntity
  8
SPOJOVACÍ
  6
DASHED
100
AcDbLine
 10
901.5650925908703
 20
317.4164404026857
 30
0.0
 11
903.6762939894979
 21
317.1119752612273
 31
0.0
  0
LINE
  5
53AF
330
1F
100
AcDbEntity
  8
SPOJOVACÍ
  6
DASHED
100
AcDbLine
 10
901.2387497123564
 20
332.0335019104975
 30
0.0
 11
901.2387497123564
 21
329.5558484538858
 31
0.0
  0
LINE
  5
53B0
330
1F
100
AcDbEntity
  8
SPOJOVACÍ
  6
DASHED
100
AcDbLine
 10
903.8841324718378
 20
331.1383379317383
 30
0.0
 11
903.8841324718378
 21
328.6679770531634
 31
0.0
  0
LINE
  5
53B1
330
1F
100
AcDbEntity
  8
SPOJOVACÍ
  6
DASHED
100
AcDbLine
 10
901.2387497123564
 20
328.9633264719457
 30
0.0
 11
901.2387497123564
 21
326.4957003102051
 31
0.0
  0
LINE
  5
53B2
330
1F
100
AcDbEntity
  8
SPOJOVACÍ
  6
DASHED
100
AcDbLine
 10
901.2387497123564
 20
325.9113824787534
 30
0.0
 11
901.2387497123564
 21
324.6889640517026
 31
0.0
  0
LINE
  5
53B3
330
1F
100
AcDbEntity
  8
SPOJOVACÍ
  6
DASHED
100
AcDbLine
 10
903.8841324718378
 20
328.0791013605091
 30
0.0
 11
903.8841324718378
 21
325.6105636265808
 31
0.0
  0
LINE
  5
53B4
330
1F
100
AcDbEntity
  8
SPOJOVACÍ
  6
DASHED
100
AcDbLine
 10
903.8841324718378
 20
325.0189532168285
 30
0.0
 11
903.8841324718378
 21
324.6889640517026
 31
0.0
  0
LINE
  5
53B5
330
1F
100
AcDbEntity
  8
SPOJOVACÍ
  6
DASHED
100
AcDbLine
 10
901.2387497123564
 20
324.6889640517026
 30
0.0
 11
901.3855128490249
 21
323.5157705273329
 31
0.0
  0
LINE
  5
53B6
330
1F
100
AcDbEntity
  8
SPOJOVACÍ
  6
DASHED
100
AcDbLine
 10
901.4611733497003
 20
322.9077518165965
 30
0.0
 11
901.7455839022295
 21
320.6324674062532
 31
0.0
  0
LINE
  5
53B7
330
1F
100
AcDbEntity
  8
SPOJOVACÍ
  6
DASHED
100
AcDbLine
 10
903.3116650758893
 20
320.1046670560615
 30
0.0
 11
903.57328632212
 21
322.1985485828579
 31
0.0
  0
LINE
  5
53B8
330
1F
100
AcDbEntity
  8
SPOJOVACÍ
  6
DASHED
100
AcDbLine
 10
903.6434773885995
 20
322.7573423906421
 30
0.0
 11
903.8841324718378
 21
324.6889640517026
 31
0.0
  0
LINE
  5
53B9
330
1F
100
AcDbEntity
  8
SPOJOVACÍ
  6
DASHED
100
AcDbLine
 10
900.4584438426245
 20
323.324340348651
 30
0.0
 11
900.829453759943
 21
323.1101208628649
 31
0.0
  0
LINE
  5
53BA
330
1F
100
AcDbEntity
  8
SPOJOVACÍ
  6
DASHED
100
AcDbLine
 10
900.4584438426245
 20
323.324340348651
 30
0.0
 11
900.829453759943
 21
323.6944386943166
 31
0.0
  0
LINE
  5
53BB
330
1F
100
AcDbEntity
  8
SPOJOVACÍ
  6
DASHED
100
AcDbLine
 10
904.5012669023126
 20
322.3708357439925
 30
0.0
 11
904.1311685587862
 21
321.9998258258681
 31
0.0
  0
LINE
  5
53BC
330
1F
100
AcDbEntity
  8
SPOJOVACÍ
  6
DASHED
100
AcDbLine
 10
904.5012669023126
 20
322.3708357439925
 30
0.0
 11
904.1311685587862
 21
322.5841436573198
 31
0.0
  0
LINE
  5
53BD
330
1F
100
AcDbEntity
  8
SPOJOVACÍ
  6
DASHED
100
AcDbLine
 10
900.829453759943
 20
323.1101208628649
 30
0.0
 11
904.1311685587862
 21
321.9998258258681
 31
0.0
  0
LINE
  5
53BE
330
1F
100
AcDbEntity
  8
SPOJOVACÍ
  6
DASHED
100
AcDbLine
 10
900.829453759943
 20
323.6944386943166
 30
0.0
 11
904.1311685587862
 21
322.5841436573198
 31
0.0
  0
LINE
  5
53BF
330
1F
100
AcDbEntity
  8
SPOJOVACÍ
  6
DASHED
100
AcDbLine
 10
900.4584438426245
 20
323.324340348651
 30
0.0
 11
904.5012669023126
 21
322.3708357439925
 31
0.0
  0
LINE
  5
53C0
330
1F
100
AcDbEntity
  8
SPOJOVACÍ
  6
DASHED
100
AcDbLine
 10
901.0117682146082
 20
320.369934589439
 30
0.0
 11
901.381866562413
 21
320.1566266761117
 31
0.0
  0
LINE
  5
53C1
330
1F
100
AcDbEntity
  8
SPOJOVACÍ
  6
DASHED
100
AcDbLine
 10
901.0117682146082
 20
320.369934589439
 30
0.0
 11
901.381866562413
 21
320.7409445075634
 31
0.0
  0
LINE
  5
53C2
330
1F
100
AcDbEntity
  8
SPOJOVACÍ
  6
DASHED
100
AcDbLine
 10
904.0655353527109
 20
319.7491538670044
 30
0.0
 11
903.6954370091844
 21
319.378143949151
 31
0.0
  0
LINE
  5
53C3
330
1F
100
AcDbEntity
  8
SPOJOVACÍ
  6
DASHED
100
AcDbLine
 10
904.0655353527109
 20
319.7491538670044
 30
0.0
 11
903.6954370091844
 21
319.9624617803317
 31
0.0
  0
LINE
  5
53C4
330
1F
100
AcDbEntity
  8
SPOJOVACÍ
  6
DASHED
100
AcDbLine
 10
901.381866562413
 20
320.1566266761117
 30
0.0
 11
903.6954370091844
 21
319.378143949151
 31
0.0
  0
LINE
  5
53C5
330
1F
100
AcDbEntity
  8
SPOJOVACÍ
  6
DASHED
100
AcDbLine
 10
901.381866562413
 20
320.7409445075634
 30
0.0
 11
903.6954370091844
 21
319.9624617803317
 31
0.0
  0
LINE
  5
53C6
330
1F
100
AcDbEntity
  8
SPOJOVACÍ
  6
DASHED
100
AcDbLine
 10
901.0117682146082
 20
320.369934589439
 30
0.0
 11
904.0655353527109
 21
319.7491538670044
 31
0.0
  0
LINE
  5
53C7
330
1F
100
AcDbEntity
  8
SPOJOVACÍ
  6
DASHED
100
AcDbLine
 10
904.9132975718238
 20
328.2222182084267
 30
0.0
 11
904.5431992282974
 21
327.8512082905733
 31
0.0
  0
LINE
  5
53C8
330
1F
100
AcDbEntity
  8
SPOJOVACÍ
  6
DASHED
100
AcDbLine
 10
904.9132975718238
 20
328.2222182084267
 30
0.0
 11
904.5431992282974
 21
328.435526121754
 31
0.0
  0
LINE
  5
53C9
330
1F
100
AcDbEntity
  8
SPOJOVACÍ
  6
DASHED
100
AcDbLine
 10
900.5796829558967
 20
329.1839269635809
 30
0.0
 11
904.5431992282974
 21
327.8512082905733
 31
0.0
  0
LINE
  5
53CA
330
1F
100
AcDbEntity
  8
SPOJOVACÍ
  6
DASHED
100
AcDbLine
 10
900.5796829558967
 20
329.7682447950253
 30
0.0
 11
904.5431992282974
 21
328.435526121754
 31
0.0
  0
LINE
  5
53CB
330
1F
100
AcDbEntity
  8
SPOJOVACÍ
  6
DASHED
100
AcDbLine
 10
904.9132975718238
 20
325.1638932093853
 30
0.0
 11
904.5431992282974
 21
324.7937948637197
 31
0.0
  0
LINE
  5
53CC
330
1F
100
AcDbEntity
  8
SPOJOVACÍ
  6
DASHED
100
AcDbLine
 10
904.9132975718238
 20
325.1638932093853
 30
0.0
 11
904.5431992282974
 21
325.3781126951714
 31
0.0
  0
LINE
  5
53CD
330
1F
100
AcDbEntity
  8
SPOJOVACÍ
  6
DASHED
100
AcDbLine
 10
900.5796829558967
 20
326.126513536991
 30
0.0
 11
904.5431992282974
 21
324.7937948637197
 31
0.0
  0
LINE
  5
53CE
330
1F
100
AcDbEntity
  8
SPOJOVACÍ
  6
DASHED
100
AcDbLine
 10
900.5796829558967
 20
326.7108313684427
 30
0.0
 11
904.5431992282974
 21
325.3781126951714
 31
0.0
  0
LINE
  5
53CF
330
1F
100
AcDbEntity
  8
SPOJOVACÍ
  6
DASHED
100
AcDbLine
 10
904.9132975718238
 20
346.5371675219382
 30
0.0
 11
904.5431992282974
 21
346.1670691762726
 31
0.0
  0
LINE
  5
53D0
330
1F
100
AcDbEntity
  8
SPOJOVACÍ
  6
DASHED
100
AcDbLine
 10
900.5796829558967
 20
347.4997878495439
 30
0.0
 11
904.5431992282974
 21
346.1670691762726
 31
0.0
  0
LINE
  5
53D1
330
1F
100
AcDbEntity
  8
SPOJOVACÍ
  6
DASHED
100
AcDbLine
 10
903.8841324718378
 20
346.3940506740207
 30
0.0
 11
903.8841324718378
 21
343.9255129400923
 31
0.0
  0
LINE
  5
53D2
330
1F
100
AcDbEntity
  8
SPOJOVACÍ
  6
DASHED
100
AcDbLine
 10
900.5796829558967
 20
345.0414578772731
 30
0.0
 11
904.5431992282974
 21
343.7087392042728
 31
0.0
  0
LINE
  5
53D3
330
1F
100
AcDbEntity
  8
SPOJOVACÍ
  6
DASHED
100
AcDbLine
 10
904.9132975718238
 20
343.4945197184867
 30
0.0
 11
904.5431992282974
 21
343.7087392042728
 31
0.0
  0
LINE
  5
53D4
330
1F
100
AcDbEntity
  8
SPOJOVACÍ
  6
DASHED
100
AcDbLine
 10
904.9132975718238
 20
343.4945197184867
 30
0.0
 11
904.5431992282974
 21
343.1244213728211
 31
0.0
  0
LINE
  5
53D5
330
1F
100
AcDbEntity
  8
SPOJOVACÍ
  6
DASHED
100
AcDbLine
 10
900.5796829558967
 20
344.4571400460925
 30
0.0
 11
904.5431992282974
 21
343.1244213728211
 31
0.0
  0
LINE
  5
53D6
330
1F
100
AcDbEntity
  8
SPOJOVACÍ
  6
DASHED
100
AcDbLine
 10
903.8841324718378
 20
343.3514028705692
 30
0.0
 11
903.8841324718378
 21
340.8828651366409
 31
0.0
  0
LINE
  5
53D7
330
1F
100
AcDbEntity
  8
SPOJOVACÍ
  6
DASHED
100
AcDbLine
 10
900.5796829558967
 20
341.9831328785028
 30
0.0
 11
904.5431992282974
 21
340.6513257774193
 31
0.0
  0
LINE
  5
53D8
330
1F
100
AcDbEntity
  8
SPOJOVACÍ
  6
DASHED
100
AcDbLine
 10
904.9132975718238
 20
340.4371062916331
 30
0.0
 11
904.5431992282974
 21
340.6513257774193
 31
0.0
  0
LINE
  5
53D9
330
1F
100
AcDbEntity
  8
SPOJOVACÍ
  6
DASHED
100
AcDbLine
 10
904.9132975718238
 20
340.4371062916331
 30
0.0
 11
904.5431992282974
 21
340.0670079462386
 31
0.0
  0
LINE
  5
53DA
330
1F
100
AcDbEntity
  8
SPOJOVACÍ
  6
DASHED
100
AcDbLine
 10
900.5796829558967
 20
341.3988150470511
 30
0.0
 11
904.5431992282974
 21
340.0670079462386
 31
0.0
  0
LINE
  5
53DB
330
1F
100
AcDbEntity
  8
SPOJOVACÍ
  6
DASHED
100
AcDbLine
 10
903.8841324718378
 20
340.2985473051892
 30
0.0
 11
903.8841324718378
 21
337.8208938485775
 31
0.0
  0
LINE
  5
53DC
330
1F
100
AcDbEntity
  8
SPOJOVACÍ
  6
DASHED
100
AcDbLine
 10
900.5796829558967
 20
338.9413966472391
 30
0.0
 11
904.5431992282974
 21
337.6086779742388
 31
0.0
  0
LINE
  5
53DD
330
1F
100
AcDbEntity
  8
SPOJOVACÍ
  6
DASHED
100
AcDbLine
 10
904.9132975718238
 20
337.3944584884527
 30
0.0
 11
904.5431992282974
 21
337.6086779742388
 31
0.0
  0
LINE
  5
53DE
330
1F
100
AcDbEntity
  8
SPOJOVACÍ
  6
DASHED
100
AcDbLine
 10
904.9132975718238
 20
337.3944584884527
 30
0.0
 11
904.5431992282974
 21
337.0243601427871
 31
0.0
  0
LINE
  5
53DF
330
1F
100
AcDbEntity
  8
SPOJOVACÍ
  6
DASHED
100
AcDbLine
 10
900.5796829558967
 20
338.3570788160584
 30
0.0
 11
904.5431992282974
 21
337.0243601427871
 31
0.0
  0
LINE
  5
53E0
330
1F
100
AcDbEntity
  8
SPOJOVACÍ
  6
DASHED
100
AcDbLine
 10
903.8841324718378
 20
337.2513416405352
 30
0.0
 11
903.8841324718378
 21
334.7828039066068
 31
0.0
  0
LINE
  5
53E1
330
1F
100
AcDbEntity
  8
SPOJOVACÍ
  6
DASHED
100
AcDbLine
 10
900.5796829558967
 20
335.8830716484687
 30
0.0
 11
904.5431992282974
 21
334.5512645473852
 31
0.0
  0
LINE
  5
53E2
330
1F
100
AcDbEntity
  8
SPOJOVACÍ
  6
DASHED
100
AcDbLine
 10
904.9132975718238
 20
334.3370450615991
 30
0.0
 11
904.5431992282974
 21
334.5512645473852
 31
0.0
  0
LINE
  5
53E3
330
1F
100
AcDbEntity
  8
SPOJOVACÍ
  6
DASHED
100
AcDbLine
 10
904.9132975718238
 20
334.3370450615991
 30
0.0
 11
904.5431992282974
 21
333.9669467162045
 31
0.0
  0
LINE
  5
53E4
330
1F
100
AcDbEntity
  8
SPOJOVACÍ
  6
DASHED
100
AcDbLine
 10
900.5796829558967
 20
335.298753817017
 30
0.0
 11
904.5431992282974
 21
333.9669467162045
 31
0.0
  0
LINE
  5
53E5
330
1F
100
AcDbEntity
  8
SPOJOVACÍ
  6
DASHED
100
AcDbLine
 10
903.8841324718378
 20
334.1984860751551
 30
0.0
 11
903.8841324718378
 21
331.7208326185434
 31
0.0
  0
LINE
  5
53E6
330
1F
100
AcDbEntity
  8
SPOJOVACÍ
  6
DASHED
100
AcDbLine
 10
900.5796829558967
 20
332.8256582216151
 30
0.0
 11
904.5431992282974
 21
331.4929395486076
 31
0.0
  0
LINE
  5
53E7
330
1F
100
AcDbEntity
  8
SPOJOVACÍ
  6
DASHED
100
AcDbLine
 10
901.2387497123564
 20
344.2465668493284
 30
0.0
 11
901.2387497123564
 21
341.7780291154001
 31
0.0
  0
LINE
  5
53E8
330
1F
100
AcDbEntity
  8
SPOJOVACÍ
  6
DASHED
100
AcDbLine
 10
901.2387497123564
 20
347.2892146527799
 30
0.0
 11
901.2387497123564
 21
344.8206769188516
 31
0.0
  0
LINE
  5
53E9
330
1F
100
AcDbEntity
  8
SPOJOVACÍ
  6
DASHED
100
AcDbLine
 10
900.5796829558967
 20
332.2413403901634
 30
0.0
 11
904.5431992282974
 21
330.9086217171632
 31
0.0
  0
LINE
  5
53EA
330
1F
100
AcDbEntity
  8
SPOJOVACÍ
  6
DASHED
100
AcDbLine
 10
901.2387497123564
 20
335.0863574758775
 30
0.0
 11
901.2387497123564
 21
332.6159965973026
 31
0.0
  0
LINE
  5
53EB
330
1F
100
AcDbEntity
  8
SPOJOVACÍ
  6
DASHED
100
AcDbLine
 10
901.2387497123564
 20
338.1465056192944
 30
0.0
 11
901.2387497123564
 21
335.6779678853661
 31
0.0
  0
LINE
  5
53EC
330
1F
100
AcDbEntity
  8
SPOJOVACÍ
  6
DASHED
100
AcDbLine
 10
901.2387497123564
 20
341.1864187059116
 30
0.0
 11
901.2387497123564
 21
338.7160578273367
 31
0.0
  0
LINE
  5
53ED
330
1F
100
AcDbEntity
  8
SPOJOVACÍ
  6
DASHED
100
AcDbLine
 10
904.9132975718238
 20
331.2796316350166
 30
0.0
 11
904.5431992282974
 21
330.9086217171632
 31
0.0
  0
LINE
  5
53EE
330
1F
100
AcDbEntity
  8
SPOJOVACÍ
  6
DASHED
100
AcDbLine
 10
904.9132975718238
 20
331.2796316350166
 30
0.0
 11
904.5431992282974
 21
331.4929395486076
 31
0.0
  0
LINE
  5
53EF
330
1F
100
AcDbEntity
  8
SPOJOVACÍ
  6
DASHED
100
AcDbLine
 10
904.7072822370683
 20
352.0657924052436
 30
0.0
 11
905.646201685653
 21
353.2490132244845
 31
0.0
  0
LINE
  5
53F0
330
1F
100
AcDbEntity
  8
SPOJOVACÍ
  6
DASHED
100
AcDbLine
 10
904.1065561049036
 20
350.6802025397344
 30
0.0
 11
904.7072822370683
 21
352.0657924052436
 31
0.0
  0
LINE
  5
53F1
330
1F
100
AcDbEntity
  8
SPOJOVACÍ
  6
DASHED
100
AcDbLine
 10
903.8841324718378
 20
349.1870471453737
 30
0.0
 11
904.1065561049036
 21
350.6802025397344
 31
0.0
  0
LINE
  5
53F2
330
1F
100
AcDbEntity
  8
SPOJOVACÍ
  6
DASHED
100
AcDbLine
 10
903.8841324718378
 20
349.1870471453755
 30
0.0
 11
903.8841324718378
 21
346.972995930894
 31
0.0
  0
LINE
  5
53F3
330
1F
100
AcDbEntity
  8
SPOJOVACÍ
  6
DASHED
100
AcDbLine
 10
900.5796829558967
 20
348.0841056807246
 30
0.0
 11
904.5431992282974
 21
346.7513870077243
 31
0.0
  0
LINE
  5
53F4
330
1F
100
AcDbEntity
  8
SPOJOVACÍ
  6
DASHED
100
AcDbLine
 10
904.9132975718238
 20
346.5371675219382
 30
0.0
 11
904.5431992282974
 21
346.7513870077243
 31
0.0
  0
LINE
  5
53F5
330
1F
100
AcDbEntity
  8
SPOJOVACÍ
  6
DASHED
100
AcDbLine
 10
900.2095846080919
 20
347.7130957628712
 30
0.0
 11
900.5796829558967
 21
347.4997878495439
 31
0.0
  0
LINE
  5
53F6
330
1F
100
AcDbEntity
  8
SPOJOVACÍ
  6
DASHED
100
AcDbLine
 10
900.2095846080919
 20
347.7130957628712
 30
0.0
 11
900.5796829558967
 21
348.0841056807246
 31
0.0
  0
LINE
  5
53F7
330
1F
100
AcDbEntity
  8
SPOJOVACÍ
  6
DASHED
100
AcDbLine
 10
901.2063888962147
 20
349.5726422197037
 30
0.0
 11
901.2387497123564
 21
347.8624967575567
 31
0.0
  0
LINE
  5
53F8
330
1F
100
AcDbEntity
  8
SPOJOVACÍ
  6
DASHED
100
AcDbLine
 10
901.1740280800731
 20
349.9582372940337
 30
0.0
 11
901.2387497123564
 21
349.1870471453737
 31
0.0
  0
LINE
  5
53F9
330
1F
100
AcDbEntity
  8
SPOJOVACÍ
  6
DASHED
100
AcDbLine
 10
900.7547048330598
 20
351.4094603637429
 30
0.0
 11
901.1740280800731
 21
349.9582372940337
 31
0.0
  0
LINE
  5
53FA
330
1F
100
AcDbEntity
  8
SPOJOVACÍ
  6
DASHED
100
AcDbLine
 10
899.974398963328
 20
352.7020698564744
 30
0.0
 11
900.7547048330598
 21
351.4094603637429
 31
0.0
  0
LINE
  5
53FB
330
1F
100
AcDbEntity
  8
SPOJOVACÍ
  6
DASHED
100
AcDbLine
 10
898.8859816609766
 20
353.7494664060984
 30
0.0
 11
899.974398963328
 21
352.7020698564744
 31
0.0
  0
LINE
  5
53FC
330
1F
100
AcDbEntity
  8
SPOJOVACÍ
  6
DASHED
100
AcDbLine
 10
900.2095846080919
 20
347.7130957628712
 30
0.0
 11
904.9132975718238
 21
346.5371675219382
 31
0.0
  0
LINE
  5
53FD
330
1F
100
AcDbEntity
  8
SPOJOVACÍ
  6
DASHED
100
AcDbLine
 10
897.5632902790966
 20
355.65465247104
 30
0.0
 11
897.5632902790966
 21
354.4787242298432
 31
0.0
  0
LINE
  5
53FE
330
1F
100
AcDbEntity
  8
SPOJOVACÍ
  6
DASHED
100
AcDbLine
 10
897.5632902790966
 20
354.4787242298432
 30
0.0
 11
898.8859816609766
 21
353.7494664060984
 31
0.0
  0
LINE
  5
53FF
330
1F
100
AcDbEntity
  8
SPOJOVACÍ
  6
DASHED
100
AcDbLine
 10
907.5595919008192
 20
355.65465247104
 30
0.0
 11
907.5595919008192
 21
354.4787242298432
 31
0.0
  0
LINE
  5
5400
330
1F
100
AcDbEntity
  8
SPOJOVACÍ
  6
DASHED
100
AcDbLine
 10
906.8585928183747
 20
354.1487350647173
 30
0.0
 11
907.5595919008192
 21
354.4787242298432
 31
0.0
  0
LINE
  5
5401
330
1F
100
AcDbEntity
  8
SPOJOVACÍ
  6
DASHED
100
AcDbLine
 10
905.646201685653
 20
353.2490132244845
 30
0.0
 11
906.8585928183747
 21
354.1487350647173
 31
0.0
  0
LINE
  5
5402
330
1F
100
AcDbEntity
  8
SPOJOVACÍ
  6
DASHED
100
AcDbLine
 10
897.5632902790966
 20
355.65465247104
 30
0.0
 11
907.5595919008192
 21
355.65465247104
 31
0.0
  0
LINE
  5
5403
330
1F
100
AcDbEntity
  8
SPOJOVACÍ
  6
DASHED
100
AcDbLine
 10
897.5632902790966
 20
354.4787242298432
 30
0.0
 11
907.5595919008192
 21
354.4787242298432
 31
0.0
  0
LINE
  5
5404
330
1F
100
AcDbEntity
  8
nášlap_vrstvy
100
AcDbLine
 10
789.6046290353606
 20
365.9939055400509
 30
0.0
 11
789.6046290353606
 21
361.5687437058632
 31
0.0
  0
LWPOLYLINE
  5
5405
330
1F
100
AcDbEntity
  8
nášlap_vrstvy
100
AcDbPolyline
 90
        4
 70
     1
 43
0.0
 10
835.7000471812735
 20
357.1546524710402
 10
823.879180826354
 20
357.1546524710402
 10
823.879180826354
 20
355.6546524710402
 10
835.7000471812735
 20
355.6546524710402
  0
HATCH
  5
5406
330
1F
100
AcDbEntity
  8
nášlap_vrstvy
100
AcDbHatch
 10
0.0
 20
0.0
 30
0.0
210
0.0
220
0.0
230
1.0
  2
SOLID
 70
     1
 71
     0
 91
        1
 92
        7
 72
     0
 73
     1
 93
        4
 10
835.7000471812735
 20
357.1546524710402
 10
823.8791808263577
 20
357.1546524710402
 10
823.879180826354
 20
355.6546524710402
 10
835.7000471812735
 20
355.6546524710402
 97
        0
 75
     0
 76
     1
 47
0.1901250437635136
 98
        1
 10
828.5580782055276
 20
356.7462466955012
  0
LINE
  5
5407
330
1F
100
AcDbEntity
  8
nášlap_vrstvy
100
AcDbLine
 10
789.6046290353606
 20
361.5687437058632
 30
0.0
 11
797.1883671749183
 21
361.5687437058632
 31
0.0
  0
LINE
  5
5408
330
1F
100
AcDbEntity
  8
nášlap_vrstvy
100
AcDbLine
 10
797.1883671749183
 20
357.1546524709947
 30
0.0
 11
797.1883671749147
 21
361.5687437058632
 31
0.0
  0
LWPOLYLINE
  5
5409
330
1F
100
AcDbEntity
  8
nášlap_vrstvy
100
AcDbPolyline
 90
        4
 70
     1
 43
0.0
 10
812.0583144714347
 20
357.1546524710402
 10
800.2374481165189
 20
357.1546524710402
 10
800.2374481165189
 20
355.6546524710402
 10
812.0583144714347
 20
355.6546524710402
  0
HATCH
  5
540A
330
1F
100
AcDbEntity
  8
nášlap_vrstvy
100
AcDbHatch
 10
0.0
 20
0.0
 30
0.0
210
0.0
220
0.0
230
1.0
  2
SOLID
 70
     1
 71
     0
 91
        1
 92
        7
 72
     0
 73
     1
 93
        4
 10
812.0583144714382
 20
357.1546524710402
 10
800.2374481165189
 20
357.1546524710402
 10
800.2374481165189
 20
355.6546524710402
 10
812.0583144714382
 20
355.6546524710402
 97
        0
 75
     0
 76
     1
 47
0.1901250437635136
 98
        1
 10
804.9163454956888
 20
356.7462466955012
  0
LWPOLYLINE
  5
540B
330
1F
100
AcDbEntity
  8
nášlap_vrstvy
100
AcDbPolyline
 90
        4
 70
     1
 43
0.0
 10
788.4165817616031
 20
357.1546524710402
 10
776.5957154066836
 20
357.1546524710402
 10
776.5957154066836
 20
355.6546524710402
 10
788.4165817616031
 20
355.6546524710402
  0
HATCH
  5
540C
330
1F
100
AcDbEntity
  8
nášlap_vrstvy
100
AcDbHatch
 10
0.0
 20
0.0
 30
0.0
210
0.0
220
0.0
230
1.0
  2
SOLID
 70
     1
 71
     0
 91
        1
 92
        7
 72
     0
 73
     1
 93
        4
 10
788.4165817616031
 20
357.1546524710402
 10
776.5957154066873
 20
357.1546524710402
 10
776.5957154066836
 20
355.6546524710402
 10
788.4165817616031
 20
355.6546524710402
 97
        0
 75
     0
 76
     1
 47
0.1901250437635136
 98
        1
 10
781.2746127858572
 20
356.7462466955012
  0
LINE
  5
540D
330
1F
100
AcDbEntity
  8
nášlap_vrstvy
100
AcDbLine
 10
797.1883671749183
 20
365.9939055400509
 30
0.0
 11
797.1883671749219
 21
371.3416473185561
 31
0.0
  0
LINE
  5
540E
330
1F
100
AcDbEntity
  8
nášlap_vrstvy
100
AcDbLine
 10
797.1883671749147
 20
365.9939055400509
 30
0.0
 11
789.6046290353606
 21
365.9939055400509
 31
0.0
  0
TEXT
  5
540F
330
1F
100
AcDbEntity
  8
POPIS
100
AcDbText
 10
848.3305833186404
 20
458.247255022502
 30
0.0
 40
25.0
  1
02
 41
0.85
  7
SIMPLEX7
100
AcDbText
  0
TEXT
  5
5410
330
1F
100
AcDbEntity
  8
POPIS
100
AcDbText
 10
342.7607370044952
 20
645.1398932408182
 30
0.0
 40
35.0
  1
SVISLÝ ŘEZ
 41
0.85
  7
SIMPLEX7
100
AcDbText
  0
LWPOLYLINE
  5
5411
330
1F
100
AcDbEntity
  8
izolace
100
AcDbPolyline
 90
        4
 70
     1
 43
0.0
 10
1227.146904183709
 20
331.1044351965906
 10
1203.505171473874
 20
331.1044351965906
 10
1203.505171473874
 20
328.1044351965906
 10
1227.146904183709
 20
328.1044351965906
  0
HATCH
  5
5412
330
1F
100
AcDbEntity
  8
izolace
100
AcDbHatch
 10
0.0
 20
0.0
 30
0.0
210
0.0
220
0.0
230
1.0
  2
SOLID
 70
     1
 71
     0
 91
        1
 92
        7
 72
     0
 73
     1
 93
        4
 10
1227.146904183713
 20
331.1044351965906
 10
1203.505171473878
 20
331.1044351965906
 10
1203.505171473874
 20
328.1044351965906
 10
1227.146904183713
 20
328.1044351965906
 97
        0
 75
     0
 76
     1
 47
0.1901250437635136
 98
        1
 10
1212.862966232218
 20
330.2876236455108
  0
POLYLINE
  5
5413
330
1F
100
AcDbEntity
  8
STAVBA OBRYS
100
AcDb2dPolyline
 66
     1
 10
0.0
 20
0.0
 30
0.0
  0
VERTEX
  5
5414
330
5413
100
AcDbEntity
  8
STAVBA OBRYS
100
AcDbVertex
100
AcDb2dVertex
 10
1216.27146067449
 20
310.104435196591
 30
0.0
 42
0.0094186890201653
  0
VERTEX
  5
5415
330
5413
100
AcDbEntity
  8
STAVBA OBRYS
100
AcDbVertex
100
AcDb2dVertex
 10
1215.924662111616
 20
310.2631080673591
 30
0.0
 42
0.0322692699774654
  0
VERTEX
  5
5416
330
5413
100
AcDbEntity
  8
STAVBA OBRYS
100
AcDbVertex
100
AcDb2dVertex
 10
1213.033307930525
 20
311.3046315687597
 30
0.0
 42
0.0276160659512937
  0
VERTEX
  5
5417
330
5413
100
AcDbEntity
  8
STAVBA OBRYS
100
AcDbVertex
100
AcDb2dVertex
 10
1212.177731492238
 20
311.5013669977042
 30
0.0
 42
0.0126891984598699
  0
VERTEX
  5
5418
330
5413
100
AcDbEntity
  8
STAVBA OBRYS
100
AcDbVertex
100
AcDb2dVertex
 10
1211.254563096447
 20
311.6365693872458
 30
0.0
  0
SEQEND
  5
5419
330
5413
100
AcDbEntity
  8
STAVBA OBRYS
  0
POLYLINE
  5
541A
330
1F
100
AcDbEntity
  8
STAVBA OBRYS
100
AcDb2dPolyline
 66
     1
 10
0.0
 20
0.0
 30
0.0
  0
VERTEX
  5
541B
330
541A
100
AcDbEntity
  8
STAVBA OBRYS
100
AcDbVertex
100
AcDb2dVertex
 10
1225.324606624026
 20
310.104435196591
 30
0.0
 42
0.0502247168465557
  0
VERTEX
  5
541C
330
541A
100
AcDbEntity
  8
STAVBA OBRYS
100
AcDbVertex
100
AcDb2dVertex
 10
1223.725559447861
 20
312.1119058693138
 30
0.0
 42
0.0274923553235744
  0
VERTEX
  5
541D
330
541A
100
AcDbEntity
  8
STAVBA OBRYS
100
AcDbVertex
100
AcDb2dVertex
 10
1221.128253717308
 20
314.496981192452
 30
0.0
 42
0.0255412025538677
  0
VERTEX
  5
541E
330
541A
100
AcDbEntity
  8
STAVBA OBRYS
100
AcDbVertex
100
AcDb2dVertex
 10
1218.076823679597
 20
316.7536948694678
 30
0.0
 42
0.0272796991712396
  0
VERTEX
  5
541F
330
541A
100
AcDbEntity
  8
STAVBA OBRYS
100
AcDbVertex
100
AcDb2dVertex
 10
1213.963824526412
 20
319.1700307511337
 30
0.0
 42
0.056967459841729
  0
VERTEX
  5
5420
330
541A
100
AcDbEntity
  8
STAVBA OBRYS
100
AcDbVertex
100
AcDb2dVertex
 10
1211.82287724568
 20
319.9827665863331
 30
0.0
 42
0.0373408083348504
  0
VERTEX
  5
5421
330
541A
100
AcDbEntity
  8
STAVBA OBRYS
100
AcDbVertex
100
AcDb2dVertex
 10
1211.600522870207
 20
320.0219321272807
 30
0.0
 42
0.0052305969362967
  0
VERTEX
  5
5422
330
541A
100
AcDbEntity
  8
STAVBA OBRYS
100
AcDbVertex
100
AcDb2dVertex
 10
1211.254563096447
 20
320.052889094185
 30
0.0
  0
SEQEND
  5
5423
330
541A
100
AcDbEntity
  8
STAVBA OBRYS
  0
HATCH
  5
5424
330
1F
100
AcDbEntity
  8
nášlap_vrstvy
100
AcDbHatch
 10
0.0
 20
0.0
 30
0.0
210
0.0
220
0.0
230
1.0
  2
ANSI31
 70
     0
 71
     0
 91
        1
 92
        7
 72
     0
 73
     1
 93
        9
 10
1310.845466220735
 20
357.1546524710402
 10
1310.845466220735
 20
371.3416473186061
 10
1157.188367174925
 20
371.3416473186043
 10
1157.188367174918
 20
365.9939055400509
 10
1154.339781092092
 20
365.9939055400509
 10
1154.339781092092
 20
361.5687437058632
 10
1157.188367174918
 20
361.5687437058632
 10
1157.188367174918
 20
357.1546524710402
 10
1161.929254362885
 20
357.1546524710402
 97
        0
 75
     0
 76
     1
 52
15.0
 41
1.0
 77
     0
 78
     1
 53
60.0
 43
-28425.01761071047
 44
8728.474144276736
 45
-2.749630657015592
 46
1.5875
 79
     0
 47
0.764529734544115
 98
        1
 10
1223.197360909018
 20
363.4946340480573
  0
LWPOLYLINE
  5
5425
330
1F
100
AcDbEntity
  8
nášlap_vrstvy
100
AcDbPolyline
 90
        4
 70
     1
 43
0.0
 10
1310.845466220738
 20
355.6546524710402
 10
960.9745263292879
 20
355.6546524710402
 10
960.9745263292879
 20
357.1546524710402
 10
1310.845466220738
 20
357.1546524710402
  0
HATCH
  5
5426
330
1F
100
AcDbEntity
  8
CETRIS
100
AcDbHatch
 10
0.0
 20
0.0
 30
0.0
210
0.0
220
0.0
230
1.0
  2
ANSI31
 70
     0
 71
     0
 91
        6
 92
        7
 72
     0
 73
     1
 93
       37
 10
1058.368950813641
 20
355.65465247104
 10
957.0796643614576
 20
355.65465247104
 10
957.0796643614558
 20
354.4787242298432
 10
956.3786652790149
 20
354.1487350647164
 10
955.1662741462932
 20
353.2490132244845
 10
954.2273546977067
 20
352.0657924052427
 10
953.6266285655438
 20
350.6802025397362
 10
953.4042049324762
 20
349.1870471453783
 10
953.4042049324762
 20
346.9729959308931
 10
954.0632716889376
 20
346.7513870077243
 10
954.433370032464
 20
346.5371675219382
 10
954.0632716889376
 20
346.1670691762744
 10
953.4042049324762
 20
346.3886780994878
 10
953.4042049324762
 20
343.9303481274416
 10
954.0632716889414
 20
343.7087392042728
 10
954.433370032464
 20
343.4945197184867
 10
954.0632716889358
 20
343.1244213728211
 10
953.4042049324762
 20
343.3460302960354
 10
953.4042049324762
 20
340.872783121358
 10
954.0632716889303
 20
340.6513257774211
 10
954.433370032464
 20
340.4371062916331
 10
954.0632716889358
 20
340.0670079462395
 10
953.404204932478
 20
340.2884652901327
 10
953.404204932478
 20
337.8302868974085
 10
954.0632716889341
 20
337.6086779742379
 10
954.4333700324623
 20
337.3944584884536
 10
954.0632716889358
 20
337.024360142788
 10
953.4042049324762
 20
337.2459690660023
 10
953.4042049324762
 20
334.7727218913239
 10
954.0632716889376
 20
334.5512645473843
 10
954.4333700324623
 20
334.3370450615982
 10
954.0632716889358
 20
333.9669467162036
 10
953.404204932478
 20
334.1884040600977
 10
953.4042049324762
 20
331.7145484717782
 10
953.5823361302991
 20
331.654652471039
 10
979.1571777962072
 20
331.654652471039
 10
1058.368950813639
 20
331.6546524710399
 97
        0
 92
        7
 72
     0
 73
     1
 93
       44
 10
950.7588221729948
 20
344.2355311228791
 10
950.0997554165314
 20
344.4571400460925
 10
949.7296570687321
 20
344.6704479594198
 10
950.0997554165351
 20
345.0414578772731
 10
950.7588221729948
 20
344.8198489541052
 10
950.7588221729948
 20
347.2781789263306
 10
950.0997554165314
 20
347.4997878495439
 10
949.7296570687286
 20
347.7130957628712
 10
950.0997554165351
 20
348.0841056807255
 10
950.7588221729948
 20
347.8624967575576
 10
950.7264613568514
 20
349.5726422196883
 10
950.6941005407115
 20
349.9582372940292
 10
950.2747772937
 20
351.4094603637402
 10
949.4944714239645
 20
352.7020698564763
 10
948.406054121613
 20
353.7494664061012
 10
947.083362739735
 20
354.4787242298441
 10
947.083362739735
 20
355.65465247104
 10
929.1571777962072
 20
355.65465247104
 10
929.1571777962072
 20
347.6546524710399
 10
919.1571777962071
 20
347.6546524710399
 10
919.1571777962071
 20
339.6546524710399
 10
929.1571777962072
 20
339.6546524710399
 10
929.1571777962053
 20
331.654652471039
 10
950.758822172993
 20
331.654652471039
 10
950.7588221729948
 20
332.0197314669947
 10
950.0997554165387
 20
332.2413403901625
 10
949.7296570687286
 20
332.4555598759504
 10
950.0997554165369
 20
332.8256582216142
 10
950.7588221729948
 20
332.6040492984473
 10
950.7588221729948
 20
335.0772964731256
 10
950.0997554165424
 20
335.2987538170143
 10
949.7296570687304
 20
335.512973302804
 10
950.0997554165333
 20
335.8830716484687
 10
950.7588221729948
 20
335.661614304531
 10
950.758822172993
 20
338.1354698928441
 10
950.0997554165333
 20
338.3570788160584
 10
949.7296570687304
 20
338.5703867293848
 10
950.0997554165369
 20
338.9413966472391
 10
950.7588221729948
 20
338.7197877240721
 10
950.7588221729948
 20
341.1773577031588
 10
950.0997554165369
 20
341.3988150470502
 10
949.7296570687304
 20
341.6130345328372
 10
950.0997554165351
 20
341.9831328785028
 10
950.7588221729948
 20
341.761675534565
 97
        0
 92
        7
 72
     0
 73
     1
 93
        4
 10
1105.251265627806
 20
355.6546524710408
 10
1058.368950813639
 20
355.6546524710408
 10
1058.368950813637
 20
331.6546524710399
 10
1105.251265627806
 20
331.6546524710409
 97
        0
 92
        7
 72
     0
 73
     1
 93
        4
 10
1154.339781092094
 20
355.6546524710408
 10
1105.251265627806
 20
355.6546524710408
 10
1105.251265627806
 20
331.654652471039
 10
1154.339781092094
 20
331.654652471039
 97
        0
 92
        7
 72
     0
 73
     1
 93
       40
 10
1230.122602757907
 20
347.2781789263306
 10
1229.463536001447
 20
347.4997878495448
 10
1229.093437653646
 20
347.7130957628721
 10
1229.463536001449
 20
348.0841056807255
 10
1230.122602757908
 20
347.8624967575576
 10
1230.090241941765
 20
349.5726422196983
 10
1230.057881125627
 20
349.9582372940374
 10
1229.63855787861
 20
351.4094603637429
 10
1228.858252008878
 20
352.7020698564781
 10
1227.769834706534
 20
353.7494664060966
 10
1226.447143324649
 20
354.4787242298432
 10
1226.447143324649
 20
355.65465247104
 10
1154.339781092096
 20
355.654652471039
 10
1154.339781092094
 20
331.6546524710399
 10
1230.122602757908
 20
331.6546524710399
 10
1230.122602757908
 20
332.0197314669947
 10
1229.463536001443
 20
332.2413403901644
 10
1229.093437653644
 20
332.4555598759495
 10
1229.463536001449
 20
332.8256582216161
 10
1230.122602757908
 20
332.6040492984473
 10
1230.122602757908
 20
335.0772964731247
 10
1229.46353600145
 20
335.2987538170152
 10
1229.093437653644
 20
335.512973302804
 10
1229.463536001449
 20
335.8830716484697
 10
1230.122602757908
 20
335.6616143045318
 10
1230.122602757908
 20
338.1354698928459
 10
1229.46353600145
 20
338.3570788160557
 10
1229.093437653642
 20
338.5703867293857
 10
1229.463536001449
 20
338.94139664724
 10
1230.122602757908
 20
338.7197877240721
 10
1230.122602757908
 20
341.1773577031579
 10
1229.46353600146
 20
341.3988150470493
 10
1229.093437653644
 20
341.6130345328363
 10
1229.46353600145
 20
341.9831328785037
 10
1230.122602757908
 20
341.7616755345677
 10
1230.122602757908
 20
344.2355311228791
 10
1229.463536001447
 20
344.4571400460906
 10
1229.093437653644
 20
344.6704479594207
 10
1229.46353600145
 20
345.0414578772731
 10
1230.122602757908
 20
344.8198489541062
 97
        0
 92
        7
 72
     0
 73
     1
 93
       37
 10
1310.845466220731
 20
355.65465247104
 10
1236.443444946371
 20
355.65465247104
 10
1236.443444946371
 20
354.4787242298432
 10
1235.742445863929
 20
354.1487350647201
 10
1234.530054731207
 20
353.2490132244845
 10
1233.591135282618
 20
352.0657924052409
 10
1232.990409150457
 20
350.6802025397307
 10
1232.76798551739
 20
349.1870471453819
 10
1232.76798551739
 20
346.9729959308931
 10
1233.427052273848
 20
346.7513870077243
 10
1233.797150617374
 20
346.5371675219382
 10
1233.427052273851
 20
346.1670691762726
 10
1232.76798551739
 20
346.388678099486
 10
1232.767985517388
 20
343.9303481274407
 10
1233.427052273851
 20
343.708739204271
 10
1233.797150617374
 20
343.4945197184877
 10
1233.427052273849
 20
343.1244213728211
 10
1232.76798551739
 20
343.3460302960354
 10
1232.76798551739
 20
340.872783121358
 10
1233.427052273848
 20
340.6513257774211
 10
1233.797150617376
 20
340.4371062916341
 10
1233.427052273849
 20
340.0670079462386
 10
1232.76798551739
 20
340.2884652901318
 10
1232.76798551739
 20
337.8302868974067
 10
1233.427052273849
 20
337.6086779742397
 10
1233.797150617374
 20
337.3944584884527
 10
1233.427052273849
 20
337.024360142788
 10
1232.76798551739
 20
337.2459690660023
 10
1232.76798551739
 20
334.7727218913239
 10
1233.427052273855
 20
334.5512645473843
 10
1233.797150617376
 20
334.3370450615982
 10
1233.427052273848
 20
333.9669467162045
 10
1232.767985517388
 20
334.1884040600959
 10
1232.76798551739
 20
331.7145484717773
 10
1232.946116715211
 20
331.654652471039
 10
1257.210769154584
 20
331.654652471039
 10
1310.845466220731
 20
331.6546524710409
 97
        0
 75
     0
 76
     1
 52
90.0
 41
1.0
 77
     0
 78
     1
 53
135.0
 43
-4580.059104716551
 44
-4802.913251040402
 45
-2.245064030267288
 46
-2.245064030267287
 79
     0
 47
0.7293997082383822
 98
        6
 10
1015.330832532254
 20
342.0507722588379
 10
937.9670041829376
 20
342.7801790155724
 10
1067.150016069248
 20
344.9683825108593
 10
1148.163115793424
 20
344.9683825108593
 10
1170.058545855703
 20
347.1565692312331
 10
1247.422402517433
 20
347.1565692312331
  0
LINE
  5
5427
330
1F
100
AcDbEntity
  8
POPIS
100
AcDbLine
 10
1154.339781092096
 20
449.3978939497783
 30
0.0
 11
1154.339781092096
 21
254.6521514112273
 31
0.0
  0
INSERT
  5
5428
330
1F
100
AcDbEntity
  8
POPIS
100
AcDbBlockReference
  2
E_PUNKT
 10
1154.310712761221
 20
254.6797617868551
 30
0.0
 50
270.0
  0
LWPOLYLINE
  5
5429
330
1F
100
AcDbEntity
  8
STAVBA OBRYS
100
AcDbPolyline
 90
        4
 70
     1
 43
0.0
 10
1085.296507924698
 20
331.1044351965906
 10
1061.654775214863
 20
331.1044351965906
 10
1061.654775214863
 20
328.1044351965906
 10
1085.296507924698
 20
328.1044351965906
  0
HATCH
  5
542A
330
1F
100
AcDbEntity
  8
izolace
100
AcDbHatch
 10
0.0
 20
0.0
 30
0.0
210
0.0
220
0.0
230
1.0
  2
SOLID
 70
     1
 71
     0
 91
        1
 92
        7
 72
     0
 73
     1
 93
        4
 10
1085.296507924702
 20
331.1044351965906
 10
1061.654775214867
 20
331.1044351965906
 10
1061.654775214863
 20
328.1044351965906
 10
1085.296507924702
 20
328.1044351965906
 97
        0
 75
     0
 76
     1
 47
0.1901250437635136
 98
        1
 10
1071.012569973207
 20
330.2876236455108
  0
HATCH
  5
542B
330
1F
100
AcDbEntity
  8
nášlap_vrstvy
100
AcDbHatch
 10
0.0
 20
0.0
 30
0.0
210
0.0
220
0.0
230
1.0
  2
SOLID
 70
     1
 71
     0
 91
        1
 92
        7
 72
     0
 73
     1
 93
        4
 10
1067.362323523548
 20
357.1546524710402
 10
1055.541457168628
 20
357.1546524710402
 10
1055.541457168628
 20
355.6546524710402
 10
1067.362323523548
 20
355.6546524710402
 97
        0
 75
     0
 76
     1
 47
0.1901250437635136
 98
        1
 10
1060.220354547798
 20
356.7462466955012
  0
LWPOLYLINE
  5
542C
330
1F
100
AcDbEntity
  8
nášlap_vrstvy
100
AcDbPolyline
 90
        4
 70
     1
 43
0.0
 10
1067.362323523544
 20
357.1546524710402
 10
1055.541457168628
 20
357.1546524710402
 10
1055.541457168628
 20
355.6546524710402
 10
1067.362323523544
 20
355.6546524710402
  0
HATCH
  5
542D
330
1F
100
AcDbEntity
  8
nášlap_vrstvy
100
AcDbHatch
 10
0.0
 20
0.0
 30
0.0
210
0.0
220
0.0
230
1.0
  2
ANSI31
 70
     0
 71
     0
 91
        5
 92
        7
 72
     0
 73
     1
 93
        8
 10
1030.147295449578
 20
357.1546524710402
 10
1030.147295449582
 20
371.3416473186043
 10
977.188367174922
 20
371.3416473186034
 10
977.1883671749183
 20
365.9939055400509
 10
969.6046290353606
 20
365.9939055400509
 10
969.6046290353606
 20
361.5687437058622
 10
977.1883671749147
 20
361.5687437058632
 10
977.1883671749183
 20
357.1546524710411
 97
        0
 92
        7
 72
     0
 73
     1
 93
        4
 10
1030.147295449578
 20
371.3416473186053
 10
1030.147295449578
 20
357.1546524710402
 10
1105.251265627803
 20
357.1546524710411
 10
1105.251265627799
 20
371.3416473186043
 97
        0
 92
        7
 72
     0
 73
     1
 93
        9
 10
1154.339781092092
 20
357.1546524710411
 10
1154.339781092088
 20
361.5687437058632
 10
1149.60462903536
 20
361.5687437058632
 10
1149.604629035367
 20
365.9939055400509
 10
1154.339781092096
 20
365.9939055400509
 10
1154.339781092096
 20
371.3416473186061
 10
1105.25126562781
 20
371.3416473186061
 10
1105.25126562781
 20
357.1546524710402
 10
1114.645788943214
 20
357.1546524710402
 97
        0
 92
        7
 72
     0
 73
     1
 93
        4
 10
1154.339781092096
 20
357.1546524710393
 10
1157.188367174918
 20
357.1546524710393
 10
1157.188367174911
 20
361.5687437058622
 10
1154.339781092092
 20
361.5687437058632
 97
        0
 92
        7
 72
     0
 73
     1
 93
        4
 10
1154.339781092088
 20
365.9939055400509
 10
1157.188367174921
 20
365.9939055400509
 10
1157.188367174921
 20
371.3416473186053
 10
1154.339781092092
 20
371.3416473186053
 97
        0
 75
     0
 76
     1
 52
75.0
 41
1.0
 77
     0
 78
     1
 53
120.0
 43
-28425.01761071047
 44
8728.474144276736
 45
-2.749630657015592
 46
-1.587499999999999
 79
     0
 47
0.1626038495349096
 98
        5
 10
1017.41254894238
 20
363.4946340480573
 10
1046.482501082804
 20
365.0237039021567
 10
1125.277420029376
 20
363.4946340480573
 10
1155.895859964546
 20
359.1769694862569
 10
1155.245014219135
 20
368.2828063132592
  0
LWPOLYLINE
  5
542E
330
1F
100
AcDbEntity
  8
izolace
100
AcDbPolyline
 90
        4
 70
     1
 43
0.0
 10
1038.013042505028
 20
331.1044351965906
 10
1014.371309795193
 20
331.1044351965906
 10
1014.371309795193
 20
328.1044351965906
 10
1038.013042505028
 20
328.1044351965906
  0
HATCH
  5
542F
330
1F
100
AcDbEntity
  8
izolace
100
AcDbHatch
 10
0.0
 20
0.0
 30
0.0
210
0.0
220
0.0
230
1.0
  2
SOLID
 70
     1
 71
     0
 91
        1
 92
        7
 72
     0
 73
     1
 93
        4
 10
1038.013042505032
 20
331.1044351965906
 10
1014.371309795196
 20
331.1044351965906
 10
1014.371309795193
 20
328.1044351965906
 10
1038.013042505032
 20
328.1044351965906
 97
        0
 75
     0
 76
     1
 47
0.1901250437635136
 98
        1
 10
1023.729104553536
 20
330.2876236455108
  0
LINE
  5
5430
330
1F
100
AcDbEntity
  8
STAVBA OBRYS
100
AcDbLine
 10
1061.103586437837
 20
328.1044351965902
 30
0.0
 11
1061.103586437837
 21
310.104435196591
 31
0.0
  0
LWPOLYLINE
  5
5431
330
1F
100
AcDbEntity
  8
STAVBA OBRYS
100
AcDbPolyline
 90
        4
 70
     0
 43
0.0
 10
1044.258558232612
 20
310.104435196591
 42
0.0334776267545482
 10
1043.821280437905
 20
314.1514101253278
 42
0.0091133963862869
 10
1041.343676112987
 20
326.8431399107876
 42
0.007828075361276
 10
1041.052776977829
 20
328.1044351965911
  0
LWPOLYLINE
  5
5432
330
1F
100
AcDbEntity
  8
STAVBA OBRYS
100
AcDbPolyline
 90
        3
 70
     0
 43
0.0
 10
1055.711096095579
 20
310.104435196591
 42
0.0052038508054843
 10
1052.512699155597
 20
326.5082616785885
 42
0.0065712046643719
 10
1052.162273385833
 20
328.1044351965911
  0
LWPOLYLINE
  5
5433
330
1F
100
AcDbEntity
  8
STAVBA OBRYS
100
AcDbPolyline
 90
        5
 70
     0
 43
0.0
 10
1003.867411001343
 20
310.104435196591
 42
0.0133579731639958
 10
1003.480600512315
 20
312.6222374841463
 42
0.0072443097182286
 10
1001.360603564857
 20
323.4331283790534
 42
0.0219777111230329
 10
1000.454491062873
 20
326.9512416348888
 42
0.0092752982622242
 10
1000.079264100926
 20
328.1044351965911
  0
LWPOLYLINE
  5
5434
330
1F
100
AcDbEntity
  8
STAVBA OBRYS
100
AcDbPolyline
 90
        4
 70
     0
 43
0.0
 10
1014.111549376137
 20
310.104435196591
 42
0.0334776267545482
 10
1013.67427158143
 20
314.1514101253278
 42
0.0091133963862869
 10
1011.196667256512
 20
326.8431399107876
 42
0.007828075361276
 10
1010.905768121354
 20
328.1044351965911
  0
LWPOLYLINE
  5
5435
330
1F
100
AcDbEntity
  8
STAVBA OBRYS
100
AcDbPolyline
 90
        3
 70
     0
 43
0.0
 10
1025.564087239104
 20
310.104435196591
 42
0.0052038508054843
 10
1022.365690299122
 20
326.5082616785885
 42
0.0065712046643719
 10
1022.015264529358
 20
328.1044351965911
  0
LWPOLYLINE
  5
5436
330
1F
100
AcDbEntity
  8
STAVBA OBRYS
100
AcDbPolyline
 90
        5
 70
     0
 43
0.0
 10
1034.014419857818
 20
310.104435196591
 42
0.0133579731639958
 10
1033.62760936879
 20
312.6222374841463
 42
0.0072443097182286
 10
1031.507612421332
 20
323.4331283790534
 42
0.0219777111230329
 10
1030.601499919348
 20
326.9512416348888
 42
0.0092752982622242
 10
1030.226272957401
 20
328.1044351965911
  0
LWPOLYLINE
  5
5437
330
1F
100
AcDbEntity
  8
STAVBA OBRYS
100
AcDbPolyline
 90
        4
 70
     0
 43
0.0
 10
1009.504430795326
 20
309.6036047658426
 10
1029.500683227319
 20
318.8196338163625
 10
1046.278573798537
 20
321.5267780790536
 10
1049.542185046242
 20
321.6570794434237
  0
LWPOLYLINE
  5
5438
330
1F
100
AcDbEntity
  8
STAVBA OBRYS
100
AcDbPolyline
 90
        5
 70
     0
 43
0.0
 10
961.7655272418833
 20
310.104435196591
 42
0.0133579731639958
 10
961.3787167528553
 20
312.6222374841463
 42
0.0072443097182286
 10
959.2587198053971
 20
323.4331283790534
 42
0.0219777111230329
 10
958.3526073034136
 20
326.9512416348888
 42
0.0092752982622242
 10
957.9773803414664
 20
328.1044351965911
  0
LWPOLYLINE
  5
5439
330
1F
100
AcDbEntity
  8
STAVBA OBRYS
100
AcDbPolyline
 90
        4
 70
     0
 43
0.0
 10
993.9618071274471
 20
310.104435196591
 42
0.0186324019486548
 10
990.5934377553403
 20
321.7995468148155
 42
0.0582629403736403
 10
988.9339378872591
 20
325.3793810137513
 42
0.0146402521923566
 10
987.149529905675
 20
328.1044351965911
  0
LWPOLYLINE
  5
543A
330
1F
100
AcDbEntity
  8
STAVBA OBRYS
100
AcDbPolyline
 90
        4
 70
     0
 43
0.0
 10
979.3574219388519
 20
309.6036047658426
 10
999.3536743708446
 20
318.8196338163625
 10
1016.131564942063
 20
321.5267780790536
 10
1019.395176189767
 20
321.6570794434237
  0
LWPOLYLINE
  5
543B
330
1F
100
AcDbEntity
  8
STAVBA OBRYS
100
AcDbPolyline
 90
        3
 70
     0
 43
0.0
 10
983.4622034796447
 20
310.104435196591
 42
0.0052038508054843
 10
980.2638065396623
 20
326.5082616785885
 42
0.0065712046643719
 10
979.913380769898
 20
328.1044351965911
  0
LWPOLYLINE
  5
543C
330
1F
100
AcDbEntity
  8
STAVBA OBRYS
100
AcDbPolyline
 90
        4
 70
     0
 43
0.0
 10
972.009665616677
 20
310.104435196591
 42
0.0334776267545482
 10
971.5723878219705
 20
314.1514101253278
 42
0.0091133963862869
 10
969.094783497052
 20
326.8431399107876
 42
0.007828075361276
 10
968.8038843618942
 20
328.1044351965911
  0
LWPOLYLINE
  5
543D
330
1F
100
AcDbEntity
  8
izolace
100
AcDbPolyline
 90
        4
 70
     1
 43
0.0
 10
990.7295770853579
 20
331.1044351965906
 10
967.0878443755228
 20
331.1044351965906
 10
967.0878443755228
 20
328.1044351965906
 10
990.7295770853579
 20
328.1044351965906
  0
HATCH
  5
543E
330
1F
100
AcDbEntity
  8
izolace
100
AcDbHatch
 10
0.0
 20
0.0
 30
0.0
210
0.0
220
0.0
230
1.0
  2
SOLID
 70
     1
 71
     0
 91
        1
 92
        7
 72
     0
 73
     1
 93
        4
 10
990.7295770853616
 20
331.1044351965906
 10
967.0878443755263
 20
331.1044351965906
 10
967.0878443755228
 20
328.1044351965906
 10
990.7295770853616
 20
328.1044351965906
 97
        0
 75
     0
 76
     1
 47
0.1901250437635136
 98
        1
 10
976.4456391338663
 20
330.2876236455108
  0
LWPOLYLINE
  5
543F
330
1F
100
AcDbEntity
  8
izolace
100
AcDbPolyline
 90
        4
 70
     1
 43
0.0
 10
943.4461116656875
 20
331.1044351965906
 10
919.8043789558523
 20
331.1044351965906
 10
919.8043789558523
 20
328.1044351965906
 10
943.4461116656875
 20
328.1044351965906
  0
HATCH
  5
5440
330
1F
100
AcDbEntity
  8
izolace
100
AcDbHatch
 10
0.0
 20
0.0
 30
0.0
210
0.0
220
0.0
230
1.0
  2
SOLID
 70
     1
 71
     0
 91
        1
 92
        7
 72
     0
 73
     1
 93
        4
 10
943.4461116656912
 20
331.1044351965906
 10
919.804378955856
 20
331.1044351965906
 10
919.8043789558523
 20
328.1044351965906
 10
943.4461116656912
 20
328.1044351965906
 97
        0
 75
     0
 76
     1
 47
0.1901250437635136
 98
        1
 10
929.1621737141959
 20
330.2876236455108
  0
LWPOLYLINE
  5
5441
330
1F
100
AcDbEntity
  8
STAVBA OBRYS
100
AcDbPolyline
 90
        4
 70
     0
 43
0.0
 10
951.859923367987
 20
310.104435196591
 42
0.0186324019486548
 10
948.4915539958802
 20
321.7995468148155
 42
0.0582629403736403
 10
946.8320541277989
 20
325.3793810137513
 42
0.0146402521923566
 10
945.0476461462148
 20
328.1044351965911
  0
LWPOLYLINE
  5
5442
330
1F
100
AcDbEntity
  8
STAVBA OBRYS
100
AcDbPolyline
 90
        8
 70
     0
 43
0.0
 10
933.6766580113417
 20
310.104435196591
 42
0.0217273703039143
 10
931.4789877508319
 20
315.1401255340688
 42
0.0882970623535771
 10
929.8417658307389
 20
317.3804945848687
 42
0.0171636441953577
 10
927.0284017688808
 20
319.8944119401139
 42
0.0157521173632038
 10
923.7895469318445
 20
322.4259079926205
 42
0.0073640874174249
 10
919.1558975755233
 20
325.7143094183565
 42
0.0194185739168057
 10
917.3338542558466
 20
326.8658784176377
 42
0.0229547400386702
 10
914.9483961918322
 20
328.1044351965911
  0
LWPOLYLINE
  5
5443
330
1F
100
AcDbEntity
  8
STAVBA OBRYS
100
AcDbPolyline
 90
        6
 70
     0
 43
0.0
 10
943.0494620191439
 20
310.104435196591
 42
0.0121757200102759
 10
941.6794723054827
 20
314.7763525290583
 42
0.0457786284636091
 10
940.4714494158669
 20
317.6249629119347
 42
0.0295006114745606
 10
938.0553889615676
 20
321.5518621253368
 42
0.0258674098621065
 10
934.8227136476035
 20
325.6976422040906
 42
0.0093759062953949
 10
932.6569014679462
 20
328.1044351965911
  0
LWPOLYLINE
  5
5444
330
1F
100
AcDbEntity
  8
STAVBA OBRYS
100
AcDbPolyline
 90
        3
 70
     0
 43
0.0
 10
920.926130247235
 20
310.104435196591
 10
934.7181781738745
 20
317.0055067600778
 10
942.8852828229992
 20
325.1868084611714
  0
LWPOLYLINE
  5
5445
330
1F
100
AcDbEntity
  8
STAVBA OBRYS
100
AcDbPolyline
 90
        4
 70
     0
 43
0.0
 10
937.2555381793917
 20
309.6036047658426
 10
957.2517906113844
 20
318.8196338163625
 10
974.0296811826029
 20
321.5267780790536
 10
977.2932924303077
 20
321.6570794434237
  0
LWPOLYLINE
  5
5446
330
1F
100
AcDbEntity
  8
nášlap_vrstvy
100
AcDbPolyline
 90
        4
 70
     1
 43
0.0
 10
972.7953926842037
 20
357.1546524710402
 10
960.9745263292879
 20
357.1546524710402
 10
960.9745263292879
 20
355.6546524710402
 10
972.7953926842037
 20
355.6546524710402
  0
HATCH
  5
5447
330
1F
100
AcDbEntity
  8
nášlap_vrstvy
100
AcDbHatch
 10
0.0
 20
0.0
 30
0.0
210
0.0
220
0.0
230
1.0
  2
SOLID
 70
     1
 71
     0
 91
        1
 92
        7
 72
     0
 73
     1
 93
        4
 10
972.7953926842037
 20
357.1546524710402
 10
960.9745263292879
 20
357.1546524710402
 10
960.9745263292879
 20
355.6546524710402
 10
972.7953926842074
 20
355.6546524710402
 97
        0
 75
     0
 76
     1
 47
0.1901250437635136
 98
        3
 10
986.9171378162992
 20
356.2709300063461
 10
968.7490424026274
 20
356.1758666685154
 10
966.7515063080154
 20
356.4610566820074
  0
LINE
  5
5448
330
1F
100
AcDbEntity
  8
POPIS
100
AcDbLine
 10
949.9262457003151
 20
449.3978939497783
 30
0.0
 11
949.9262457003133
 21
356.4493892327992
 31
0.0
  0
INSERT
  5
5449
330
1F
100
AcDbEntity
  8
POPIS
100
AcDbBlockReference
  2
E_PUNKT
 10
949.897177369441
 20
356.476999608426
 30
0.0
 50
270.0
  0
LINE
  5
544A
330
1F
100
AcDbEntity
  8
nášlap_vrstvy
100
AcDbLine
 10
969.6046290353606
 20
365.9939055400509
 30
0.0
 11
969.6046290353606
 21
361.5687437058632
 31
0.0
  0
LINE
  5
544B
330
1F
100
AcDbEntity
  8
POPIS
100
AcDbLine
 10
1030.147295449578
 20
449.3978939497783
 30
0.0
 11
1030.147295449576
 21
345.2045433813965
 31
0.0
  0
LINE
  5
544C
330
1F
100
AcDbEntity
  8
nášlap_vrstvy
100
AcDbLine
 10
977.1883671749183
 20
357.1546524709947
 30
0.0
 11
977.1883671749147
 21
361.5687437058632
 31
0.0
  0
LINE
  5
544D
330
1F
100
AcDbEntity
  8
nášlap_vrstvy
100
AcDbLine
 10
969.6046290353606
 20
361.5687437058632
 30
0.0
 11
977.1883671749183
 21
361.5687437058632
 31
0.0
  0
LWPOLYLINE
  5
544E
330
1F
100
AcDbEntity
  8
nášlap_vrstvy
100
AcDbPolyline
 90
        4
 70
     1
 43
0.0
 10
996.4371253940425
 20
357.1546524710402
 10
984.6162590391232
 20
357.1546524710402
 10
984.6162590391232
 20
355.6546524710402
 10
996.4371253940425
 20
355.6546524710402
  0
HATCH
  5
544F
330
1F
100
AcDbEntity
  8
nášlap_vrstvy
100
AcDbHatch
 10
0.0
 20
0.0
 30
0.0
210
0.0
220
0.0
230
1.0
  2
SOLID
 70
     1
 71
     0
 91
        1
 92
        7
 72
     0
 73
     1
 93
        4
 10
996.4371253940425
 20
357.1546524710402
 10
984.6162590391267
 20
357.1546524710402
 10
984.6162590391232
 20
355.6546524710402
 10
996.4371253940425
 20
355.6546524710402
 97
        0
 75
     0
 76
     1
 47
0.1901250437635136
 98
        1
 10
989.2951564182967
 20
356.7462466955012
  0
INSERT
  5
5450
330
1F
100
AcDbEntity
  8
POPIS
100
AcDbBlockReference
  2
E_PUNKT
 10
1030.118227118704
 20
345.2321537570233
 30
0.0
 50
270.0
  0
LINE
  5
5451
330
1F
100
AcDbEntity
  8
nášlap_vrstvy
100
AcDbLine
 10
977.1883671749147
 20
365.9939055400509
 30
0.0
 11
969.6046290353606
 21
365.9939055400509
 31
0.0
  0
LINE
  5
5452
330
1F
100
AcDbEntity
  8
nášlap_vrstvy
100
AcDbLine
 10
977.1883671749183
 20
365.9939055400509
 30
0.0
 11
977.188367174922
 21
371.3416473185561
 31
0.0
  0
LINE
  5
5453
330
1F
100
AcDbEntity
  8
SPOJOVACÍ
  6
DASHED
100
AcDbLine
 10
951.3431400068494
 20
320.0144214003819
 30
0.0
 11
951.6275505551002
 21
317.7400485622336
 31
0.0
  0
LINE
  5
5454
330
1F
100
AcDbEntity
  8
SPOJOVACÍ
  6
DASHED
100
AcDbLine
 10
952.499013658582
 20
317.441964426617
 30
0.0
 11
952.7615464743266
 21
319.5440501039017
 31
0.0
  0
LINE
  5
5455
330
1F
100
AcDbEntity
  8
SPOJOVACÍ
  6
DASHED
100
AcDbLine
 10
952.0815135505964
 20
314.1046983100484
 30
0.0
 11
952.4288225921027
 21
316.8840821912915
 31
0.0
  0
LINE
  5
5456
330
1F
100
AcDbEntity
  8
SPOJOVACÍ
  6
DASHED
100
AcDbLine
 10
951.7032110557757
 20
317.1320298514972
 30
0.0
 11
952.0815135505964
 21
314.1046983100484
 31
0.0
  0
LINE
  5
5457
330
1F
100
AcDbEntity
  8
SPOJOVACÍ
  6
DASHED
100
AcDbLine
 10
951.0851650515087
 20
317.4164404026857
 30
0.0
 11
951.4552633950351
 21
317.2022209169069
 31
0.0
  0
LINE
  5
5458
330
1F
100
AcDbEntity
  8
SPOJOVACÍ
  6
DASHED
100
AcDbLine
 10
951.0851650515087
 20
317.4164404026857
 30
0.0
 11
951.4552633950351
 21
317.7865387483514
 31
0.0
  0
LINE
  5
5459
330
1F
100
AcDbEntity
  8
SPOJOVACÍ
  6
DASHED
100
AcDbLine
 10
953.1963664501363
 20
317.1119752612273
 30
0.0
 11
952.8262681066099
 21
316.740965343374
 31
0.0
  0
LINE
  5
545A
330
1F
100
AcDbEntity
  8
SPOJOVACÍ
  6
DASHED
100
AcDbLine
 10
953.1963664501363
 20
317.1119752612273
 30
0.0
 11
952.8262681066099
 21
317.3252831748184
 31
0.0
  0
LINE
  5
545B
330
1F
100
AcDbEntity
  8
SPOJOVACÍ
  6
DASHED
100
AcDbLine
 10
951.4552633950351
 20
317.2022209169069
 30
0.0
 11
952.8262681066099
 21
316.740965343374
 31
0.0
  0
LINE
  5
545C
330
1F
100
AcDbEntity
  8
SPOJOVACÍ
  6
DASHED
100
AcDbLine
 10
951.4552633950351
 20
317.7865387483514
 30
0.0
 11
952.8262681066099
 21
317.3252831748184
 31
0.0
  0
LINE
  5
545D
330
1F
100
AcDbEntity
  8
SPOJOVACÍ
  6
DASHED
100
AcDbLine
 10
951.0851650515087
 20
317.4164404026857
 30
0.0
 11
953.1963664501363
 21
317.1119752612273
 31
0.0
  0
LINE
  5
545E
330
1F
100
AcDbEntity
  8
SPOJOVACÍ
  6
DASHED
100
AcDbLine
 10
950.7588221729948
 20
332.0335019104975
 30
0.0
 11
950.7588221729948
 21
329.5558484538858
 31
0.0
  0
LINE
  5
545F
330
1F
100
AcDbEntity
  8
SPOJOVACÍ
  6
DASHED
100
AcDbLine
 10
953.4042049324762
 20
331.1383379317383
 30
0.0
 11
953.4042049324762
 21
328.6679770531634
 31
0.0
  0
LINE
  5
5460
330
1F
100
AcDbEntity
  8
SPOJOVACÍ
  6
DASHED
100
AcDbLine
 10
950.7588221729948
 20
328.9633264719457
 30
0.0
 11
950.7588221729948
 21
326.4957003102051
 31
0.0
  0
LINE
  5
5461
330
1F
100
AcDbEntity
  8
SPOJOVACÍ
  6
DASHED
100
AcDbLine
 10
950.7588221729948
 20
325.9113824787534
 30
0.0
 11
950.7588221729948
 21
324.6889640517026
 31
0.0
  0
LINE
  5
5462
330
1F
100
AcDbEntity
  8
SPOJOVACÍ
  6
DASHED
100
AcDbLine
 10
953.4042049324762
 20
328.0791013605091
 30
0.0
 11
953.4042049324762
 21
325.6105636265808
 31
0.0
  0
LINE
  5
5463
330
1F
100
AcDbEntity
  8
SPOJOVACÍ
  6
DASHED
100
AcDbLine
 10
953.4042049324762
 20
325.0189532168285
 30
0.0
 11
953.4042049324762
 21
324.6889640517026
 31
0.0
  0
LINE
  5
5464
330
1F
100
AcDbEntity
  8
SPOJOVACÍ
  6
DASHED
100
AcDbLine
 10
950.7588221729948
 20
324.6889640517026
 30
0.0
 11
950.9055853096633
 21
323.5157705273329
 31
0.0
  0
LINE
  5
5465
330
1F
100
AcDbEntity
  8
SPOJOVACÍ
  6
DASHED
100
AcDbLine
 10
950.9812458103388
 20
322.9077518165965
 30
0.0
 11
951.2656563628679
 21
320.6324674062532
 31
0.0
  0
LINE
  5
5466
330
1F
100
AcDbEntity
  8
SPOJOVACÍ
  6
DASHED
100
AcDbLine
 10
952.8317375365277
 20
320.1046670560615
 30
0.0
 11
953.0933587827584
 21
322.1985485828579
 31
0.0
  0
LINE
  5
5467
330
1F
100
AcDbEntity
  8
SPOJOVACÍ
  6
DASHED
100
AcDbLine
 10
953.1635498492377
 20
322.7573423906421
 30
0.0
 11
953.4042049324762
 21
324.6889640517026
 31
0.0
  0
LINE
  5
5468
330
1F
100
AcDbEntity
  8
SPOJOVACÍ
  6
DASHED
100
AcDbLine
 10
949.978516303263
 20
323.324340348651
 30
0.0
 11
950.3495262205815
 21
323.1101208628649
 31
0.0
  0
LINE
  5
5469
330
1F
100
AcDbEntity
  8
SPOJOVACÍ
  6
DASHED
100
AcDbLine
 10
949.978516303263
 20
323.324340348651
 30
0.0
 11
950.3495262205815
 21
323.6944386943166
 31
0.0
  0
LINE
  5
546A
330
1F
100
AcDbEntity
  8
SPOJOVACÍ
  6
DASHED
100
AcDbLine
 10
954.021339362951
 20
322.3708357439925
 30
0.0
 11
953.6512410194246
 21
321.9998258258681
 31
0.0
  0
LINE
  5
546B
330
1F
100
AcDbEntity
  8
SPOJOVACÍ
  6
DASHED
100
AcDbLine
 10
954.021339362951
 20
322.3708357439925
 30
0.0
 11
953.6512410194246
 21
322.5841436573198
 31
0.0
  0
LINE
  5
546C
330
1F
100
AcDbEntity
  8
SPOJOVACÍ
  6
DASHED
100
AcDbLine
 10
950.3495262205815
 20
323.1101208628649
 30
0.0
 11
953.6512410194246
 21
321.9998258258681
 31
0.0
  0
LINE
  5
546D
330
1F
100
AcDbEntity
  8
SPOJOVACÍ
  6
DASHED
100
AcDbLine
 10
950.3495262205815
 20
323.6944386943166
 30
0.0
 11
953.6512410194246
 21
322.5841436573198
 31
0.0
  0
LINE
  5
546E
330
1F
100
AcDbEntity
  8
SPOJOVACÍ
  6
DASHED
100
AcDbLine
 10
949.978516303263
 20
323.324340348651
 30
0.0
 11
954.021339362951
 21
322.3708357439925
 31
0.0
  0
LINE
  5
546F
330
1F
100
AcDbEntity
  8
SPOJOVACÍ
  6
DASHED
100
AcDbLine
 10
950.5318406752467
 20
320.369934589439
 30
0.0
 11
950.9019390230514
 21
320.1566266761117
 31
0.0
  0
LINE
  5
5470
330
1F
100
AcDbEntity
  8
SPOJOVACÍ
  6
DASHED
100
AcDbLine
 10
950.5318406752467
 20
320.369934589439
 30
0.0
 11
950.9019390230514
 21
320.7409445075634
 31
0.0
  0
LINE
  5
5471
330
1F
100
AcDbEntity
  8
SPOJOVACÍ
  6
DASHED
100
AcDbLine
 10
953.5856078133493
 20
319.7491538670044
 30
0.0
 11
953.2155094698227
 21
319.378143949151
 31
0.0
  0
LINE
  5
5472
330
1F
100
AcDbEntity
  8
SPOJOVACÍ
  6
DASHED
100
AcDbLine
 10
953.5856078133493
 20
319.7491538670044
 30
0.0
 11
953.2155094698227
 21
319.9624617803317
 31
0.0
  0
LINE
  5
5473
330
1F
100
AcDbEntity
  8
SPOJOVACÍ
  6
DASHED
100
AcDbLine
 10
950.9019390230514
 20
320.1566266761117
 30
0.0
 11
953.2155094698227
 21
319.378143949151
 31
0.0
  0
LINE
  5
5474
330
1F
100
AcDbEntity
  8
SPOJOVACÍ
  6
DASHED
100
AcDbLine
 10
950.9019390230514
 20
320.7409445075634
 30
0.0
 11
953.2155094698227
 21
319.9624617803317
 31
0.0
  0
LINE
  5
5475
330
1F
100
AcDbEntity
  8
SPOJOVACÍ
  6
DASHED
100
AcDbLine
 10
950.5318406752467
 20
320.369934589439
 30
0.0
 11
953.5856078133493
 21
319.7491538670044
 31
0.0
  0
LINE
  5
5476
330
1F
100
AcDbEntity
  8
SPOJOVACÍ
  6
DASHED
100
AcDbLine
 10
949.7296570687304
 20
329.3981464493597
 30
0.0
 11
954.4333700324623
 21
328.2222182084267
 31
0.0
  0
LINE
  5
5477
330
1F
100
AcDbEntity
  8
SPOJOVACÍ
  6
DASHED
100
AcDbLine
 10
949.7296570687304
 20
329.3981464493597
 30
0.0
 11
950.0997554165351
 21
329.1839269635809
 31
0.0
  0
LINE
  5
5478
330
1F
100
AcDbEntity
  8
SPOJOVACÍ
  6
DASHED
100
AcDbLine
 10
949.7296570687304
 20
329.3981464493597
 30
0.0
 11
950.0997554165351
 21
329.7682447950253
 31
0.0
  0
LINE
  5
5479
330
1F
100
AcDbEntity
  8
SPOJOVACÍ
  6
DASHED
100
AcDbLine
 10
954.4333700324623
 20
328.2222182084267
 30
0.0
 11
954.0632716889358
 21
327.8512082905733
 31
0.0
  0
LINE
  5
547A
330
1F
100
AcDbEntity
  8
SPOJOVACÍ
  6
DASHED
100
AcDbLine
 10
954.4333700324623
 20
328.2222182084267
 30
0.0
 11
954.0632716889358
 21
328.435526121754
 31
0.0
  0
LINE
  5
547B
330
1F
100
AcDbEntity
  8
SPOJOVACÍ
  6
DASHED
100
AcDbLine
 10
950.0997554165351
 20
329.1839269635809
 30
0.0
 11
954.0632716889358
 21
327.8512082905733
 31
0.0
  0
LINE
  5
547C
330
1F
100
AcDbEntity
  8
SPOJOVACÍ
  6
DASHED
100
AcDbLine
 10
950.0997554165351
 20
329.7682447950253
 30
0.0
 11
954.0632716889358
 21
328.435526121754
 31
0.0
  0
LINE
  5
547D
330
1F
100
AcDbEntity
  8
SPOJOVACÍ
  6
DASHED
100
AcDbLine
 10
949.7296570687304
 20
326.3398214503183
 30
0.0
 11
954.4333700324623
 21
325.1638932093853
 31
0.0
  0
LINE
  5
547E
330
1F
100
AcDbEntity
  8
SPOJOVACÍ
  6
DASHED
100
AcDbLine
 10
949.7296570687304
 20
326.3398214503183
 30
0.0
 11
950.0997554165351
 21
326.126513536991
 31
0.0
  0
LINE
  5
547F
330
1F
100
AcDbEntity
  8
SPOJOVACÍ
  6
DASHED
100
AcDbLine
 10
949.7296570687304
 20
326.3398214503183
 30
0.0
 11
950.0997554165351
 21
326.7108313684427
 31
0.0
  0
LINE
  5
5480
330
1F
100
AcDbEntity
  8
SPOJOVACÍ
  6
DASHED
100
AcDbLine
 10
954.4333700324623
 20
325.1638932093853
 30
0.0
 11
954.0632716889358
 21
324.7937948637197
 31
0.0
  0
LINE
  5
5481
330
1F
100
AcDbEntity
  8
SPOJOVACÍ
  6
DASHED
100
AcDbLine
 10
954.4333700324623
 20
325.1638932093853
 30
0.0
 11
954.0632716889358
 21
325.3781126951714
 31
0.0
  0
LINE
  5
5482
330
1F
100
AcDbEntity
  8
SPOJOVACÍ
  6
DASHED
100
AcDbLine
 10
950.0997554165351
 20
326.126513536991
 30
0.0
 11
954.0632716889358
 21
324.7937948637197
 31
0.0
  0
LINE
  5
5483
330
1F
100
AcDbEntity
  8
SPOJOVACÍ
  6
DASHED
100
AcDbLine
 10
950.0997554165351
 20
326.7108313684427
 30
0.0
 11
954.0632716889358
 21
325.3781126951714
 31
0.0
  0
LINE
  5
5484
330
1F
100
AcDbEntity
  8
SPOJOVACÍ
  6
DASHED
100
AcDbLine
 10
957.0796643614576
 20
355.65465247104
 30
0.0
 11
957.0796643614576
 21
354.4787242298432
 31
0.0
  0
LINE
  5
5485
330
1F
100
AcDbEntity
  8
SPOJOVACÍ
  6
DASHED
100
AcDbLine
 10
956.3786652790131
 20
354.1487350647173
 30
0.0
 11
957.0796643614576
 21
354.4787242298432
 31
0.0
  0
LINE
  5
5486
330
1F
100
AcDbEntity
  8
SPOJOVACÍ
  6
DASHED
100
AcDbLine
 10
955.1662741462914
 20
353.2490132244845
 30
0.0
 11
956.3786652790131
 21
354.1487350647173
 31
0.0
  0
LINE
  5
5487
330
1F
100
AcDbEntity
  8
SPOJOVACÍ
  6
DASHED
100
AcDbLine
 10
954.2273546977067
 20
352.0657924052436
 30
0.0
 11
955.1662741462914
 21
353.2490132244845
 31
0.0
  0
LINE
  5
5488
330
1F
100
AcDbEntity
  8
SPOJOVACÍ
  6
DASHED
100
AcDbLine
 10
953.626628565542
 20
350.6802025397344
 30
0.0
 11
954.2273546977067
 21
352.0657924052436
 31
0.0
  0
LINE
  5
5489
330
1F
100
AcDbEntity
  8
SPOJOVACÍ
  6
DASHED
100
AcDbLine
 10
953.4042049324762
 20
349.1870471453737
 30
0.0
 11
953.626628565542
 21
350.6802025397344
 31
0.0
  0
LINE
  5
548A
330
1F
100
AcDbEntity
  8
SPOJOVACÍ
  6
DASHED
100
AcDbLine
 10
953.4042049324762
 20
349.1870471453755
 30
0.0
 11
953.4042049324762
 21
346.972995930894
 31
0.0
  0
LINE
  5
548B
330
1F
100
AcDbEntity
  8
SPOJOVACÍ
  6
DASHED
100
AcDbLine
 10
950.0997554165351
 20
348.0841056807246
 30
0.0
 11
954.0632716889358
 21
346.7513870077243
 31
0.0
  0
LINE
  5
548C
330
1F
100
AcDbEntity
  8
SPOJOVACÍ
  6
DASHED
100
AcDbLine
 10
954.4333700324623
 20
346.5371675219382
 30
0.0
 11
954.0632716889358
 21
346.7513870077243
 31
0.0
  0
LINE
  5
548D
330
1F
100
AcDbEntity
  8
SPOJOVACÍ
  6
DASHED
100
AcDbLine
 10
954.4333700324623
 20
346.5371675219382
 30
0.0
 11
954.0632716889358
 21
346.1670691762726
 31
0.0
  0
LINE
  5
548E
330
1F
100
AcDbEntity
  8
SPOJOVACÍ
  6
DASHED
100
AcDbLine
 10
950.0997554165351
 20
347.4997878495439
 30
0.0
 11
954.0632716889358
 21
346.1670691762726
 31
0.0
  0
LINE
  5
548F
330
1F
100
AcDbEntity
  8
SPOJOVACÍ
  6
DASHED
100
AcDbLine
 10
953.4042049324762
 20
346.3940506740207
 30
0.0
 11
953.4042049324762
 21
343.9255129400923
 31
0.0
  0
LINE
  5
5490
330
1F
100
AcDbEntity
  8
SPOJOVACÍ
  6
DASHED
100
AcDbLine
 10
950.0997554165351
 20
345.0414578772731
 30
0.0
 11
954.0632716889358
 21
343.7087392042728
 31
0.0
  0
LINE
  5
5491
330
1F
100
AcDbEntity
  8
SPOJOVACÍ
  6
DASHED
100
AcDbLine
 10
954.4333700324623
 20
343.4945197184867
 30
0.0
 11
954.0632716889358
 21
343.7087392042728
 31
0.0
  0
LINE
  5
5492
330
1F
100
AcDbEntity
  8
SPOJOVACÍ
  6
DASHED
100
AcDbLine
 10
954.4333700324623
 20
343.4945197184867
 30
0.0
 11
954.0632716889358
 21
343.1244213728211
 31
0.0
  0
LINE
  5
5493
330
1F
100
AcDbEntity
  8
SPOJOVACÍ
  6
DASHED
100
AcDbLine
 10
950.0997554165351
 20
344.4571400460925
 30
0.0
 11
954.0632716889358
 21
343.1244213728211
 31
0.0
  0
LINE
  5
5494
330
1F
100
AcDbEntity
  8
SPOJOVACÍ
  6
DASHED
100
AcDbLine
 10
953.4042049324762
 20
343.3514028705692
 30
0.0
 11
953.4042049324762
 21
340.8828651366409
 31
0.0
  0
LINE
  5
5495
330
1F
100
AcDbEntity
  8
SPOJOVACÍ
  6
DASHED
100
AcDbLine
 10
950.0997554165351
 20
341.9831328785028
 30
0.0
 11
954.0632716889358
 21
340.6513257774193
 31
0.0
  0
LINE
  5
5496
330
1F
100
AcDbEntity
  8
SPOJOVACÍ
  6
DASHED
100
AcDbLine
 10
954.4333700324623
 20
340.4371062916331
 30
0.0
 11
954.0632716889358
 21
340.6513257774193
 31
0.0
  0
LINE
  5
5497
330
1F
100
AcDbEntity
  8
SPOJOVACÍ
  6
DASHED
100
AcDbLine
 10
954.4333700324623
 20
340.4371062916331
 30
0.0
 11
954.0632716889358
 21
340.0670079462386
 31
0.0
  0
LINE
  5
5498
330
1F
100
AcDbEntity
  8
SPOJOVACÍ
  6
DASHED
100
AcDbLine
 10
950.0997554165351
 20
341.3988150470511
 30
0.0
 11
954.0632716889358
 21
340.0670079462386
 31
0.0
  0
LINE
  5
5499
330
1F
100
AcDbEntity
  8
SPOJOVACÍ
  6
DASHED
100
AcDbLine
 10
953.4042049324762
 20
340.2985473051892
 30
0.0
 11
953.4042049324762
 21
337.8208938485775
 31
0.0
  0
LINE
  5
549A
330
1F
100
AcDbEntity
  8
SPOJOVACÍ
  6
DASHED
100
AcDbLine
 10
950.0997554165351
 20
338.9413966472391
 30
0.0
 11
954.0632716889358
 21
337.6086779742388
 31
0.0
  0
LINE
  5
549B
330
1F
100
AcDbEntity
  8
SPOJOVACÍ
  6
DASHED
100
AcDbLine
 10
954.4333700324623
 20
337.3944584884527
 30
0.0
 11
954.0632716889358
 21
337.6086779742388
 31
0.0
  0
LINE
  5
549C
330
1F
100
AcDbEntity
  8
SPOJOVACÍ
  6
DASHED
100
AcDbLine
 10
954.4333700324623
 20
337.3944584884527
 30
0.0
 11
954.0632716889358
 21
337.0243601427871
 31
0.0
  0
LINE
  5
549D
330
1F
100
AcDbEntity
  8
SPOJOVACÍ
  6
DASHED
100
AcDbLine
 10
950.0997554165351
 20
338.3570788160584
 30
0.0
 11
954.0632716889358
 21
337.0243601427871
 31
0.0
  0
LINE
  5
549E
330
1F
100
AcDbEntity
  8
SPOJOVACÍ
  6
DASHED
100
AcDbLine
 10
953.4042049324762
 20
337.2513416405352
 30
0.0
 11
953.4042049324762
 21
334.7828039066068
 31
0.0
  0
LINE
  5
549F
330
1F
100
AcDbEntity
  8
SPOJOVACÍ
  6
DASHED
100
AcDbLine
 10
950.0997554165351
 20
335.8830716484687
 30
0.0
 11
954.0632716889358
 21
334.5512645473852
 31
0.0
  0
LINE
  5
54A0
330
1F
100
AcDbEntity
  8
SPOJOVACÍ
  6
DASHED
100
AcDbLine
 10
954.4333700324623
 20
334.3370450615991
 30
0.0
 11
954.0632716889358
 21
334.5512645473852
 31
0.0
  0
LINE
  5
54A1
330
1F
100
AcDbEntity
  8
SPOJOVACÍ
  6
DASHED
100
AcDbLine
 10
954.4333700324623
 20
334.3370450615991
 30
0.0
 11
954.0632716889358
 21
333.9669467162045
 31
0.0
  0
LINE
  5
54A2
330
1F
100
AcDbEntity
  8
SPOJOVACÍ
  6
DASHED
100
AcDbLine
 10
950.0997554165351
 20
335.298753817017
 30
0.0
 11
954.0632716889358
 21
333.9669467162045
 31
0.0
  0
LINE
  5
54A3
330
1F
100
AcDbEntity
  8
SPOJOVACÍ
  6
DASHED
100
AcDbLine
 10
953.4042049324762
 20
334.1984860751551
 30
0.0
 11
953.4042049324762
 21
331.7208326185434
 31
0.0
  0
LINE
  5
54A4
330
1F
100
AcDbEntity
  8
SPOJOVACÍ
  6
DASHED
100
AcDbLine
 10
950.0997554165351
 20
332.8256582216151
 30
0.0
 11
954.0632716889358
 21
331.4929395486076
 31
0.0
  0
LINE
  5
54A5
330
1F
100
AcDbEntity
  8
SPOJOVACÍ
  6
DASHED
100
AcDbLine
 10
949.7296570687304
 20
344.6704479594198
 30
0.0
 11
950.0997554165351
 21
344.4571400460925
 31
0.0
  0
LINE
  5
54A6
330
1F
100
AcDbEntity
  8
SPOJOVACÍ
  6
DASHED
100
AcDbLine
 10
949.7296570687304
 20
344.6704479594198
 30
0.0
 11
950.0997554165351
 21
345.0414578772731
 31
0.0
  0
LINE
  5
54A7
330
1F
100
AcDbEntity
  8
SPOJOVACÍ
  6
DASHED
100
AcDbLine
 10
950.7588221729948
 20
347.2892146527799
 30
0.0
 11
950.7588221729948
 21
344.8206769188516
 31
0.0
  0
LINE
  5
54A8
330
1F
100
AcDbEntity
  8
SPOJOVACÍ
  6
DASHED
100
AcDbLine
 10
949.7296570687304
 20
347.7130957628712
 30
0.0
 11
950.0997554165351
 21
347.4997878495439
 31
0.0
  0
LINE
  5
54A9
330
1F
100
AcDbEntity
  8
SPOJOVACÍ
  6
DASHED
100
AcDbLine
 10
949.7296570687304
 20
347.7130957628712
 30
0.0
 11
950.0997554165351
 21
348.0841056807246
 31
0.0
  0
LINE
  5
54AA
330
1F
100
AcDbEntity
  8
SPOJOVACÍ
  6
DASHED
100
AcDbLine
 10
950.7264613568532
 20
349.5726422197037
 30
0.0
 11
950.7588221729948
 21
347.8624967575567
 31
0.0
  0
LINE
  5
54AB
330
1F
100
AcDbEntity
  8
SPOJOVACÍ
  6
DASHED
100
AcDbLine
 10
950.6941005407115
 20
349.9582372940337
 30
0.0
 11
950.7588221729948
 21
349.1870471453737
 31
0.0
  0
LINE
  5
54AC
330
1F
100
AcDbEntity
  8
SPOJOVACÍ
  6
DASHED
100
AcDbLine
 10
950.2747772936983
 20
351.4094603637429
 30
0.0
 11
950.6941005407115
 21
349.9582372940337
 31
0.0
  0
LINE
  5
54AD
330
1F
100
AcDbEntity
  8
SPOJOVACÍ
  6
DASHED
100
AcDbLine
 10
949.4944714239663
 20
352.7020698564744
 30
0.0
 11
950.2747772936983
 21
351.4094603637429
 31
0.0
  0
LINE
  5
54AE
330
1F
100
AcDbEntity
  8
SPOJOVACÍ
  6
DASHED
100
AcDbLine
 10
948.406054121615
 20
353.7494664060984
 30
0.0
 11
949.4944714239663
 21
352.7020698564744
 31
0.0
  0
LINE
  5
54AF
330
1F
100
AcDbEntity
  8
SPOJOVACÍ
  6
DASHED
100
AcDbLine
 10
947.083362739735
 20
354.4787242298432
 30
0.0
 11
948.406054121615
 21
353.7494664060984
 31
0.0
  0
LINE
  5
54B0
330
1F
100
AcDbEntity
  8
SPOJOVACÍ
  6
DASHED
100
AcDbLine
 10
947.083362739735
 20
355.65465247104
 30
0.0
 11
947.083362739735
 21
354.4787242298432
 31
0.0
  0
LINE
  5
54B1
330
1F
100
AcDbEntity
  8
SPOJOVACÍ
  6
DASHED
100
AcDbLine
 10
950.0997554165351
 20
332.2413403901634
 30
0.0
 11
954.0632716889358
 21
330.9086217171632
 31
0.0
  0
LINE
  5
54B2
330
1F
100
AcDbEntity
  8
SPOJOVACÍ
  6
DASHED
100
AcDbLine
 10
949.7296570687304
 20
332.4555598759495
 30
0.0
 11
950.0997554165351
 21
332.2413403901634
 31
0.0
  0
LINE
  5
54B3
330
1F
100
AcDbEntity
  8
SPOJOVACÍ
  6
DASHED
100
AcDbLine
 10
949.7296570687304
 20
332.4555598759495
 30
0.0
 11
950.0997554165351
 21
332.8256582216151
 31
0.0
  0
LINE
  5
54B4
330
1F
100
AcDbEntity
  8
SPOJOVACÍ
  6
DASHED
100
AcDbLine
 10
950.7588221729948
 20
335.0863574758775
 30
0.0
 11
950.7588221729948
 21
332.6159965973026
 31
0.0
  0
LINE
  5
54B5
330
1F
100
AcDbEntity
  8
SPOJOVACÍ
  6
DASHED
100
AcDbLine
 10
949.7296570687304
 20
335.5129733028031
 30
0.0
 11
950.0997554165351
 21
335.298753817017
 31
0.0
  0
LINE
  5
54B6
330
1F
100
AcDbEntity
  8
SPOJOVACÍ
  6
DASHED
100
AcDbLine
 10
949.7296570687304
 20
335.5129733028031
 30
0.0
 11
950.0997554165351
 21
335.8830716484687
 31
0.0
  0
LINE
  5
54B7
330
1F
100
AcDbEntity
  8
SPOJOVACÍ
  6
DASHED
100
AcDbLine
 10
950.7588221729948
 20
338.1465056192944
 30
0.0
 11
950.7588221729948
 21
335.6779678853661
 31
0.0
  0
LINE
  5
54B8
330
1F
100
AcDbEntity
  8
SPOJOVACÍ
  6
DASHED
100
AcDbLine
 10
949.7296570687304
 20
338.5703867293857
 30
0.0
 11
950.0997554165351
 21
338.3570788160584
 31
0.0
  0
LINE
  5
54B9
330
1F
100
AcDbEntity
  8
SPOJOVACÍ
  6
DASHED
100
AcDbLine
 10
949.7296570687304
 20
338.5703867293857
 30
0.0
 11
950.0997554165351
 21
338.9413966472391
 31
0.0
  0
LINE
  5
54BA
330
1F
100
AcDbEntity
  8
SPOJOVACÍ
  6
DASHED
100
AcDbLine
 10
950.7588221729948
 20
341.1864187059116
 30
0.0
 11
950.7588221729948
 21
338.7160578273367
 31
0.0
  0
LINE
  5
54BB
330
1F
100
AcDbEntity
  8
SPOJOVACÍ
  6
DASHED
100
AcDbLine
 10
949.7296570687304
 20
341.6130345328372
 30
0.0
 11
950.0997554165351
 21
341.3988150470511
 31
0.0
  0
LINE
  5
54BC
330
1F
100
AcDbEntity
  8
SPOJOVACÍ
  6
DASHED
100
AcDbLine
 10
949.7296570687304
 20
341.6130345328372
 30
0.0
 11
950.0997554165351
 21
341.9831328785028
 31
0.0
  0
LINE
  5
54BD
330
1F
100
AcDbEntity
  8
SPOJOVACÍ
  6
DASHED
100
AcDbLine
 10
950.7588221729948
 20
344.2465668493284
 30
0.0
 11
950.7588221729948
 21
341.7780291154001
 31
0.0
  0
LINE
  5
54BE
330
1F
100
AcDbEntity
  8
SPOJOVACÍ
  6
DASHED
100
AcDbLine
 10
947.083362739735
 20
355.65465247104
 30
0.0
 11
957.0796643614576
 21
355.65465247104
 31
0.0
  0
LINE
  5
54BF
330
1F
100
AcDbEntity
  8
SPOJOVACÍ
  6
DASHED
100
AcDbLine
 10
947.083362739735
 20
354.4787242298432
 30
0.0
 11
957.0796643614576
 21
354.4787242298432
 31
0.0
  0
LINE
  5
54C0
330
1F
100
AcDbEntity
  8
SPOJOVACÍ
  6
DASHED
100
AcDbLine
 10
949.7296570687304
 20
335.5129733028031
 30
0.0
 11
954.4333700324623
 21
334.3370450615991
 31
0.0
  0
LINE
  5
54C1
330
1F
100
AcDbEntity
  8
SPOJOVACÍ
  6
DASHED
100
AcDbLine
 10
949.7296570687304
 20
332.4555598759495
 30
0.0
 11
954.4333700324623
 21
331.2796316350166
 31
0.0
  0
LINE
  5
54C2
330
1F
100
AcDbEntity
  8
SPOJOVACÍ
  6
DASHED
100
AcDbLine
 10
949.7296570687304
 20
338.5703867293857
 30
0.0
 11
954.4333700324623
 21
337.3944584884527
 31
0.0
  0
LINE
  5
54C3
330
1F
100
AcDbEntity
  8
SPOJOVACÍ
  6
DASHED
100
AcDbLine
 10
954.4333700324623
 20
331.2796316350166
 30
0.0
 11
954.0632716889358
 21
330.9086217171632
 31
0.0
  0
LINE
  5
54C4
330
1F
100
AcDbEntity
  8
SPOJOVACÍ
  6
DASHED
100
AcDbLine
 10
954.4333700324623
 20
331.2796316350166
 30
0.0
 11
954.0632716889358
 21
331.4929395486076
 31
0.0
  0
LINE
  5
54C5
330
1F
100
AcDbEntity
  8
SPOJOVACÍ
  6
DASHED
100
AcDbLine
 10
949.7296570687304
 20
341.6130345328372
 30
0.0
 11
954.4333700324623
 21
340.4371062916331
 31
0.0
  0
LINE
  5
54C6
330
1F
100
AcDbEntity
  8
SPOJOVACÍ
  6
DASHED
100
AcDbLine
 10
949.7296570687304
 20
344.6704479594198
 30
0.0
 11
954.4333700324623
 21
343.4945197184867
 31
0.0
  0
LINE
  5
54C7
330
1F
100
AcDbEntity
  8
SPOJOVACÍ
  6
DASHED
100
AcDbLine
 10
949.7296570687304
 20
347.7130957628712
 30
0.0
 11
954.4333700324623
 21
346.5371675219382
 31
0.0
  0
LWPOLYLINE
  5
54C8
330
1F
100
AcDbEntity
  8
nášlap_vrstvy
100
AcDbPolyline
 90
        4
 70
     1
 43
0.0
 10
930.2669780206143
 20
357.1546524710402
 10
918.4461116656947
 20
357.1546524710402
 10
918.4461116656947
 20
355.6546524710402
 10
930.2669780206143
 20
355.6546524710402
  0
HATCH
  5
54C9
330
1F
100
AcDbEntity
  8
nášlap_vrstvy
100
AcDbHatch
 10
0.0
 20
0.0
 30
0.0
210
0.0
220
0.0
230
1.0
  2
SOLID
 70
     1
 71
     0
 91
        1
 92
        7
 72
     0
 73
     1
 93
        4
 10
930.2669780206143
 20
357.1546524710402
 10
918.4461116656985
 20
357.1546524710402
 10
918.4461116656947
 20
355.6546524710402
 10
930.2669780206143
 20
355.6546524710402
 97
        0
 75
     0
 76
     1
 47
0.1901250437635136
 98
        1
 10
923.1250090448684
 20
356.7462466955012
  0
LINE
  5
54CA
330
1F
100
AcDbEntity
  8
CETRIS
100
AcDbLine
 10
929.1571777962072
 20
355.65465247104
 30
0.0
 11
929.1571777962072
 21
347.6546524710399
 31
0.0
  0
LINE
  5
54CB
330
1F
100
AcDbEntity
  8
CETRIS
100
AcDbLine
 10
929.1571777962072
 20
347.6546524710399
 30
0.0
 11
919.1571777962071
 21
347.6546524710399
 31
0.0
  0
LINE
  5
54CC
330
1F
100
AcDbEntity
  8
CETRIS
100
AcDbLine
 10
919.1571777962071
 20
347.6546524710399
 30
0.0
 11
919.1571777962071
 21
339.6546524710399
 31
0.0
  0
LINE
  5
54CD
330
1F
100
AcDbEntity
  8
CETRIS
100
AcDbLine
 10
919.1571777962071
 20
339.6546524710399
 30
0.0
 11
929.1571777962072
 21
339.6546524710399
 31
0.0
  0
LINE
  5
54CE
330
1F
100
AcDbEntity
  8
CETRIS
100
AcDbLine
 10
929.1571777962072
 20
339.6546524710399
 30
0.0
 11
929.1571777962072
 21
331.6546524710399
 31
0.0
  0
LWPOLYLINE
  5
54CF
330
1F
100
AcDbEntity
  8
nášlap_vrstvy
100
AcDbPolyline
 90
        4
 70
     1
 43
0.0
 10
953.9087107304458
 20
357.1546524710402
 10
942.0878443755301
 20
357.1546524710402
 10
942.0878443755301
 20
355.6546524710402
 10
953.9087107304458
 20
355.6546524710402
  0
HATCH
  5
54D0
330
1F
100
AcDbEntity
  8
nášlap_vrstvy
100
AcDbHatch
 10
0.0
 20
0.0
 30
0.0
210
0.0
220
0.0
230
1.0
  2
SOLID
 70
     1
 71
     0
 91
        1
 92
        7
 72
     0
 73
     1
 93
        4
 10
953.9087107304494
 20
357.1546524710402
 10
942.0878443755301
 20
357.1546524710402
 10
942.0878443755301
 20
355.6546524710402
 10
953.9087107304494
 20
355.6546524710402
 97
        0
 75
     0
 76
     1
 47
0.1901250437635136
 98
        1
 10
946.7667417547
 20
356.7462466955012
  0
HATCH
  5
54D1
330
1F
100
AcDbEntity
  8
nášlap_vrstvy
100
AcDbHatch
 10
0.0
 20
0.0
 30
0.0
210
0.0
220
0.0
230
1.0
  2
SOLID
 70
     1
 71
     0
 91
        1
 92
        7
 72
     0
 73
     1
 93
        4
 10
1043.720590813713
 20
357.1546524710402
 10
1031.899724458797
 20
357.1546524710402
 10
1031.899724458793
 20
355.6546524710402
 10
1043.720590813713
 20
355.6546524710402
 97
        0
 75
     0
 76
     1
 47
0.1901250437635136
 98
        1
 10
1036.578621837967
 20
356.7462466955012
  0
LWPOLYLINE
  5
54D2
330
1F
100
AcDbEntity
  8
nášlap_vrstvy
100
AcDbPolyline
 90
        4
 70
     1
 43
0.0
 10
1043.720590813713
 20
357.1546524710402
 10
1031.899724458793
 20
357.1546524710402
 10
1031.899724458793
 20
355.6546524710402
 10
1043.720590813713
 20
355.6546524710402
  0
TEXT
  5
54D3
330
1F
100
AcDbEntity
  8
POPIS
100
AcDbText
 10
933.0285747685103
 20
458.247255022502
 30
0.0
 40
25.0
  1
03
 41
0.85
  7
SIMPLEX7
100
AcDbText
  0
TEXT
  5
54D4
330
1F
100
AcDbEntity
  8
POPIS
100
AcDbText
 10
1013.249624517773
 20
458.247255022502
 30
0.0
 40
25.0
  1
04
 41
0.85
  7
SIMPLEX7
100
AcDbText
  0
POLYLINE
  5
54D5
330
1F
100
AcDbEntity
  8
STAVBA OBRYS
100
AcDb2dPolyline
 66
     1
 10
0.0
 20
0.0
 30
0.0
  0
VERTEX
  5
54D6
330
54D5
100
AcDbEntity
  8
STAVBA OBRYS
100
AcDbVertex
100
AcDb2dVertex
 10
1205.935712201184
 20
310.104435196591
 30
0.0
 42
-0.0094186890201653
  0
VERTEX
  5
54D7
330
54D5
100
AcDbEntity
  8
STAVBA OBRYS
100
AcDbVertex
100
AcDb2dVertex
 10
1206.282510764058
 20
310.2631080673591
 30
0.0
 42
-0.0322692699774654
  0
VERTEX
  5
54D8
330
54D5
100
AcDbEntity
  8
STAVBA OBRYS
100
AcDbVertex
100
AcDb2dVertex
 10
1209.173864945149
 20
311.3046315687597
 30
0.0
 42
-0.0276160659512937
  0
VERTEX
  5
54D9
330
54D5
100
AcDbEntity
  8
STAVBA OBRYS
100
AcDbVertex
100
AcDb2dVertex
 10
1210.029441383436
 20
311.5013669977042
 30
0.0
 42
-0.0126891984598699
  0
VERTEX
  5
54DA
330
54D5
100
AcDbEntity
  8
STAVBA OBRYS
100
AcDbVertex
100
AcDb2dVertex
 10
1210.952609779227
 20
311.6365693872458
 30
0.0
  0
SEQEND
  5
54DB
330
54D5
100
AcDbEntity
  8
STAVBA OBRYS
  0
LINE
  5
54DC
330
1F
100
AcDbEntity
  8
STAVBA OBRYS
100
AcDbLine
 10
1211.103586437837
 20
328.1044351965902
 30
0.0
 11
1211.103586437837
 21
310.104435196591
 31
0.0
  0
LWPOLYLINE
  5
54DD
330
1F
100
AcDbEntity
  8
STAVBA OBRYS
100
AcDbPolyline
 90
        6
 70
     0
 43
0.0
 10
1179.15771085653
 20
310.104435196591
 42
-0.0121757200102759
 10
1180.527700570191
 20
314.7763525290583
 42
-0.0457786284636091
 10
1181.735723459807
 20
317.6249629119347
 42
-0.0295006114745606
 10
1184.151783914107
 20
321.5518621253368
 42
-0.0258674098621065
 10
1187.384459228071
 20
325.6976422040906
 42
-0.0093759062953949
 10
1189.550271407728
 20
328.1044351965911
  0
LWPOLYLINE
  5
54DE
330
1F
100
AcDbEntity
  8
STAVBA OBRYS
100
AcDbPolyline
 90
        3
 70
     0
 43
0.0
 10
1201.281042628439
 20
310.104435196591
 10
1187.4889947018
 20
317.0055067600778
 10
1179.321890052675
 20
325.1868084611714
  0
LWPOLYLINE
  5
54DF
330
1F
100
AcDbEntity
  8
STAVBA OBRYS
100
AcDbPolyline
 90
        8
 70
     0
 43
0.0
 10
1188.530514864333
 20
310.104435196591
 42
-0.0217273703039143
 10
1190.728185124842
 20
315.1401255340688
 42
-0.0882970623535771
 10
1192.365407044935
 20
317.3804945848687
 42
-0.0171636441953577
 10
1195.178771106793
 20
319.8944119401139
 42
-0.0157521173632038
 10
1198.417625943829
 20
322.4259079926205
 42
-0.0073640874174249
 10
1203.051275300151
 20
325.7143094183565
 42
-0.0194185739168057
 10
1204.873318619827
 20
326.8658784176377
 42
-0.0229547400386702
 10
1207.258776683842
 20
328.1044351965911
  0
POLYLINE
  5
54E0
330
1F
100
AcDbEntity
  8
STAVBA OBRYS
100
AcDb2dPolyline
 66
     1
 10
0.0
 20
0.0
 30
0.0
  0
VERTEX
  5
54E1
330
54E0
100
AcDbEntity
  8
STAVBA OBRYS
100
AcDbVertex
100
AcDb2dVertex
 10
1196.882566251648
 20
310.104435196591
 30
0.0
 42
-0.0502247168465557
  0
VERTEX
  5
54E2
330
54E0
100
AcDbEntity
  8
STAVBA OBRYS
100
AcDbVertex
100
AcDb2dVertex
 10
1198.481613427813
 20
312.1119058693138
 30
0.0
 42
-0.0274923553235744
  0
VERTEX
  5
54E3
330
54E0
100
AcDbEntity
  8
STAVBA OBRYS
100
AcDbVertex
100
AcDb2dVertex
 10
1201.078919158366
 20
314.496981192452
 30
0.0
 42
-0.0255412025538677
  0
VERTEX
  5
54E4
330
54E0
100
AcDbEntity
  8
STAVBA OBRYS
100
AcDbVertex
100
AcDb2dVertex
 10
1204.130349196077
 20
316.7536948694678
 30
0.0
 42
-0.0272796991712396
  0
VERTEX
  5
54E5
330
54E0
100
AcDbEntity
  8
STAVBA OBRYS
100
AcDbVertex
100
AcDb2dVertex
 10
1208.243348349262
 20
319.1700307511337
 30
0.0
 42
-0.056967459841729
  0
VERTEX
  5
54E6
330
54E0
100
AcDbEntity
  8
STAVBA OBRYS
100
AcDbVertex
100
AcDb2dVertex
 10
1210.384295629994
 20
319.9827665863331
 30
0.0
 42
-0.0373408083348504
  0
VERTEX
  5
54E7
330
54E0
100
AcDbEntity
  8
STAVBA OBRYS
100
AcDbVertex
100
AcDb2dVertex
 10
1210.606650005467
 20
320.0219321272807
 30
0.0
 42
-0.0052305969362967
  0
VERTEX
  5
54E8
330
54E0
100
AcDbEntity
  8
STAVBA OBRYS
100
AcDbVertex
100
AcDb2dVertex
 10
1210.952609779227
 20
320.052889094185
 30
0.0
  0
SEQEND
  5
54E9
330
54E0
100
AcDbEntity
  8
STAVBA OBRYS
  0
LWPOLYLINE
  5
54EA
330
1F
100
AcDbEntity
  8
STAVBA OBRYS
100
AcDbPolyline
 90
        4
 70
     0
 43
0.0
 10
1170.347249507687
 20
310.104435196591
 42
-0.0186324019486548
 10
1173.715618879794
 20
321.7995468148155
 42
-0.0582629403736403
 10
1175.375118747875
 20
325.3793810137513
 42
-0.0146402521923566
 10
1177.159526729459
 20
328.1044351965911
  0
HATCH
  5
54EB
330
1F
100
AcDbEntity
  8
izolace
100
AcDbHatch
 10
0.0
 20
0.0
 30
0.0
210
0.0
220
0.0
230
1.0
  2
SOLID
 70
     1
 71
     0
 91
        1
 92
        7
 72
     0
 73
     1
 93
        4
 10
1132.579973344372
 20
331.1044351965906
 10
1108.938240634537
 20
331.1044351965906
 10
1108.938240634534
 20
328.1044351965906
 10
1132.579973344372
 20
328.1044351965906
 97
        0
 75
     0
 76
     1
 47
0.1901250437635136
 98
        1
 10
1118.296035392877
 20
330.2876236455108
  0
LWPOLYLINE
  5
54EC
330
1F
100
AcDbEntity
  8
STAVBA OBRYS
100
AcDbPolyline
 90
        3
 70
     0
 43
0.0
 10
1138.744969396029
 20
310.104435196591
 42
-0.0052038508054843
 10
1141.943366336012
 20
326.5082616785885
 42
-0.0065712046643719
 10
1142.293792105776
 20
328.1044351965911
  0
LWPOLYLINE
  5
54ED
330
1F
100
AcDbEntity
  8
STAVBA OBRYS
100
AcDbPolyline
 90
        4
 70
     0
 43
0.0
 10
1150.197507258997
 20
310.104435196591
 42
-0.0334776267545482
 10
1150.634785053703
 20
314.1514101253278
 42
-0.0091133963862869
 10
1153.112389378622
 20
326.8431399107876
 42
-0.007828075361276
 10
1153.40328851378
 20
328.1044351965911
  0
LWPOLYLINE
  5
54EE
330
1F
100
AcDbEntity
  8
STAVBA OBRYS
100
AcDbPolyline
 90
        5
 70
     0
 43
0.0
 10
1160.441645633791
 20
310.104435196591
 42
-0.0133579731639958
 10
1160.828456122819
 20
312.6222374841463
 42
-0.0072443097182286
 10
1162.948453070277
 20
323.4331283790534
 42
-0.0219777111230329
 10
1163.85456557226
 20
326.9512416348888
 42
-0.0092752982622242
 10
1164.229792534208
 20
328.1044351965911
  0
LWPOLYLINE
  5
54EF
330
1F
100
AcDbEntity
  8
STAVBA OBRYS
100
AcDbPolyline
 90
        5
 70
     0
 43
0.0
 10
1118.339761874331
 20
310.104435196591
 42
-0.0133579731639958
 10
1118.726572363359
 20
312.6222374841463
 42
-0.0072443097182286
 10
1120.846569310817
 20
323.4331283790534
 42
-0.0219777111230329
 10
1121.7526818128
 20
326.9512416348888
 42
-0.0092752982622242
 10
1122.127908774747
 20
328.1044351965911
  0
LWPOLYLINE
  5
54F0
330
1F
100
AcDbEntity
  8
STAVBA OBRYS
100
AcDbPolyline
 90
        4
 70
     0
 43
0.0
 10
1128.245365748227
 20
310.104435196591
 42
-0.0186324019486548
 10
1131.613735120334
 20
321.7995468148155
 42
-0.0582629403736403
 10
1133.273234988415
 20
325.3793810137513
 42
-0.0146402521923566
 10
1135.057642969999
 20
328.1044351965911
  0
LWPOLYLINE
  5
54F1
330
1F
100
AcDbEntity
  8
izolace
100
AcDbPolyline
 90
        4
 70
     1
 43
0.0
 10
1179.863438764039
 20
331.1044351965906
 10
1156.221706054204
 20
331.1044351965906
 10
1156.221706054204
 20
328.1044351965906
 10
1179.863438764039
 20
328.1044351965906
  0
HATCH
  5
54F2
330
1F
100
AcDbEntity
  8
izolace
100
AcDbHatch
 10
0.0
 20
0.0
 30
0.0
210
0.0
220
0.0
230
1.0
  2
SOLID
 70
     1
 71
     0
 91
        1
 92
        7
 72
     0
 73
     1
 93
        4
 10
1179.863438764043
 20
331.1044351965906
 10
1156.221706054208
 20
331.1044351965906
 10
1156.221706054204
 20
328.1044351965906
 10
1179.863438764043
 20
328.1044351965906
 97
        0
 75
     0
 76
     1
 47
0.1901250437635136
 98
        1
 10
1165.579500812547
 20
330.2876236455108
  0
LWPOLYLINE
  5
54F3
330
1F
100
AcDbEntity
  8
STAVBA OBRYS
100
AcDbPolyline
 90
        4
 70
     0
 43
0.0
 10
1184.951634696282
 20
309.6036047658426
 10
1164.95538226429
 20
318.8196338163625
 10
1148.177491693071
 20
321.5267780790536
 10
1144.913880445366
 20
321.6570794434237
  0
LWPOLYLINE
  5
54F4
330
1F
100
AcDbEntity
  8
STAVBA OBRYS
100
AcDbPolyline
 90
        5
 70
     0
 43
0.0
 10
1088.192753017856
 20
310.104435196591
 42
-0.0133579731639958
 10
1088.579563506884
 20
312.6222374841463
 42
-0.0072443097182286
 10
1090.699560454342
 20
323.4331283790534
 42
-0.0219777111230329
 10
1091.605672956326
 20
326.9512416348888
 42
-0.0092752982622242
 10
1091.980899918273
 20
328.1044351965911
  0
LWPOLYLINE
  5
54F5
330
1F
100
AcDbEntity
  8
STAVBA OBRYS
100
AcDbPolyline
 90
        4
 70
     0
 43
0.0
 10
1077.948614643062
 20
310.104435196591
 42
-0.0334776267545482
 10
1078.385892437769
 20
314.1514101253278
 42
-0.0091133963862869
 10
1080.863496762687
 20
326.8431399107876
 42
-0.007828075361276
 10
1081.154395897845
 20
328.1044351965911
  0
LWPOLYLINE
  5
54F6
330
1F
100
AcDbEntity
  8
STAVBA OBRYS
100
AcDbPolyline
 90
        3
 70
     0
 43
0.0
 10
1096.643085636569
 20
310.104435196591
 42
-0.0052038508054843
 10
1099.841482576552
 20
326.5082616785885
 42
-0.0065712046643719
 10
1100.191908346316
 20
328.1044351965911
  0
LWPOLYLINE
  5
54F7
330
1F
100
AcDbEntity
  8
STAVBA OBRYS
100
AcDbPolyline
 90
        4
 70
     0
 43
0.0
 10
1112.702742080347
 20
309.6036047658426
 10
1092.706489648355
 20
318.8196338163625
 10
1075.928599077137
 20
321.5267780790536
 10
1072.664987829432
 20
321.6570794434237
  0
LWPOLYLINE
  5
54F8
330
1F
100
AcDbEntity
  8
STAVBA OBRYS
100
AcDbPolyline
 90
        4
 70
     0
 43
0.0
 10
1108.095623499537
 20
310.104435196591
 42
-0.0334776267545482
 10
1108.532901294243
 20
314.1514101253278
 42
-0.0091133963862869
 10
1111.010505619162
 20
326.8431399107876
 42
-0.007828075361276
 10
1111.30140475432
 20
328.1044351965911
  0
LWPOLYLINE
  5
54F9
330
1F
100
AcDbEntity
  8
STAVBA OBRYS
100
AcDbPolyline
 90
        4
 70
     0
 43
0.0
 10
1142.849750936822
 20
309.6036047658426
 10
1122.85349850483
 20
318.8196338163625
 10
1106.075607933611
 20
321.5267780790536
 10
1102.811996685906
 20
321.6570794434237
  0
LWPOLYLINE
  5
54FA
330
1F
100
AcDbEntity
  8
STAVBA OBRYS
100
AcDbPolyline
 90
        3
 70
     0
 43
0.0
 10
1066.496076780094
 20
310.104435196591
 42
-0.0052038508054843
 10
1069.694473720077
 20
326.5082616785885
 42
-0.0065712046643719
 10
1070.044899489841
 20
328.1044351965911
  0
LINE
  5
54FB
330
1F
100
AcDbEntity
  8
nášlap_vrstvy
100
AcDbLine
 10
1149.60462903536
 20
365.9939055400509
 30
0.0
 11
1149.60462903536
 21
361.5687437058632
 31
0.0
  0
LINE
  5
54FC
330
1F
100
AcDbEntity
  8
nášlap_vrstvy
100
AcDbLine
 10
1149.60462903536
 20
361.5687437058632
 30
0.0
 11
1157.188367174918
 21
361.5687437058632
 31
0.0
  0
HATCH
  5
54FD
330
1F
100
AcDbEntity
  8
nášlap_vrstvy
100
AcDbHatch
 10
0.0
 20
0.0
 30
0.0
210
0.0
220
0.0
230
1.0
  2
SOLID
 70
     1
 71
     0
 91
        1
 92
        7
 72
     0
 73
     1
 93
        4
 10
1161.929254362888
 20
357.1546524710402
 10
1150.108388007969
 20
357.1546524710402
 10
1150.108388007969
 20
355.6546524710402
 10
1161.929254362888
 20
355.6546524710402
 97
        0
 75
     0
 76
     1
 47
0.1901250437635136
 98
        1
 10
1154.787285387139
 20
356.7462466955012
  0
LWPOLYLINE
  5
54FE
330
1F
100
AcDbEntity
  8
nášlap_vrstvy
100
AcDbPolyline
 90
        4
 70
     1
 43
0.0
 10
1161.929254362885
 20
357.1546524710402
 10
1150.108388007969
 20
357.1546524710402
 10
1150.108388007969
 20
355.6546524710402
 10
1161.929254362885
 20
355.6546524710402
  0
LINE
  5
54FF
330
1F
100
AcDbEntity
  8
nášlap_vrstvy
100
AcDbLine
 10
1157.188367174918
 20
357.1546524709947
 30
0.0
 11
1157.188367174914
 21
361.5687437058632
 31
0.0
  0
HATCH
  5
5500
330
1F
100
AcDbEntity
  8
nášlap_vrstvy
100
AcDbHatch
 10
0.0
 20
0.0
 30
0.0
210
0.0
220
0.0
230
1.0
  2
SOLID
 70
     1
 71
     0
 91
        1
 92
        7
 72
     0
 73
     1
 93
        4
 10
1185.570987072724
 20
357.1546524710402
 10
1173.750120717808
 20
357.1546524710402
 10
1173.750120717804
 20
355.6546524710402
 10
1185.570987072724
 20
355.6546524710402
 97
        0
 75
     0
 76
     1
 47
0.1901250437635136
 98
        1
 10
1178.429018096978
 20
356.7462466955012
  0
LWPOLYLINE
  5
5501
330
1F
100
AcDbEntity
  8
nášlap_vrstvy
100
AcDbPolyline
 90
        4
 70
     1
 43
0.0
 10
1185.570987072724
 20
357.1546524710402
 10
1173.750120717804
 20
357.1546524710402
 10
1173.750120717804
 20
355.6546524710402
 10
1185.570987072724
 20
355.6546524710402
  0
HATCH
  5
5502
330
1F
100
AcDbEntity
  8
nášlap_vrstvy
100
AcDbHatch
 10
0.0
 20
0.0
 30
0.0
210
0.0
220
0.0
230
1.0
  2
SOLID
 70
     1
 71
     0
 91
        1
 92
        7
 72
     0
 73
     1
 93
        4
 10
1209.212719782559
 20
357.1546524710402
 10
1197.391853427639
 20
357.1546524710402
 10
1197.391853427639
 20
355.6546524710402
 10
1209.212719782559
 20
355.6546524710402
 97
        0
 75
     0
 76
     1
 47
0.1901250437635136
 98
        1
 10
1202.07075080681
 20
356.7462466955012
  0
LINE
  5
5503
330
1F
100
AcDbEntity
  8
nášlap_vrstvy
100
AcDbLine
 10
1157.188367174914
 20
365.9939055400509
 30
0.0
 11
1149.60462903536
 21
365.9939055400509
 31
0.0
  0
LINE
  5
5504
330
1F
100
AcDbEntity
  8
nášlap_vrstvy
100
AcDbLine
 10
1157.188367174918
 20
365.9939055400509
 30
0.0
 11
1157.188367174921
 21
371.3416473185561
 31
0.0
  0
HATCH
  5
5505
330
1F
100
AcDbEntity
  8
nášlap_vrstvy
100
AcDbHatch
 10
0.0
 20
0.0
 30
0.0
210
0.0
220
0.0
230
1.0
  2
SOLID
 70
     1
 71
     0
 91
        1
 92
        7
 72
     0
 73
     1
 93
        4
 10
1091.004056233383
 20
357.1546524710402
 10
1079.183189878467
 20
357.1546524710402
 10
1079.183189878464
 20
355.6546524710402
 10
1091.004056233383
 20
355.6546524710402
 97
        0
 75
     0
 76
     1
 47
0.1901250437635136
 98
        1
 10
1083.862087257637
 20
356.7462466955012
  0
LWPOLYLINE
  5
5506
330
1F
100
AcDbEntity
  8
nášlap_vrstvy
100
AcDbPolyline
 90
        4
 70
     1
 43
0.0
 10
1091.004056233383
 20
357.1546524710402
 10
1079.183189878464
 20
357.1546524710402
 10
1079.183189878464
 20
355.6546524710402
 10
1091.004056233383
 20
355.6546524710402
  0
LINE
  5
5507
330
1F
100
AcDbEntity
  8
POPIS
100
AcDbLine
 10
1105.25126562781
 20
449.3978939497783
 30
0.0
 11
1105.251265627808
 21
322.4514827493513
 31
0.0
  0
HATCH
  5
5508
330
1F
100
AcDbEntity
  8
nášlap_vrstvy
100
AcDbHatch
 10
0.0
 20
0.0
 30
0.0
210
0.0
220
0.0
230
1.0
  2
SOLID
 70
     1
 71
     0
 91
        1
 92
        7
 72
     0
 73
     1
 93
        4
 10
1114.645788943218
 20
357.1546524710402
 10
1102.824922588299
 20
357.1546524710402
 10
1102.824922588299
 20
355.6546524710402
 10
1114.645788943218
 20
355.6546524710402
 97
        0
 75
     0
 76
     1
 47
0.1901250437635136
 98
        1
 10
1107.503819967469
 20
356.7462466955012
  0
LWPOLYLINE
  5
5509
330
1F
100
AcDbEntity
  8
nášlap_vrstvy
100
AcDbPolyline
 90
        4
 70
     1
 43
0.0
 10
1114.645788943214
 20
357.1546524710402
 10
1102.824922588299
 20
357.1546524710402
 10
1102.824922588299
 20
355.6546524710402
 10
1114.645788943214
 20
355.6546524710402
  0
HATCH
  5
550A
330
1F
100
AcDbEntity
  8
nášlap_vrstvy
100
AcDbHatch
 10
0.0
 20
0.0
 30
0.0
210
0.0
220
0.0
230
1.0
  2
SOLID
 70
     1
 71
     0
 91
        1
 92
        7
 72
     0
 73
     1
 93
        4
 10
1138.287521653053
 20
357.1546524710402
 10
1126.466655298137
 20
357.1546524710402
 10
1126.466655298134
 20
355.6546524710402
 10
1138.287521653053
 20
355.6546524710402
 97
        0
 75
     0
 76
     1
 47
0.1901250437635136
 98
        1
 10
1131.145552677307
 20
356.7462466955012
  0
LWPOLYLINE
  5
550B
330
1F
100
AcDbEntity
  8
nášlap_vrstvy
100
AcDbPolyline
 90
        4
 70
     1
 43
0.0
 10
1138.287521653053
 20
357.1546524710402
 10
1126.466655298134
 20
357.1546524710402
 10
1126.466655298134
 20
355.6546524710402
 10
1138.287521653053
 20
355.6546524710402
  0
INSERT
  5
550C
330
1F
100
AcDbEntity
  8
POPIS
100
AcDbBlockReference
  2
E_PUNKT
 10
1105.222197296936
 20
322.4790931249781
 30
0.0
 50
270.0
  0
TEXT
  5
550D
330
1F
100
AcDbEntity
  8
POPIS
100
AcDbText
 10
1088.353594696005
 20
458.247255022502
 30
0.0
 40
25.0
  1
05
 41
0.85
  7
SIMPLEX7
100
AcDbText
  0
TEXT
  5
550E
330
1F
100
AcDbEntity
  8
POPIS
100
AcDbText
 10
1137.442110160291
 20
458.247255022502
 30
0.0
 40
25.0
  1
07
 41
0.85
  7
SIMPLEX7
100
AcDbText
  0
TEXT
  5
550F
330
1F
100
AcDbEntity
  8
POPIS
100
AcDbText
 10
1367.483411855018
 20
247.276128066781
 30
0.0
 40
25.0
  1
06
 41
0.85
  7
SIMPLEX7
100
AcDbText
  0
TEXT
  5
5510
330
1F
100
AcDbEntity
  8
POPIS
100
AcDbText
 10
1367.483411855018
 20
215.5172214641524
 30
0.0
 40
25.0
  1
07
 41
0.85
  7
SIMPLEX7
100
AcDbText
  0
LWPOLYLINE
  5
5511
330
1F
100
AcDbEntity
  8
STAVBA OBRYS
100
AcDbPolyline
 90
        4
 70
     0
 43
0.0
 10
1272.009665616677
 20
310.104435196591
 42
0.0334776267545482
 10
1271.57238782197
 20
314.1514101253278
 42
0.0091133963862869
 10
1269.094783497052
 20
326.8431399107876
 42
0.007828075361276
 10
1268.803884361894
 20
328.1044351965911
  0
LWPOLYLINE
  5
5512
330
1F
100
AcDbEntity
  8
STAVBA OBRYS
100
AcDbPolyline
 90
        3
 70
     0
 43
0.0
 10
1283.462203479644
 20
310.104435196591
 42
0.0052038508054843
 10
1280.263806539662
 20
326.5082616785885
 42
0.0065712046643719
 10
1279.913380769898
 20
328.1044351965911
  0
LWPOLYLINE
  5
5513
330
1F
100
AcDbEntity
  8
STAVBA OBRYS
100
AcDbPolyline
 90
        3
 70
     0
 43
0.0
 10
1279.357421938851
 20
309.6036047658426
 10
1299.353674370844
 20
318.8196338163625
 10
1310.845466220735
 20
320.6738560883708
  0
LWPOLYLINE
  5
5514
330
1F
100
AcDbEntity
  8
STAVBA OBRYS
100
AcDbPolyline
 90
        2
 70
     0
 43
0.0
 10
1309.504430795326
 20
309.6036047658426
 10
1310.845466220735
 20
310.2216716501438
  0
LWPOLYLINE
  5
5515
330
1F
100
AcDbEntity
  8
STAVBA OBRYS
100
AcDbPolyline
 90
        4
 70
     0
 43
0.0
 10
1293.961807127447
 20
310.104435196591
 42
0.0186324019486548
 10
1290.59343775534
 20
321.7995468148155
 42
0.0582629403736403
 10
1288.933937887259
 20
325.3793810137513
 42
0.0146402521923566
 10
1287.149529905675
 20
328.1044351965911
  0
LWPOLYLINE
  5
5516
330
1F
100
AcDbEntity
  8
STAVBA OBRYS
100
AcDbPolyline
 90
        5
 70
     0
 43
0.0
 10
1303.867411001343
 20
310.104435196591
 42
0.0133579731639958
 10
1303.480600512315
 20
312.6222374841463
 42
0.0072443097182286
 10
1301.360603564857
 20
323.4331283790534
 42
0.0219777111230329
 10
1300.454491062873
 20
326.9512416348888
 42
0.0092752982622242
 10
1300.079264100926
 20
328.1044351965911
  0
LWPOLYLINE
  5
5517
330
1F
100
AcDbEntity
  8
STAVBA OBRYS
100
AcDbPolyline
 90
        5
 70
     0
 43
0.0
 10
1261.765527241883
 20
310.104435196591
 42
0.0133579731639958
 10
1261.378716752855
 20
312.6222374841463
 42
0.0072443097182286
 10
1259.258719805397
 20
323.4331283790534
 42
0.0219777111230329
 10
1258.352607303413
 20
326.9512416348888
 42
0.0092752982622242
 10
1257.977380341466
 20
328.1044351965911
  0
LWPOLYLINE
  5
5518
330
1F
100
AcDbEntity
  8
STAVBA OBRYS
100
AcDbPolyline
 90
        4
 70
     0
 43
0.0
 10
1251.859923367987
 20
310.104435196591
 42
0.0186324019486548
 10
1248.49155399588
 20
321.7995468148155
 42
0.0582629403736403
 10
1246.832054127799
 20
325.3793810137513
 42
0.0146402521923566
 10
1245.047646146214
 20
328.1044351965911
  0
LWPOLYLINE
  5
5519
330
1F
100
AcDbEntity
  8
izolace
100
AcDbPolyline
 90
        4
 70
     1
 43
0.0
 10
1274.43036960338
 20
331.1044351965906
 10
1250.788636893545
 20
331.1044351965906
 10
1250.788636893545
 20
328.1044351965906
 10
1274.43036960338
 20
328.1044351965906
  0
HATCH
  5
551A
330
1F
100
AcDbEntity
  8
izolace
100
AcDbHatch
 10
0.0
 20
0.0
 30
0.0
210
0.0
220
0.0
230
1.0
  2
SOLID
 70
     1
 71
     0
 91
        1
 92
        7
 72
     0
 73
     1
 93
        4
 10
1274.430369603384
 20
331.1044351965906
 10
1250.788636893548
 20
331.1044351965906
 10
1250.788636893545
 20
328.1044351965906
 10
1274.430369603384
 20
328.1044351965906
 97
        0
 75
     0
 76
     1
 47
0.1901250437635136
 98
        1
 10
1260.146431651888
 20
330.2876236455108
  0
LWPOLYLINE
  5
551B
330
1F
100
AcDbEntity
  8
STAVBA OBRYS
100
AcDbPolyline
 90
        4
 70
     0
 43
0.0
 10
1237.255538179391
 20
309.6036047658426
 10
1257.251790611384
 20
318.8196338163625
 10
1274.029681182603
 20
321.5267780790536
 10
1277.293292430307
 20
321.6570794434237
  0
LWPOLYLINE
  5
551C
330
1F
100
AcDbEntity
  8
STAVBA OBRYS
100
AcDbPolyline
 90
        6
 70
     0
 43
0.0
 10
1243.049462019143
 20
310.104435196591
 42
0.0121757200102759
 10
1241.679472305482
 20
314.7763525290583
 42
0.0457786284636091
 10
1240.471449415867
 20
317.6249629119347
 42
0.0295006114745606
 10
1238.055388961567
 20
321.5518621253368
 42
0.0258674098621065
 10
1234.822713647603
 20
325.6976422040906
 42
0.0093759062953949
 10
1232.656901467946
 20
328.1044351965911
  0
LWPOLYLINE
  5
551D
330
1F
100
AcDbEntity
  8
STAVBA OBRYS
100
AcDbPolyline
 90
        3
 70
     0
 43
0.0
 10
1220.926130247235
 20
310.104435196591
 10
1234.718178173874
 20
317.0055067600778
 10
1242.885282822999
 20
325.1868084611714
  0
LWPOLYLINE
  5
551E
330
1F
100
AcDbEntity
  8
STAVBA OBRYS
100
AcDbPolyline
 90
        8
 70
     0
 43
0.0
 10
1233.676658011341
 20
310.104435196591
 42
0.0217273703039143
 10
1231.478987750832
 20
315.1401255340688
 42
0.0882970623535771
 10
1229.841765830739
 20
317.3804945848687
 42
0.0171636441953577
 10
1227.028401768881
 20
319.8944119401139
 42
0.0157521173632038
 10
1223.789546931844
 20
322.4259079926205
 42
0.0073640874174249
 10
1219.155897575523
 20
325.7143094183565
 42
0.0194185739168057
 10
1217.333854255846
 20
326.8658784176377
 42
0.0229547400386702
 10
1214.948396191832
 20
328.1044351965911
  0
HATCH
  5
551F
330
1F
100
AcDbEntity
  8
nášlap_vrstvy
100
AcDbHatch
 10
0.0
 20
0.0
 30
0.0
210
0.0
220
0.0
230
1.0
  2
SOLID
 70
     1
 71
     0
 91
        1
 92
        7
 72
     0
 73
     1
 93
        4
 10
1280.137917912065
 20
357.1546524710402
 10
1268.317051557149
 20
357.1546524710402
 10
1268.317051557145
 20
355.6546524710402
 10
1280.137917912065
 20
355.6546524710402
 97
        0
 75
     0
 76
     1
 47
0.1901250437635136
 98
        1
 10
1272.995948936319
 20
356.7462466955012
  0
HATCH
  5
5520
330
1F
100
AcDbEntity
  8
nášlap_vrstvy
100
AcDbHatch
 10
0.0
 20
0.0
 30
0.0
210
0.0
220
0.0
230
1.0
  2
SOLID
 70
     1
 71
     0
 91
        1
 92
        7
 72
     0
 73
     1
 93
        4
 10
1256.496185202229
 20
357.1546524710402
 10
1244.67531884731
 20
357.1546524710402
 10
1244.67531884731
 20
355.6546524710402
 10
1256.496185202229
 20
355.6546524710402
 97
        0
 75
     0
 76
     1
 47
0.1901250437635136
 98
        1
 10
1249.35421622648
 20
356.7462466955012
  0
LWPOLYLINE
  5
5521
330
1F
100
AcDbEntity
  8
nášlap_vrstvy
100
AcDbPolyline
 90
        4
 70
     1
 43
0.0
 10
1256.496185202226
 20
357.1546524710402
 10
1244.67531884731
 20
357.1546524710402
 10
1244.67531884731
 20
355.6546524710402
 10
1256.496185202226
 20
355.6546524710402
  0
HATCH
  5
5522
330
1F
100
AcDbEntity
  8
nášlap_vrstvy
100
AcDbHatch
 10
0.0
 20
0.0
 30
0.0
210
0.0
220
0.0
230
1.0
  2
SOLID
 70
     1
 71
     0
 91
        1
 92
        7
 72
     0
 73
     1
 93
        4
 10
1303.7796506219
 20
357.1546524710402
 10
1291.95878426698
 20
357.1546524710402
 10
1291.95878426698
 20
355.6546524710402
 10
1303.7796506219
 20
355.6546524710402
 97
        0
 75
     0
 76
     1
 47
0.1901250437635136
 98
        1
 10
1296.63768164615
 20
356.7462466955012
  0
LINE
  5
5523
330
1F
100
AcDbEntity
  8
SPOJOVACÍ
  6
DASHED
100
AcDbLine
 10
1236.443444946371
 20
355.65465247104
 30
0.0
 11
1236.443444946371
 21
354.4787242298432
 31
0.0
  0
HATCH
  5
5524
330
1F
100
AcDbEntity
  8
nášlap_vrstvy
100
AcDbHatch
 10
0.0
 20
0.0
 30
0.0
210
0.0
220
0.0
230
1.0
  2
SOLID
 70
     1
 71
     0
 91
        1
 92
        7
 72
     0
 73
     1
 93
        4
 10
1232.854452492394
 20
357.1546524710402
 10
1221.033586137478
 20
357.1546524710402
 10
1221.033586137475
 20
355.6546524710402
 10
1232.854452492394
 20
355.6546524710402
 97
        0
 75
     0
 76
     1
 47
0.1901250437635136
 98
        1
 10
1225.712483516648
 20
356.7462466955012
  0
LWPOLYLINE
  5
5525
330
1F
100
AcDbEntity
  8
nášlap_vrstvy
100
AcDbPolyline
 90
        4
 70
     1
 43
0.0
 10
1232.854452492394
 20
357.1546524710402
 10
1221.033586137475
 20
357.1546524710402
 10
1221.033586137475
 20
355.6546524710402
 10
1232.854452492394
 20
355.6546524710402
  0
LINE
  5
5526
330
1F
100
AcDbEntity
  8
SPOJOVACÍ
  6
DASHED
100
AcDbLine
 10
1230.706920591763
 20
320.0144214003819
 30
0.0
 11
1230.991331140014
 21
317.7400485622336
 31
0.0
  0
LINE
  5
5527
330
1F
100
AcDbEntity
  8
SPOJOVACÍ
  6
DASHED
100
AcDbLine
 10
1231.862794243496
 20
317.441964426617
 30
0.0
 11
1232.12532705924
 21
319.5440501039017
 31
0.0
  0
LINE
  5
5528
330
1F
100
AcDbEntity
  8
SPOJOVACÍ
  6
DASHED
100
AcDbLine
 10
1231.44529413551
 20
335.5544810355993
 30
0.0
 11
1231.792603177016
 21
338.3338649168424
 31
0.0
  0
LINE
  5
5529
330
1F
100
AcDbEntity
  8
SPOJOVACÍ
  6
DASHED
100
AcDbLine
 10
1231.066991640689
 20
338.5818125770481
 30
0.0
 11
1231.44529413551
 21
335.5544810355993
 31
0.0
  0
LINE
  5
552A
330
1F
100
AcDbEntity
  8
SPOJOVACÍ
  6
DASHED
100
AcDbLine
 10
1230.448945636422
 20
317.4164404026857
 30
0.0
 11
1230.819043979949
 21
317.2022209169069
 31
0.0
  0
LINE
  5
552B
330
1F
100
AcDbEntity
  8
SPOJOVACÍ
  6
DASHED
100
AcDbLine
 10
1230.448945636422
 20
317.4164404026857
 30
0.0
 11
1230.819043979949
 21
317.7865387483514
 31
0.0
  0
LINE
  5
552C
330
1F
100
AcDbEntity
  8
SPOJOVACÍ
  6
DASHED
100
AcDbLine
 10
1232.56014703505
 20
338.5617579867783
 30
0.0
 11
1232.190048691523
 21
338.1907480689249
 31
0.0
  0
LINE
  5
552D
330
1F
100
AcDbEntity
  8
SPOJOVACÍ
  6
DASHED
100
AcDbLine
 10
1232.56014703505
 20
338.5617579867783
 30
0.0
 11
1232.190048691523
 21
338.7750659003693
 31
0.0
  0
LINE
  5
552E
330
1F
100
AcDbEntity
  8
SPOJOVACÍ
  6
DASHED
100
AcDbLine
 10
1230.819043979949
 20
338.6520036424578
 30
0.0
 11
1232.190048691523
 21
338.1907480689249
 31
0.0
  0
LINE
  5
552F
330
1F
100
AcDbEntity
  8
SPOJOVACÍ
  6
DASHED
100
AcDbLine
 10
1230.819043979949
 20
317.7865387483514
 30
0.0
 11
1232.190048691523
 21
317.3252831748184
 31
0.0
  0
LINE
  5
5530
330
1F
100
AcDbEntity
  8
SPOJOVACÍ
  6
DASHED
100
AcDbLine
 10
1230.448945636422
 20
317.4164404026857
 30
0.0
 11
1232.56014703505
 21
317.1119752612273
 31
0.0
  0
LINE
  5
5531
330
1F
100
AcDbEntity
  8
SPOJOVACÍ
  6
DASHED
100
AcDbLine
 10
1227.769834706529
 20
353.7494664060984
 30
0.0
 11
1228.85825200888
 21
352.7020698564744
 31
0.0
  0
LINE
  5
5532
330
1F
100
AcDbEntity
  8
SPOJOVACÍ
  6
DASHED
100
AcDbLine
 10
1226.447143324649
 20
354.4787242298432
 30
0.0
 11
1227.769834706529
 21
353.7494664060984
 31
0.0
  0
LINE
  5
5533
330
1F
100
AcDbEntity
  8
SPOJOVACÍ
  6
DASHED
100
AcDbLine
 10
1234.530054731205
 20
353.2490132244845
 30
0.0
 11
1235.742445863927
 21
354.1487350647173
 31
0.0
  0
LINE
  5
5534
330
1F
100
AcDbEntity
  8
SPOJOVACÍ
  6
DASHED
100
AcDbLine
 10
1229.463536001449
 20
347.4997878495439
 30
0.0
 11
1233.427052273849
 21
346.1670691762726
 31
0.0
  0
LINE
  5
5535
330
1F
100
AcDbEntity
  8
SPOJOVACÍ
  6
DASHED
100
AcDbLine
 10
1229.093437653644
 20
347.7130957628712
 30
0.0
 11
1229.463536001449
 21
347.4997878495439
 31
0.0
  0
LINE
  5
5536
330
1F
100
AcDbEntity
  8
SPOJOVACÍ
  6
DASHED
100
AcDbLine
 10
1229.093437653644
 20
347.7130957628712
 30
0.0
 11
1229.463536001449
 21
348.0841056807246
 31
0.0
  0
LINE
  5
5537
330
1F
100
AcDbEntity
  8
SPOJOVACÍ
  6
DASHED
100
AcDbLine
 10
1229.463536001449
 20
348.0841056807246
 30
0.0
 11
1233.427052273849
 21
346.7513870077243
 31
0.0
  0
LINE
  5
5538
330
1F
100
AcDbEntity
  8
SPOJOVACÍ
  6
DASHED
100
AcDbLine
 10
1230.090241941767
 20
349.5726422197037
 30
0.0
 11
1230.122602757908
 21
347.8624967575567
 31
0.0
  0
LINE
  5
5539
330
1F
100
AcDbEntity
  8
SPOJOVACÍ
  6
DASHED
100
AcDbLine
 10
1230.057881125625
 20
349.9582372940337
 30
0.0
 11
1230.122602757908
 21
349.1870471453737
 31
0.0
  0
LINE
  5
553A
330
1F
100
AcDbEntity
  8
SPOJOVACÍ
  6
DASHED
100
AcDbLine
 10
1229.638557878612
 20
351.4094603637429
 30
0.0
 11
1230.057881125625
 21
349.9582372940337
 31
0.0
  0
LINE
  5
553B
330
1F
100
AcDbEntity
  8
SPOJOVACÍ
  6
DASHED
100
AcDbLine
 10
1228.85825200888
 20
352.7020698564744
 30
0.0
 11
1229.638557878612
 21
351.4094603637429
 31
0.0
  0
LINE
  5
553C
330
1F
100
AcDbEntity
  8
SPOJOVACÍ
  6
DASHED
100
AcDbLine
 10
1230.122602757908
 20
332.0335019104975
 30
0.0
 11
1230.122602757908
 21
329.5558484538858
 31
0.0
  0
LINE
  5
553D
330
1F
100
AcDbEntity
  8
SPOJOVACÍ
  6
DASHED
100
AcDbLine
 10
1229.463536001449
 20
332.2413403901634
 30
0.0
 11
1233.427052273849
 21
330.9086217171632
 31
0.0
  0
LINE
  5
553E
330
1F
100
AcDbEntity
  8
SPOJOVACÍ
  6
DASHED
100
AcDbLine
 10
1229.093437653644
 20
332.4555598759495
 30
0.0
 11
1229.463536001449
 21
332.2413403901634
 31
0.0
  0
LINE
  5
553F
330
1F
100
AcDbEntity
  8
SPOJOVACÍ
  6
DASHED
100
AcDbLine
 10
1229.093437653644
 20
332.4555598759495
 30
0.0
 11
1229.463536001449
 21
332.8256582216151
 31
0.0
  0
LINE
  5
5540
330
1F
100
AcDbEntity
  8
SPOJOVACÍ
  6
DASHED
100
AcDbLine
 10
1229.463536001449
 20
332.8256582216151
 30
0.0
 11
1233.427052273849
 21
331.4929395486076
 31
0.0
  0
LINE
  5
5541
330
1F
100
AcDbEntity
  8
SPOJOVACÍ
  6
DASHED
100
AcDbLine
 10
1230.122602757908
 20
335.0863574758775
 30
0.0
 11
1230.122602757908
 21
332.6159965973026
 31
0.0
  0
LINE
  5
5542
330
1F
100
AcDbEntity
  8
SPOJOVACÍ
  6
DASHED
100
AcDbLine
 10
1229.463536001449
 20
335.298753817017
 30
0.0
 11
1233.427052273849
 21
333.9669467162045
 31
0.0
  0
LINE
  5
5543
330
1F
100
AcDbEntity
  8
SPOJOVACÍ
  6
DASHED
100
AcDbLine
 10
1229.093437653644
 20
335.5129733028031
 30
0.0
 11
1229.463536001449
 21
335.298753817017
 31
0.0
  0
LINE
  5
5544
330
1F
100
AcDbEntity
  8
SPOJOVACÍ
  6
DASHED
100
AcDbLine
 10
1229.093437653644
 20
335.5129733028031
 30
0.0
 11
1229.463536001449
 21
335.8830716484687
 31
0.0
  0
LINE
  5
5545
330
1F
100
AcDbEntity
  8
SPOJOVACÍ
  6
DASHED
100
AcDbLine
 10
1229.463536001449
 20
335.8830716484687
 30
0.0
 11
1233.427052273849
 21
334.5512645473852
 31
0.0
  0
LINE
  5
5546
330
1F
100
AcDbEntity
  8
SPOJOVACÍ
  6
DASHED
100
AcDbLine
 10
1230.122602757908
 20
338.1465056192944
 30
0.0
 11
1230.122602757908
 21
335.6779678853661
 31
0.0
  0
LINE
  5
5547
330
1F
100
AcDbEntity
  8
SPOJOVACÍ
  6
DASHED
100
AcDbLine
 10
1229.463536001449
 20
338.3570788160584
 30
0.0
 11
1233.427052273849
 21
337.0243601427871
 31
0.0
  0
LINE
  5
5548
330
1F
100
AcDbEntity
  8
SPOJOVACÍ
  6
DASHED
100
AcDbLine
 10
1229.093437653644
 20
338.5703867293857
 30
0.0
 11
1229.463536001449
 21
338.3570788160584
 31
0.0
  0
LINE
  5
5549
330
1F
100
AcDbEntity
  8
SPOJOVACÍ
  6
DASHED
100
AcDbLine
 10
1229.093437653644
 20
338.5703867293857
 30
0.0
 11
1229.463536001449
 21
338.9413966472391
 31
0.0
  0
LINE
  5
554A
330
1F
100
AcDbEntity
  8
SPOJOVACÍ
  6
DASHED
100
AcDbLine
 10
1229.463536001449
 20
338.9413966472391
 30
0.0
 11
1233.427052273849
 21
337.6086779742388
 31
0.0
  0
LINE
  5
554B
330
1F
100
AcDbEntity
  8
SPOJOVACÍ
  6
DASHED
100
AcDbLine
 10
1230.122602757908
 20
341.1864187059116
 30
0.0
 11
1230.122602757908
 21
338.7160578273367
 31
0.0
  0
LINE
  5
554C
330
1F
100
AcDbEntity
  8
SPOJOVACÍ
  6
DASHED
100
AcDbLine
 10
1229.463536001449
 20
341.3988150470511
 30
0.0
 11
1233.427052273849
 21
340.0670079462386
 31
0.0
  0
LINE
  5
554D
330
1F
100
AcDbEntity
  8
SPOJOVACÍ
  6
DASHED
100
AcDbLine
 10
1229.093437653644
 20
341.6130345328372
 30
0.0
 11
1229.463536001449
 21
341.3988150470511
 31
0.0
  0
LINE
  5
554E
330
1F
100
AcDbEntity
  8
SPOJOVACÍ
  6
DASHED
100
AcDbLine
 10
1229.093437653644
 20
341.6130345328372
 30
0.0
 11
1229.463536001449
 21
341.9831328785028
 31
0.0
  0
LINE
  5
554F
330
1F
100
AcDbEntity
  8
SPOJOVACÍ
  6
DASHED
100
AcDbLine
 10
1229.463536001449
 20
341.9831328785028
 30
0.0
 11
1233.427052273849
 21
340.6513257774193
 31
0.0
  0
LINE
  5
5550
330
1F
100
AcDbEntity
  8
SPOJOVACÍ
  6
DASHED
100
AcDbLine
 10
1230.122602757908
 20
344.2465668493284
 30
0.0
 11
1230.122602757908
 21
341.7780291154001
 31
0.0
  0
LINE
  5
5551
330
1F
100
AcDbEntity
  8
SPOJOVACÍ
  6
DASHED
100
AcDbLine
 10
1229.463536001449
 20
344.4571400460925
 30
0.0
 11
1233.427052273849
 21
343.1244213728211
 31
0.0
  0
LINE
  5
5552
330
1F
100
AcDbEntity
  8
SPOJOVACÍ
  6
DASHED
100
AcDbLine
 10
1229.093437653644
 20
344.6704479594198
 30
0.0
 11
1229.463536001449
 21
344.4571400460925
 31
0.0
  0
LINE
  5
5553
330
1F
100
AcDbEntity
  8
SPOJOVACÍ
  6
DASHED
100
AcDbLine
 10
1229.093437653644
 20
344.6704479594198
 30
0.0
 11
1229.463536001449
 21
345.0414578772731
 31
0.0
  0
LINE
  5
5554
330
1F
100
AcDbEntity
  8
SPOJOVACÍ
  6
DASHED
100
AcDbLine
 10
1229.463536001449
 20
345.0414578772731
 30
0.0
 11
1233.427052273849
 21
343.7087392042728
 31
0.0
  0
LINE
  5
5555
330
1F
100
AcDbEntity
  8
SPOJOVACÍ
  6
DASHED
100
AcDbLine
 10
1230.122602757908
 20
347.2892146527799
 30
0.0
 11
1230.122602757908
 21
344.8206769188516
 31
0.0
  0
LINE
  5
5556
330
1F
100
AcDbEntity
  8
SPOJOVACÍ
  6
DASHED
100
AcDbLine
 10
1233.59113528262
 20
352.0657924052436
 30
0.0
 11
1234.530054731205
 21
353.2490132244845
 31
0.0
  0
LINE
  5
5557
330
1F
100
AcDbEntity
  8
SPOJOVACÍ
  6
DASHED
100
AcDbLine
 10
1232.990409150455
 20
350.6802025397344
 30
0.0
 11
1233.59113528262
 21
352.0657924052436
 31
0.0
  0
LINE
  5
5558
330
1F
100
AcDbEntity
  8
SPOJOVACÍ
  6
DASHED
100
AcDbLine
 10
1232.76798551739
 20
349.1870471453737
 30
0.0
 11
1232.990409150455
 21
350.6802025397344
 31
0.0
  0
LINE
  5
5559
330
1F
100
AcDbEntity
  8
SPOJOVACÍ
  6
DASHED
100
AcDbLine
 10
1232.76798551739
 20
349.1870471453755
 30
0.0
 11
1232.76798551739
 21
346.972995930894
 31
0.0
  0
LINE
  5
555A
330
1F
100
AcDbEntity
  8
SPOJOVACÍ
  6
DASHED
100
AcDbLine
 10
1233.797150617376
 20
346.5371675219382
 30
0.0
 11
1233.427052273849
 21
346.7513870077243
 31
0.0
  0
LINE
  5
555B
330
1F
100
AcDbEntity
  8
SPOJOVACÍ
  6
DASHED
100
AcDbLine
 10
1233.797150617376
 20
346.5371675219382
 30
0.0
 11
1233.427052273849
 21
346.1670691762726
 31
0.0
  0
LINE
  5
555C
330
1F
100
AcDbEntity
  8
SPOJOVACÍ
  6
DASHED
100
AcDbLine
 10
1232.76798551739
 20
346.3940506740207
 30
0.0
 11
1232.76798551739
 21
343.9255129400923
 31
0.0
  0
LINE
  5
555D
330
1F
100
AcDbEntity
  8
SPOJOVACÍ
  6
DASHED
100
AcDbLine
 10
1233.797150617376
 20
343.4945197184867
 30
0.0
 11
1233.427052273849
 21
343.7087392042728
 31
0.0
  0
LINE
  5
555E
330
1F
100
AcDbEntity
  8
SPOJOVACÍ
  6
DASHED
100
AcDbLine
 10
1233.797150617376
 20
343.4945197184867
 30
0.0
 11
1233.427052273849
 21
343.1244213728211
 31
0.0
  0
LINE
  5
555F
330
1F
100
AcDbEntity
  8
SPOJOVACÍ
  6
DASHED
100
AcDbLine
 10
1232.76798551739
 20
343.3514028705692
 30
0.0
 11
1232.76798551739
 21
340.8828651366409
 31
0.0
  0
LINE
  5
5560
330
1F
100
AcDbEntity
  8
SPOJOVACÍ
  6
DASHED
100
AcDbLine
 10
1233.797150617376
 20
340.4371062916331
 30
0.0
 11
1233.427052273849
 21
340.6513257774193
 31
0.0
  0
LINE
  5
5561
330
1F
100
AcDbEntity
  8
SPOJOVACÍ
  6
DASHED
100
AcDbLine
 10
1233.797150617376
 20
340.4371062916331
 30
0.0
 11
1233.427052273849
 21
340.0670079462386
 31
0.0
  0
LINE
  5
5562
330
1F
100
AcDbEntity
  8
SPOJOVACÍ
  6
DASHED
100
AcDbLine
 10
1232.76798551739
 20
340.2985473051892
 30
0.0
 11
1232.76798551739
 21
337.8208938485775
 31
0.0
  0
LINE
  5
5563
330
1F
100
AcDbEntity
  8
SPOJOVACÍ
  6
DASHED
100
AcDbLine
 10
1233.797150617376
 20
337.3944584884527
 30
0.0
 11
1233.427052273849
 21
337.6086779742388
 31
0.0
  0
LINE
  5
5564
330
1F
100
AcDbEntity
  8
SPOJOVACÍ
  6
DASHED
100
AcDbLine
 10
1233.797150617376
 20
337.3944584884527
 30
0.0
 11
1233.427052273849
 21
337.0243601427871
 31
0.0
  0
LINE
  5
5565
330
1F
100
AcDbEntity
  8
SPOJOVACÍ
  6
DASHED
100
AcDbLine
 10
1232.76798551739
 20
337.2513416405352
 30
0.0
 11
1232.76798551739
 21
334.7828039066068
 31
0.0
  0
LINE
  5
5566
330
1F
100
AcDbEntity
  8
SPOJOVACÍ
  6
DASHED
100
AcDbLine
 10
1233.797150617376
 20
334.3370450615991
 30
0.0
 11
1233.427052273849
 21
334.5512645473852
 31
0.0
  0
LINE
  5
5567
330
1F
100
AcDbEntity
  8
SPOJOVACÍ
  6
DASHED
100
AcDbLine
 10
1233.797150617376
 20
334.3370450615991
 30
0.0
 11
1233.427052273849
 21
333.9669467162045
 31
0.0
  0
LINE
  5
5568
330
1F
100
AcDbEntity
  8
SPOJOVACÍ
  6
DASHED
100
AcDbLine
 10
1232.76798551739
 20
334.1984860751551
 30
0.0
 11
1232.76798551739
 21
331.7208326185434
 31
0.0
  0
LINE
  5
5569
330
1F
100
AcDbEntity
  8
SPOJOVACÍ
  6
DASHED
100
AcDbLine
 10
1229.093437653644
 20
335.5129733028031
 30
0.0
 11
1233.797150617376
 21
334.3370450615991
 31
0.0
  0
LINE
  5
556A
330
1F
100
AcDbEntity
  8
SPOJOVACÍ
  6
DASHED
100
AcDbLine
 10
1229.093437653644
 20
332.4555598759495
 30
0.0
 11
1233.797150617376
 21
331.2796316350166
 31
0.0
  0
LINE
  5
556B
330
1F
100
AcDbEntity
  8
SPOJOVACÍ
  6
DASHED
100
AcDbLine
 10
1232.76798551739
 20
331.1383379317383
 30
0.0
 11
1232.76798551739
 21
328.6679770531634
 31
0.0
  0
LINE
  5
556C
330
1F
100
AcDbEntity
  8
SPOJOVACÍ
  6
DASHED
100
AcDbLine
 10
1230.122602757908
 20
328.9633264719457
 30
0.0
 11
1230.122602757908
 21
326.4957003102051
 31
0.0
  0
LINE
  5
556D
330
1F
100
AcDbEntity
  8
SPOJOVACÍ
  6
DASHED
100
AcDbLine
 10
1230.122602757908
 20
325.9113824787534
 30
0.0
 11
1230.122602757908
 21
324.6889640517026
 31
0.0
  0
LINE
  5
556E
330
1F
100
AcDbEntity
  8
SPOJOVACÍ
  6
DASHED
100
AcDbLine
 10
1232.76798551739
 20
328.0791013605091
 30
0.0
 11
1232.76798551739
 21
325.6105636265808
 31
0.0
  0
LINE
  5
556F
330
1F
100
AcDbEntity
  8
SPOJOVACÍ
  6
DASHED
100
AcDbLine
 10
1232.76798551739
 20
325.0189532168285
 30
0.0
 11
1232.76798551739
 21
324.6889640517026
 31
0.0
  0
LINE
  5
5570
330
1F
100
AcDbEntity
  8
SPOJOVACÍ
  6
DASHED
100
AcDbLine
 10
1230.122602757908
 20
324.6889640517026
 30
0.0
 11
1230.269365894577
 21
323.5157705273329
 31
0.0
  0
LINE
  5
5571
330
1F
100
AcDbEntity
  8
SPOJOVACÍ
  6
DASHED
100
AcDbLine
 10
1230.345026395252
 20
322.9077518165965
 30
0.0
 11
1230.629436947781
 21
320.6324674062532
 31
0.0
  0
LINE
  5
5572
330
1F
100
AcDbEntity
  8
SPOJOVACÍ
  6
DASHED
100
AcDbLine
 10
1232.195518121441
 20
320.1046670560615
 30
0.0
 11
1232.457139367672
 21
322.1985485828579
 31
0.0
  0
LINE
  5
5573
330
1F
100
AcDbEntity
  8
SPOJOVACÍ
  6
DASHED
100
AcDbLine
 10
1232.527330434151
 20
322.7573423906421
 30
0.0
 11
1232.76798551739
 21
324.6889640517026
 31
0.0
  0
LINE
  5
5574
330
1F
100
AcDbEntity
  8
SPOJOVACÍ
  6
DASHED
100
AcDbLine
 10
1229.093437653644
 20
338.5703867293857
 30
0.0
 11
1233.797150617376
 21
337.3944584884527
 31
0.0
  0
LINE
  5
5575
330
1F
100
AcDbEntity
  8
SPOJOVACÍ
  6
DASHED
100
AcDbLine
 10
1229.342296888177
 20
323.324340348651
 30
0.0
 11
1229.713306805495
 21
323.1101208628649
 31
0.0
  0
LINE
  5
5576
330
1F
100
AcDbEntity
  8
SPOJOVACÍ
  6
DASHED
100
AcDbLine
 10
1229.342296888177
 20
323.324340348651
 30
0.0
 11
1229.713306805495
 21
323.6944386943166
 31
0.0
  0
LINE
  5
5577
330
1F
100
AcDbEntity
  8
SPOJOVACÍ
  6
DASHED
100
AcDbLine
 10
1233.385119947865
 20
322.3708357439925
 30
0.0
 11
1233.015021604338
 21
321.9998258258681
 31
0.0
  0
LINE
  5
5578
330
1F
100
AcDbEntity
  8
SPOJOVACÍ
  6
DASHED
100
AcDbLine
 10
1233.385119947865
 20
322.3708357439925
 30
0.0
 11
1233.015021604338
 21
322.5841436573198
 31
0.0
  0
LINE
  5
5579
330
1F
100
AcDbEntity
  8
SPOJOVACÍ
  6
DASHED
100
AcDbLine
 10
1229.713306805495
 20
323.1101208628649
 30
0.0
 11
1233.015021604338
 21
321.9998258258681
 31
0.0
  0
LINE
  5
557A
330
1F
100
AcDbEntity
  8
SPOJOVACÍ
  6
DASHED
100
AcDbLine
 10
1229.713306805495
 20
323.6944386943166
 30
0.0
 11
1233.015021604338
 21
322.5841436573198
 31
0.0
  0
LINE
  5
557B
330
1F
100
AcDbEntity
  8
SPOJOVACÍ
  6
DASHED
100
AcDbLine
 10
1229.342296888177
 20
323.324340348651
 30
0.0
 11
1233.385119947865
 21
322.3708357439925
 31
0.0
  0
LINE
  5
557C
330
1F
100
AcDbEntity
  8
SPOJOVACÍ
  6
DASHED
100
AcDbLine
 10
1229.89562126016
 20
320.369934589439
 30
0.0
 11
1230.265719607965
 21
320.1566266761117
 31
0.0
  0
LINE
  5
557D
330
1F
100
AcDbEntity
  8
SPOJOVACÍ
  6
DASHED
100
AcDbLine
 10
1229.89562126016
 20
320.369934589439
 30
0.0
 11
1230.265719607965
 21
320.7409445075634
 31
0.0
  0
LINE
  5
557E
330
1F
100
AcDbEntity
  8
SPOJOVACÍ
  6
DASHED
100
AcDbLine
 10
1232.949388398263
 20
319.7491538670044
 30
0.0
 11
1232.579290054736
 21
319.378143949151
 31
0.0
  0
LINE
  5
557F
330
1F
100
AcDbEntity
  8
SPOJOVACÍ
  6
DASHED
100
AcDbLine
 10
1232.949388398263
 20
319.7491538670044
 30
0.0
 11
1232.579290054736
 21
319.9624617803317
 31
0.0
  0
LINE
  5
5580
330
1F
100
AcDbEntity
  8
SPOJOVACÍ
  6
DASHED
100
AcDbLine
 10
1230.265719607965
 20
320.1566266761117
 30
0.0
 11
1232.579290054736
 21
319.378143949151
 31
0.0
  0
LINE
  5
5581
330
1F
100
AcDbEntity
  8
SPOJOVACÍ
  6
DASHED
100
AcDbLine
 10
1230.265719607965
 20
320.7409445075634
 30
0.0
 11
1232.579290054736
 21
319.9624617803317
 31
0.0
  0
LINE
  5
5582
330
1F
100
AcDbEntity
  8
SPOJOVACÍ
  6
DASHED
100
AcDbLine
 10
1229.89562126016
 20
320.369934589439
 30
0.0
 11
1232.949388398263
 21
319.7491538670044
 31
0.0
  0
LINE
  5
5583
330
1F
100
AcDbEntity
  8
SPOJOVACÍ
  6
DASHED
100
AcDbLine
 10
1233.797150617376
 20
331.2796316350166
 30
0.0
 11
1233.427052273849
 21
330.9086217171632
 31
0.0
  0
LINE
  5
5584
330
1F
100
AcDbEntity
  8
SPOJOVACÍ
  6
DASHED
100
AcDbLine
 10
1233.797150617376
 20
331.2796316350166
 30
0.0
 11
1233.427052273849
 21
331.4929395486076
 31
0.0
  0
LINE
  5
5585
330
1F
100
AcDbEntity
  8
SPOJOVACÍ
  6
DASHED
100
AcDbLine
 10
1229.093437653644
 20
329.3981464493597
 30
0.0
 11
1233.797150617376
 21
328.2222182084267
 31
0.0
  0
LINE
  5
5586
330
1F
100
AcDbEntity
  8
SPOJOVACÍ
  6
DASHED
100
AcDbLine
 10
1229.093437653644
 20
329.3981464493597
 30
0.0
 11
1229.463536001449
 21
329.1839269635809
 31
0.0
  0
LINE
  5
5587
330
1F
100
AcDbEntity
  8
SPOJOVACÍ
  6
DASHED
100
AcDbLine
 10
1229.093437653644
 20
329.3981464493597
 30
0.0
 11
1229.463536001449
 21
329.7682447950253
 31
0.0
  0
LINE
  5
5588
330
1F
100
AcDbEntity
  8
SPOJOVACÍ
  6
DASHED
100
AcDbLine
 10
1233.797150617376
 20
328.2222182084267
 30
0.0
 11
1233.427052273849
 21
327.8512082905733
 31
0.0
  0
LINE
  5
5589
330
1F
100
AcDbEntity
  8
SPOJOVACÍ
  6
DASHED
100
AcDbLine
 10
1233.797150617376
 20
328.2222182084267
 30
0.0
 11
1233.427052273849
 21
328.435526121754
 31
0.0
  0
LINE
  5
558A
330
1F
100
AcDbEntity
  8
SPOJOVACÍ
  6
DASHED
100
AcDbLine
 10
1229.463536001449
 20
329.1839269635809
 30
0.0
 11
1233.427052273849
 21
327.8512082905733
 31
0.0
  0
LINE
  5
558B
330
1F
100
AcDbEntity
  8
SPOJOVACÍ
  6
DASHED
100
AcDbLine
 10
1229.463536001449
 20
329.7682447950253
 30
0.0
 11
1233.427052273849
 21
328.435526121754
 31
0.0
  0
LINE
  5
558C
330
1F
100
AcDbEntity
  8
SPOJOVACÍ
  6
DASHED
100
AcDbLine
 10
1229.093437653644
 20
326.3398214503183
 30
0.0
 11
1233.797150617376
 21
325.1638932093853
 31
0.0
  0
LINE
  5
558D
330
1F
100
AcDbEntity
  8
SPOJOVACÍ
  6
DASHED
100
AcDbLine
 10
1229.093437653644
 20
326.3398214503183
 30
0.0
 11
1229.463536001449
 21
326.126513536991
 31
0.0
  0
LINE
  5
558E
330
1F
100
AcDbEntity
  8
SPOJOVACÍ
  6
DASHED
100
AcDbLine
 10
1229.093437653644
 20
326.3398214503183
 30
0.0
 11
1229.463536001449
 21
326.7108313684427
 31
0.0
  0
LINE
  5
558F
330
1F
100
AcDbEntity
  8
SPOJOVACÍ
  6
DASHED
100
AcDbLine
 10
1233.797150617376
 20
325.1638932093853
 30
0.0
 11
1233.427052273849
 21
324.7937948637197
 31
0.0
  0
LINE
  5
5590
330
1F
100
AcDbEntity
  8
SPOJOVACÍ
  6
DASHED
100
AcDbLine
 10
1233.797150617376
 20
325.1638932093853
 30
0.0
 11
1233.427052273849
 21
325.3781126951714
 31
0.0
  0
LINE
  5
5591
330
1F
100
AcDbEntity
  8
SPOJOVACÍ
  6
DASHED
100
AcDbLine
 10
1229.463536001449
 20
326.126513536991
 30
0.0
 11
1233.427052273849
 21
324.7937948637197
 31
0.0
  0
LINE
  5
5592
330
1F
100
AcDbEntity
  8
SPOJOVACÍ
  6
DASHED
100
AcDbLine
 10
1229.463536001449
 20
326.7108313684427
 30
0.0
 11
1233.427052273849
 21
325.3781126951714
 31
0.0
  0
LINE
  5
5593
330
1F
100
AcDbEntity
  8
SPOJOVACÍ
  6
DASHED
100
AcDbLine
 10
1229.093437653644
 20
341.6130345328372
 30
0.0
 11
1233.797150617376
 21
340.4371062916331
 31
0.0
  0
LINE
  5
5594
330
1F
100
AcDbEntity
  8
SPOJOVACÍ
  6
DASHED
100
AcDbLine
 10
1229.093437653644
 20
344.6704479594198
 30
0.0
 11
1233.797150617376
 21
343.4945197184867
 31
0.0
  0
LINE
  5
5595
330
1F
100
AcDbEntity
  8
SPOJOVACÍ
  6
DASHED
100
AcDbLine
 10
1229.093437653644
 20
347.7130957628712
 30
0.0
 11
1233.797150617376
 21
346.5371675219382
 31
0.0
  0
LINE
  5
5596
330
1F
100
AcDbEntity
  8
SPOJOVACÍ
  6
DASHED
100
AcDbLine
 10
1226.447143324649
 20
355.65465247104
 30
0.0
 11
1226.447143324649
 21
354.4787242298432
 31
0.0
  0
LINE
  5
5597
330
1F
100
AcDbEntity
  8
SPOJOVACÍ
  6
DASHED
100
AcDbLine
 10
1235.742445863927
 20
354.1487350647173
 30
0.0
 11
1236.443444946371
 21
354.4787242298432
 31
0.0
  0
LINE
  5
5598
330
1F
100
AcDbEntity
  8
SPOJOVACÍ
  6
DASHED
100
AcDbLine
 10
1226.447143324649
 20
355.65465247104
 30
0.0
 11
1236.443444946371
 21
355.65465247104
 31
0.0
  0
LINE
  5
5599
330
1F
100
AcDbEntity
  8
SPOJOVACÍ
  6
DASHED
100
AcDbLine
 10
1226.447143324649
 20
354.4787242298432
 30
0.0
 11
1236.443444946371
 21
354.4787242298432
 31
0.0
  0
TEXT
  5
559A
330
1F
100
AcDbEntity
  8
POPIS
100
AcDbText
 10
1366.600640854985
 20
354.1768900911147
 30
0.0
 40
25.0
  1
03
 41
0.85
  7
SIMPLEX7
100
AcDbText
  0
TEXT
  5
559B
330
1F
100
AcDbEntity
  8
POPIS
100
AcDbText
 10
1366.600640854985
 20
389.016931776684
 30
0.0
 40
25.0
  1
02
 41
0.85
  7
SIMPLEX7
100
AcDbText
  0
TEXT
  5
559C
330
1F
100
AcDbEntity
  8
POPIS
100
AcDbText
 10
1366.600640854985
 20
424.4210929948467
 30
0.0
 40
25.0
  1
01
 41
0.85
  7
SIMPLEX7
100
AcDbText
  0
TEXT
  5
559D
330
1F
100
AcDbEntity
  8
POPIS
100
AcDbText
 10
1366.600640854985
 20
282.2150587901296
 30
0.0
 40
25.0
  1
05
 41
0.85
  7
SIMPLEX7
100
AcDbText
  0
TEXT
  5
559E
330
1F
100
AcDbEntity
  8
POPIS
100
AcDbText
 10
1366.600640854985
 20
317.3413500882225
 30
0.0
 40
25.0
  1
04
 41
0.85
  7
SIMPLEX7
100
AcDbText
  0
TEXT
  5
559F
330
1F
100
AcDbEntity
  8
POPIS
100
AcDbText
 10
1711.955733751521
 20
337.9342932826379
 30
0.0
 40
8.399999999999998
  1
R
 41
0.85
  7
SIMPLEX7
100
AcDbText
  0
CIRCLE
  5
55A0
330
1F
100
AcDbEntity
  8
POPIS
100
AcDbCircle
 10
1715.287054090149
 20
341.8160353041307
 30
0.0
 40
7.795592338044182
  0
ENDSEC
  0
SECTION
  2
OBJECTS
  0
DICTIONARY
  5
C
330
0
100
AcDbDictionary
281
     1
  3
ACAD_GROUP
350
D
  3
ACAD_LAYOUT
350
1A
  3
ACAD_MLINESTYLE
350
17
  3
ACAD_PLOTSETTINGS
350
19
  3
ACAD_PLOTSTYLENAME
350
E
  3
AcDbVariableDictionary
350
55AD
  0
DICTIONARY
  5
D
102
{ACAD_REACTORS
330
C
102
}
330
C
100
AcDbDictionary
281
     1
  0
DICTIONARY
  5
1A
102
{ACAD_REACTORS
330
C
102
}
330
C
100
AcDbDictionary
281
     1
  3
Model
350
22
  3
Rozvržení1
350
1E
  3
Rozvržení2
350
26
  0
DICTIONARY
  5
17
102
{ACAD_REACTORS
330
C
102
}
330
C
100
AcDbDictionary
281
     1
  3
Standard
350
18
  0
DICTIONARY
  5
19
102
{ACAD_REACTORS
330
C
102
}
330
C
100
AcDbDictionary
281
     1
  0
ACDBDICTIONARYWDFLT
  5
E
102
{ACAD_REACTORS
330
C
102
}
330
C
100
AcDbDictionary
281
     1
  3
Normal
350
F
100
AcDbDictionaryWithDefault
340
F
  0
DICTIONARY
  5
55AD
102
{ACAD_REACTORS
330
C
102
}
330
C
100
AcDbDictionary
281
     1
  3
DIMASSOC
350
55AE
  0
LAYOUT
  5
22
102
{ACAD_REACTORS
330
1A
102
}
330
1A
100
AcDbPlotSettings
  1

  2
HP DeskJet 690C
  4

  6

 40
0.0
 41
0.0
 42
0.0
 43
0.0
 44
0.0
 45
0.0
 46
0.0
 47
0.0
 48
0.0
 49
0.0
140
0.0
141
0.0
142
1.0
143
1.0
 70
  1712
 72
     0
 73
     0
 74
     0
  7
monochrome.ctb
 75
     0
147
1.0
148
0.0
149
0.0
100
AcDbLayout
  1
Model
 70
     1
 71
     0
 10
0.0
 20
0.0
 11
12.0
 21
9.0
 12
0.0
 22
0.0
 32
0.0
 14
0.0
 24
0.0
 34
0.0
 15
0.0
 25
0.0
 35
0.0
146
0.0
 13
0.0
 23
0.0
 33
0.0
 16
1.0
 26
0.0
 36
0.0
 17
0.0
 27
1.0
 37
0.0
 76
     0
330
1F
  0
LAYOUT
  5
1E
102
{ACAD_REACTORS
330
1A
102
}
330
1A
100
AcDbPlotSettings
  1

  2
HP DeskJet 690C
  4

  6

 40
0.0
 41
0.0
 42
0.0
 43
0.0
 44
0.0
 45
0.0
 46
0.0
 47
0.0
 48
0.0
 49
0.0
140
0.0
141
0.0
142
1.0
143
1.0
 70
   688
 72
     0
 73
     0
 74
     5
  7
monochrome.ctb
 75
    16
147
1.0
148
0.0
149
0.0
100
AcDbLayout
  1
Rozvržení1
 70
     1
 71
     1
 10
0.0
 20
0.0
 11
420.0
 21
297.0
 12
0.0
 22
0.0
 32
0.0
 14
1.000000000000000E+20
 24
1.000000000000000E+20
 34
1.000000000000000E+20
 15
-1.000000000000000E+20
 25
-1.000000000000000E+20
 35
-1.000000000000000E+20
146
0.0
 13
0.0
 23
0.0
 33
0.0
 16
1.0
 26
0.0
 36
0.0
 17
0.0
 27
1.0
 37
0.0
 76
     0
330
1B
  0
LAYOUT
  5
26
102
{ACAD_REACTORS
330
1A
102
}
330
1A
100
AcDbPlotSettings
  1

  2
HP DeskJet 690C
  4

  6

 40
0.0
 41
0.0
 42
0.0
 43
0.0
 44
0.0
 45
0.0
 46
0.0
 47
0.0
 48
0.0
 49
0.0
140
0.0
141
0.0
142
1.0
143
1.0
 70
   688
 72
     0
 73
     0
 74
     5
  7
monochrome.ctb
 75
    16
147
1.0
148
0.0
149
0.0
100
AcDbLayout
  1
Rozvržení2
 70
     1
 71
     2
 10
0.0
 20
0.0
 11
12.0
 21
9.0
 12
0.0
 22
0.0
 32
0.0
 14
0.0
 24
0.0
 34
0.0
 15
0.0
 25
0.0
 35
0.0
146
0.0
 13
0.0
 23
0.0
 33
0.0
 16
1.0
 26
0.0
 36
0.0
 17
0.0
 27
1.0
 37
0.0
 76
     0
330
23
  0
MLINESTYLE
  5
18
102
{ACAD_REACTORS
330
17
102
}
330
17
100
AcDbMlineStyle
  2
STANDARD
 70
     0
  3

 62
   256
 51
90.0
 52
90.0
 71
     2
 49
0.5
 62
   256
  6
BYLAYER
 49
-0.5
 62
   256
  6
BYLAYER
  0
ACDBPLACEHOLDER
  5
F
102
{ACAD_REACTORS
330
E
102
}
330
E
  0
DICTIONARYVAR
  5
55AE
102
{ACAD_REACTORS
330
55AD
102
}
330
55AD
100
DictionaryVariables
280
     0
  1
1
  0
ENDSEC
  0
EOF
