  0
SECTION
  2
HEADER
  9
$ACADVER
  1
AC1015
  9
$ACADMAINTVER
 70
    13
  9
$DWGCODEPAGE
  3
ANSI_1250
  9
$INSBASE
 10
0.0
 20
0.0
 30
0.0
  9
$EXTMIN
 10
-134.3103248042914
 20
-17.29563418843224
 30
0.0
  9
$EXTMAX
 10
2164.219204956221
 20
783.8463434981673
 30
0.0
  9
$LIMMIN
 10
0.0
 20
0.0
  9
$LIMMAX
 10
420.0
 20
297.0
  9
$ORTHOMODE
 70
     1
  9
$REGENMODE
 70
     1
  9
$FILLMODE
 70
     1
  9
$QTEXTMODE
 70
     0
  9
$MIRRTEXT
 70
     1
  9
$LTSCALE
 40
1.0
  9
$ATTMODE
 70
     1
  9
$TEXTSIZE
 40
2.5
  9
$TRACEWID
 40
1.0
  9
$TEXTSTYLE
  7
Standard
  9
$CLAYER
  8
0
  9
$CELTYPE
  6
ByLayer
  9
$CECOLOR
 62
   256
  9
$CELTSCALE
 40
1.0
  9
$DISPSILH
 70
     0
  9
$DIMSCALE
 40
1.0
  9
$DIMASZ
 40
2.5
  9
$DIMEXO
 40
0.625
  9
$DIMDLI
 40
3.75
  9
$DIMRND
 40
0.0
  9
$DIMDLE
 40
0.0
  9
$DIMEXE
 40
1.25
  9
$DIMTP
 40
0.0
  9
$DIMTM
 40
0.0
  9
$DIMTXT
 40
2.5
  9
$DIMCEN
 40
2.5
  9
$DIMTSZ
 40
0.0
  9
$DIMTOL
 70
     0
  9
$DIMLIM
 70
     0
  9
$DIMTIH
 70
     0
  9
$DIMTOH
 70
     0
  9
$DIMSE1
 70
     0
  9
$DIMSE2
 70
     0
  9
$DIMTAD
 70
     1
  9
$DIMZIN
 70
     8
  9
$DIMBLK
  1

  9
$DIMASO
 70
     1
  9
$DIMSHO
 70
     1
  9
$DIMPOST
  1

  9
$DIMAPOST
  1

  9
$DIMALT
 70
     0
  9
$DIMALTD
 70
     3
  9
$DIMALTF
 40
0.03937007874016
  9
$DIMLFAC
 40
1.0
  9
$DIMTOFL
 70
     1
  9
$DIMTVP
 40
0.0
  9
$DIMTIX
 70
     0
  9
$DIMSOXD
 70
     0
  9
$DIMSAH
 70
     0
  9
$DIMBLK1
  1

  9
$DIMBLK2
  1

  9
$DIMSTYLE
  2
ISO-25
  9
$DIMCLRD
 70
     0
  9
$DIMCLRE
 70
     0
  9
$DIMCLRT
 70
     0
  9
$DIMTFAC
 40
1.0
  9
$DIMGAP
 40
0.625
  9
$DIMJUST
 70
     0
  9
$DIMSD1
 70
     0
  9
$DIMSD2
 70
     0
  9
$DIMTOLJ
 70
     0
  9
$DIMTZIN
 70
     8
  9
$DIMALTZ
 70
     0
  9
$DIMALTTZ
 70
     0
  9
$DIMUPT
 70
     0
  9
$DIMDEC
 70
     2
  9
$DIMTDEC
 70
     2
  9
$DIMALTU
 70
     2
  9
$DIMALTTD
 70
     3
  9
$DIMTXSTY
  7
Standard
  9
$DIMAUNIT
 70
     0
  9
$DIMADEC
 70
     0
  9
$DIMALTRND
 40
0.0
  9
$DIMAZIN
 70
     0
  9
$DIMDSEP
 70
    44
  9
$DIMATFIT
 70
     3
  9
$DIMFRAC
 70
     0
  9
$DIMLDRBLK
  1

  9
$DIMLUNIT
 70
     2
  9
$DIMLWD
 70
    -2
  9
$DIMLWE
 70
    -2
  9
$DIMTMOVE
 70
     0
  9
$LUNITS
 70
     2
  9
$LUPREC
 70
     4
  9
$SKETCHINC
 40
1.0
  9
$FILLETRAD
 40
10.0
  9
$AUNITS
 70
     0
  9
$AUPREC
 70
     0
  9
$MENU
  1
.
  9
$ELEVATION
 40
0.0
  9
$PELEVATION
 40
0.0
  9
$THICKNESS
 40
0.0
  9
$LIMCHECK
 70
     0
  9
$CHAMFERA
 40
10.0
  9
$CHAMFERB
 40
10.0
  9
$CHAMFERC
 40
20.0
  9
$CHAMFERD
 40
0.0
  9
$SKPOLY
 70
     0
  9
$TDCREATE
 40
2452332.468649768
  9
$TDUCREATE
 40
2452332.426983101
  9
$TDUPDATE
 40
2455595.839960567
  9
$TDUUPDATE
 40
2455595.798293900
  9
$TDINDWG
 40
0.0339499074
  9
$TDUSRTIMER
 40
0.0339473611
  9
$USRTIMER
 70
     1
  9
$ANGBASE
 50
0.0
  9
$ANGDIR
 70
     0
  9
$PDMODE
 70
     0
  9
$PDSIZE
 40
0.0
  9
$PLINEWID
 40
0.0
  9
$SPLFRAME
 70
     0
  9
$SPLINETYPE
 70
     6
  9
$SPLINESEGS
 70
     8
  9
$HANDSEED
  5
424C
  9
$SURFTAB1
 70
     6
  9
$SURFTAB2
 70
     6
  9
$SURFTYPE
 70
     6
  9
$SURFU
 70
     6
  9
$SURFV
 70
     6
  9
$UCSBASE
  2

  9
$UCSNAME
  2

  9
$UCSORG
 10
0.0
 20
0.0
 30
0.0
  9
$UCSXDIR
 10
1.0
 20
0.0
 30
0.0
  9
$UCSYDIR
 10
0.0
 20
1.0
 30
0.0
  9
$UCSORTHOREF
  2

  9
$UCSORTHOVIEW
 70
     0
  9
$UCSORGTOP
 10
0.0
 20
0.0
 30
0.0
  9
$UCSORGBOTTOM
 10
0.0
 20
0.0
 30
0.0
  9
$UCSORGLEFT
 10
0.0
 20
0.0
 30
0.0
  9
$UCSORGRIGHT
 10
0.0
 20
0.0
 30
0.0
  9
$UCSORGFRONT
 10
0.0
 20
0.0
 30
0.0
  9
$UCSORGBACK
 10
0.0
 20
0.0
 30
0.0
  9
$PUCSBASE
  2

  9
$PUCSNAME
  2

  9
$PUCSORG
 10
0.0
 20
0.0
 30
0.0
  9
$PUCSXDIR
 10
1.0
 20
0.0
 30
0.0
  9
$PUCSYDIR
 10
0.0
 20
1.0
 30
0.0
  9
$PUCSORTHOREF
  2

  9
$PUCSORTHOVIEW
 70
     0
  9
$PUCSORGTOP
 10
0.0
 20
0.0
 30
0.0
  9
$PUCSORGBOTTOM
 10
0.0
 20
0.0
 30
0.0
  9
$PUCSORGLEFT
 10
0.0
 20
0.0
 30
0.0
  9
$PUCSORGRIGHT
 10
0.0
 20
0.0
 30
0.0
  9
$PUCSORGFRONT
 10
0.0
 20
0.0
 30
0.0
  9
$PUCSORGBACK
 10
0.0
 20
0.0
 30
0.0
  9
$USERI1
 70
     0
  9
$USERI2
 70
     0
  9
$USERI3
 70
     0
  9
$USERI4
 70
     0
  9
$USERI5
 70
     0
  9
$USERR1
 40
0.0
  9
$USERR2
 40
0.0
  9
$USERR3
 40
0.0
  9
$USERR4
 40
0.0
  9
$USERR5
 40
0.0
  9
$WORLDVIEW
 70
     1
  9
$SHADEDGE
 70
     3
  9
$SHADEDIF
 70
    70
  9
$TILEMODE
 70
     1
  9
$MAXACTVP
 70
    64
  9
$PINSBASE
 10
0.0
 20
0.0
 30
0.0
  9
$PLIMCHECK
 70
     0
  9
$PEXTMIN
 10
1.000000000000000E+20
 20
1.000000000000000E+20
 30
1.000000000000000E+20
  9
$PEXTMAX
 10
-1.000000000000000E+20
 20
-1.000000000000000E+20
 30
-1.000000000000000E+20
  9
$PLIMMIN
 10
0.0
 20
0.0
  9
$PLIMMAX
 10
420.0
 20
297.0
  9
$UNITMODE
 70
     0
  9
$VISRETAIN
 70
     1
  9
$PLINEGEN
 70
     0
  9
$PSLTSCALE
 70
     1
  9
$TREEDEPTH
 70
  3020
  9
$CMLSTYLE
  2
Standard
  9
$CMLJUST
 70
     0
  9
$CMLSCALE
 40
20.0
  9
$PROXYGRAPHICS
 70
     1
  9
$MEASUREMENT
 70
     1
  9
$CELWEIGHT
370
    -1
  9
$ENDCAPS
280
     0
  9
$JOINSTYLE
280
     0
  9
$LWDISPLAY
290
     0
  9
$INSUNITS
 70
     4
  9
$HYPERLINKBASE
  1

  9
$STYLESHEET
  1

  9
$XEDIT
290
     1
  9
$CEPSNTYPE
380
     0
  9
$PSTYLEMODE
290
     1
  9
$FINGERPRINTGUID
  2
{A3477950-F6EC-44A0-8776-592C40033ABE}
  9
$VERSIONGUID
  2
{F58507D2-125D-4389-9F62-BBAA960E9A15}
  9
$EXTNAMES
290
     1
  9
$PSVPSCALE
 40
0.0
  9
$OLESTARTUP
290
     0
  0
ENDSEC
  0
SECTION
  2
CLASSES
  0
CLASS
  1
ACDBDICTIONARYWDFLT
  2
AcDbDictionaryWithDefault
  3
AutoCAD 2000
 90
        0
280
     0
281
     0
  0
CLASS
  1
ACDBPLACEHOLDER
  2
AcDbPlaceHolder
  3
AutoCAD 2000
 90
        0
280
     0
281
     0
  0
CLASS
  1
LAYOUT
  2
AcDbLayout
  3
AutoCAD 2000
 90
        0
280
     0
281
     0
  0
CLASS
  1
DICTIONARYVAR
  2
AcDbDictionaryVar
  3
AutoCAD 2000
 90
        0
280
     0
281
     0
  0
ENDSEC
  0
SECTION
  2
TABLES
  0
TABLE
  2
VPORT
  5
8
330
0
100
AcDbSymbolTable
 70
     2
  0
VPORT
  5
424B
330
8
100
AcDbSymbolTableRecord
100
AcDbViewportTableRecord
  2
*Active
 70
     0
 10
0.0
 20
0.0
 11
1.0
 21
1.0
 12
1239.530103419939
 22
348.6299511266781
 13
0.0
 23
0.0
 14
10.0
 24
10.0
 15
10.0
 25
10.0
 16
0.0
 26
0.0
 36
1.0
 17
0.0
 27
0.0
 37
0.0
 40
893.9674279445119
 41
2.229559748427672
 42
50.0
 43
0.0
 44
0.0
 50
0.0
 51
0.0
 71
     0
 72
   100
 73
     1
 74
     3
 75
     0
 76
     0
 77
     0
 78
     0
281
     0
 65
     1
110
0.0
120
0.0
130
0.0
111
1.0
121
0.0
131
0.0
112
0.0
122
1.0
132
0.0
 79
     0
146
0.0
  0
ENDTAB
  0
TABLE
  2
LTYPE
  5
5
330
0
100
AcDbSymbolTable
 70
     3
  0
LTYPE
  5
14
330
5
100
AcDbSymbolTableRecord
100
AcDbLinetypeTableRecord
  2
ByBlock
 70
     0
  3

 72
    65
 73
     0
 40
0.0
  0
LTYPE
  5
15
330
5
100
AcDbSymbolTableRecord
100
AcDbLinetypeTableRecord
  2
ByLayer
 70
     0
  3

 72
    65
 73
     0
 40
0.0
  0
LTYPE
  5
16
330
5
100
AcDbSymbolTableRecord
100
AcDbLinetypeTableRecord
  2
Continuous
 70
     0
  3
Solid line
 72
    65
 73
     0
 40
0.0
  0
LTYPE
  5
3AF3
330
5
100
AcDbSymbolTableRecord
100
AcDbLinetypeTableRecord
  2
DASHED
 70
     0
  3
Dashed __ __ __ __ __ __ __ __ __ __ __ __ __ _
 72
    65
 73
     2
 40
19.04999999999999
 49
12.7
 74
     0
 49
-6.349999999999999
 74
     0
  0
LTYPE
  5
3AF4
330
5
100
AcDbSymbolTableRecord
100
AcDbLinetypeTableRecord
  2
IZOLACE
 70
     0
  3
Izolace SSSSSSSSSSSSSSSSSSSSSSSSSSSSSSSSSSSSSSS
 72
    65
 73
     4
 40
10.16253999999999
 49
0.00254
 74
     0
 49
-2.54
 74
     4
 75
   134
340
3AFC
 46
2.54
 50
0.0
 44
-2.54
 45
0.0
 49
-5.08
 74
     4
 75
   134
340
3AFC
 46
2.54
 50
180.0
 44
2.54
 45
0.0
 49
-2.54
 74
     0
  0
ENDTAB
  0
TABLE
  2
LAYER
  5
2
330
0
100
AcDbSymbolTable
 70
     7
  0
LAYER
  5
10
330
2
100
AcDbSymbolTableRecord
100
AcDbLayerTableRecord
  2
0
 70
     0
 62
     7
  6
Continuous
370
    -3
390
F
  0
LAYER
  5
3AF5
330
2
100
AcDbSymbolTableRecord
100
AcDbLayerTableRecord
  2
POPIS
 70
     0
 62
    30
  6
Continuous
370
    -3
390
F
  0
LAYER
  5
3AF6
330
2
100
AcDbSymbolTableRecord
100
AcDbLayerTableRecord
  2
SPOJOVACÍ
 70
     0
 62
   180
  6
Continuous
370
    -3
390
F
  0
LAYER
  5
3AF7
330
2
100
AcDbSymbolTableRecord
100
AcDbLayerTableRecord
  2
CETRIS
 70
     0
 62
     1
  6
Continuous
370
    -3
390
F
  0
LAYER
  5
3AF8
330
2
100
AcDbSymbolTableRecord
100
AcDbLayerTableRecord
  2
izolace
 70
     0
 62
    33
  6
Continuous
370
    -3
390
F
  0
LAYER
  5
3AF9
330
2
100
AcDbSymbolTableRecord
100
AcDbLayerTableRecord
  2
nášlap_vrstvy
 70
     0
 62
    73
  6
Continuous
370
    -3
390
F
  0
LAYER
  5
3AFA
330
2
100
AcDbSymbolTableRecord
100
AcDbLayerTableRecord
  2
STAVBA OBRYS
 70
     0
 62
     6
  6
Continuous
370
    -3
390
F
  0
ENDTAB
  0
TABLE
  2
STYLE
  5
3
330
0
100
AcDbSymbolTable
 70
     3
  0
STYLE
  5
11
330
3
100
AcDbSymbolTableRecord
100
AcDbTextStyleTableRecord
  2
Standard
 70
     0
 40
0.0
 41
1.0
 50
0.0
 71
     0
 42
2.5
  3
txt
  4

  0
STYLE
  5
3AFB
330
3
100
AcDbSymbolTableRecord
100
AcDbTextStyleTableRecord
  2
SIMPLEX7
 70
     0
 40
0.0
 41
0.85
 50
0.0
 71
     0
 42
102.0
  3
ARIAL.TTF
  4

1001
ACAD
1000
Arial CE
1071
    60962
  0
STYLE
  5
3AFC
330
3
100
AcDbSymbolTableRecord
100
AcDbTextStyleTableRecord
  2

 70
     1
 40
0.0
 41
1.0
 50
0.0
 71
     0
 42
2.5
  3
ltypeshp.shx
  4

  0
ENDTAB
  0
TABLE
  2
VIEW
  5
6
330
0
100
AcDbSymbolTable
 70
     0
  0
ENDTAB
  0
TABLE
  2
UCS
  5
7
330
0
100
AcDbSymbolTable
 70
     0
  0
ENDTAB
  0
TABLE
  2
APPID
  5
9
330
0
100
AcDbSymbolTable
 70
     1
  0
APPID
  5
12
330
9
100
AcDbSymbolTableRecord
100
AcDbRegAppTableRecord
  2
ACAD
 70
     0
  0
ENDTAB
  0
TABLE
  2
DIMSTYLE
  5
A
330
0
100
AcDbSymbolTable
 70
     1
100
AcDbDimStyleTable
 71
     0
  0
DIMSTYLE
105
27
330
A
100
AcDbSymbolTableRecord
100
AcDbDimStyleTableRecord
  2
ISO-25
 70
     0
 41
2.5
 42
0.625
 43
3.75
 44
1.25
 73
     0
 74
     0
 77
     1
 78
     8
140
2.5
141
2.5
143
0.03937007874016
147
0.625
171
     3
172
     1
271
     2
272
     2
274
     3
278
    44
283
     0
284
     8
340
11
  0
ENDTAB
  0
TABLE
  2
BLOCK_RECORD
  5
1
330
0
100
AcDbSymbolTable
 70
     2
  0
BLOCK_RECORD
  5
1F
330
1
100
AcDbSymbolTableRecord
100
AcDbBlockTableRecord
  2
*Model_Space
340
22
  0
BLOCK_RECORD
  5
1B
330
1
100
AcDbSymbolTableRecord
100
AcDbBlockTableRecord
  2
*Paper_Space
340
1E
  0
BLOCK_RECORD
  5
23
330
1
100
AcDbSymbolTableRecord
100
AcDbBlockTableRecord
  2
*Paper_Space0
340
26
  0
BLOCK_RECORD
  5
3AEF
330
1
100
AcDbSymbolTableRecord
100
AcDbBlockTableRecord
  2
E_PUNKT
340
0
102
{BLKREFS
331
3EFB
331
3FD1
331
402D
331
402E
331
4083
331
40B7
331
4111
331
414C
102
}
  0
ENDTAB
  0
ENDSEC
  0
SECTION
  2
BLOCKS
  0
BLOCK
  5
20
330
1F
100
AcDbEntity
  8
0
100
AcDbBlockBegin
  2
*Model_Space
 70
     0
 10
0.0
 20
0.0
 30
0.0
  3
*Model_Space
  1

  0
ENDBLK
  5
21
330
1F
100
AcDbEntity
  8
0
100
AcDbBlockEnd
  0
BLOCK
  5
1C
330
1B
100
AcDbEntity
 67
     1
  8
0
100
AcDbBlockBegin
  2
*Paper_Space
 70
     0
 10
0.0
 20
0.0
 30
0.0
  3
*Paper_Space
  1

  0
ENDBLK
  5
1D
330
1B
100
AcDbEntity
 67
     1
  8
0
100
AcDbBlockEnd
  0
BLOCK
  5
24
330
23
100
AcDbEntity
  8
0
100
AcDbBlockBegin
  2
*Paper_Space0
 70
     0
 10
0.0
 20
0.0
 30
0.0
  3
*Paper_Space0
  1

  0
ENDBLK
  5
25
330
23
100
AcDbEntity
  8
0
100
AcDbBlockEnd
  0
BLOCK
  5
3AF1
330
3AEF
100
AcDbEntity
  8
0
100
AcDbBlockBegin
  2
E_PUNKT
 70
     0
 10
0.0
 20
0.0
 30
0.0
  3
E_PUNKT
  1

  0
LWPOLYLINE
  5
3AF0
330
3AEF
100
AcDbEntity
  8
POPIS
100
AcDbPolyline
 90
        2
 70
     1
 43
2.5
 10
1.27761037562675
 20
0.0290683308725193
 42
-1.0
 10
-1.222389624373249
 20
0.0290683308725193
 42
-1.0
  0
ENDBLK
  5
3AF2
330
3AEF
100
AcDbEntity
  8
0
100
AcDbBlockEnd
  0
ENDSEC
  0
SECTION
  2
ENTITIES
  0
HATCH
  5
3EA0
330
1F
100
AcDbEntity
  8
CETRIS
100
AcDbHatch
 10
0.0
 20
0.0
 30
0.0
210
0.0
220
0.0
230
1.0
  2
ANSI31
 70
     0
 71
     0
 91
        6
 92
        7
 72
     0
 73
     1
 93
       24
 10
1617.424682442595
 20
348.4608607044725
 10
1542.25629133784
 20
348.4608607044725
 10
1542.25629133784
 20
347.4613216994554
 10
1541.660442117763
 20
347.1808309090994
 10
1540.62990965495
 20
346.416067344901
 10
1539.831828123651
 20
345.4103296485446
 10
1539.32121091131
 20
344.2325782628637
 10
1539.132150823206
 20
342.9633961776627
 10
1539.132150823206
 20
341.0814526453469
 10
1540.06404807087
 20
340.7681054107416
 10
1539.692357566196
 20
340.3964149039207
 10
1539.132150823206
 20
340.5847824886524
 10
1539.132150823206
 20
338.4952020124138
 10
1540.064048070868
 20
338.1818547778058
 10
1539.692357566196
 20
337.8101642709868
 10
1539.132150823206
 20
337.9985318557193
 10
1539.132150823206
 20
335.8962717572422
 10
1540.064112056154
 20
335.5831173502271
 10
1539.692357566198
 20
335.2113628583917
 10
1539.132150823204
 20
335.3996016007009
 10
1539.132150823208
 20
333.3101499668847
 10
1540.06404807087
 20
332.9968027322785
 10
1539.52810604616
 20
332.460860704473
 10
1617.424682442595
 20
332.460860704473
 97
        0
 92
        7
 72
     0
 73
     1
 93
       27
 10
1536.883575477646
 20
338.7546075585365
 10
1535.952362089812
 20
339.0677248476996
 10
1536.323368734656
 20
339.4396452997713
 10
1536.883575477646
 20
339.2512777150783
 10
1536.883575477644
 20
341.3408581914706
 10
1535.95236208981
 20
341.6539754806327
 10
1536.323368734656
 20
342.0258959327048
 10
1536.883575477646
 20
341.8375283480114
 10
1536.856068783925
 20
343.2911519908194
 10
1536.828562090206
 20
343.6189078040175
 10
1536.472137330243
 20
344.852447413272
 10
1535.808877340972
 20
345.9511654820868
 10
1534.883722633978
 20
346.8414525492686
 10
1533.759434959376
 20
347.4613216994558
 10
1533.759434959376
 20
348.4608607044725
 10
1460.902350105194
 20
348.4608607044725
 10
1460.902350105192
 20
332.460860704473
 10
1476.426007777134
 20
332.460860704473
 10
1536.883575477646
 20
332.4608607044725
 10
1536.883575477648
 20
333.569555513007
 10
1535.952362089812
 20
333.8826728021705
 10
1536.323368734656
 20
334.2545932542426
 10
1536.883575477648
 20
334.0662256695501
 10
1536.883575477646
 20
336.1551601517736
 10
1535.95161424149
 20
336.4683145598015
 10
1536.323368734656
 20
336.840069050817
 10
1536.883575477646
 20
336.6518303084696
 97
        0
 92
        7
 72
     0
 73
     1
 93
        4
 10
1460.902350105194
 20
348.4608607044725
 10
1411.813834640905
 20
348.4608607044721
 10
1411.813834640905
 20
332.4608607044734
 10
1460.902350105194
 20
332.4608607044725
 97
        0
 92
        7
 72
     0
 73
     1
 93
        5
 10
1411.813834640905
 20
348.4608607044725
 10
1364.931519826737
 20
348.4608607044721
 10
1364.931519826737
 20
332.4608607044734
 10
1381.859076937793
 20
332.460860704473
 10
1411.813834640905
 20
332.460860704473
 97
        0
 92
        7
 72
     0
 73
     1
 93
       24
 10
1364.931519826737
 20
348.460860704473
 10
1262.892510752926
 20
348.4608607044725
 10
1262.892510752926
 20
347.4613216994558
 10
1262.296661532849
 20
347.1808309091003
 10
1261.266129070038
 20
346.4160673449024
 10
1260.468047538739
 20
345.4103296485483
 10
1259.957430326396
 20
344.2325782628546
 10
1259.768370238292
 20
342.9633961776522
 10
1259.768370238292
 20
341.0814526453478
 10
1260.700267485952
 20
340.7681054107403
 10
1260.328576981282
 20
340.3964149039212
 10
1259.768370238292
 20
340.5847824886524
 10
1259.768370238292
 20
338.4952020124138
 10
1260.700267485954
 20
338.1818547778067
 10
1260.328576981282
 20
337.8101642709863
 10
1259.768370238292
 20
337.9985318557179
 10
1259.768370238292
 20
335.8962717572427
 10
1260.700331471242
 20
335.5831173502271
 10
1260.328576981282
 20
335.2113628583921
 10
1259.768370238292
 20
335.3996016007009
 10
1259.768370238292
 20
333.3101499668861
 10
1260.700267485954
 20
332.9968027322771
 10
1260.164325461246
 20
332.460860704473
 10
1364.931519826735
 20
332.460860704473
 97
        0
 92
        7
 72
     0
 73
     1
 93
       31
 10
1257.519794892732
 20
341.3408581914706
 10
1256.588581504898
 20
341.6539754806336
 10
1256.959588149742
 20
342.0258959327048
 10
1257.519794892732
 20
341.8375283480123
 10
1257.492288199013
 20
343.2911519908071
 10
1257.464781505295
 20
343.6189078040148
 10
1257.108356745329
 20
344.8524474132688
 10
1256.445096756058
 20
345.9511654820904
 10
1255.51994204906
 20
346.8414525492772
 10
1254.395654374462
 20
347.4613216994563
 10
1254.395654374462
 20
348.460860704473
 10
1235.719746809305
 20
348.460860704473
 10
1235.719746809305
 20
342.460860704473
 10
1225.719746809305
 20
342.4608607044735
 10
1225.719746809305
 20
337.4608607044734
 10
1235.719746809305
 20
337.460860704473
 10
1235.719746809305
 20
332.460860704473
 10
1240.008680678782
 20
332.460860704473
 10
1257.519794892732
 20
332.4608607044725
 10
1257.519794892732
 20
333.569555513006
 10
1256.588581504898
 20
333.8826728021705
 10
1256.959588149742
 20
334.2545932542417
 10
1257.519794892732
 20
334.0662256695483
 10
1257.519794892734
 20
336.1551601517741
 10
1256.587833656578
 20
336.468314559802
 10
1256.959588149742
 20
336.8400690508166
 10
1257.519794892732
 20
336.6518303084696
 10
1257.51979489273
 20
338.7546075585361
 10
1256.588581504895
 20
339.0677248476996
 10
1256.959588149742
 20
339.4396452997708
 10
1257.519794892732
 20
339.2512777150769
 97
        0
 75
     0
 76
     1
 52
90.0
 41
1.0
 77
     0
 78
     1
 53
135.0
 43
-7832.93905624658
 44
-3021.619998772759
 45
-2.245064030267288
 46
-2.245064030267287
 79
     0
 47
0.8614946964195564
 98
        6
 10
1595.05122319272
 20
343.6584532241091
 10
1489.891488207286
 20
338.4894987051653
 10
1446.793219700746
 20
341.0739759646372
 10
1383.869769937839
 20
337.6279895104258
 10
1351.115110843726
 20
339.3509911249881
 10
1245.955375858291
 20
341.0739759646372
  0
HATCH
  5
3EA1
330
1F
100
AcDbEntity
  8
CETRIS
100
AcDbHatch
 10
0.0
 20
0.0
 30
0.0
210
0.0
220
0.0
230
1.0
  2
ANSI31
 70
     0
 71
     0
 91
        4
 92
        7
 72
     1
 73
     1
 93
       29
 10
1113.26140928031
 20
339.0570314575203
 42
0.0
 10
1113.26140928031
 20
348.460860704473
 42
0.0
 10
963.477287324933
 20
348.460860704473
 42
0.0
 10
963.477287324933
 20
347.4613216994567
 42
0.0
 10
962.8814381048597
 20
347.1808309091008
 42
0.0
 10
961.8509056420462
 20
346.4160673449024
 42
0.0
 10
961.0528241107477
 20
345.4103296485528
 42
0.0
 10
960.5422068984044
 20
344.2325782628592
 42
0.0
 10
960.353146810301
 20
342.9633961776632
 42
0.0
 10
960.353146810301
 20
341.0814526453474
 42
0.0
 10
961.2850440579604
 20
340.7681054107412
 42
0.0
 10
960.9133535532892
 20
340.3964149039207
 42
0.0
 10
960.3531468102993
 20
340.5847824886515
 42
0.0
 10
960.3531468102973
 20
338.4952020124134
 42
0.0
 10
961.2850440579622
 20
338.1818547778076
 42
0.0
 10
960.9133535532892
 20
337.8101642709876
 42
0.0
 10
960.3531468102993
 20
337.9985318557184
 42
0.0
 10
960.3531468102993
 20
335.8962717572413
 42
0.0
 10
961.2851080432502
 20
335.583117350228
 42
0.0
 10
960.9133535532892
 20
335.2113628583921
 42
0.0
 10
960.3531468102993
 20
335.3996016007
 42
0.0
 10
960.353146810301
 20
333.3101499668861
 42
0.0
 10
961.2850440579586
 20
332.9968027322771
 42
0.0
 10
960.7491020332545
 20
332.460860704473
 42
0.0
 10
1160.143724094478
 20
332.460860704473
 42
0.0
 10
1160.143724094478
 20
348.460860704473
 42
0.0
 10
1113.26140928031
 20
348.460860704473
 42
0.0
 10
1113.26140928031
 20
339.0570314575203
 42
-1.0
 10
1113.261409280308
 20
336.5570314575203
 42
-1.0
 97
        0
 92
        7
 72
     0
 73
     1
 93
       26
 10
958.0770647710195
 20
343.2911519908208
 10
958.0495580773003
 20
343.6189078040066
 10
957.6931333173378
 20
344.8524474132669
 10
957.0298733280615
 20
345.9511654820977
 10
956.1047186210634
 20
346.8414525492695
 10
954.9804309464688
 20
347.4613216994558
 10
954.9804309464688
 20
348.4608607044725
 10
932.6661554509282
 20
348.4608607044734
 10
932.6661554509282
 20
332.4608607044734
 10
958.1045714647389
 20
332.4608607044734
 10
958.1045714647407
 20
333.569555513007
 10
957.173358076905
 20
333.8826728021696
 10
957.544364721749
 20
334.2545932542431
 10
958.1045714647389
 20
334.0662256695492
 10
958.1045714647389
 20
336.1551601517732
 10
957.1726102285829
 20
336.4683145598015
 10
957.544364721749
 20
336.8400690508161
 10
958.1045714647389
 20
336.6518303084696
 10
958.1045714647389
 20
338.7546075585365
 10
957.173358076905
 20
339.0677248476992
 10
957.544364721749
 20
339.4396452997713
 10
958.1045714647389
 20
339.2512777150778
 10
958.1045714647389
 20
341.3408581914696
 10
957.173358076905
 20
341.6539754806336
 10
957.544364721749
 20
342.0258959327048
 10
958.1045714647389
 20
341.8375283480119
 97
        0
 92
        7
 72
     1
 73
     1
 93
       27
 10
1207.60451870305
 20
344.8524474132669
 42
0.0
 10
1206.941258713779
 20
345.9511654820945
 42
0.0
 10
1206.016104006781
 20
346.8414525492732
 42
0.0
 10
1204.891816332179
 20
347.4613216994549
 42
0.0
 10
1204.891816332179
 20
348.460860704473
 42
0.0
 10
1160.143724094479
 20
348.4608607044734
 42
0.0
 10
1160.143724094478
 20
332.460860704473
 42
0.0
 10
1208.015956850451
 20
332.460860704473
 42
0.0
 10
1208.015956850451
 20
333.569555513007
 42
0.0
 10
1207.084743462615
 20
333.8826728021696
 42
0.0
 10
1207.455750107459
 20
334.2545932542417
 42
0.0
 10
1208.015956850451
 20
334.0662256695487
 42
0.0
 10
1208.015956850451
 20
336.1551601517727
 42
0.0
 10
1207.083995614297
 20
336.4683145598015
 42
0.0
 10
1207.455750107459
 20
336.840069050817
 42
0.0
 10
1208.015956850451
 20
336.65183030847
 42
0.0
 10
1208.015956850451
 20
338.7546075585361
 42
0.0
 10
1207.084743462615
 20
339.0677248476978
 42
0.0
 10
1207.455750107461
 20
339.4396452997713
 42
0.0
 10
1208.015956850451
 20
339.2512777150792
 42
0.0
 10
1208.015956850451
 20
341.1183069061786
 42
-0.0472524619690234
 10
1207.983445094922
 20
341.3517901571077
 42
0.0
 10
1207.084743462615
 20
341.6539754806322
 42
0.0
 10
1207.455750107461
 20
342.0258959327048
 42
0.0
 10
1208.015956850451
 20
341.8375283480123
 42
0.0
 10
1207.988450156732
 20
343.2911519908581
 42
0.0
 10
1207.960943463011
 20
343.6189078040202
 42
0.0
 97
        0
 92
        7
 72
     1
 73
     1
 93
       29
 10
1225.719746809305
 20
342.4608607044735
 42
0.0
 10
1235.719746809305
 20
342.460860704473
 42
0.0
 10
1235.719746809305
 20
348.460860704473
 42
0.0
 10
1213.388672710643
 20
348.460860704473
 42
0.0
 10
1213.388672710643
 20
347.4613216994554
 42
0.0
 10
1212.792823490566
 20
347.1808309090985
 42
0.0
 10
1211.762291027755
 20
346.4160673449019
 42
0.0
 10
1210.964209496458
 20
345.4103296485496
 42
0.0
 10
1210.453592284118
 20
344.2325782628691
 42
0.0
 10
1210.264532196011
 20
342.963396177674
 42
0.0
 10
1210.264532196011
 20
342.1115667923387
 42
-0.2306896547983372
 10
1210.42350141295
 20
341.0279997945746
 42
0.0
 10
1211.196429443673
 20
340.7681054107407
 42
0.0
 10
1210.824738939001
 20
340.3964149039217
 42
0.0
 10
1210.264532196009
 20
340.5847824886528
 42
0.0
 10
1210.264532196009
 20
338.4952020124152
 42
0.0
 10
1211.196429443673
 20
338.1818547778062
 42
0.0
 10
1210.824738939001
 20
337.8101642709868
 42
0.0
 10
1210.264532196011
 20
337.9985318557188
 42
0.0
 10
1210.264532196009
 20
335.8962717572436
 42
0.0
 10
1211.196493428959
 20
335.583117350228
 42
0.0
 10
1210.824738939003
 20
335.2113628583917
 42
0.0
 10
1210.264532196009
 20
335.3996016007009
 42
0.0
 10
1210.264532196009
 20
333.3101499668847
 42
0.0
 10
1211.196429443674
 20
332.9968027322803
 42
0.0
 10
1210.660487418967
 20
332.4608607044734
 42
0.0
 10
1235.719746809305
 20
332.4608607044734
 42
0.0
 10
1235.719746809305
 20
337.4608607044734
 42
0.0
 10
1225.719746809305
 20
337.460860704473
 42
0.0
 97
        0
 75
     0
 76
     1
 52
0.0
 41
1.0
 77
     0
 78
     1
 53
45.0
 43
-7832.93905624658
 44
-3021.619998772759
 45
-2.245064030267287
 46
2.245064030267288
 79
     0
 47
0.8614946964195564
 98
        4
 10
1032.188027035859
 20
338.4894987051653
 10
943.4056215974706
 20
342.7969608042864
 10
1185.617821662926
 20
343.6584532241091
 10
1222.68231575036
 20
341.0739759646372
  0
LWPOLYLINE
  5
3EA2
330
1F
100
AcDbEntity
  8
izolace
100
AcDbPolyline
 90
        4
 70
     1
 43
0.0
 10
1240.008680678782
 20
332.460860704473
 10
1216.366947968947
 20
332.460860704473
 10
1216.366947968947
 20
329.460860704473
 10
1240.008680678782
 20
329.460860704473
  0
HATCH
  5
3EA3
330
1F
100
AcDbEntity
  8
izolace
100
AcDbHatch
 10
0.0
 20
0.0
 30
0.0
210
0.0
220
0.0
230
1.0
  2
SOLID
 70
     1
 71
     0
 91
        1
 92
        7
 72
     0
 73
     1
 93
        4
 10
1240.008680678785
 20
332.460860704473
 10
1216.36694796895
 20
332.460860704473
 10
1216.366947968947
 20
329.460860704473
 10
1240.008680678785
 20
329.460860704473
 97
        0
 75
     0
 76
     1
 47
0.1901250437635136
 98
        1
 10
1225.72474272729
 20
331.6440491533932
  0
LWPOLYLINE
  5
3EA4
330
1F
100
AcDbEntity
  8
izolace
100
AcDbPolyline
 90
        4
 70
     0
 43
0.0
 10
1617.424682442595
 20
329.460860704473
 10
932.6661554509247
 20
329.460860704473
 10
932.6661554509247
 20
332.460860704473
 10
1617.424682442595
 20
332.460860704473
  0
LINE
  5
3EA5
330
1F
100
AcDbEntity
  8
STAVBA OBRYS
100
AcDbLine
 10
907.6661554509319
 20
329.4608607044734
 30
0.0
 11
1617.408035233829
 21
329.4608607044734
 31
0.0
  0
LWPOLYLINE
  5
3EA6
330
1F
100
AcDbEntity
  8
STAVBA OBRYS
100
AcDbPolyline
 90
        8
 70
     0
 43
0.0
 10
1230.239227024436
 20
311.4608607044734
 42
0.0217273703039143
 10
1228.041556763926
 20
316.4965510419512
 42
0.0882970623535771
 10
1226.404334843833
 20
318.7369200927511
 42
0.0171636441953577
 10
1223.590970781975
 20
321.2508374479963
 42
0.0157521173632038
 10
1220.352115944939
 20
323.7823335005028
 42
0.0073640874174249
 10
1215.718466588618
 20
327.0707349262389
 42
0.0194185739168057
 10
1213.896423268941
 20
328.2223039255201
 42
0.0229547400386702
 10
1211.510965204926
 20
329.4608607044734
  0
LWPOLYLINE
  5
3EA7
330
1F
100
AcDbEntity
  8
STAVBA OBRYS
100
AcDbPolyline
 90
        6
 70
     0
 43
0.0
 10
1239.612031032238
 20
311.4608607044734
 42
0.0121757200102759
 10
1238.242041318577
 20
316.1327780369407
 42
0.0457786284636091
 10
1237.034018428961
 20
318.9813884198171
 42
0.0295006114745606
 10
1234.617957974662
 20
322.9082876332191
 42
0.0258674098621065
 10
1231.385282660698
 20
327.054067711973
 42
0.0093759062953949
 10
1229.219470481041
 20
329.4608607044734
  0
LWPOLYLINE
  5
3EA8
330
1F
100
AcDbEntity
  8
STAVBA OBRYS
100
AcDbPolyline
 90
        3
 70
     0
 43
0.0
 10
1217.488699260329
 20
311.4608607044734
 10
1231.280747186969
 20
318.3619322679602
 10
1239.447851836094
 20
326.5432339690538
  0
LINE
  5
3EA9
330
1F
100
AcDbEntity
  8
CETRIS
100
AcDbLine
 10
1225.719746809305
 20
337.460860704473
 30
0.0
 11
1235.719746809305
 21
337.460860704473
 31
0.0
  0
LINE
  5
3EAA
330
1F
100
AcDbEntity
  8
CETRIS
100
AcDbLine
 10
1235.719746809305
 20
342.460860704473
 30
0.0
 11
1225.719746809305
 21
342.460860704473
 31
0.0
  0
LINE
  5
3EAB
330
1F
100
AcDbEntity
  8
CETRIS
100
AcDbLine
 10
932.6661554509282
 20
332.460860704473
 30
0.0
 11
1617.408035233829
 21
332.460860704473
 31
0.0
  0
LINE
  5
3EAC
330
1F
100
AcDbEntity
  8
CETRIS
100
AcDbLine
 10
1225.719746809305
 20
331.8612167875913
 30
0.0
 11
1235.719746809305
 21
331.8612167875913
 31
0.0
  0
LWPOLYLINE
  5
3EAD
330
1F
100
AcDbEntity
  8
STAVBA OBRYS
100
AcDbPolyline
 90
        6
 70
     0
 43
0.0
 10
1239.612031032238
 20
170.4608607044725
 42
0.0121757200102759
 10
1238.242041318577
 20
175.1327780369398
 42
0.0457786284636091
 10
1237.034018428961
 20
177.9813884198162
 42
0.0295006114745606
 10
1234.617957974662
 20
181.9082876332182
 42
0.0258674098621065
 10
1231.385282660698
 20
186.0540677119721
 42
0.0093759062953949
 10
1229.219470481041
 20
188.4608607044725
  0
LWPOLYLINE
  5
3EAE
330
1F
100
AcDbEntity
  8
STAVBA OBRYS
100
AcDbPolyline
 90
        8
 70
     0
 43
0.0
 10
1230.239227024436
 20
170.4608607044725
 42
0.0217273703039143
 10
1228.041556763926
 20
175.4965510419502
 42
0.0882970623535771
 10
1226.404334843833
 20
177.7369200927502
 42
0.0171636441953577
 10
1223.590970781975
 20
180.2508374479954
 42
0.0157521173632038
 10
1220.352115944939
 20
182.7823335005019
 42
0.0073640874174249
 10
1215.718466588618
 20
186.070734926238
 42
0.0194185739168057
 10
1213.896423268941
 20
187.2223039255192
 42
0.0229547400386702
 10
1211.510965204926
 20
188.4608607044725
  0
LWPOLYLINE
  5
3EAF
330
1F
100
AcDbEntity
  8
STAVBA OBRYS
100
AcDbPolyline
 90
        3
 70
     0
 43
0.0
 10
1217.488699260329
 20
170.4608607044725
 10
1231.280747186969
 20
177.3619322679593
 10
1239.447851836094
 20
185.5432339690529
  0
LINE
  5
3EB0
330
1F
100
AcDbEntity
  8
CETRIS
100
AcDbLine
 10
932.6661554509282
 20
348.460860704473
 30
0.0
 11
1617.408035233829
 21
348.460860704473
 31
0.0
  0
LWPOLYLINE
  5
3EB1
330
1F
100
AcDbEntity
  8
nášlap_vrstvy
100
AcDbPolyline
 90
        4
 70
     1
 43
0.0
 10
920.8360183515161
 20
351.0037746303324
 10
1617.424682442595
 20
351.0037746303324
 10
1617.424682442595
 20
355.3422636562801
 10
920.8360183515161
 20
355.3422636562801
  0
LINE
  5
3EB2
330
1F
100
AcDbEntity
  8
STAVBA OBRYS
100
AcDbLine
 10
907.6661554509319
 20
188.4608607044725
 30
0.0
 11
1617.408035233829
 21
188.4608607044725
 31
0.0
  0
LINE
  5
3EB3
330
1F
100
AcDbEntity
  8
STAVBA OBRYS
100
AcDbLine
 10
917.6661554509282
 20
160.4608607044725
 30
0.0
 11
1617.408035233829
 21
160.4608607044725
 31
0.0
  0
HATCH
  5
3EB4
330
1F
100
AcDbEntity
  8
STAVBA OBRYS
100
AcDbHatch
 10
0.0
 20
0.0
 30
0.0
210
0.0
220
0.0
230
1.0
  2
AR-CONC
 70
     0
 71
     0
 91
        1
 92
        7
 72
     0
 73
     1
 93
        6
 10
1617.408035233829
 20
170.4608607044725
 10
907.6661554509355
 20
170.4608607044734
 10
907.6661554509282
 20
-17.78188612312931
 10
917.6661554509246
 20
-17.29563418843224
 10
917.6661554509319
 20
160.4608607044725
 10
1617.408035233829
 20
160.4608607044725
 97
        0
 75
     0
 76
     1
 52
90.0
 41
0.1
 77
     0
 78
    13
 53
140.0
 43
-26779.72531167526
 44
3217.180090699265
 45
1.593908553890309
 46
18.2184668996004
 79
     2
 49
1.905
 49
-20.955
 53
85.00000000000001
 43
-26779.72531167526
 44
3217.180090699265
 45
-19.10566428821799
 46
-3.524282597566697
 79
     2
 49
1.524
 49
-16.764
 53
190.4509999999999
 43
-26779.59248667526
 44
3218.698290699266
 45
-17.51166878202918
 46
14.69425016659592
 79
     2
 49
1.619
 49
-17.809
 53
136.1841999999999
 43
-26784.80531167525
 44
3217.180090699265
 45
4.204232793272717
 46
27.10790408921299
 79
     2
 49
2.857499999999999
 49
-31.4325
 53
186.6355999999999
 43
-26784.45496167526
 44
3219.439080699265
 45
-24.74255558900492
 46
23.74042344662371
 79
     2
 49
2.4285
 49
-26.7135
 53
81.18400000000004
 43
-26784.80531167525
 44
3217.180090699265
 45
-24.74251178605976
 46
23.74046058139339
 79
     2
 49
2.286
 49
-25.146
 53
111.0
 43
-26783.53531167526
 44
3219.720090699265
 45
10.22655185167625
 46
15.16148798353833
 79
     2
 49
1.905
 49
-20.955
 53
56.00000000000004
 43
-26783.53531167526
 44
3219.720090699265
 45
-18.41879661223192
 46
6.180202834764708
 79
     2
 49
1.524
 49
-16.764
 53
161.4514
 43
-26782.68310167526
 44
3220.983540699266
 45
-8.192285771605742
 46
21.34164907701245
 79
     2
 49
1.618999999999997
 49
-17.80899999999995
 53
127.5
 43
-26779.72531167526
 44
3217.180090699265
 45
-8.455503887315311
 46
0.3088603250591822
 79
     6
 49
0.0
 49
-16.5608
 49
0.0
 49
-17.018
 49
0.0
 49
-16.8275
 53
97.49999999999985
 43
-26779.72531167526
 44
3217.180090699265
 45
-10.01805748181195
 46
6.681966251030575
 79
     6
 49
0.0
 49
-9.702799999999998
 49
0.0
 49
-16.17979999999999
 49
0.0
 49
-6.413499999999999
 53
57.5
 43
-26779.72531167526
 44
3211.515890699265
 45
0.5728743992673473
 46
13.55905951668713
 79
     6
 49
0.0
 49
-6.35
 49
0.0
 49
-19.812
 49
0.0
 49
-26.289
 53
47.5
 43
-26779.72531167526
 44
3208.975890699265
 45
-2.5426491033333
 46
14.8129181386018
 79
     6
 49
0.0
 49
-8.255
 49
0.0
 49
-13.1572
 49
0.0
 49
-18.669
 47
1.255134839913078
 98
        1
 10
1091.264503862783
 20
166.7886871238448
  0
LINE
  5
3EB5
330
1F
100
AcDbEntity
  8
STAVBA OBRYS
100
AcDbLine
 10
907.6661554509319
 20
170.4608607044725
 30
0.0
 11
1617.408035233829
 21
170.4608607044725
 31
0.0
  0
LINE
  5
3EB6
330
1F
100
AcDbEntity
  8
STAVBA OBRYS
100
AcDbLine
 10
783.0828275867425
 20
311.4608607044734
 30
0.0
 11
1617.408035233829
 21
311.4608607044725
 31
0.0
  0
TEXT
  5
3EB7
330
1F
100
AcDbEntity
  8
POPIS
100
AcDbText
 10
663.3222201134467
 20
720.6130556400499
 30
0.0
 40
50.0
  1
Vzorový řez - podlahové desky na staré podlaze
 41
0.85
  7
SIMPLEX7
100
AcDbText
  0
HATCH
  5
3EB8
330
1F
100
AcDbEntity
  8
STAVBA OBRYS
100
AcDbHatch
 10
0.0
 20
0.0
 30
0.0
210
0.0
220
0.0
230
1.0
  2
AR-CONC
 70
     0
 71
     0
 91
        2
 92
        7
 72
     0
 73
     1
 93
        4
 10
668.5855596224318
 20
583.8817407062203
 10
658.5855596224337
 20
583.8817407062212
 10
658.5855596224392
 20
-11.89347828485495
 10
668.5855596224391
 20
-11.89347828485495
 97
        0
 92
        7
 72
     0
 73
     1
 93
        5
 10
917.6661554509264
 20
583.881740706222
 10
907.6661554509264
 20
583.8817407062212
 10
907.6661554509319
 20
344.5333965225001
 10
917.6661554509337
 20
341.1795021140861
 10
917.6661554509319
 20
348.460860704473
 97
        0
 75
     0
 76
     1
 52
90.0
 41
0.1
 77
     0
 78
    13
 53
140.0
 43
-11245.73549848512
 44
-3021.619998772759
 45
1.593908553890309
 46
18.2184668996004
 79
     2
 49
1.905
 49
-20.955
 53
85.00000000000001
 43
-11245.73549848512
 44
-3021.619998772759
 45
-19.10566428821799
 46
-3.524282597566697
 79
     2
 49
1.524
 49
-16.764
 53
190.4509999999999
 43
-11245.60267348512
 44
-3020.101798772759
 45
-17.51166878202918
 46
14.69425016659592
 79
     2
 49
1.619
 49
-17.809
 53
136.1841999999999
 43
-11250.81549848512
 44
-3021.619998772759
 45
4.204232793272717
 46
27.10790408921299
 79
     2
 49
2.857499999999999
 49
-31.4325
 53
186.6355999999999
 43
-11250.46514848512
 44
-3019.361008772759
 45
-24.74255558900492
 46
23.74042344662371
 79
     2
 49
2.4285
 49
-26.7135
 53
81.18400000000004
 43
-11250.81549848512
 44
-3021.619998772759
 45
-24.74251178605976
 46
23.74046058139339
 79
     2
 49
2.286
 49
-25.146
 53
111.0
 43
-11249.54549848512
 44
-3019.079998772759
 45
10.22655185167625
 46
15.16148798353833
 79
     2
 49
1.905
 49
-20.955
 53
56.00000000000004
 43
-11249.54549848512
 44
-3019.079998772759
 45
-18.41879661223192
 46
6.180202834764708
 79
     2
 49
1.524
 49
-16.764
 53
161.4514
 43
-11248.69328848512
 44
-3017.816548772759
 45
-8.192285771605742
 46
21.34164907701245
 79
     2
 49
1.618999999999999
 49
-17.80899999999999
 53
127.5
 43
-11245.73549848512
 44
-3021.619998772759
 45
-8.455503887315311
 46
0.3088603250591822
 79
     6
 49
0.0
 49
-16.5608
 49
0.0
 49
-17.018
 49
0.0
 49
-16.8275
 53
97.49999999999998
 43
-11245.73549848512
 44
-3021.619998772759
 45
-10.01805748181195
 46
6.681966251030575
 79
     6
 49
0.0
 49
-9.702799999999999
 49
0.0
 49
-16.1798
 49
0.0
 49
-6.4135
 53
57.5
 43
-11245.73549848512
 44
-3027.284198772759
 45
0.5728743992673473
 46
13.55905951668713
 79
     6
 49
0.0
 49
-6.35
 49
0.0
 49
-19.812
 49
0.0
 49
-26.289
 53
47.5
 43
-11245.73549848512
 44
-3029.824198772759
 45
-2.5426491033333
 46
14.8129181386018
 79
     6
 49
0.0
 49
-8.255
 49
0.0
 49
-13.1572
 49
0.0
 49
-18.669
 47
1.084123873422525
 98
        2
 10
663.7254398514669
 20
321.7121094212567
 10
912.1253497556136
 20
461.564085649287
  0
LINE
  5
3EB9
330
1F
100
AcDbEntity
  8
STAVBA OBRYS
100
AcDbLine
 10
658.5855596224373
 20
-11.89347828485495
 30
0.0
 11
658.5855596224337
 21
583.8817407062193
 31
0.0
  0
LINE
  5
3EBA
330
1F
100
AcDbEntity
  8
STAVBA OBRYS
100
AcDbLine
 10
668.5855596224373
 20
-11.89347828485495
 30
0.0
 11
668.5855596224337
 21
583.8817407062193
 31
0.0
  0
LWPOLYLINE
  5
3EBB
330
1F
100
AcDbEntity
  8
STAVBA OBRYS
100
AcDbPolyline
 90
        4
 70
     1
 43
0.0
 10
907.6661554509319
 20
175.0782825579596
 10
712.0909051424096
 20
175.0782825579596
 10
712.0909051424096
 20
47.54098608835977
 10
907.6661554509319
 20
47.54098608835977
  0
LINE
  5
3EBC
330
1F
100
AcDbEntity
  8
STAVBA OBRYS
  6
IZOLACE
 48
2.1
100
AcDbLine
 10
690.9662737272029
 20
47.54098608836068
 30
0.0
 11
690.9662737272029
 21
308.4608607044725
 31
0.0
  0
LINE
  5
3EBD
330
1F
100
AcDbEntity
  8
STAVBA OBRYS
100
AcDbLine
 10
917.6661554509282
 20
160.4608607044725
 30
0.0
 11
917.6661554509282
 21
-17.29563418843224
 31
0.0
  0
LINE
  5
3EBE
330
1F
100
AcDbEntity
  8
STAVBA OBRYS
100
AcDbLine
 10
907.6661554509319
 20
188.4608607044725
 30
0.0
 11
907.66615545093
 21
-17.08712162552581
 31
0.0
  0
HATCH
  5
3EBF
330
1F
100
AcDbEntity
  8
STAVBA OBRYS
100
AcDbHatch
 10
0.0
 20
0.0
 30
0.0
210
0.0
220
0.0
230
1.0
  2
BRICK
 70
     0
 71
     0
 91
        1
 92
        7
 72
     0
 73
     1
 93
        5
 10
907.6661554509319
 20
47.54098608835977
 10
712.0909051424096
 20
47.54098608835977
 10
668.5855596224373
 20
47.54098608836068
 10
668.5855596224373
 20
-12.1019908477632
 10
907.6661554509319
 20
-17.08712162552581
 97
        0
 75
     0
 76
     1
 52
0.0
 41
10.0
 77
     0
 78
     3
 53
0.0
 43
-4273.496535703452
 44
-4780.107042806967
 45
0.0
 46
63.5
 79
     0
 53
90.0
 43
-4273.496535703452
 44
-4780.107042806967
 45
-127.0
 46
0.0000000000000078
 79
     2
 49
63.5
 49
-63.5
 53
90.0
 43
-4209.996535703452
 44
-4780.107042806967
 45
-127.0
 46
0.0000000000000078
 79
     2
 49
-63.5
 49
63.5
 47
1.09952506830799
 98
        1
 10
803.7816426959979
 20
20.37676064593017
  0
LINE
  5
3EC0
330
1F
100
AcDbEntity
  8
STAVBA OBRYS
100
AcDbLine
 10
668.5855596224373
 20
47.54098608836068
 30
0.0
 11
712.0909051424096
 21
47.54098608836068
 31
0.0
  0
LWPOLYLINE
  5
3EC1
330
1F
100
AcDbEntity
  8
STAVBA OBRYS
100
AcDbPolyline
 90
        4
 70
     1
 43
0.0
 10
932.6661554509282
 20
348.460860704473
 10
917.6661554509319
 20
348.460860704473
 10
917.6661554509319
 20
329.4608607044734
 10
932.6661554509282
 20
329.4608607044734
  0
LWPOLYLINE
  5
3EC2
330
1F
100
AcDbEntity
  8
STAVBA OBRYS
100
AcDbPolyline
 90
        8
 70
     0
 43
0.0
 10
930.2392270244363
 20
311.4608607044734
 42
0.0217273703039143
 10
928.0415567639265
 20
316.4965510419512
 42
0.0882970623535771
 10
926.4043348438335
 20
318.7369200927511
 42
0.0171636441953577
 10
923.5909707819756
 20
321.2508374479963
 42
0.0157521173632038
 10
920.3521159449392
 20
323.7823335005028
 42
0.0073640874174249
 10
915.7184665886179
 20
327.0707349262389
 42
0.0194185739168057
 10
913.8964232689414
 20
328.2223039255201
 42
0.0229547400386702
 10
911.5109652049268
 20
329.4608607044734
  0
LWPOLYLINE
  5
3EC3
330
1F
100
AcDbEntity
  8
STAVBA OBRYS
100
AcDbPolyline
 90
        3
 70
     0
 43
0.0
 10
917.4886992603296
 20
311.4608607044734
 10
931.2807471869691
 20
318.3619322679602
 10
939.4478518360939
 20
326.5432339690538
  0
LWPOLYLINE
  5
3EC4
330
1F
100
AcDbEntity
  8
STAVBA OBRYS
100
AcDbPolyline
 90
        6
 70
     0
 43
0.0
 10
939.6120310322386
 20
311.4608607044734
 42
0.0121757200102759
 10
938.2420413185773
 20
316.1327780369407
 42
0.0457786284636091
 10
937.0340184289617
 20
318.9813884198171
 42
0.0295006114745606
 10
934.6179579746621
 20
322.9082876332191
 42
0.0258674098621065
 10
931.385282660698
 20
327.054067711973
 42
0.0093759062953949
 10
929.2194704810409
 20
329.4608607044734
  0
LWPOLYLINE
  5
3EC5
330
1F
100
AcDbEntity
  8
STAVBA OBRYS
100
AcDbPolyline
 90
        8
 70
     0
 43
0.0
 10
930.2392270244363
 20
170.4608607044725
 42
0.0217273703039143
 10
928.0415567639265
 20
175.4965510419502
 42
0.0882970623535771
 10
926.4043348438335
 20
177.7369200927502
 42
0.0171636441953577
 10
923.5909707819756
 20
180.2508374479954
 42
0.0157521173632038
 10
920.3521159449392
 20
182.7823335005019
 42
0.0073640874174249
 10
915.7184665886179
 20
186.070734926238
 42
0.0194185739168057
 10
913.8964232689414
 20
187.2223039255192
 42
0.0229547400386702
 10
911.5109652049268
 20
188.4608607044725
  0
LINE
  5
3EC6
330
1F
100
AcDbEntity
  8
nášlap_vrstvy
100
AcDbLine
 10
918.4319034912714
 20
355.7869622544541
 30
0.0
 11
948.4319034912713
 21
355.7869622544541
 31
0.0
  0
LINE
  5
3EC7
330
1F
100
AcDbEntity
  8
nášlap_vrstvy
100
AcDbLine
 10
945.2354525884238
 20
358.983413157298
 30
0.0
 11
922.1965173495718
 21
358.983413157298
 31
0.0
  0
LINE
  5
3EC8
330
1F
100
AcDbEntity
  8
POPIS
100
AcDbLine
 10
922.1965173495718
 20
366.9032368598442
 30
0.0
 11
997.8890309291401
 21
417.1546755407786
 31
0.0
  0
LWPOLYLINE
  5
3EC9
330
1F
100
AcDbEntity
  8
STAVBA OBRYS
100
AcDbPolyline
 90
        3
 70
     0
 43
0.0
 10
917.4886992603296
 20
170.4608607044725
 10
931.2807471869691
 20
177.3619322679593
 10
939.4478518360939
 20
185.5432339690529
  0
LWPOLYLINE
  5
3ECA
330
1F
100
AcDbEntity
  8
STAVBA OBRYS
100
AcDbPolyline
 90
        6
 70
     0
 43
0.0
 10
939.6120310322386
 20
170.4608607044725
 42
0.0121757200102759
 10
938.2420413185773
 20
175.1327780369398
 42
0.0457786284636091
 10
937.0340184289617
 20
177.9813884198162
 42
0.0295006114745606
 10
934.6179579746621
 20
181.9082876332182
 42
0.0258674098621065
 10
931.385282660698
 20
186.0540677119721
 42
0.0093759062953949
 10
929.2194704810409
 20
188.4608607044725
  0
LINE
  5
3ECB
330
1F
100
AcDbEntity
  8
STAVBA OBRYS
100
AcDbLine
 10
907.6661554509319
 20
311.4608607044734
 30
0.0
 11
907.6661554509282
 21
583.881740706222
 31
0.0
  0
HATCH
  5
3ECC
330
1F
100
AcDbEntity
  8
STAVBA OBRYS
100
AcDbHatch
 10
0.0
 20
0.0
 30
0.0
210
0.0
220
0.0
230
1.0
  2
AR-CONC
 70
     0
 71
     0
 91
        1
 92
        7
 72
     0
 73
     1
 93
        5
 10
907.6661554509319
 20
308.4608607044734
 10
917.6661554509282
 20
308.4608607044734
 10
917.6661554509282
 20
311.4608607044725
 10
917.6661554509319
 20
331.0102301282292
 10
907.6661554509319
 20
335.8922894224175
 97
        0
 75
     0
 76
     1
 52
90.0
 41
0.1
 77
     0
 78
    13
 53
140.0
 43
-26779.72531167526
 44
3235.180090699265
 45
1.593908553890309
 46
18.2184668996004
 79
     2
 49
1.905
 49
-20.955
 53
85.00000000000001
 43
-26779.72531167526
 44
3235.180090699265
 45
-19.10566428821799
 46
-3.524282597566697
 79
     2
 49
1.524
 49
-16.764
 53
190.4509999999999
 43
-26779.59248667526
 44
3236.698290699266
 45
-17.51166878202918
 46
14.69425016659592
 79
     2
 49
1.619
 49
-17.809
 53
136.1841999999999
 43
-26784.80531167525
 44
3235.180090699265
 45
4.204232793272717
 46
27.10790408921299
 79
     2
 49
2.857499999999999
 49
-31.4325
 53
186.6355999999999
 43
-26784.45496167526
 44
3237.439080699266
 45
-24.74255558900492
 46
23.74042344662371
 79
     2
 49
2.4285
 49
-26.7135
 53
81.18400000000004
 43
-26784.80531167525
 44
3235.180090699265
 45
-24.74251178605976
 46
23.74046058139339
 79
     2
 49
2.286
 49
-25.146
 53
111.0
 43
-26783.53531167526
 44
3237.720090699265
 45
10.22655185167625
 46
15.16148798353833
 79
     2
 49
1.905
 49
-20.955
 53
56.00000000000004
 43
-26783.53531167526
 44
3237.720090699265
 45
-18.41879661223192
 46
6.180202834764708
 79
     2
 49
1.524
 49
-16.764
 53
161.4514
 43
-26782.68310167526
 44
3238.983540699265
 45
-8.192285771605742
 46
21.34164907701245
 79
     2
 49
1.618999999999997
 49
-17.80899999999996
 53
127.5
 43
-26779.72531167526
 44
3235.180090699265
 45
-8.455503887315311
 46
0.3088603250591822
 79
     6
 49
0.0
 49
-16.5608
 49
0.0
 49
-17.018
 49
0.0
 49
-16.8275
 53
97.49999999999987
 43
-26779.72531167526
 44
3235.180090699265
 45
-10.01805748181195
 46
6.681966251030575
 79
     6
 49
0.0
 49
-9.702799999999998
 49
0.0
 49
-16.17979999999999
 49
0.0
 49
-6.413499999999999
 53
57.5
 43
-26779.72531167526
 44
3229.515890699265
 45
0.5728743992673473
 46
13.55905951668713
 79
     6
 49
0.0
 49
-6.35
 49
0.0
 49
-19.812
 49
0.0
 49
-26.289
 53
47.5
 43
-26779.72531167526
 44
3226.975890699264
 45
-2.5426491033333
 46
14.8129181386018
 79
     6
 49
0.0
 49
-8.255
 49
0.0
 49
-13.1572
 49
0.0
 49
-18.669
 47
0.415434097446913
 98
        1
 10
910.2516388345266
 20
316.3609701042411
  0
HATCH
  5
3ECD
330
1F
100
AcDbEntity
  8
STAVBA OBRYS
100
AcDbHatch
 10
0.0
 20
0.0
 30
0.0
210
0.0
220
0.0
230
1.0
  2
BRICK
 70
     0
 71
     0
 91
        2
 92
        7
 72
     0
 73
     1
 93
       10
 10
907.6661554509282
 20
583.881740706222
 10
668.5855596224337
 20
583.8817407062184
 10
668.5855596224355
 20
311.4608607044743
 10
712.2867716545606
 20
311.4608607044743
 10
712.2867716545624
 20
175.0782825579596
 10
742.5082005364384
 20
175.0782825579596
 10
742.5082005364384
 20
188.4608607044725
 10
783.0828275867425
 20
188.4608607044725
 10
783.0828275867425
 20
311.4608607044734
 10
907.6661554509337
 20
311.4608607044743
 97
        0
 92
       24
 93
        4
 72
     1
 10
806.5299509464676
 20
345.2701377031204
 11
847.3613800051316
 21
345.2701377031204
 72
     1
 10
847.3613800051316
 20
345.2701377031204
 11
847.3613800051316
 21
383.5631117822464
 72
     1
 10
847.3613800051316
 20
383.5631117822464
 11
806.5299509464676
 21
383.5631117822464
 72
     1
 10
806.5299509464676
 20
383.5631117822464
 11
806.5299509464676
 21
345.2701377031204
 97
        0
 75
     0
 76
     1
 52
0.0
 41
10.0
 77
     0
 78
     3
 53
0.0
 43
-4273.496535703452
 44
-4780.107042806967
 45
0.0
 46
63.5
 79
     0
 53
90.0
 43
-4273.496535703452
 44
-4780.107042806967
 45
-127.0
 46
0.0000000000000078
 79
     2
 49
63.5
 49
-63.5
 53
90.0
 43
-4209.996535703452
 44
-4780.107042806967
 45
-127.0
 46
0.0000000000000078
 79
     2
 49
-63.5
 49
63.5
 47
2.134607673210243
 98
        1
 10
786.9932953657117
 20
474.1987956539275
  0
LWPOLYLINE
  5
3ECE
330
1F
100
AcDbEntity
  8
STAVBA OBRYS
100
AcDbPolyline
 90
        4
 70
     1
 43
0.0
 10
907.6661554509319
 20
188.4608607044725
 10
742.5082005364384
 20
188.4608607044725
 10
742.5082005364384
 20
175.0782825579596
 10
907.6661554509319
 20
175.0782825579596
  0
LINE
  5
3ECF
330
1F
100
AcDbEntity
  8
STAVBA OBRYS
100
AcDbLine
 10
668.5855596224337
 20
311.4608607044734
 30
0.0
 11
712.2867716545606
 21
311.4608607044743
 31
0.0
  0
LINE
  5
3ED0
330
1F
100
AcDbEntity
  8
STAVBA OBRYS
100
AcDbLine
 10
712.2867716545606
 20
94.84917061996441
 30
0.0
 11
712.2867716545606
 21
311.4608607044734
 31
0.0
  0
POLYLINE
  5
3ED1
330
1F
100
AcDbEntity
  8
STAVBA OBRYS
100
AcDb2dPolyline
 66
     1
 10
0.0
 20
0.0
 30
0.0
  0
VERTEX
  5
3ED2
330
3ED1
100
AcDbEntity
  8
STAVBA OBRYS
100
AcDbVertex
100
AcDb2dVertex
 10
912.8340296875849
 20
311.4608607044734
 30
0.0
 42
0.0094186890201653
  0
VERTEX
  5
3ED3
330
3ED1
100
AcDbEntity
  8
STAVBA OBRYS
100
AcDbVertex
100
AcDb2dVertex
 10
912.4872311247109
 20
311.6195335752414
 30
0.0
 42
0.0322692699774654
  0
VERTEX
  5
3ED4
330
3ED1
100
AcDbEntity
  8
STAVBA OBRYS
100
AcDbVertex
100
AcDb2dVertex
 10
909.5958769436201
 20
312.6610570766421
 30
0.0
 42
0.0276160659512937
  0
VERTEX
  5
3ED5
330
3ED1
100
AcDbEntity
  8
STAVBA OBRYS
100
AcDbVertex
100
AcDb2dVertex
 10
908.740300505333
 20
312.8577925055866
 30
0.0
 42
0.0126891984598699
  0
VERTEX
  5
3ED6
330
3ED1
100
AcDbEntity
  8
STAVBA OBRYS
100
AcDbVertex
100
AcDb2dVertex
 10
907.8171321095414
 20
312.9929948951281
 30
0.0
  0
SEQEND
  5
3ED7
330
3ED1
100
AcDbEntity
  8
STAVBA OBRYS
  0
POLYLINE
  5
3ED8
330
1F
100
AcDbEntity
  8
STAVBA OBRYS
100
AcDb2dPolyline
 66
     1
 10
0.0
 20
0.0
 30
0.0
  0
VERTEX
  5
3ED9
330
3ED8
100
AcDbEntity
  8
STAVBA OBRYS
100
AcDbVertex
100
AcDb2dVertex
 10
921.8871756371209
 20
311.4608607044734
 30
0.0
 42
0.0502247168465557
  0
VERTEX
  5
3EDA
330
3ED8
100
AcDbEntity
  8
STAVBA OBRYS
100
AcDbVertex
100
AcDb2dVertex
 10
920.2881284609556
 20
313.4683313771962
 30
0.0
 42
0.0274923553235744
  0
VERTEX
  5
3EDB
330
3ED8
100
AcDbEntity
  8
STAVBA OBRYS
100
AcDbVertex
100
AcDb2dVertex
 10
917.6908227304028
 20
315.8534067003344
 30
0.0
 42
0.0255412025538677
  0
VERTEX
  5
3EDC
330
3ED8
100
AcDbEntity
  8
STAVBA OBRYS
100
AcDbVertex
100
AcDb2dVertex
 10
914.639392692692
 20
318.1101203773502
 30
0.0
 42
0.0272796991712396
  0
VERTEX
  5
3EDD
330
3ED8
100
AcDbEntity
  8
STAVBA OBRYS
100
AcDbVertex
100
AcDb2dVertex
 10
910.5263935395068
 20
320.526456259016
 30
0.0
 42
0.056967459841729
  0
VERTEX
  5
3EDE
330
3ED8
100
AcDbEntity
  8
STAVBA OBRYS
100
AcDbVertex
100
AcDb2dVertex
 10
908.3854462587751
 20
321.3391920942155
 30
0.0
 42
0.0373408083348504
  0
VERTEX
  5
3EDF
330
3ED8
100
AcDbEntity
  8
STAVBA OBRYS
100
AcDbVertex
100
AcDb2dVertex
 10
908.1630918833015
 20
321.378357635163
 30
0.0
 42
0.0052305969362967
  0
VERTEX
  5
3EE0
330
3ED8
100
AcDbEntity
  8
STAVBA OBRYS
100
AcDbVertex
100
AcDb2dVertex
 10
907.8171321095414
 20
321.4093146020674
 30
0.0
  0
SEQEND
  5
3EE1
330
3ED8
100
AcDbEntity
  8
STAVBA OBRYS
  0
POLYLINE
  5
3EE2
330
1F
100
AcDbEntity
  8
STAVBA OBRYS
100
AcDb2dPolyline
 66
     1
 10
0.0
 20
0.0
 30
0.0
  0
VERTEX
  5
3EE3
330
3EE2
100
AcDbEntity
  8
STAVBA OBRYS
100
AcDbVertex
100
AcDb2dVertex
 10
921.8871756371209
 20
170.4608607044725
 30
0.0
 42
0.0502247168465557
  0
VERTEX
  5
3EE4
330
3EE2
100
AcDbEntity
  8
STAVBA OBRYS
100
AcDbVertex
100
AcDb2dVertex
 10
920.2881284609556
 20
172.4683313771953
 30
0.0
 42
0.0274923553235744
  0
VERTEX
  5
3EE5
330
3EE2
100
AcDbEntity
  8
STAVBA OBRYS
100
AcDbVertex
100
AcDb2dVertex
 10
917.6908227304028
 20
174.8534067003334
 30
0.0
 42
0.0255412025538677
  0
VERTEX
  5
3EE6
330
3EE2
100
AcDbEntity
  8
STAVBA OBRYS
100
AcDbVertex
100
AcDb2dVertex
 10
914.639392692692
 20
177.1101203773493
 30
0.0
 42
0.0272796991712396
  0
VERTEX
  5
3EE7
330
3EE2
100
AcDbEntity
  8
STAVBA OBRYS
100
AcDbVertex
100
AcDb2dVertex
 10
910.5263935395068
 20
179.5264562590151
 30
0.0
 42
0.056967459841729
  0
VERTEX
  5
3EE8
330
3EE2
100
AcDbEntity
  8
STAVBA OBRYS
100
AcDbVertex
100
AcDb2dVertex
 10
908.3854462587751
 20
180.3391920942145
 30
0.0
 42
0.0373408083348504
  0
VERTEX
  5
3EE9
330
3EE2
100
AcDbEntity
  8
STAVBA OBRYS
100
AcDbVertex
100
AcDb2dVertex
 10
908.1630918833015
 20
180.3783576351621
 30
0.0
 42
0.0052305969362967
  0
VERTEX
  5
3EEA
330
3EE2
100
AcDbEntity
  8
STAVBA OBRYS
100
AcDbVertex
100
AcDb2dVertex
 10
907.8171321095414
 20
180.4093146020665
 30
0.0
  0
SEQEND
  5
3EEB
330
3EE2
100
AcDbEntity
  8
STAVBA OBRYS
  0
POLYLINE
  5
3EEC
330
1F
100
AcDbEntity
  8
STAVBA OBRYS
100
AcDb2dPolyline
 66
     1
 10
0.0
 20
0.0
 30
0.0
  0
VERTEX
  5
3EED
330
3EEC
100
AcDbEntity
  8
STAVBA OBRYS
100
AcDbVertex
100
AcDb2dVertex
 10
912.8340296875849
 20
170.4608607044725
 30
0.0
 42
0.0094186890201653
  0
VERTEX
  5
3EEE
330
3EEC
100
AcDbEntity
  8
STAVBA OBRYS
100
AcDbVertex
100
AcDb2dVertex
 10
912.4872311247109
 20
170.6195335752405
 30
0.0
 42
0.0322692699774654
  0
VERTEX
  5
3EEF
330
3EEC
100
AcDbEntity
  8
STAVBA OBRYS
100
AcDbVertex
100
AcDb2dVertex
 10
909.5958769436201
 20
171.6610570766412
 30
0.0
 42
0.0276160659512937
  0
VERTEX
  5
3EF0
330
3EEC
100
AcDbEntity
  8
STAVBA OBRYS
100
AcDbVertex
100
AcDb2dVertex
 10
908.740300505333
 20
171.8577925055857
 30
0.0
 42
0.0126891984598699
  0
VERTEX
  5
3EF1
330
3EEC
100
AcDbEntity
  8
STAVBA OBRYS
100
AcDbVertex
100
AcDb2dVertex
 10
907.8171321095414
 20
171.9929948951272
 30
0.0
  0
SEQEND
  5
3EF2
330
3EEC
100
AcDbEntity
  8
STAVBA OBRYS
  0
LINE
  5
3EF3
330
1F
100
AcDbEntity
  8
STAVBA OBRYS
100
AcDbLine
 10
907.6661554509319
 20
188.4608607044725
 30
0.0
 11
783.0828275867425
 21
188.4608607044725
 31
0.0
  0
LINE
  5
3EF4
330
1F
100
AcDbEntity
  8
STAVBA OBRYS
100
AcDbLine
 10
783.0828275867425
 20
188.4608607044725
 30
0.0
 11
783.0828275867425
 21
311.4608607044734
 31
0.0
  0
LINE
  5
3EF5
330
1F
100
AcDbEntity
  8
POPIS
100
AcDbLine
 10
922.1372439076549
 20
339.6799462566328
 30
0.0
 11
851.1205092284125
 21
363.4982091910866
 31
0.0
  0
LINE
  5
3EF6
330
1F
100
AcDbEntity
  8
STAVBA OBRYS
100
AcDbLine
 10
917.6661554509319
 20
329.460860704473
 30
0.0
 11
917.6661554509282
 21
583.881740706222
 31
0.0
  0
LINE
  5
3EF7
330
1F
100
AcDbEntity
  8
STAVBA OBRYS
  6
IZOLACE
 48
0.7
100
AcDbLine
 10
925.1661554509301
 20
348.460860704473
 30
0.0
 11
925.1661554509301
 21
329.4608607044734
 31
0.0
  0
LINE
  5
3EF8
330
1F
100
AcDbEntity
  8
nášlap_vrstvy
100
AcDbLine
 10
918.4319034912714
 20
355.7869622544541
 30
0.0
 11
918.4319034912714
 21
385.7869622544541
 31
0.0
  0
LINE
  5
3EF9
330
1F
100
AcDbEntity
  8
nášlap_vrstvy
100
AcDbLine
 10
922.1965173495718
 20
382.0223483961545
 30
0.0
 11
922.1965173495718
 21
358.983413157298
 31
0.0
  0
LINE
  5
3EFA
330
1F
100
AcDbEntity
  8
nášlap_vrstvy
100
AcDbLine
 10
918.4319034912714
 20
385.7869622544541
 30
0.0
 11
922.1965173495718
 21
382.0223483961518
 31
0.0
  0
INSERT
  5
3EFB
330
1F
100
AcDbEntity
  8
POPIS
100
AcDbBlockReference
  2
E_PUNKT
 10
922.1081755767826
 20
339.7075566322597
 30
0.0
 50
270.0
  0
TEXT
  5
3EFC
330
1F
100
AcDbEntity
  8
POPIS
100
AcDbText
 10
812.9121132929885
 20
352.0786301997091
 30
0.0
 40
25.0
  1
08
 41
0.85
  7
SIMPLEX7
100
AcDbText
  0
LINE
  5
3EFD
330
1F
100
AcDbEntity
  8
STAVBA OBRYS
100
AcDbLine
 10
1057.666155450932
 20
329.4608607044725
 30
0.0
 11
1057.666155450932
 21
311.4608607044734
 31
0.0
  0
LWPOLYLINE
  5
3EFE
330
1F
100
AcDbEntity
  8
STAVBA OBRYS
100
AcDbPolyline
 90
        3
 70
     0
 43
0.0
 10
1052.273665108674
 20
311.4608607044734
 42
0.0052038508054843
 10
1049.075268168691
 20
327.8646871864708
 42
0.0065712046643719
 10
1048.724842398927
 20
329.4608607044734
  0
LWPOLYLINE
  5
3EFF
330
1F
100
AcDbEntity
  8
STAVBA OBRYS
100
AcDbPolyline
 90
        4
 70
     0
 43
0.0
 10
1040.821127245706
 20
311.4608607044734
 42
0.0334776267545482
 10
1040.383849451
 20
315.5078356332102
 42
0.0091133963862869
 10
1037.906245126081
 20
328.1995654186699
 42
0.007828075361276
 10
1037.615345990923
 20
329.4608607044734
  0
LWPOLYLINE
  5
3F00
330
1F
100
AcDbEntity
  8
STAVBA OBRYS
100
AcDbPolyline
 90
        5
 70
     0
 43
0.0
 10
958.3280962549778
 20
311.4608607044734
 42
0.0133579731639958
 10
957.94128576595
 20
313.9786629920287
 42
0.0072443097182286
 10
955.8212888184916
 20
324.7895538869357
 42
0.0219777111230329
 10
954.9151763165083
 20
328.3076671427712
 42
0.0092752982622242
 10
954.5399493545611
 20
329.4608607044734
  0
LWPOLYLINE
  5
3F01
330
1F
100
AcDbEntity
  8
STAVBA OBRYS
100
AcDbPolyline
 90
        4
 70
     0
 43
0.0
 10
968.5722346297716
 20
311.4608607044734
 42
0.0334776267545482
 10
968.1349568350652
 20
315.5078356332102
 42
0.0091133963862869
 10
965.6573525101466
 20
328.1995654186699
 42
0.007828075361276
 10
965.3664533749887
 20
329.4608607044734
  0
LWPOLYLINE
  5
3F02
330
1F
100
AcDbEntity
  8
STAVBA OBRYS
100
AcDbPolyline
 90
        3
 70
     0
 43
0.0
 10
980.0247724927395
 20
311.4608607044734
 42
0.0052038508054843
 10
976.8263755527568
 20
327.8646871864708
 42
0.0065712046643719
 10
976.4759497829928
 20
329.4608607044734
  0
LWPOLYLINE
  5
3F03
330
1F
100
AcDbEntity
  8
STAVBA OBRYS
100
AcDbPolyline
 90
        3
 70
     0
 43
0.0
 10
1022.126656252199
 20
311.4608607044734
 42
0.0052038508054843
 10
1018.928259312217
 20
327.8646871864708
 42
0.0065712046643719
 10
1018.577833542453
 20
329.4608607044734
  0
LWPOLYLINE
  5
3F04
330
1F
100
AcDbEntity
  8
STAVBA OBRYS
100
AcDbPolyline
 90
        4
 70
     0
 43
0.0
 10
1010.674118389231
 20
311.4608607044734
 42
0.0334776267545482
 10
1010.236840594525
 20
315.5078356332102
 42
0.0091133963862869
 10
1007.759236269606
 20
328.1995654186699
 42
0.007828075361276
 10
1007.468337134449
 20
329.4608607044734
  0
LWPOLYLINE
  5
3F05
330
1F
100
AcDbEntity
  8
STAVBA OBRYS
100
AcDbPolyline
 90
        4
 70
     0
 43
0.0
 10
990.5243761405417
 20
311.4608607044734
 42
0.0186324019486548
 10
987.1560067684349
 20
323.1559723226979
 42
0.0582629403736403
 10
985.4965069003538
 20
326.7358065216336
 42
0.0146402521923566
 10
983.7120989187697
 20
329.4608607044734
  0
LWPOLYLINE
  5
3F06
330
1F
100
AcDbEntity
  8
STAVBA OBRYS
100
AcDbPolyline
 90
        4
 70
     0
 43
0.0
 10
975.9199909519466
 20
310.960030273725
 10
995.9162433839392
 20
320.1760593242448
 10
1012.694133955157
 20
322.883203586936
 10
1015.957745202862
 20
323.0135049513061
  0
LWPOLYLINE
  5
3F07
330
1F
100
AcDbEntity
  8
STAVBA OBRYS
100
AcDbPolyline
 90
        5
 70
     0
 43
0.0
 10
1000.429980014438
 20
311.4608607044734
 42
0.0133579731639958
 10
1000.04316952541
 20
313.9786629920287
 42
0.0072443097182286
 10
997.9231725779518
 20
324.7895538869357
 42
0.0219777111230329
 10
997.0170600759685
 20
328.3076671427712
 42
0.0092752982622242
 10
996.6418331140213
 20
329.4608607044734
  0
LWPOLYLINE
  5
3F08
330
1F
100
AcDbEntity
  8
STAVBA OBRYS
100
AcDbPolyline
 90
        5
 70
     0
 43
0.0
 10
1030.576988870912
 20
311.4608607044734
 42
0.0133579731639958
 10
1030.190178381884
 20
313.9786629920287
 42
0.0072443097182286
 10
1028.070181434426
 20
324.7895538869357
 42
0.0219777111230329
 10
1027.164068932443
 20
328.3076671427712
 42
0.0092752982622242
 10
1026.788841970496
 20
329.4608607044734
  0
LWPOLYLINE
  5
3F09
330
1F
100
AcDbEntity
  8
STAVBA OBRYS
100
AcDbPolyline
 90
        4
 70
     0
 43
0.0
 10
1006.066999808421
 20
310.960030273725
 10
1026.063252240413
 20
320.1760593242448
 10
1042.841142811632
 20
322.883203586936
 10
1046.104754059337
 20
323.0135049513061
  0
LWPOLYLINE
  5
3F0A
330
1F
100
AcDbEntity
  8
STAVBA OBRYS
100
AcDbPolyline
 90
        4
 70
     0
 43
0.0
 10
948.4224923810815
 20
311.4608607044734
 42
0.0186324019486548
 10
945.0541230089747
 20
323.1559723226979
 42
0.0582629403736403
 10
943.3946231408937
 20
326.7358065216336
 42
0.0146402521923566
 10
941.6102151593095
 20
329.4608607044734
  0
LWPOLYLINE
  5
3F0B
330
1F
100
AcDbEntity
  8
STAVBA OBRYS
100
AcDbPolyline
 90
        4
 70
     0
 43
0.0
 10
933.8181071924864
 20
310.960030273725
 10
953.814359624479
 20
320.1760593242448
 10
970.5922501956974
 20
322.883203586936
 10
973.8558614434023
 20
323.0135049513061
  0
LINE
  5
3F0C
330
1F
100
AcDbEntity
  8
STAVBA OBRYS
100
AcDbLine
 10
1207.666155450932
 20
329.4608607044725
 30
0.0
 11
1207.666155450932
 21
311.4608607044734
 31
0.0
  0
LWPOLYLINE
  5
3F0D
330
1F
100
AcDbEntity
  8
STAVBA OBRYS
100
AcDbPolyline
 90
        4
 70
     0
 43
0.0
 10
1146.760076272092
 20
311.4608607044734
 42
-0.0334776267545482
 10
1147.197354066798
 20
315.5078356332102
 42
-0.0091133963862869
 10
1149.674958391717
 20
328.1995654186699
 42
-0.007828075361276
 10
1149.965857526874
 20
329.4608607044734
  0
LWPOLYLINE
  5
3F0E
330
1F
100
AcDbEntity
  8
STAVBA OBRYS
100
AcDbPolyline
 90
        6
 70
     0
 43
0.0
 10
1175.720279869625
 20
311.4608607044734
 42
-0.0121757200102759
 10
1177.090269583286
 20
316.1327780369407
 42
-0.0457786284636091
 10
1178.298292472902
 20
318.9813884198171
 42
-0.0295006114745606
 10
1180.714352927201
 20
322.9082876332191
 42
-0.0258674098621065
 10
1183.947028241165
 20
327.054067711973
 42
-0.0093759062953949
 10
1186.112840420822
 20
329.4608607044734
  0
LWPOLYLINE
  5
3F0F
330
1F
100
AcDbEntity
  8
STAVBA OBRYS
100
AcDbPolyline
 90
        3
 70
     0
 43
0.0
 10
1197.843611641534
 20
311.4608607044734
 10
1184.051563714894
 20
318.3619322679602
 10
1175.884459065769
 20
326.5432339690538
  0
LWPOLYLINE
  5
3F10
330
1F
100
AcDbEntity
  8
STAVBA OBRYS
100
AcDbPolyline
 90
        8
 70
     0
 43
0.0
 10
1185.093083877427
 20
311.4608607044734
 42
-0.0217273703039143
 10
1187.290754137937
 20
316.4965510419512
 42
-0.0882970623535771
 10
1188.92797605803
 20
318.7369200927511
 42
-0.0171636441953577
 10
1191.741340119888
 20
321.2508374479963
 42
-0.0157521173632038
 10
1194.980194956924
 20
323.7823335005028
 42
-0.0073640874174249
 10
1199.613844313246
 20
327.0707349262389
 42
-0.0194185739168057
 10
1201.435887632922
 20
328.2223039255201
 42
-0.0229547400386702
 10
1203.821345696937
 20
329.4608607044734
  0
LWPOLYLINE
  5
3F11
330
1F
100
AcDbEntity
  8
STAVBA OBRYS
100
AcDbPolyline
 90
        4
 70
     0
 43
0.0
 10
1166.909818520782
 20
311.4608607044734
 42
-0.0186324019486548
 10
1170.278187892889
 20
323.1559723226979
 42
-0.0582629403736403
 10
1171.93768776097
 20
326.7358065216336
 42
-0.0146402521923566
 10
1173.722095742554
 20
329.4608607044734
  0
LWPOLYLINE
  5
3F12
330
1F
100
AcDbEntity
  8
STAVBA OBRYS
100
AcDbPolyline
 90
        4
 70
     0
 43
0.0
 10
1181.514203709377
 20
310.960030273725
 10
1161.517951277384
 20
320.1760593242448
 10
1144.740060706166
 20
322.883203586936
 10
1141.476449458461
 20
323.0135049513061
  0
LWPOLYLINE
  5
3F13
330
1F
100
AcDbEntity
  8
STAVBA OBRYS
100
AcDbPolyline
 90
        5
 70
     0
 43
0.0
 10
1157.004214646885
 20
311.4608607044734
 42
-0.0133579731639958
 10
1157.391025135914
 20
313.9786629920287
 42
-0.0072443097182286
 10
1159.511022083372
 20
324.7895538869357
 42
-0.0219777111230329
 10
1160.417134585355
 20
328.3076671427712
 42
-0.0092752982622242
 10
1160.792361547302
 20
329.4608607044734
  0
LWPOLYLINE
  5
3F14
330
1F
100
AcDbEntity
  8
STAVBA OBRYS
100
AcDbPolyline
 90
        4
 70
     0
 43
0.0
 10
1109.265311093442
 20
310.960030273725
 10
1089.269058661449
 20
320.1760593242448
 10
1072.491168090231
 20
322.883203586936
 10
1069.227556842526
 20
323.0135049513061
  0
LWPOLYLINE
  5
3F15
330
1F
100
AcDbEntity
  8
STAVBA OBRYS
100
AcDbPolyline
 90
        4
 70
     0
 43
0.0
 10
1104.658192512631
 20
311.4608607044734
 42
-0.0334776267545482
 10
1105.095470307338
 20
315.5078356332102
 42
-0.0091133963862869
 10
1107.573074632256
 20
328.1995654186699
 42
-0.007828075361276
 10
1107.863973767414
 20
329.4608607044734
  0
LWPOLYLINE
  5
3F16
330
1F
100
AcDbEntity
  8
STAVBA OBRYS
100
AcDbPolyline
 90
        5
 70
     0
 43
0.0
 10
1114.902330887425
 20
311.4608607044734
 42
-0.0133579731639958
 10
1115.289141376453
 20
313.9786629920287
 42
-0.0072443097182286
 10
1117.409138323911
 20
324.7895538869357
 42
-0.0219777111230329
 10
1118.315250825895
 20
328.3076671427712
 42
-0.0092752982622242
 10
1118.690477787842
 20
329.4608607044734
  0
LWPOLYLINE
  5
3F17
330
1F
100
AcDbEntity
  8
STAVBA OBRYS
100
AcDbPolyline
 90
        3
 70
     0
 43
0.0
 10
1063.058645793189
 20
311.4608607044734
 42
-0.0052038508054843
 10
1066.257042733172
 20
327.8646871864708
 42
-0.0065712046643719
 10
1066.607468502936
 20
329.4608607044734
  0
LWPOLYLINE
  5
3F18
330
1F
100
AcDbEntity
  8
STAVBA OBRYS
100
AcDbPolyline
 90
        5
 70
     0
 43
0.0
 10
1084.755322030951
 20
311.4608607044734
 42
-0.0133579731639958
 10
1085.142132519979
 20
313.9786629920287
 42
-0.0072443097182286
 10
1087.262129467437
 20
324.7895538869357
 42
-0.0219777111230329
 10
1088.16824196942
 20
328.3076671427712
 42
-0.0092752982622242
 10
1088.543468931367
 20
329.4608607044734
  0
LWPOLYLINE
  5
3F19
330
1F
100
AcDbEntity
  8
STAVBA OBRYS
100
AcDbPolyline
 90
        4
 70
     0
 43
0.0
 10
1074.511183656157
 20
311.4608607044734
 42
-0.0334776267545482
 10
1074.948461450863
 20
315.5078356332102
 42
-0.0091133963862869
 10
1077.426065775782
 20
328.1995654186699
 42
-0.007828075361276
 10
1077.71696491094
 20
329.4608607044734
  0
LWPOLYLINE
  5
3F1A
330
1F
100
AcDbEntity
  8
STAVBA OBRYS
100
AcDbPolyline
 90
        3
 70
     0
 43
0.0
 10
1093.205654649664
 20
311.4608607044734
 42
-0.0052038508054843
 10
1096.404051589646
 20
327.8646871864708
 42
-0.0065712046643719
 10
1096.754477359411
 20
329.4608607044734
  0
LWPOLYLINE
  5
3F1B
330
1F
100
AcDbEntity
  8
STAVBA OBRYS
100
AcDbPolyline
 90
        4
 70
     0
 43
0.0
 10
1124.807934761322
 20
311.4608607044734
 42
-0.0186324019486548
 10
1128.176304133428
 20
323.1559723226979
 42
-0.0582629403736403
 10
1129.83580400151
 20
326.7358065216336
 42
-0.0146402521923566
 10
1131.620211983094
 20
329.4608607044734
  0
LWPOLYLINE
  5
3F1C
330
1F
100
AcDbEntity
  8
STAVBA OBRYS
100
AcDbPolyline
 90
        4
 70
     0
 43
0.0
 10
1139.412319949917
 20
310.960030273725
 10
1119.416067517924
 20
320.1760593242448
 10
1102.638176946706
 20
322.883203586936
 10
1099.374565699001
 20
323.0135049513061
  0
LWPOLYLINE
  5
3F1D
330
1F
100
AcDbEntity
  8
STAVBA OBRYS
100
AcDbPolyline
 90
        3
 70
     0
 43
0.0
 10
1135.307538409124
 20
311.4608607044734
 42
-0.0052038508054843
 10
1138.505935349106
 20
327.8646871864708
 42
-0.0065712046643719
 10
1138.856361118871
 20
329.4608607044734
  0
LINE
  5
3F1E
330
1F
100
AcDbEntity
  8
SPOJOVACÍ
  6
DASHED
100
AcDbLine
 10
1207.455750107459
 20
323.3619426105316
 30
0.0
 11
1210.824738939001
 21
322.2291317382506
 31
0.0
  0
LINE
  5
3F1F
330
1F
100
AcDbEntity
  8
SPOJOVACÍ
  6
DASHED
100
AcDbLine
 10
1211.139322530998
 20
322.5437153320664
 30
0.0
 11
1210.824738939001
 21
322.7258018949847
 31
0.0
  0
LINE
  5
3F20
330
1F
100
AcDbEntity
  8
SPOJOVACÍ
  6
DASHED
100
AcDbLine
 10
1207.141166511826
 20
323.5432543368598
 30
0.0
 11
1211.139322530998
 21
322.5437153320664
 31
0.0
  0
LINE
  5
3F21
330
1F
100
AcDbEntity
  8
SPOJOVACÍ
  6
DASHED
100
AcDbLine
 10
1208.015956850451
 20
323.1790812110294
 30
0.0
 11
1208.015956850451
 21
322.1400255480363
 31
0.0
  0
LINE
  5
3F22
330
1F
100
AcDbEntity
  8
SPOJOVACÍ
  6
DASHED
100
AcDbLine
 10
957.544364721749
 20
323.3619426105316
 30
0.0
 11
960.9133535532892
 21
322.2291317382506
 31
0.0
  0
LINE
  5
3F23
330
1F
100
AcDbEntity
  8
SPOJOVACÍ
  6
DASHED
100
AcDbLine
 10
961.2279371452878
 20
322.5437153320664
 30
0.0
 11
960.9133535532892
 21
322.7258018949847
 31
0.0
  0
LINE
  5
3F24
330
1F
100
AcDbEntity
  8
SPOJOVACÍ
  6
DASHED
100
AcDbLine
 10
957.2297811261142
 20
323.5432543368598
 30
0.0
 11
961.2279371452878
 21
322.5437153320664
 31
0.0
  0
LINE
  5
3F25
330
1F
100
AcDbEntity
  8
SPOJOVACÍ
  6
DASHED
100
AcDbLine
 10
958.1045714647389
 20
323.1790812110294
 30
0.0
 11
958.1045714647389
 21
322.1400255480363
 31
0.0
  0
LWPOLYLINE
  5
3F26
330
1F
100
AcDbEntity
  8
STAVBA OBRYS
100
AcDbPolyline
 90
        4
 70
     0
 43
0.0
 10
1109.265311093442
 20
169.9600302737241
 10
1089.269058661449
 20
179.1760593242439
 10
1072.491168090231
 20
181.883203586935
 10
1069.227556842526
 20
182.0135049513052
  0
LINE
  5
3F27
330
1F
100
AcDbEntity
  8
SPOJOVACÍ
  6
DASHED
100
AcDbLine
 10
961.2279371452878
 20
322.5437153320664
 30
0.0
 11
960.9133535532892
 21
322.2291317382506
 31
0.0
  0
LINE
  5
3F28
330
1F
100
AcDbEntity
  8
SPOJOVACÍ
  6
DASHED
100
AcDbLine
 10
958.3819629114769
 20
315.9583804463719
 30
0.0
 11
960.1764841003095
 21
315.6995850761323
 31
0.0
  0
LINE
  5
3F29
330
1F
100
AcDbEntity
  8
SPOJOVACÍ
  6
DASHED
100
AcDbLine
 10
958.6965465034737
 20
316.2729640401877
 30
0.0
 11
959.8619005083127
 21
315.8808968026848
 31
0.0
  0
LINE
  5
3F2A
330
1F
100
AcDbEntity
  8
SPOJOVACÍ
  6
DASHED
100
AcDbLine
 10
958.6965465034737
 20
315.7762938834599
 30
0.0
 11
959.8619005083127
 21
315.384226645957
 31
0.0
  0
LINE
  5
3F2B
330
1F
100
AcDbEntity
  8
SPOJOVACÍ
  6
DASHED
100
AcDbLine
 10
960.1764841003095
 20
315.6995850761323
 30
0.0
 11
959.8619005083127
 21
315.8808968026848
 31
0.0
  0
LINE
  5
3F2C
330
1F
100
AcDbEntity
  8
SPOJOVACÍ
  6
DASHED
100
AcDbLine
 10
960.1764841003095
 20
315.6995850761323
 30
0.0
 11
959.8619005083127
 21
315.384226645957
 31
0.0
  0
LINE
  5
3F2D
330
1F
100
AcDbEntity
  8
SPOJOVACÍ
  6
DASHED
100
AcDbLine
 10
958.3819629114769
 20
315.9583804463719
 30
0.0
 11
958.6965465034737
 21
316.2729640401877
 31
0.0
  0
LINE
  5
3F2E
330
1F
100
AcDbEntity
  8
SPOJOVACÍ
  6
DASHED
100
AcDbLine
 10
958.3819629114769
 20
315.9583804463719
 30
0.0
 11
958.6965465034737
 21
315.7762938834599
 31
0.0
  0
LINE
  5
3F2F
330
1F
100
AcDbEntity
  8
SPOJOVACÍ
  6
DASHED
100
AcDbLine
 10
957.9116371916533
 20
318.4688505051123
 30
0.0
 11
960.5073392590401
 21
317.941186891043
 31
0.0
  0
LINE
  5
3F30
330
1F
100
AcDbEntity
  8
SPOJOVACÍ
  6
DASHED
100
AcDbLine
 10
958.2262207872881
 20
318.7842089355177
 30
0.0
 11
960.1927556670434
 21
318.1224986173712
 31
0.0
  0
LINE
  5
3F31
330
1F
100
AcDbEntity
  8
SPOJOVACÍ
  6
DASHED
100
AcDbLine
 10
958.2262207872881
 20
318.2875387787841
 30
0.0
 11
960.1927556670434
 21
317.6258284608676
 31
0.0
  0
LINE
  5
3F32
330
1F
100
AcDbEntity
  8
SPOJOVACÍ
  6
DASHED
100
AcDbLine
 10
960.5073392590401
 20
317.941186891043
 30
0.0
 11
960.1927556670434
 21
318.1224986173712
 31
0.0
  0
LINE
  5
3F33
330
1F
100
AcDbEntity
  8
SPOJOVACÍ
  6
DASHED
100
AcDbLine
 10
960.5073392590401
 20
317.941186891043
 30
0.0
 11
960.1927556670434
 21
317.6258284608676
 31
0.0
  0
LINE
  5
3F34
330
1F
100
AcDbEntity
  8
SPOJOVACÍ
  6
DASHED
100
AcDbLine
 10
957.9116371916533
 20
318.4688505051123
 30
0.0
 11
958.2262207872881
 21
318.7842089355177
 31
0.0
  0
LINE
  5
3F35
330
1F
100
AcDbEntity
  8
SPOJOVACÍ
  6
DASHED
100
AcDbLine
 10
957.9116371916533
 20
318.4688505051123
 30
0.0
 11
958.2262207872881
 21
318.2875387787841
 31
0.0
  0
LINE
  5
3F36
330
1F
100
AcDbEntity
  8
SPOJOVACÍ
  6
DASHED
100
AcDbLine
 10
957.441311475468
 20
320.9800954004423
 30
0.0
 11
960.8777110762021
 21
320.1696164864825
 31
0.0
  0
LINE
  5
3F37
330
1F
100
AcDbEntity
  8
SPOJOVACÍ
  6
DASHED
100
AcDbLine
 10
957.7566699051876
 20
321.2946789942581
 30
0.0
 11
960.5631274842053
 21
320.3509282128107
 31
0.0
  0
LINE
  5
3F38
330
1F
100
AcDbEntity
  8
SPOJOVACÍ
  6
DASHED
100
AcDbLine
 10
957.7566699051876
 20
320.7980088375244
 30
0.0
 11
960.5631274842053
 21
319.8542580560771
 31
0.0
  0
LINE
  5
3F39
330
1F
100
AcDbEntity
  8
SPOJOVACÍ
  6
DASHED
100
AcDbLine
 10
960.8777110762021
 20
320.1696164864825
 30
0.0
 11
960.5631274842053
 21
320.3509282128107
 31
0.0
  0
LINE
  5
3F3A
330
1F
100
AcDbEntity
  8
SPOJOVACÍ
  6
DASHED
100
AcDbLine
 10
960.8777110762021
 20
320.1696164864825
 30
0.0
 11
960.5631274842053
 21
319.8542580560771
 31
0.0
  0
LINE
  5
3F3B
330
1F
100
AcDbEntity
  8
SPOJOVACÍ
  6
DASHED
100
AcDbLine
 10
957.441311475468
 20
320.9800954004423
 30
0.0
 11
957.7566699051876
 21
321.2946789942581
 31
0.0
  0
LINE
  5
3F3C
330
1F
100
AcDbEntity
  8
SPOJOVACÍ
  6
DASHED
100
AcDbLine
 10
957.441311475468
 20
320.9800954004423
 30
0.0
 11
957.7566699051876
 21
320.7980088375244
 31
0.0
  0
LINE
  5
3F3D
330
1F
100
AcDbEntity
  8
SPOJOVACÍ
  6
DASHED
100
AcDbLine
 10
960.148589989547
 20
320.4981471361349
 30
0.0
 11
960.3531468102993
 21
322.1400255480363
 31
0.0
  0
LINE
  5
3F3E
330
1F
100
AcDbEntity
  8
SPOJOVACÍ
  6
DASHED
100
AcDbLine
 10
959.8665495237419
 20
318.2433731017414
 30
0.0
 11
960.0889275830395
 21
320.0231723995181
 31
0.0
  0
LINE
  5
3F3F
330
1F
100
AcDbEntity
  8
SPOJOVACÍ
  6
DASHED
100
AcDbLine
 10
959.5837342274881
 20
315.9800758667135
 30
0.0
 11
959.8068871208724
 21
317.7668486924054
 31
0.0
  0
LINE
  5
3F40
330
1F
100
AcDbEntity
  8
SPOJOVACÍ
  6
DASHED
100
AcDbLine
 10
958.9073020151026
 20
315.7166314778616
 30
0.0
 11
959.2288591357009
 21
313.1433996676302
 31
0.0
  0
LINE
  5
3F41
330
1F
100
AcDbEntity
  8
SPOJOVACÍ
  6
DASHED
100
AcDbLine
 10
958.6012416235153
 20
318.1666642944138
 30
0.0
 11
958.8429905895299
 21
316.2334473819875
 31
0.0
  0
LINE
  5
3F42
330
1F
100
AcDbEntity
  8
SPOJOVACÍ
  6
DASHED
100
AcDbLine
 10
958.293631556482
 20
320.6259951481962
 30
0.0
 11
958.5353805261311
 21
318.6920033994043
 31
0.0
  0
LINE
  5
3F43
330
1F
100
AcDbEntity
  8
SPOJOVACÍ
  6
DASHED
100
AcDbLine
 10
959.2288591357009
 20
313.1433996676302
 30
0.0
 11
959.5240718209806
 21
315.5058759666868
 31
0.0
  0
LINE
  5
3F44
330
1F
100
AcDbEntity
  8
SPOJOVACÍ
  6
DASHED
100
AcDbLine
 10
958.1045714647389
 20
322.1400255480363
 30
0.0
 11
958.2293201309076
 21
321.1428110523221
 31
0.0
  0
LINE
  5
3F45
330
1F
100
AcDbEntity
  8
SPOJOVACÍ
  6
DASHED
100
AcDbLine
 10
960.3531468102993
 20
322.4205163383932
 30
0.0
 11
960.3531468102993
 21
322.1400255480363
 31
0.0
  0
LINE
  5
3F46
330
1F
100
AcDbEntity
  8
STAVBA OBRYS
100
AcDbLine
 10
1057.666155450932
 20
188.4608607044716
 30
0.0
 11
1057.666155450932
 21
170.4608607044725
 31
0.0
  0
LWPOLYLINE
  5
3F47
330
1F
100
AcDbEntity
  8
STAVBA OBRYS
100
AcDbPolyline
 90
        4
 70
     0
 43
0.0
 10
1040.821127245706
 20
170.4608607044725
 42
0.0334776267545482
 10
1040.383849451
 20
174.5078356332093
 42
0.0091133963862869
 10
1037.906245126081
 20
187.199565418669
 42
0.007828075361276
 10
1037.615345990923
 20
188.4608607044725
  0
LWPOLYLINE
  5
3F48
330
1F
100
AcDbEntity
  8
STAVBA OBRYS
100
AcDbPolyline
 90
        3
 70
     0
 43
0.0
 10
1052.273665108674
 20
170.4608607044725
 42
0.0052038508054843
 10
1049.075268168691
 20
186.8646871864699
 42
0.0065712046643719
 10
1048.724842398927
 20
188.4608607044725
  0
LWPOLYLINE
  5
3F49
330
1F
100
AcDbEntity
  8
STAVBA OBRYS
100
AcDbPolyline
 90
        3
 70
     0
 43
0.0
 10
1063.058645793189
 20
170.4608607044725
 42
-0.0052038508054843
 10
1066.257042733172
 20
186.8646871864699
 42
-0.0065712046643719
 10
1066.607468502936
 20
188.4608607044725
  0
LWPOLYLINE
  5
3F4A
330
1F
100
AcDbEntity
  8
STAVBA OBRYS
100
AcDbPolyline
 90
        4
 70
     0
 43
0.0
 10
1074.511183656157
 20
170.4608607044725
 42
-0.0334776267545482
 10
1074.948461450863
 20
174.5078356332093
 42
-0.0091133963862869
 10
1077.426065775782
 20
187.199565418669
 42
-0.007828075361276
 10
1077.71696491094
 20
188.4608607044725
  0
LWPOLYLINE
  5
3F4B
330
1F
100
AcDbEntity
  8
STAVBA OBRYS
100
AcDbPolyline
 90
        5
 70
     0
 43
0.0
 10
958.3280962549778
 20
170.4608607044725
 42
0.0133579731639958
 10
957.94128576595
 20
172.9786629920278
 42
0.0072443097182286
 10
955.8212888184916
 20
183.7895538869348
 42
0.0219777111230329
 10
954.9151763165083
 20
187.3076671427703
 42
0.0092752982622242
 10
954.5399493545611
 20
188.4608607044725
  0
LWPOLYLINE
  5
3F4C
330
1F
100
AcDbEntity
  8
STAVBA OBRYS
100
AcDbPolyline
 90
        4
 70
     0
 43
0.0
 10
948.4224923810815
 20
170.4608607044725
 42
0.0186324019486548
 10
945.0541230089747
 20
182.155972322697
 42
0.0582629403736403
 10
943.3946231408937
 20
185.7358065216327
 42
0.0146402521923566
 10
941.6102151593095
 20
188.4608607044725
  0
LWPOLYLINE
  5
3F4D
330
1F
100
AcDbEntity
  8
STAVBA OBRYS
100
AcDbPolyline
 90
        4
 70
     0
 43
0.0
 10
968.5722346297716
 20
170.4608607044725
 42
0.0334776267545482
 10
968.1349568350652
 20
174.5078356332093
 42
0.0091133963862869
 10
965.6573525101466
 20
187.199565418669
 42
0.007828075361276
 10
965.3664533749887
 20
188.4608607044725
  0
LWPOLYLINE
  5
3F4E
330
1F
100
AcDbEntity
  8
STAVBA OBRYS
100
AcDbPolyline
 90
        3
 70
     0
 43
0.0
 10
980.0247724927395
 20
170.4608607044725
 42
0.0052038508054843
 10
976.8263755527568
 20
186.8646871864699
 42
0.0065712046643719
 10
976.4759497829928
 20
188.4608607044725
  0
LWPOLYLINE
  5
3F4F
330
1F
100
AcDbEntity
  8
STAVBA OBRYS
100
AcDbPolyline
 90
        3
 70
     0
 43
0.0
 10
1022.126656252199
 20
170.4608607044725
 42
0.0052038508054843
 10
1018.928259312217
 20
186.8646871864699
 42
0.0065712046643719
 10
1018.577833542453
 20
188.4608607044725
  0
LWPOLYLINE
  5
3F50
330
1F
100
AcDbEntity
  8
STAVBA OBRYS
100
AcDbPolyline
 90
        4
 70
     0
 43
0.0
 10
1010.674118389231
 20
170.4608607044725
 42
0.0334776267545482
 10
1010.236840594525
 20
174.5078356332093
 42
0.0091133963862869
 10
1007.759236269606
 20
187.199565418669
 42
0.007828075361276
 10
1007.468337134449
 20
188.4608607044725
  0
LWPOLYLINE
  5
3F51
330
1F
100
AcDbEntity
  8
STAVBA OBRYS
100
AcDbPolyline
 90
        4
 70
     0
 43
0.0
 10
990.5243761405417
 20
170.4608607044725
 42
0.0186324019486548
 10
987.1560067684349
 20
182.155972322697
 42
0.0582629403736403
 10
985.4965069003538
 20
185.7358065216327
 42
0.0146402521923566
 10
983.7120989187697
 20
188.4608607044725
  0
LWPOLYLINE
  5
3F52
330
1F
100
AcDbEntity
  8
STAVBA OBRYS
100
AcDbPolyline
 90
        4
 70
     0
 43
0.0
 10
975.9199909519466
 20
169.9600302737241
 10
995.9162433839392
 20
179.1760593242439
 10
1012.694133955157
 20
181.883203586935
 10
1015.957745202862
 20
182.0135049513052
  0
LWPOLYLINE
  5
3F53
330
1F
100
AcDbEntity
  8
STAVBA OBRYS
100
AcDbPolyline
 90
        5
 70
     0
 43
0.0
 10
1000.429980014438
 20
170.4608607044725
 42
0.0133579731639958
 10
1000.04316952541
 20
172.9786629920278
 42
0.0072443097182286
 10
997.9231725779518
 20
183.7895538869348
 42
0.0219777111230329
 10
997.0170600759685
 20
187.3076671427703
 42
0.0092752982622242
 10
996.6418331140213
 20
188.4608607044725
  0
LWPOLYLINE
  5
3F54
330
1F
100
AcDbEntity
  8
STAVBA OBRYS
100
AcDbPolyline
 90
        5
 70
     0
 43
0.0
 10
1030.576988870912
 20
170.4608607044725
 42
0.0133579731639958
 10
1030.190178381884
 20
172.9786629920278
 42
0.0072443097182286
 10
1028.070181434426
 20
183.7895538869348
 42
0.0219777111230329
 10
1027.164068932443
 20
187.3076671427703
 42
0.0092752982622242
 10
1026.788841970496
 20
188.4608607044725
  0
LWPOLYLINE
  5
3F55
330
1F
100
AcDbEntity
  8
STAVBA OBRYS
100
AcDbPolyline
 90
        4
 70
     0
 43
0.0
 10
1006.066999808421
 20
169.9600302737241
 10
1026.063252240413
 20
179.1760593242439
 10
1042.841142811632
 20
181.883203586935
 10
1046.104754059337
 20
182.0135049513052
  0
LWPOLYLINE
  5
3F56
330
1F
100
AcDbEntity
  8
STAVBA OBRYS
100
AcDbPolyline
 90
        4
 70
     0
 43
0.0
 10
933.8181071924864
 20
169.9600302737241
 10
953.814359624479
 20
179.1760593242439
 10
970.5922501956974
 20
181.883203586935
 10
973.8558614434023
 20
182.0135049513052
  0
POLYLINE
  5
3F57
330
1F
100
AcDbEntity
  8
STAVBA OBRYS
100
AcDb2dPolyline
 66
     1
 10
0.0
 20
0.0
 30
0.0
  0
VERTEX
  5
3F58
330
3F57
100
AcDbEntity
  8
STAVBA OBRYS
100
AcDbVertex
100
AcDb2dVertex
 10
1202.498281214279
 20
311.4608607044734
 30
0.0
 42
-0.0094186890201653
  0
VERTEX
  5
3F59
330
3F57
100
AcDbEntity
  8
STAVBA OBRYS
100
AcDbVertex
100
AcDb2dVertex
 10
1202.845079777153
 20
311.6195335752414
 30
0.0
 42
-0.0322692699774654
  0
VERTEX
  5
3F5A
330
3F57
100
AcDbEntity
  8
STAVBA OBRYS
100
AcDbVertex
100
AcDb2dVertex
 10
1205.736433958243
 20
312.6610570766421
 30
0.0
 42
-0.0276160659512937
  0
VERTEX
  5
3F5B
330
3F57
100
AcDbEntity
  8
STAVBA OBRYS
100
AcDbVertex
100
AcDb2dVertex
 10
1206.592010396531
 20
312.8577925055866
 30
0.0
 42
-0.0126891984598699
  0
VERTEX
  5
3F5C
330
3F57
100
AcDbEntity
  8
STAVBA OBRYS
100
AcDbVertex
100
AcDb2dVertex
 10
1207.515178792322
 20
312.9929948951281
 30
0.0
  0
SEQEND
  5
3F5D
330
3F57
100
AcDbEntity
  8
STAVBA OBRYS
  0
POLYLINE
  5
3F5E
330
1F
100
AcDbEntity
  8
STAVBA OBRYS
100
AcDb2dPolyline
 66
     1
 10
0.0
 20
0.0
 30
0.0
  0
VERTEX
  5
3F5F
330
3F5E
100
AcDbEntity
  8
STAVBA OBRYS
100
AcDbVertex
100
AcDb2dVertex
 10
1212.834029687585
 20
311.4608607044734
 30
0.0
 42
0.0094186890201653
  0
VERTEX
  5
3F60
330
3F5E
100
AcDbEntity
  8
STAVBA OBRYS
100
AcDbVertex
100
AcDb2dVertex
 10
1212.487231124711
 20
311.6195335752414
 30
0.0
 42
0.0322692699774654
  0
VERTEX
  5
3F61
330
3F5E
100
AcDbEntity
  8
STAVBA OBRYS
100
AcDbVertex
100
AcDb2dVertex
 10
1209.59587694362
 20
312.6610570766421
 30
0.0
 42
0.0276160659512937
  0
VERTEX
  5
3F62
330
3F5E
100
AcDbEntity
  8
STAVBA OBRYS
100
AcDbVertex
100
AcDb2dVertex
 10
1208.740300505333
 20
312.8577925055866
 30
0.0
 42
0.0126891984598699
  0
VERTEX
  5
3F63
330
3F5E
100
AcDbEntity
  8
STAVBA OBRYS
100
AcDbVertex
100
AcDb2dVertex
 10
1207.817132109541
 20
312.9929948951281
 30
0.0
  0
SEQEND
  5
3F64
330
3F5E
100
AcDbEntity
  8
STAVBA OBRYS
  0
POLYLINE
  5
3F65
330
1F
100
AcDbEntity
  8
STAVBA OBRYS
100
AcDb2dPolyline
 66
     1
 10
0.0
 20
0.0
 30
0.0
  0
VERTEX
  5
3F66
330
3F65
100
AcDbEntity
  8
STAVBA OBRYS
100
AcDbVertex
100
AcDb2dVertex
 10
1193.445135264742
 20
311.4608607044734
 30
0.0
 42
-0.0502247168465557
  0
VERTEX
  5
3F67
330
3F65
100
AcDbEntity
  8
STAVBA OBRYS
100
AcDbVertex
100
AcDb2dVertex
 10
1195.044182440908
 20
313.4683313771962
 30
0.0
 42
-0.0274923553235744
  0
VERTEX
  5
3F68
330
3F65
100
AcDbEntity
  8
STAVBA OBRYS
100
AcDbVertex
100
AcDb2dVertex
 10
1197.64148817146
 20
315.8534067003344
 30
0.0
 42
-0.0255412025538677
  0
VERTEX
  5
3F69
330
3F65
100
AcDbEntity
  8
STAVBA OBRYS
100
AcDbVertex
100
AcDb2dVertex
 10
1200.692918209171
 20
318.1101203773502
 30
0.0
 42
-0.0272796991712396
  0
VERTEX
  5
3F6A
330
3F65
100
AcDbEntity
  8
STAVBA OBRYS
100
AcDbVertex
100
AcDb2dVertex
 10
1204.805917362357
 20
320.526456259016
 30
0.0
 42
-0.056967459841729
  0
VERTEX
  5
3F6B
330
3F65
100
AcDbEntity
  8
STAVBA OBRYS
100
AcDbVertex
100
AcDb2dVertex
 10
1206.946864643088
 20
321.3391920942155
 30
0.0
 42
-0.0373408083348504
  0
VERTEX
  5
3F6C
330
3F65
100
AcDbEntity
  8
STAVBA OBRYS
100
AcDbVertex
100
AcDb2dVertex
 10
1207.169219018562
 20
321.378357635163
 30
0.0
 42
-0.0052305969362967
  0
VERTEX
  5
3F6D
330
3F65
100
AcDbEntity
  8
STAVBA OBRYS
100
AcDbVertex
100
AcDb2dVertex
 10
1207.515178792322
 20
321.4093146020674
 30
0.0
  0
SEQEND
  5
3F6E
330
3F65
100
AcDbEntity
  8
STAVBA OBRYS
  0
POLYLINE
  5
3F6F
330
1F
100
AcDbEntity
  8
STAVBA OBRYS
100
AcDb2dPolyline
 66
     1
 10
0.0
 20
0.0
 30
0.0
  0
VERTEX
  5
3F70
330
3F6F
100
AcDbEntity
  8
STAVBA OBRYS
100
AcDbVertex
100
AcDb2dVertex
 10
1221.887175637121
 20
311.4608607044734
 30
0.0
 42
0.0502247168465557
  0
VERTEX
  5
3F71
330
3F6F
100
AcDbEntity
  8
STAVBA OBRYS
100
AcDbVertex
100
AcDb2dVertex
 10
1220.288128460955
 20
313.4683313771962
 30
0.0
 42
0.0274923553235744
  0
VERTEX
  5
3F72
330
3F6F
100
AcDbEntity
  8
STAVBA OBRYS
100
AcDbVertex
100
AcDb2dVertex
 10
1217.690822730403
 20
315.8534067003344
 30
0.0
 42
0.0255412025538677
  0
VERTEX
  5
3F73
330
3F6F
100
AcDbEntity
  8
STAVBA OBRYS
100
AcDbVertex
100
AcDb2dVertex
 10
1214.639392692692
 20
318.1101203773502
 30
0.0
 42
0.0272796991712396
  0
VERTEX
  5
3F74
330
3F6F
100
AcDbEntity
  8
STAVBA OBRYS
100
AcDbVertex
100
AcDb2dVertex
 10
1210.526393539506
 20
320.526456259016
 30
0.0
 42
0.056967459841729
  0
VERTEX
  5
3F75
330
3F6F
100
AcDbEntity
  8
STAVBA OBRYS
100
AcDbVertex
100
AcDb2dVertex
 10
1208.385446258775
 20
321.3391920942155
 30
0.0
 42
0.0373408083348504
  0
VERTEX
  5
3F76
330
3F6F
100
AcDbEntity
  8
STAVBA OBRYS
100
AcDbVertex
100
AcDb2dVertex
 10
1208.163091883301
 20
321.378357635163
 30
0.0
 42
0.0052305969362967
  0
VERTEX
  5
3F77
330
3F6F
100
AcDbEntity
  8
STAVBA OBRYS
100
AcDbVertex
100
AcDb2dVertex
 10
1207.817132109541
 20
321.4093146020674
 30
0.0
  0
SEQEND
  5
3F78
330
3F6F
100
AcDbEntity
  8
STAVBA OBRYS
  0
LINE
  5
3F79
330
1F
100
AcDbEntity
  8
SPOJOVACÍ
  6
DASHED
100
AcDbLine
 10
1211.139322530998
 20
322.5437153320664
 30
0.0
 11
1210.824738939001
 21
322.2291317382506
 31
0.0
  0
LINE
  5
3F7A
330
1F
100
AcDbEntity
  8
SPOJOVACÍ
  6
DASHED
100
AcDbLine
 10
1208.293348297187
 20
315.9583804463719
 30
0.0
 11
1210.087869486022
 21
315.6995850761323
 31
0.0
  0
LINE
  5
3F7B
330
1F
100
AcDbEntity
  8
SPOJOVACÍ
  6
DASHED
100
AcDbLine
 10
1208.607931889186
 20
316.2729640401877
 30
0.0
 11
1209.773285894023
 21
315.8808968026848
 31
0.0
  0
LINE
  5
3F7C
330
1F
100
AcDbEntity
  8
SPOJOVACÍ
  6
DASHED
100
AcDbLine
 10
1208.607931889186
 20
315.7762938834599
 30
0.0
 11
1209.773285894023
 21
315.384226645957
 31
0.0
  0
LINE
  5
3F7D
330
1F
100
AcDbEntity
  8
SPOJOVACÍ
  6
DASHED
100
AcDbLine
 10
1210.087869486022
 20
315.6995850761323
 30
0.0
 11
1209.773285894023
 21
315.8808968026848
 31
0.0
  0
LINE
  5
3F7E
330
1F
100
AcDbEntity
  8
SPOJOVACÍ
  6
DASHED
100
AcDbLine
 10
1210.087869486022
 20
315.6995850761323
 30
0.0
 11
1209.773285894023
 21
315.384226645957
 31
0.0
  0
LINE
  5
3F7F
330
1F
100
AcDbEntity
  8
SPOJOVACÍ
  6
DASHED
100
AcDbLine
 10
1208.293348297187
 20
315.9583804463719
 30
0.0
 11
1208.607931889186
 21
316.2729640401877
 31
0.0
  0
LINE
  5
3F80
330
1F
100
AcDbEntity
  8
SPOJOVACÍ
  6
DASHED
100
AcDbLine
 10
1208.293348297187
 20
315.9583804463719
 30
0.0
 11
1208.607931889186
 21
315.7762938834599
 31
0.0
  0
LINE
  5
3F81
330
1F
100
AcDbEntity
  8
SPOJOVACÍ
  6
DASHED
100
AcDbLine
 10
1207.823022577366
 20
318.4688505051123
 30
0.0
 11
1210.418724644752
 21
317.941186891043
 31
0.0
  0
LINE
  5
3F82
330
1F
100
AcDbEntity
  8
SPOJOVACÍ
  6
DASHED
100
AcDbLine
 10
1208.137606172998
 20
318.7842089355177
 30
0.0
 11
1210.104141052754
 21
318.1224986173712
 31
0.0
  0
LINE
  5
3F83
330
1F
100
AcDbEntity
  8
SPOJOVACÍ
  6
DASHED
100
AcDbLine
 10
1208.137606172998
 20
318.2875387787841
 30
0.0
 11
1210.104141052754
 21
317.6258284608676
 31
0.0
  0
LINE
  5
3F84
330
1F
100
AcDbEntity
  8
SPOJOVACÍ
  6
DASHED
100
AcDbLine
 10
1210.418724644752
 20
317.941186891043
 30
0.0
 11
1210.104141052754
 21
318.1224986173712
 31
0.0
  0
LINE
  5
3F85
330
1F
100
AcDbEntity
  8
SPOJOVACÍ
  6
DASHED
100
AcDbLine
 10
1210.418724644752
 20
317.941186891043
 30
0.0
 11
1210.104141052754
 21
317.6258284608676
 31
0.0
  0
LINE
  5
3F86
330
1F
100
AcDbEntity
  8
SPOJOVACÍ
  6
DASHED
100
AcDbLine
 10
1207.823022577366
 20
318.4688505051123
 30
0.0
 11
1208.137606172998
 21
318.7842089355177
 31
0.0
  0
LINE
  5
3F87
330
1F
100
AcDbEntity
  8
SPOJOVACÍ
  6
DASHED
100
AcDbLine
 10
1207.823022577366
 20
318.4688505051123
 30
0.0
 11
1208.137606172998
 21
318.2875387787841
 31
0.0
  0
LINE
  5
3F88
330
1F
100
AcDbEntity
  8
SPOJOVACÍ
  6
DASHED
100
AcDbLine
 10
1207.352696861178
 20
320.9800954004423
 30
0.0
 11
1210.789096461914
 21
320.1696164864825
 31
0.0
  0
LINE
  5
3F89
330
1F
100
AcDbEntity
  8
SPOJOVACÍ
  6
DASHED
100
AcDbLine
 10
1207.6680552909
 20
321.2946789942581
 30
0.0
 11
1210.474512869916
 21
320.3509282128107
 31
0.0
  0
LINE
  5
3F8A
330
1F
100
AcDbEntity
  8
SPOJOVACÍ
  6
DASHED
100
AcDbLine
 10
1207.6680552909
 20
320.7980088375244
 30
0.0
 11
1210.474512869916
 21
319.8542580560771
 31
0.0
  0
LINE
  5
3F8B
330
1F
100
AcDbEntity
  8
SPOJOVACÍ
  6
DASHED
100
AcDbLine
 10
1210.789096461914
 20
320.1696164864825
 30
0.0
 11
1210.474512869916
 21
320.3509282128107
 31
0.0
  0
LINE
  5
3F8C
330
1F
100
AcDbEntity
  8
SPOJOVACÍ
  6
DASHED
100
AcDbLine
 10
1210.789096461914
 20
320.1696164864825
 30
0.0
 11
1210.474512869916
 21
319.8542580560771
 31
0.0
  0
LINE
  5
3F8D
330
1F
100
AcDbEntity
  8
SPOJOVACÍ
  6
DASHED
100
AcDbLine
 10
1207.352696861178
 20
320.9800954004423
 30
0.0
 11
1207.6680552909
 21
321.2946789942581
 31
0.0
  0
LINE
  5
3F8E
330
1F
100
AcDbEntity
  8
SPOJOVACÍ
  6
DASHED
100
AcDbLine
 10
1207.352696861178
 20
320.9800954004423
 30
0.0
 11
1207.6680552909
 21
320.7980088375244
 31
0.0
  0
LINE
  5
3F8F
330
1F
100
AcDbEntity
  8
SPOJOVACÍ
  6
DASHED
100
AcDbLine
 10
1210.059975375257
 20
320.4981471361349
 30
0.0
 11
1210.264532196009
 21
322.1400255480363
 31
0.0
  0
LINE
  5
3F90
330
1F
100
AcDbEntity
  8
SPOJOVACÍ
  6
DASHED
100
AcDbLine
 10
1209.777934909454
 20
318.2433731017414
 30
0.0
 11
1210.00031296875
 21
320.0231723995181
 31
0.0
  0
LINE
  5
3F91
330
1F
100
AcDbEntity
  8
SPOJOVACÍ
  6
DASHED
100
AcDbLine
 10
1209.4951196132
 20
315.9800758667135
 30
0.0
 11
1209.718272506583
 21
317.7668486924054
 31
0.0
  0
LINE
  5
3F92
330
1F
100
AcDbEntity
  8
SPOJOVACÍ
  6
DASHED
100
AcDbLine
 10
1208.818687400815
 20
315.7166314778616
 30
0.0
 11
1209.140244521411
 21
313.1433996676302
 31
0.0
  0
LINE
  5
3F93
330
1F
100
AcDbEntity
  8
SPOJOVACÍ
  6
DASHED
100
AcDbLine
 10
1208.512627009227
 20
318.1666642944138
 30
0.0
 11
1208.75437597524
 21
316.2334473819875
 31
0.0
  0
LINE
  5
3F94
330
1F
100
AcDbEntity
  8
SPOJOVACÍ
  6
DASHED
100
AcDbLine
 10
1208.205016942192
 20
320.6259951481962
 30
0.0
 11
1208.446765911843
 21
318.6920033994043
 31
0.0
  0
LINE
  5
3F95
330
1F
100
AcDbEntity
  8
SPOJOVACÍ
  6
DASHED
100
AcDbLine
 10
1209.140244521411
 20
313.1433996676302
 30
0.0
 11
1209.435457206693
 21
315.5058759666868
 31
0.0
  0
LINE
  5
3F96
330
1F
100
AcDbEntity
  8
SPOJOVACÍ
  6
DASHED
100
AcDbLine
 10
1208.015956850451
 20
322.1400255480363
 30
0.0
 11
1208.14070551662
 21
321.1428110523221
 31
0.0
  0
LINE
  5
3F97
330
1F
100
AcDbEntity
  8
SPOJOVACÍ
  6
DASHED
100
AcDbLine
 10
1210.264532196009
 20
322.4205163383932
 30
0.0
 11
1210.264532196009
 21
322.1400255480363
 31
0.0
  0
LINE
  5
3F98
330
1F
100
AcDbEntity
  8
STAVBA OBRYS
100
AcDbLine
 10
1207.666155450932
 20
188.4608607044716
 30
0.0
 11
1207.666155450932
 21
170.4608607044725
 31
0.0
  0
LWPOLYLINE
  5
3F99
330
1F
100
AcDbEntity
  8
STAVBA OBRYS
100
AcDbPolyline
 90
        3
 70
     0
 43
0.0
 10
1135.307538409124
 20
170.4608607044725
 42
-0.0052038508054843
 10
1138.505935349106
 20
186.8646871864699
 42
-0.0065712046643719
 10
1138.856361118871
 20
188.4608607044725
  0
LWPOLYLINE
  5
3F9A
330
1F
100
AcDbEntity
  8
STAVBA OBRYS
100
AcDbPolyline
 90
        4
 70
     0
 43
0.0
 10
1146.760076272092
 20
170.4608607044725
 42
-0.0334776267545482
 10
1147.197354066798
 20
174.5078356332093
 42
-0.0091133963862869
 10
1149.674958391717
 20
187.199565418669
 42
-0.007828075361276
 10
1149.965857526874
 20
188.4608607044725
  0
LWPOLYLINE
  5
3F9B
330
1F
100
AcDbEntity
  8
STAVBA OBRYS
100
AcDbPolyline
 90
        6
 70
     0
 43
0.0
 10
1175.720279869625
 20
170.4608607044725
 42
-0.0121757200102759
 10
1177.090269583286
 20
175.1327780369398
 42
-0.0457786284636091
 10
1178.298292472902
 20
177.9813884198162
 42
-0.0295006114745606
 10
1180.714352927201
 20
181.9082876332182
 42
-0.0258674098621065
 10
1183.947028241165
 20
186.0540677119721
 42
-0.0093759062953949
 10
1186.112840420822
 20
188.4608607044725
  0
LWPOLYLINE
  5
3F9C
330
1F
100
AcDbEntity
  8
STAVBA OBRYS
100
AcDbPolyline
 90
        3
 70
     0
 43
0.0
 10
1197.843611641534
 20
170.4608607044725
 10
1184.051563714894
 20
177.3619322679593
 10
1175.884459065769
 20
185.5432339690529
  0
LWPOLYLINE
  5
3F9D
330
1F
100
AcDbEntity
  8
STAVBA OBRYS
100
AcDbPolyline
 90
        8
 70
     0
 43
0.0
 10
1185.093083877427
 20
170.4608607044725
 42
-0.0217273703039143
 10
1187.290754137937
 20
175.4965510419502
 42
-0.0882970623535771
 10
1188.92797605803
 20
177.7369200927502
 42
-0.0171636441953577
 10
1191.741340119888
 20
180.2508374479954
 42
-0.0157521173632038
 10
1194.980194956924
 20
182.7823335005019
 42
-0.0073640874174249
 10
1199.613844313246
 20
186.070734926238
 42
-0.0194185739168057
 10
1201.435887632922
 20
187.2223039255192
 42
-0.0229547400386702
 10
1203.821345696937
 20
188.4608607044725
  0
POLYLINE
  5
3F9E
330
1F
100
AcDbEntity
  8
STAVBA OBRYS
100
AcDb2dPolyline
 66
     1
 10
0.0
 20
0.0
 30
0.0
  0
VERTEX
  5
3F9F
330
3F9E
100
AcDbEntity
  8
STAVBA OBRYS
100
AcDbVertex
100
AcDb2dVertex
 10
1193.445135264742
 20
170.4608607044725
 30
0.0
 42
-0.0502247168465557
  0
VERTEX
  5
3FA0
330
3F9E
100
AcDbEntity
  8
STAVBA OBRYS
100
AcDbVertex
100
AcDb2dVertex
 10
1195.044182440908
 20
172.4683313771953
 30
0.0
 42
-0.0274923553235744
  0
VERTEX
  5
3FA1
330
3F9E
100
AcDbEntity
  8
STAVBA OBRYS
100
AcDbVertex
100
AcDb2dVertex
 10
1197.64148817146
 20
174.8534067003334
 30
0.0
 42
-0.0255412025538677
  0
VERTEX
  5
3FA2
330
3F9E
100
AcDbEntity
  8
STAVBA OBRYS
100
AcDbVertex
100
AcDb2dVertex
 10
1200.692918209171
 20
177.1101203773493
 30
0.0
 42
-0.0272796991712396
  0
VERTEX
  5
3FA3
330
3F9E
100
AcDbEntity
  8
STAVBA OBRYS
100
AcDbVertex
100
AcDb2dVertex
 10
1204.805917362357
 20
179.5264562590151
 30
0.0
 42
-0.056967459841729
  0
VERTEX
  5
3FA4
330
3F9E
100
AcDbEntity
  8
STAVBA OBRYS
100
AcDbVertex
100
AcDb2dVertex
 10
1206.946864643088
 20
180.3391920942145
 30
0.0
 42
-0.0373408083348504
  0
VERTEX
  5
3FA5
330
3F9E
100
AcDbEntity
  8
STAVBA OBRYS
100
AcDbVertex
100
AcDb2dVertex
 10
1207.169219018562
 20
180.3783576351621
 30
0.0
 42
-0.0052305969362967
  0
VERTEX
  5
3FA6
330
3F9E
100
AcDbEntity
  8
STAVBA OBRYS
100
AcDbVertex
100
AcDb2dVertex
 10
1207.515178792322
 20
180.4093146020665
 30
0.0
  0
SEQEND
  5
3FA7
330
3F9E
100
AcDbEntity
  8
STAVBA OBRYS
  0
LWPOLYLINE
  5
3FA8
330
1F
100
AcDbEntity
  8
STAVBA OBRYS
100
AcDbPolyline
 90
        4
 70
     0
 43
0.0
 10
1166.909818520782
 20
170.4608607044725
 42
-0.0186324019486548
 10
1170.278187892889
 20
182.155972322697
 42
-0.0582629403736403
 10
1171.93768776097
 20
185.7358065216327
 42
-0.0146402521923566
 10
1173.722095742554
 20
188.4608607044725
  0
LWPOLYLINE
  5
3FA9
330
1F
100
AcDbEntity
  8
STAVBA OBRYS
100
AcDbPolyline
 90
        4
 70
     0
 43
0.0
 10
1181.514203709377
 20
169.9600302737241
 10
1161.517951277384
 20
179.1760593242439
 10
1144.740060706166
 20
181.883203586935
 10
1141.476449458461
 20
182.0135049513052
  0
LWPOLYLINE
  5
3FAA
330
1F
100
AcDbEntity
  8
STAVBA OBRYS
100
AcDbPolyline
 90
        5
 70
     0
 43
0.0
 10
1157.004214646885
 20
170.4608607044725
 42
-0.0133579731639958
 10
1157.391025135914
 20
172.9786629920278
 42
-0.0072443097182286
 10
1159.511022083372
 20
183.7895538869348
 42
-0.0219777111230329
 10
1160.417134585355
 20
187.3076671427703
 42
-0.0092752982622242
 10
1160.792361547302
 20
188.4608607044725
  0
POLYLINE
  5
3FAB
330
1F
100
AcDbEntity
  8
STAVBA OBRYS
100
AcDb2dPolyline
 66
     1
 10
0.0
 20
0.0
 30
0.0
  0
VERTEX
  5
3FAC
330
3FAB
100
AcDbEntity
  8
STAVBA OBRYS
100
AcDbVertex
100
AcDb2dVertex
 10
1202.498281214279
 20
170.4608607044725
 30
0.0
 42
-0.0094186890201653
  0
VERTEX
  5
3FAD
330
3FAB
100
AcDbEntity
  8
STAVBA OBRYS
100
AcDbVertex
100
AcDb2dVertex
 10
1202.845079777153
 20
170.6195335752405
 30
0.0
 42
-0.0322692699774654
  0
VERTEX
  5
3FAE
330
3FAB
100
AcDbEntity
  8
STAVBA OBRYS
100
AcDbVertex
100
AcDb2dVertex
 10
1205.736433958243
 20
171.6610570766412
 30
0.0
 42
-0.0276160659512937
  0
VERTEX
  5
3FAF
330
3FAB
100
AcDbEntity
  8
STAVBA OBRYS
100
AcDbVertex
100
AcDb2dVertex
 10
1206.592010396531
 20
171.8577925055857
 30
0.0
 42
-0.0126891984598699
  0
VERTEX
  5
3FB0
330
3FAB
100
AcDbEntity
  8
STAVBA OBRYS
100
AcDbVertex
100
AcDb2dVertex
 10
1207.515178792322
 20
171.9929948951272
 30
0.0
  0
SEQEND
  5
3FB1
330
3FAB
100
AcDbEntity
  8
STAVBA OBRYS
  0
POLYLINE
  5
3FB2
330
1F
100
AcDbEntity
  8
STAVBA OBRYS
100
AcDb2dPolyline
 66
     1
 10
0.0
 20
0.0
 30
0.0
  0
VERTEX
  5
3FB3
330
3FB2
100
AcDbEntity
  8
STAVBA OBRYS
100
AcDbVertex
100
AcDb2dVertex
 10
1221.887175637121
 20
170.4608607044725
 30
0.0
 42
0.0502247168465557
  0
VERTEX
  5
3FB4
330
3FB2
100
AcDbEntity
  8
STAVBA OBRYS
100
AcDbVertex
100
AcDb2dVertex
 10
1220.288128460955
 20
172.4683313771953
 30
0.0
 42
0.0274923553235744
  0
VERTEX
  5
3FB5
330
3FB2
100
AcDbEntity
  8
STAVBA OBRYS
100
AcDbVertex
100
AcDb2dVertex
 10
1217.690822730403
 20
174.8534067003334
 30
0.0
 42
0.0255412025538677
  0
VERTEX
  5
3FB6
330
3FB2
100
AcDbEntity
  8
STAVBA OBRYS
100
AcDbVertex
100
AcDb2dVertex
 10
1214.639392692692
 20
177.1101203773493
 30
0.0
 42
0.0272796991712396
  0
VERTEX
  5
3FB7
330
3FB2
100
AcDbEntity
  8
STAVBA OBRYS
100
AcDbVertex
100
AcDb2dVertex
 10
1210.526393539506
 20
179.5264562590151
 30
0.0
 42
0.056967459841729
  0
VERTEX
  5
3FB8
330
3FB2
100
AcDbEntity
  8
STAVBA OBRYS
100
AcDbVertex
100
AcDb2dVertex
 10
1208.385446258775
 20
180.3391920942145
 30
0.0
 42
0.0373408083348504
  0
VERTEX
  5
3FB9
330
3FB2
100
AcDbEntity
  8
STAVBA OBRYS
100
AcDbVertex
100
AcDb2dVertex
 10
1208.163091883301
 20
180.3783576351621
 30
0.0
 42
0.0052305969362967
  0
VERTEX
  5
3FBA
330
3FB2
100
AcDbEntity
  8
STAVBA OBRYS
100
AcDbVertex
100
AcDb2dVertex
 10
1207.817132109541
 20
180.4093146020665
 30
0.0
  0
SEQEND
  5
3FBB
330
3FB2
100
AcDbEntity
  8
STAVBA OBRYS
  0
POLYLINE
  5
3FBC
330
1F
100
AcDbEntity
  8
STAVBA OBRYS
100
AcDb2dPolyline
 66
     1
 10
0.0
 20
0.0
 30
0.0
  0
VERTEX
  5
3FBD
330
3FBC
100
AcDbEntity
  8
STAVBA OBRYS
100
AcDbVertex
100
AcDb2dVertex
 10
1212.834029687585
 20
170.4608607044725
 30
0.0
 42
0.0094186890201653
  0
VERTEX
  5
3FBE
330
3FBC
100
AcDbEntity
  8
STAVBA OBRYS
100
AcDbVertex
100
AcDb2dVertex
 10
1212.487231124711
 20
170.6195335752405
 30
0.0
 42
0.0322692699774654
  0
VERTEX
  5
3FBF
330
3FBC
100
AcDbEntity
  8
STAVBA OBRYS
100
AcDbVertex
100
AcDb2dVertex
 10
1209.59587694362
 20
171.6610570766412
 30
0.0
 42
0.0276160659512937
  0
VERTEX
  5
3FC0
330
3FBC
100
AcDbEntity
  8
STAVBA OBRYS
100
AcDbVertex
100
AcDb2dVertex
 10
1208.740300505333
 20
171.8577925055857
 30
0.0
 42
0.0126891984598699
  0
VERTEX
  5
3FC1
330
3FBC
100
AcDbEntity
  8
STAVBA OBRYS
100
AcDbVertex
100
AcDb2dVertex
 10
1207.817132109541
 20
171.9929948951272
 30
0.0
  0
SEQEND
  5
3FC2
330
3FBC
100
AcDbEntity
  8
STAVBA OBRYS
  0
LWPOLYLINE
  5
3FC3
330
1F
100
AcDbEntity
  8
STAVBA OBRYS
100
AcDbPolyline
 90
        4
 70
     0
 43
0.0
 10
1104.658192512631
 20
170.4608607044725
 42
-0.0334776267545482
 10
1105.095470307338
 20
174.5078356332093
 42
-0.0091133963862869
 10
1107.573074632256
 20
187.199565418669
 42
-0.007828075361276
 10
1107.863973767414
 20
188.4608607044725
  0
LWPOLYLINE
  5
3FC4
330
1F
100
AcDbEntity
  8
STAVBA OBRYS
100
AcDbPolyline
 90
        5
 70
     0
 43
0.0
 10
1114.902330887425
 20
170.4608607044725
 42
-0.0133579731639958
 10
1115.289141376453
 20
172.9786629920278
 42
-0.0072443097182286
 10
1117.409138323911
 20
183.7895538869348
 42
-0.0219777111230329
 10
1118.315250825895
 20
187.3076671427703
 42
-0.0092752982622242
 10
1118.690477787842
 20
188.4608607044725
  0
LWPOLYLINE
  5
3FC5
330
1F
100
AcDbEntity
  8
STAVBA OBRYS
100
AcDbPolyline
 90
        5
 70
     0
 43
0.0
 10
1084.755322030951
 20
170.4608607044725
 42
-0.0133579731639958
 10
1085.142132519979
 20
172.9786629920278
 42
-0.0072443097182286
 10
1087.262129467437
 20
183.7895538869348
 42
-0.0219777111230329
 10
1088.16824196942
 20
187.3076671427703
 42
-0.0092752982622242
 10
1088.543468931367
 20
188.4608607044725
  0
LWPOLYLINE
  5
3FC6
330
1F
100
AcDbEntity
  8
STAVBA OBRYS
100
AcDbPolyline
 90
        3
 70
     0
 43
0.0
 10
1093.205654649664
 20
170.4608607044725
 42
-0.0052038508054843
 10
1096.404051589646
 20
186.8646871864699
 42
-0.0065712046643719
 10
1096.754477359411
 20
188.4608607044725
  0
LWPOLYLINE
  5
3FC7
330
1F
100
AcDbEntity
  8
STAVBA OBRYS
100
AcDbPolyline
 90
        4
 70
     0
 43
0.0
 10
1139.412319949917
 20
169.9600302737241
 10
1119.416067517924
 20
179.1760593242439
 10
1102.638176946706
 20
181.883203586935
 10
1099.374565699001
 20
182.0135049513052
  0
LWPOLYLINE
  5
3FC8
330
1F
100
AcDbEntity
  8
STAVBA OBRYS
100
AcDbPolyline
 90
        4
 70
     0
 43
0.0
 10
1124.807934761322
 20
170.4608607044725
 42
-0.0186324019486548
 10
1128.176304133428
 20
182.155972322697
 42
-0.0582629403736403
 10
1129.83580400151
 20
185.7358065216327
 42
-0.0146402521923566
 10
1131.620211983094
 20
188.4608607044725
  0
LWPOLYLINE
  5
3FC9
330
1F
100
AcDbEntity
  8
izolace
100
AcDbPolyline
 90
        4
 70
     1
 43
0.0
 10
1098.158284419771
 20
332.460860704473
 10
1074.516551709935
 20
332.460860704473
 10
1074.516551709935
 20
329.460860704473
 10
1098.158284419771
 20
329.460860704473
  0
HATCH
  5
3FCA
330
1F
100
AcDbEntity
  8
izolace
100
AcDbHatch
 10
0.0
 20
0.0
 30
0.0
210
0.0
220
0.0
230
1.0
  2
SOLID
 70
     1
 71
     0
 91
        1
 92
        7
 72
     0
 73
     1
 93
        4
 10
1098.158284419774
 20
332.460860704473
 10
1074.516551709939
 20
332.460860704473
 10
1074.516551709935
 20
329.460860704473
 10
1098.158284419774
 20
329.460860704473
 97
        0
 75
     0
 76
     1
 47
0.1901250437635136
 98
        1
 10
1083.874346468279
 20
331.6440491533932
  0
HATCH
  5
3FCB
330
1F
100
AcDbEntity
  8
izolace
100
AcDbHatch
 10
0.0
 20
0.0
 30
0.0
210
0.0
220
0.0
230
1.0
  2
SOLID
 70
     1
 71
     0
 91
        1
 92
        7
 72
     0
 73
     1
 93
        4
 10
1003.591353580433
 20
332.460860704473
 10
979.9496208705987
 20
332.460860704473
 10
979.9496208705949
 20
329.460860704473
 10
1003.591353580433
 20
329.460860704473
 97
        0
 75
     0
 76
     1
 47
0.1901250437635136
 98
        1
 10
989.3074156289385
 20
331.6440491533932
  0
HATCH
  5
3FCC
330
1F
100
AcDbEntity
  8
izolace
100
AcDbHatch
 10
0.0
 20
0.0
 30
0.0
210
0.0
220
0.0
230
1.0
  2
SOLID
 70
     1
 71
     0
 91
        1
 92
        7
 72
     0
 73
     1
 93
        4
 10
956.3078881607598
 20
332.460860704473
 10
932.6661554509282
 20
332.460860704473
 10
932.6661554509247
 20
329.460860704473
 10
956.3078881607635
 20
329.460860704473
 97
        0
 75
     0
 76
     1
 47
0.1901250437635136
 98
        3
 10
984.5513784249469
 20
330.6934157750848
 10
948.215187597607
 20
330.5032890994235
 10
944.2201154083795
 20
331.0736691264074
  0
LWPOLYLINE
  5
3FCD
330
1F
100
AcDbEntity
  8
izolace
100
AcDbPolyline
 90
        4
 70
     1
 43
0.0
 10
1050.8748190001
 20
332.460860704473
 10
1027.233086290265
 20
332.460860704473
 10
1027.233086290265
 20
329.460860704473
 10
1050.8748190001
 20
329.460860704473
  0
HATCH
  5
3FCE
330
1F
100
AcDbEntity
  8
izolace
100
AcDbHatch
 10
0.0
 20
0.0
 30
0.0
210
0.0
220
0.0
230
1.0
  2
SOLID
 70
     1
 71
     0
 91
        1
 92
        7
 72
     0
 73
     1
 93
        4
 10
1050.874819000104
 20
332.460860704473
 10
1027.233086290268
 20
332.460860704473
 10
1027.233086290265
 20
329.460860704473
 10
1050.874819000104
 20
329.460860704473
 97
        0
 75
     0
 76
     1
 47
0.1901250437635136
 98
        1
 10
1036.590881048609
 20
331.6440491533932
  0
TEXT
  5
3FCF
330
1F
100
AcDbEntity
  8
POPIS
100
AcDbText
 10
1042.311189357749
 20
426.0040366135022
 30
0.0
 40
25.0
  1
02
 41
0.85
  7
SIMPLEX7
100
AcDbText
  0
TEXT
  5
3FD0
330
1F
100
AcDbEntity
  8
POPIS
100
AcDbText
 10
983.0445470074501
 20
426.0040366135022
 30
0.0
 40
25.0
  1
01
 41
0.85
  7
SIMPLEX7
100
AcDbText
  0
INSERT
  5
3FD1
330
1F
100
AcDbEntity
  8
POPIS
100
AcDbBlockReference
  2
E_PUNKT
 10
1061.077714438588
 20
351.7702301150253
 30
0.0
 50
270.0
  0
LINE
  5
3FD2
330
1F
100
AcDbEntity
  8
SPOJOVACÍ
  6
DASHED
100
AcDbLine
 10
957.544364721749
 20
323.8586127672653
 30
0.0
 11
960.9133535532892
 21
322.7258018949847
 31
0.0
  0
LINE
  5
3FD3
330
1F
100
AcDbEntity
  8
SPOJOVACÍ
  6
DASHED
100
AcDbLine
 10
957.2297811261142
 20
323.5432543368598
 30
0.0
 11
957.544364721749
 21
323.8586127672653
 31
0.0
  0
LINE
  5
3FD4
330
1F
100
AcDbEntity
  8
SPOJOVACÍ
  6
DASHED
100
AcDbLine
 10
957.2297811261142
 20
323.5432543368598
 30
0.0
 11
957.544364721749
 21
323.3619426105316
 31
0.0
  0
LINE
  5
3FD5
330
1F
100
AcDbEntity
  8
SPOJOVACÍ
  6
DASHED
100
AcDbLine
 10
957.544364721749
 20
326.4574141798604
 30
0.0
 11
960.9133535532892
 21
325.3246033075798
 31
0.0
  0
LINE
  5
3FD6
330
1F
100
AcDbEntity
  8
SPOJOVACÍ
  6
DASHED
100
AcDbLine
 10
957.544364721749
 20
325.9607440231326
 30
0.0
 11
960.9133535532892
 21
324.8279331510762
 31
0.0
  0
LINE
  5
3FD7
330
1F
100
AcDbEntity
  8
SPOJOVACÍ
  6
DASHED
100
AcDbLine
 10
961.2279371452878
 20
325.1432915812516
 30
0.0
 11
960.9133535532892
 21
325.3246033075798
 31
0.0
  0
LINE
  5
3FD8
330
1F
100
AcDbEntity
  8
SPOJOVACÍ
  6
DASHED
100
AcDbLine
 10
961.2279371452878
 20
325.1432915812516
 30
0.0
 11
960.9133535532892
 21
324.8279331510762
 31
0.0
  0
LINE
  5
3FD9
330
1F
100
AcDbEntity
  8
SPOJOVACÍ
  6
DASHED
100
AcDbLine
 10
957.2297811261142
 20
326.1428305860446
 30
0.0
 11
957.544364721749
 21
326.4574141798604
 31
0.0
  0
LINE
  5
3FDA
330
1F
100
AcDbEntity
  8
SPOJOVACÍ
  6
DASHED
100
AcDbLine
 10
957.2297811261142
 20
326.1428305860446
 30
0.0
 11
957.544364721749
 21
325.9607440231326
 31
0.0
  0
LINE
  5
3FDB
330
1F
100
AcDbEntity
  8
SPOJOVACÍ
  6
DASHED
100
AcDbLine
 10
957.2297811261142
 20
326.1428305860446
 30
0.0
 11
961.2279371452878
 21
325.1432915812516
 31
0.0
  0
LINE
  5
3FDC
330
1F
100
AcDbEntity
  8
SPOJOVACÍ
  6
DASHED
100
AcDbLine
 10
957.544364721749
 20
329.0562155924618
 30
0.0
 11
960.9133535532892
 21
327.9234047204055
 31
0.0
  0
LINE
  5
3FDD
330
1F
100
AcDbEntity
  8
SPOJOVACÍ
  6
DASHED
100
AcDbLine
 10
957.544364721749
 20
328.5595454357281
 30
0.0
 11
960.9133535532892
 21
327.4267345636777
 31
0.0
  0
LINE
  5
3FDE
330
1F
100
AcDbEntity
  8
SPOJOVACÍ
  6
DASHED
100
AcDbLine
 10
961.2279371452878
 20
327.7420929938531
 30
0.0
 11
960.9133535532892
 21
327.9234047204055
 31
0.0
  0
LINE
  5
3FDF
330
1F
100
AcDbEntity
  8
SPOJOVACÍ
  6
DASHED
100
AcDbLine
 10
961.2279371452878
 20
327.7420929938531
 30
0.0
 11
960.9133535532892
 21
327.4267345636777
 31
0.0
  0
LINE
  5
3FE0
330
1F
100
AcDbEntity
  8
SPOJOVACÍ
  6
DASHED
100
AcDbLine
 10
957.2297811261142
 20
328.741631998646
 30
0.0
 11
957.544364721749
 21
329.0562155924618
 31
0.0
  0
LINE
  5
3FE1
330
1F
100
AcDbEntity
  8
SPOJOVACÍ
  6
DASHED
100
AcDbLine
 10
957.2297811261142
 20
328.741631998646
 30
0.0
 11
957.544364721749
 21
328.5595454357281
 31
0.0
  0
LINE
  5
3FE2
330
1F
100
AcDbEntity
  8
SPOJOVACÍ
  6
DASHED
100
AcDbLine
 10
957.2297811261142
 20
328.741631998646
 30
0.0
 11
961.2279371452878
 21
327.7420929938531
 31
0.0
  0
LINE
  5
3FE3
330
1F
100
AcDbEntity
  8
SPOJOVACÍ
  6
DASHED
100
AcDbLine
 10
957.544364721749
 20
331.6550170052875
 30
0.0
 11
960.9133535532892
 21
330.5229809693666
 31
0.0
  0
LINE
  5
3FE4
330
1F
100
AcDbEntity
  8
SPOJOVACÍ
  6
DASHED
100
AcDbLine
 10
957.544364721749
 20
331.1583468485533
 30
0.0
 11
960.9133535532892
 21
330.026310812863
 31
0.0
  0
LINE
  5
3FE5
330
1F
100
AcDbEntity
  8
SPOJOVACÍ
  6
DASHED
100
AcDbLine
 10
961.2279371452878
 20
330.3408944064482
 30
0.0
 11
960.9133535532892
 21
330.5229809693666
 31
0.0
  0
LINE
  5
3FE6
330
1F
100
AcDbEntity
  8
SPOJOVACÍ
  6
DASHED
100
AcDbLine
 10
961.2279371452878
 20
330.3408944064482
 30
0.0
 11
960.9133535532892
 21
330.026310812863
 31
0.0
  0
LINE
  5
3FE7
330
1F
100
AcDbEntity
  8
SPOJOVACÍ
  6
DASHED
100
AcDbLine
 10
957.2297811261142
 20
331.3404334114717
 30
0.0
 11
957.544364721749
 21
331.6550170052875
 31
0.0
  0
LINE
  5
3FE8
330
1F
100
AcDbEntity
  8
SPOJOVACÍ
  6
DASHED
100
AcDbLine
 10
957.2297811261142
 20
331.3404334114717
 30
0.0
 11
957.544364721749
 21
331.1583468485533
 31
0.0
  0
LINE
  5
3FE9
330
1F
100
AcDbEntity
  8
SPOJOVACÍ
  6
DASHED
100
AcDbLine
 10
957.2297811261142
 20
331.3404334114717
 30
0.0
 11
961.2279371452878
 21
330.3408944064482
 31
0.0
  0
LINE
  5
3FEA
330
1F
100
AcDbEntity
  8
SPOJOVACÍ
  6
DASHED
100
AcDbLine
 10
957.544364721749
 20
334.2545932542421
 30
0.0
 11
960.9133535532892
 21
333.1217823821922
 31
0.0
  0
LINE
  5
3FEB
330
1F
100
AcDbEntity
  8
SPOJOVACÍ
  6
DASHED
100
AcDbLine
 10
957.544364721749
 20
333.7579230977386
 30
0.0
 11
960.9133535532892
 21
332.6251122254581
 31
0.0
  0
LINE
  5
3FEC
330
1F
100
AcDbEntity
  8
SPOJOVACÍ
  6
DASHED
100
AcDbLine
 10
961.2279371452878
 20
332.9396958192738
 30
0.0
 11
960.9133535532892
 21
333.1217823821922
 31
0.0
  0
LINE
  5
3FED
330
1F
100
AcDbEntity
  8
SPOJOVACÍ
  6
DASHED
100
AcDbLine
 10
961.2279371452878
 20
332.9396958192738
 30
0.0
 11
960.9133535532892
 21
332.6251122254581
 31
0.0
  0
LINE
  5
3FEE
330
1F
100
AcDbEntity
  8
SPOJOVACÍ
  6
DASHED
100
AcDbLine
 10
957.2297811261142
 20
333.9392348240668
 30
0.0
 11
957.544364721749
 21
334.2545932542421
 31
0.0
  0
LINE
  5
3FEF
330
1F
100
AcDbEntity
  8
SPOJOVACÍ
  6
DASHED
100
AcDbLine
 10
957.2297811261142
 20
333.9392348240668
 30
0.0
 11
957.544364721749
 21
333.7579230977386
 31
0.0
  0
LINE
  5
3FF0
330
1F
100
AcDbEntity
  8
SPOJOVACÍ
  6
DASHED
100
AcDbLine
 10
957.2297811261142
 20
333.9392348240668
 30
0.0
 11
961.2279371452878
 21
332.9396958192738
 31
0.0
  0
LINE
  5
3FF1
330
1F
100
AcDbEntity
  8
SPOJOVACÍ
  6
DASHED
100
AcDbLine
 10
960.3531468102993
 20
325.0216422605218
 30
0.0
 11
960.3531468102993
 21
322.9233851866826
 31
0.0
  0
LINE
  5
3FF2
330
1F
100
AcDbEntity
  8
SPOJOVACÍ
  6
DASHED
100
AcDbLine
 10
958.1045714647389
 20
325.7732336052427
 30
0.0
 11
958.1045714647389
 21
323.6757513677636
 31
0.0
  0
LINE
  5
3FF3
330
1F
100
AcDbEntity
  8
SPOJOVACÍ
  6
DASHED
100
AcDbLine
 10
960.3531468102993
 20
327.6219933460666
 30
0.0
 11
960.3531468102993
 21
325.5221865992781
 31
0.0
  0
LINE
  5
3FF4
330
1F
100
AcDbEntity
  8
SPOJOVACÍ
  6
DASHED
100
AcDbLine
 10
960.3531468102993
 20
330.2231192679711
 30
0.0
 11
960.3531468102993
 21
328.117113829851
 31
0.0
  0
LINE
  5
3FF5
330
1F
100
AcDbEntity
  8
SPOJOVACÍ
  6
DASHED
100
AcDbLine
 10
960.3531468102993
 20
332.818046498544
 30
0.0
 11
960.3531468102993
 21
330.7197894247047
 31
0.0
  0
LINE
  5
3FF6
330
1F
100
AcDbEntity
  8
SPOJOVACÍ
  6
DASHED
100
AcDbLine
 10
958.1045714647389
 20
328.3828827280118
 30
0.0
 11
958.1045714647389
 21
326.2768772898918
 31
0.0
  0
LINE
  5
3FF7
330
1F
100
AcDbEntity
  8
SPOJOVACÍ
  6
DASHED
100
AcDbLine
 10
958.1045714647389
 20
330.9778099585847
 30
0.0
 11
958.1045714647389
 21
328.8780032117962
 31
0.0
  0
LINE
  5
3FF8
330
1F
100
AcDbEntity
  8
SPOJOVACÍ
  6
DASHED
100
AcDbLine
 10
958.1045714647389
 20
333.5789358804892
 30
0.0
 11
958.1045714647389
 21
331.4806788066504
 31
0.0
  0
LINE
  5
3FF9
330
1F
100
AcDbEntity
  8
SPOJOVACÍ
  6
DASHED
100
AcDbLine
 10
958.0770647710195
 20
343.2911519908372
 30
0.0
 11
958.1045714647389
 21
341.8375283480123
 31
0.0
  0
LINE
  5
3FFA
330
1F
100
AcDbEntity
  8
SPOJOVACÍ
  6
DASHED
100
AcDbLine
 10
960.3531468102993
 20
342.9633961776581
 30
0.0
 11
960.3531468102993
 21
341.0814526453488
 31
0.0
  0
LINE
  5
3FFB
330
1F
100
AcDbEntity
  8
SPOJOVACÍ
  6
DASHED
100
AcDbLine
 10
954.9804309464688
 20
347.4613216994558
 30
0.0
 11
956.1047186210672
 21
346.8414525492727
 31
0.0
  0
LINE
  5
3FFC
330
1F
100
AcDbEntity
  8
SPOJOVACÍ
  6
DASHED
100
AcDbLine
 10
956.1047186210672
 20
346.8414525492727
 30
0.0
 11
957.0298733280651
 21
345.9511654820922
 31
0.0
  0
LINE
  5
3FFD
330
1F
100
AcDbEntity
  8
SPOJOVACÍ
  6
DASHED
100
AcDbLine
 10
957.0298733280651
 20
345.9511654820922
 30
0.0
 11
957.6931333173378
 21
344.8524474132706
 31
0.0
  0
LINE
  5
3FFE
330
1F
100
AcDbEntity
  8
SPOJOVACÍ
  6
DASHED
100
AcDbLine
 10
957.6931333173378
 20
344.8524474132706
 30
0.0
 11
958.0495580772986
 21
343.6189078040175
 31
0.0
  0
LINE
  5
3FFF
330
1F
100
AcDbEntity
  8
SPOJOVACÍ
  6
DASHED
100
AcDbLine
 10
958.0495580772986
 20
343.6189078040175
 30
0.0
 11
958.1045714647389
 21
342.9633961776568
 31
0.0
  0
LINE
  5
4000
330
1F
100
AcDbEntity
  8
SPOJOVACÍ
  6
DASHED
100
AcDbLine
 10
961.8509056420425
 20
346.416067344901
 30
0.0
 11
962.881438104856
 21
347.1808309090989
 31
0.0
  0
LINE
  5
4001
330
1F
100
AcDbEntity
  8
SPOJOVACÍ
  6
DASHED
100
AcDbLine
 10
962.881438104856
 20
347.1808309090989
 30
0.0
 11
963.477287324933
 21
347.4613216994558
 31
0.0
  0
LINE
  5
4002
330
1F
100
AcDbEntity
  8
SPOJOVACÍ
  6
DASHED
100
AcDbLine
 10
954.9804309464688
 20
347.4613216994558
 30
0.0
 11
963.477287324933
 21
347.4613216994558
 31
0.0
  0
LINE
  5
4003
330
1F
100
AcDbEntity
  8
SPOJOVACÍ
  6
DASHED
100
AcDbLine
 10
954.9804309464688
 20
348.460860704473
 30
0.0
 11
954.9804309464688
 21
347.4613216994558
 31
0.0
  0
LINE
  5
4004
330
1F
100
AcDbEntity
  8
SPOJOVACÍ
  6
DASHED
100
AcDbLine
 10
954.9804309464688
 20
348.460860704473
 30
0.0
 11
963.477287324933
 21
348.460860704473
 31
0.0
  0
LINE
  5
4005
330
1F
100
AcDbEntity
  8
SPOJOVACÍ
  6
DASHED
100
AcDbLine
 10
963.477287324933
 20
348.460860704473
 30
0.0
 11
963.477287324933
 21
347.4613216994558
 31
0.0
  0
LINE
  5
4006
330
1F
100
AcDbEntity
  8
SPOJOVACÍ
  6
DASHED
100
AcDbLine
 10
960.3531468102993
 20
342.9633961776568
 30
0.0
 11
960.5422068984044
 21
344.2325782628632
 31
0.0
  0
LINE
  5
4007
330
1F
100
AcDbEntity
  8
SPOJOVACÍ
  6
DASHED
100
AcDbLine
 10
960.5422068984044
 20
344.2325782628632
 30
0.0
 11
961.052824110744
 21
345.410329648546
 31
0.0
  0
LINE
  5
4008
330
1F
100
AcDbEntity
  8
SPOJOVACÍ
  6
DASHED
100
AcDbLine
 10
961.052824110744
 20
345.410329648546
 30
0.0
 11
961.8509056420425
 21
346.416067344901
 31
0.0
  0
LINE
  5
4009
330
1F
100
AcDbEntity
  8
nášlap_vrstvy
100
AcDbLine
 10
945.2354525884238
 20
358.983413157298
 30
0.0
 11
948.4319034912713
 21
355.7869622544541
 31
0.0
  0
LINE
  5
400A
330
1F
100
AcDbEntity
  8
SPOJOVACÍ
  6
DASHED
100
AcDbLine
 10
957.544364721749
 20
336.8400690508166
 30
0.0
 11
960.9133535532892
 21
335.7080330148952
 31
0.0
  0
LINE
  5
400B
330
1F
100
AcDbEntity
  8
SPOJOVACÍ
  6
DASHED
100
AcDbLine
 10
957.544364721749
 20
336.3433988940824
 30
0.0
 11
960.9133535532892
 21
335.2113628583917
 31
0.0
  0
LINE
  5
400C
330
1F
100
AcDbEntity
  8
SPOJOVACÍ
  6
DASHED
100
AcDbLine
 10
961.2279371452878
 20
335.5259464519773
 30
0.0
 11
960.9133535532892
 21
335.7080330148952
 31
0.0
  0
LINE
  5
400D
330
1F
100
AcDbEntity
  8
SPOJOVACÍ
  6
DASHED
100
AcDbLine
 10
961.2279371452878
 20
335.5259464519773
 30
0.0
 11
960.9133535532892
 21
335.2113628583917
 31
0.0
  0
LINE
  5
400E
330
1F
100
AcDbEntity
  8
SPOJOVACÍ
  6
DASHED
100
AcDbLine
 10
957.2297811261142
 20
336.5254854570008
 30
0.0
 11
957.544364721749
 21
336.8400690508166
 31
0.0
  0
LINE
  5
400F
330
1F
100
AcDbEntity
  8
SPOJOVACÍ
  6
DASHED
100
AcDbLine
 10
957.2297811261142
 20
336.5254854570008
 30
0.0
 11
957.544364721749
 21
336.3433988940824
 31
0.0
  0
LINE
  5
4010
330
1F
100
AcDbEntity
  8
SPOJOVACÍ
  6
DASHED
100
AcDbLine
 10
957.2297811261142
 20
336.5254854570008
 30
0.0
 11
961.2279371452878
 21
335.5259464519773
 31
0.0
  0
LINE
  5
4011
330
1F
100
AcDbEntity
  8
SPOJOVACÍ
  6
DASHED
100
AcDbLine
 10
957.544364721749
 20
339.4396452997713
 30
0.0
 11
960.9133535532892
 21
338.3068344277209
 31
0.0
  0
LINE
  5
4012
330
1F
100
AcDbEntity
  8
SPOJOVACÍ
  6
DASHED
100
AcDbLine
 10
957.544364721749
 20
338.9429751432677
 30
0.0
 11
960.9133535532892
 21
337.8101642709872
 31
0.0
  0
LINE
  5
4013
330
1F
100
AcDbEntity
  8
SPOJOVACÍ
  6
DASHED
100
AcDbLine
 10
961.2279371452878
 20
338.124747864803
 30
0.0
 11
960.9133535532892
 21
338.3068344277209
 31
0.0
  0
LINE
  5
4014
330
1F
100
AcDbEntity
  8
SPOJOVACÍ
  6
DASHED
100
AcDbLine
 10
961.2279371452878
 20
338.124747864803
 30
0.0
 11
960.9133535532892
 21
337.8101642709872
 31
0.0
  0
LINE
  5
4015
330
1F
100
AcDbEntity
  8
SPOJOVACÍ
  6
DASHED
100
AcDbLine
 10
957.2297811261142
 20
339.1242868695959
 30
0.0
 11
957.544364721749
 21
339.4396452997713
 31
0.0
  0
LINE
  5
4016
330
1F
100
AcDbEntity
  8
SPOJOVACÍ
  6
DASHED
100
AcDbLine
 10
957.2297811261142
 20
339.1242868695959
 30
0.0
 11
957.544364721749
 21
338.9429751432677
 31
0.0
  0
LINE
  5
4017
330
1F
100
AcDbEntity
  8
SPOJOVACÍ
  6
DASHED
100
AcDbLine
 10
957.2297811261142
 20
339.1242868695959
 30
0.0
 11
961.2279371452878
 21
338.124747864803
 31
0.0
  0
LINE
  5
4018
330
1F
100
AcDbEntity
  8
SPOJOVACÍ
  6
DASHED
100
AcDbLine
 10
960.3531468102993
 20
338.0030985440727
 30
0.0
 11
960.3531468102993
 21
335.9048414702339
 31
0.0
  0
LINE
  5
4019
330
1F
100
AcDbEntity
  8
SPOJOVACÍ
  6
DASHED
100
AcDbLine
 10
958.1045714647389
 20
338.7639879260183
 30
0.0
 11
958.1045714647389
 21
336.665730852179
 31
0.0
  0
LINE
  5
401A
330
1F
100
AcDbEntity
  8
SPOJOVACÍ
  6
DASHED
100
AcDbLine
 10
958.1045714647389
 20
336.1628620041138
 30
0.0
 11
958.1045714647389
 21
334.0630552573253
 31
0.0
  0
LINE
  5
401B
330
1F
100
AcDbEntity
  8
SPOJOVACÍ
  6
DASHED
100
AcDbLine
 10
960.3531468102993
 20
335.4081713134998
 30
0.0
 11
960.3531468102993
 21
333.3021658753797
 31
0.0
  0
LINE
  5
401C
330
1F
100
AcDbEntity
  8
SPOJOVACÍ
  6
DASHED
100
AcDbLine
 10
958.1045714647389
 20
341.3502385589519
 30
0.0
 11
958.1045714647389
 21
339.2519814851131
 31
0.0
  0
LINE
  5
401D
330
1F
100
AcDbEntity
  8
SPOJOVACÍ
  6
DASHED
100
AcDbLine
 10
960.3531468102993
 20
340.5893491770067
 30
0.0
 11
960.3531468102993
 21
338.4910921031675
 31
0.0
  0
LINE
  5
401E
330
1F
100
AcDbEntity
  8
SPOJOVACÍ
  6
DASHED
100
AcDbLine
 10
957.2297811261142
 20
341.7105375025295
 30
0.0
 11
961.2279371452878
 21
340.7109984977365
 31
0.0
  0
LINE
  5
401F
330
1F
100
AcDbEntity
  8
SPOJOVACÍ
  6
DASHED
100
AcDbLine
 10
957.2297811261142
 20
341.7105375025295
 30
0.0
 11
957.544364721749
 21
341.5292257762013
 31
0.0
  0
LINE
  5
4020
330
1F
100
AcDbEntity
  8
SPOJOVACÍ
  6
DASHED
100
AcDbLine
 10
957.2297811261142
 20
341.7105375025295
 30
0.0
 11
957.544364721749
 21
342.0258959327048
 31
0.0
  0
LINE
  5
4021
330
1F
100
AcDbEntity
  8
SPOJOVACÍ
  6
DASHED
100
AcDbLine
 10
961.2279371452878
 20
340.7109984977365
 30
0.0
 11
960.9133535532892
 21
340.3964149039207
 31
0.0
  0
LINE
  5
4022
330
1F
100
AcDbEntity
  8
SPOJOVACÍ
  6
DASHED
100
AcDbLine
 10
961.2279371452878
 20
340.7109984977365
 30
0.0
 11
960.9133535532892
 21
340.8930850606549
 31
0.0
  0
LINE
  5
4023
330
1F
100
AcDbEntity
  8
SPOJOVACÍ
  6
DASHED
100
AcDbLine
 10
957.544364721749
 20
341.5292257762013
 30
0.0
 11
960.9133535532892
 21
340.3964149039207
 31
0.0
  0
LINE
  5
4024
330
1F
100
AcDbEntity
  8
SPOJOVACÍ
  6
DASHED
100
AcDbLine
 10
957.544364721749
 20
342.0258959327048
 30
0.0
 11
960.9133535532892
 21
340.8930850606549
 31
0.0
  0
LINE
  5
4025
330
1F
100
AcDbEntity
  8
POPIS
100
AcDbLine
 10
1061.106782769462
 20
417.1546755407786
 30
0.0
 11
1061.106782769462
 21
351.7426197393985
 31
0.0
  0
LWPOLYLINE
  5
4026
330
1F
100
AcDbEntity
  8
izolace
100
AcDbPolyline
 90
        4
 70
     1
 43
0.0
 10
1145.441749839441
 20
332.460860704473
 10
1121.800017129606
 20
332.460860704473
 10
1121.800017129606
 20
329.460860704473
 10
1145.441749839441
 20
329.460860704473
  0
HATCH
  5
4027
330
1F
100
AcDbEntity
  8
izolace
100
AcDbHatch
 10
0.0
 20
0.0
 30
0.0
210
0.0
220
0.0
230
1.0
  2
SOLID
 70
     1
 71
     0
 91
        1
 92
        7
 72
     0
 73
     1
 93
        4
 10
1145.441749839445
 20
332.460860704473
 10
1121.800017129609
 20
332.460860704473
 10
1121.800017129606
 20
329.460860704473
 10
1145.441749839445
 20
329.460860704473
 97
        0
 75
     0
 76
     1
 47
0.1901250437635136
 98
        1
 10
1131.157811887949
 20
331.6440491533932
  0
LWPOLYLINE
  5
4028
330
1F
100
AcDbEntity
  8
izolace
100
AcDbPolyline
 90
        4
 70
     1
 43
0.0
 10
1192.725215259111
 20
332.460860704473
 10
1169.083482549276
 20
332.460860704473
 10
1169.083482549276
 20
329.460860704473
 10
1192.725215259111
 20
329.460860704473
  0
HATCH
  5
4029
330
1F
100
AcDbEntity
  8
izolace
100
AcDbHatch
 10
0.0
 20
0.0
 30
0.0
210
0.0
220
0.0
230
1.0
  2
SOLID
 70
     1
 71
     0
 91
        1
 92
        7
 72
     0
 73
     1
 93
        4
 10
1192.725215259115
 20
332.460860704473
 10
1169.08348254928
 20
332.460860704473
 10
1169.083482549276
 20
329.460860704473
 10
1192.725215259115
 20
329.460860704473
 97
        0
 75
     0
 76
     1
 47
0.1901250437635136
 98
        1
 10
1178.44127730762
 20
331.6440491533932
  0
LINE
  5
402A
330
1F
100
AcDbEntity
  8
CETRIS
100
AcDbLine
 10
1225.719746809305
 20
342.460860704473
 30
0.0
 11
1225.719746809305
 21
337.460860704473
 31
0.0
  0
TEXT
  5
402B
330
1F
100
AcDbEntity
  8
POPIS
100
AcDbText
 10
1143.246053162672
 20
426.0040366135022
 30
0.0
 40
25.0
  1
04
 41
0.85
  7
SIMPLEX7
100
AcDbText
  0
TEXT
  5
402C
330
1F
100
AcDbEntity
  8
POPIS
100
AcDbText
 10
1192.334568626958
 20
426.0040366135022
 30
0.0
 40
25.0
  1
05
 41
0.85
  7
SIMPLEX7
100
AcDbText
  0
INSERT
  5
402D
330
1F
100
AcDbEntity
  8
POPIS
100
AcDbBlockReference
  2
E_PUNKT
 10
1160.114655763603
 20
326.1935297275264
 30
0.0
 50
270.0
  0
INSERT
  5
402E
330
1F
100
AcDbEntity
  8
POPIS
100
AcDbBlockReference
  2
E_PUNKT
 10
1209.203171227889
 20
341.4342857500288
 30
0.0
 50
270.0
  0
LINE
  5
402F
330
1F
100
AcDbEntity
  8
SPOJOVACÍ
  6
DASHED
100
AcDbLine
 10
1207.141166511826
 20
341.7105375025295
 30
0.0
 11
1211.139322530998
 21
340.7109984977365
 31
0.0
  0
LINE
  5
4030
330
1F
100
AcDbEntity
  8
SPOJOVACÍ
  6
DASHED
100
AcDbLine
 10
1207.141166511826
 20
339.1242868695959
 30
0.0
 11
1211.139322530998
 21
338.124747864803
 31
0.0
  0
LINE
  5
4031
330
1F
100
AcDbEntity
  8
SPOJOVACÍ
  6
DASHED
100
AcDbLine
 10
1207.141166511826
 20
336.5254854570008
 30
0.0
 11
1211.139322530998
 21
335.5259464519773
 31
0.0
  0
LINE
  5
4032
330
1F
100
AcDbEntity
  8
SPOJOVACÍ
  6
DASHED
100
AcDbLine
 10
1207.455750107459
 20
323.8586127672653
 30
0.0
 11
1210.824738939001
 21
322.7258018949847
 31
0.0
  0
LINE
  5
4033
330
1F
100
AcDbEntity
  8
SPOJOVACÍ
  6
DASHED
100
AcDbLine
 10
1207.141166511826
 20
323.5432543368598
 30
0.0
 11
1207.455750107459
 21
323.8586127672653
 31
0.0
  0
LINE
  5
4034
330
1F
100
AcDbEntity
  8
SPOJOVACÍ
  6
DASHED
100
AcDbLine
 10
1207.141166511826
 20
323.5432543368598
 30
0.0
 11
1207.455750107459
 21
323.3619426105316
 31
0.0
  0
LINE
  5
4035
330
1F
100
AcDbEntity
  8
SPOJOVACÍ
  6
DASHED
100
AcDbLine
 10
1207.455750107459
 20
326.4574141798604
 30
0.0
 11
1210.824738939001
 21
325.3246033075798
 31
0.0
  0
LINE
  5
4036
330
1F
100
AcDbEntity
  8
SPOJOVACÍ
  6
DASHED
100
AcDbLine
 10
1207.455750107459
 20
325.9607440231326
 30
0.0
 11
1210.824738939001
 21
324.8279331510762
 31
0.0
  0
LINE
  5
4037
330
1F
100
AcDbEntity
  8
SPOJOVACÍ
  6
DASHED
100
AcDbLine
 10
1211.139322530998
 20
325.1432915812516
 30
0.0
 11
1210.824738939001
 21
325.3246033075798
 31
0.0
  0
LINE
  5
4038
330
1F
100
AcDbEntity
  8
SPOJOVACÍ
  6
DASHED
100
AcDbLine
 10
1211.139322530998
 20
325.1432915812516
 30
0.0
 11
1210.824738939001
 21
324.8279331510762
 31
0.0
  0
LINE
  5
4039
330
1F
100
AcDbEntity
  8
SPOJOVACÍ
  6
DASHED
100
AcDbLine
 10
1207.141166511826
 20
326.1428305860446
 30
0.0
 11
1207.455750107459
 21
326.4574141798604
 31
0.0
  0
LINE
  5
403A
330
1F
100
AcDbEntity
  8
SPOJOVACÍ
  6
DASHED
100
AcDbLine
 10
1207.141166511826
 20
326.1428305860446
 30
0.0
 11
1207.455750107459
 21
325.9607440231326
 31
0.0
  0
LINE
  5
403B
330
1F
100
AcDbEntity
  8
SPOJOVACÍ
  6
DASHED
100
AcDbLine
 10
1207.141166511826
 20
326.1428305860446
 30
0.0
 11
1211.139322530998
 21
325.1432915812516
 31
0.0
  0
LINE
  5
403C
330
1F
100
AcDbEntity
  8
SPOJOVACÍ
  6
DASHED
100
AcDbLine
 10
1211.139322530998
 20
327.7420929938531
 30
0.0
 11
1210.824738939001
 21
327.9234047204055
 31
0.0
  0
LINE
  5
403D
330
1F
100
AcDbEntity
  8
SPOJOVACÍ
  6
DASHED
100
AcDbLine
 10
1211.139322530998
 20
327.7420929938531
 30
0.0
 11
1210.824738939001
 21
327.4267345636777
 31
0.0
  0
LINE
  5
403E
330
1F
100
AcDbEntity
  8
SPOJOVACÍ
  6
DASHED
100
AcDbLine
 10
1207.141166511826
 20
333.9392348240668
 30
0.0
 11
1211.139322530998
 21
332.9396958192738
 31
0.0
  0
LINE
  5
403F
330
1F
100
AcDbEntity
  8
SPOJOVACÍ
  6
DASHED
100
AcDbLine
 10
1210.264532196009
 20
325.0216422605218
 30
0.0
 11
1210.264532196009
 21
322.9233851866826
 31
0.0
  0
LINE
  5
4040
330
1F
100
AcDbEntity
  8
SPOJOVACÍ
  6
DASHED
100
AcDbLine
 10
1208.015956850451
 20
325.7732336052427
 30
0.0
 11
1208.015956850451
 21
323.6757513677636
 31
0.0
  0
LINE
  5
4041
330
1F
100
AcDbEntity
  8
SPOJOVACÍ
  6
DASHED
100
AcDbLine
 10
1210.264532196009
 20
327.6219933460666
 30
0.0
 11
1210.264532196009
 21
325.5221865992781
 31
0.0
  0
LINE
  5
4042
330
1F
100
AcDbEntity
  8
SPOJOVACÍ
  6
DASHED
100
AcDbLine
 10
1207.141166511826
 20
328.741631998646
 30
0.0
 11
1211.139322530998
 21
327.7420929938531
 31
0.0
  0
LINE
  5
4043
330
1F
100
AcDbEntity
  8
SPOJOVACÍ
  6
DASHED
100
AcDbLine
 10
1207.141166511826
 20
331.3404334114717
 30
0.0
 11
1211.139322530998
 21
330.3408944064482
 31
0.0
  0
LINE
  5
4044
330
1F
100
AcDbEntity
  8
SPOJOVACÍ
  6
DASHED
100
AcDbLine
 10
1207.141166511826
 20
328.741631998646
 30
0.0
 11
1207.455750107459
 21
329.0562155924618
 31
0.0
  0
LINE
  5
4045
330
1F
100
AcDbEntity
  8
SPOJOVACÍ
  6
DASHED
100
AcDbLine
 10
1207.141166511826
 20
328.741631998646
 30
0.0
 11
1207.455750107459
 21
328.5595454357281
 31
0.0
  0
LINE
  5
4046
330
1F
100
AcDbEntity
  8
SPOJOVACÍ
  6
DASHED
100
AcDbLine
 10
1207.455750107459
 20
328.5595454357281
 30
0.0
 11
1210.824738939001
 21
327.4267345636777
 31
0.0
  0
LINE
  5
4047
330
1F
100
AcDbEntity
  8
SPOJOVACÍ
  6
DASHED
100
AcDbLine
 10
1208.015956850451
 20
328.3828827280118
 30
0.0
 11
1208.015956850451
 21
326.2768772898918
 31
0.0
  0
LINE
  5
4048
330
1F
100
AcDbEntity
  8
SPOJOVACÍ
  6
DASHED
100
AcDbLine
 10
1207.455750107459
 20
329.0562155924618
 30
0.0
 11
1210.824738939001
 21
327.9234047204055
 31
0.0
  0
LINE
  5
4049
330
1F
100
AcDbEntity
  8
SPOJOVACÍ
  6
DASHED
100
AcDbLine
 10
1210.264532196009
 20
330.2231192679711
 30
0.0
 11
1210.264532196009
 21
328.117113829851
 31
0.0
  0
LINE
  5
404A
330
1F
100
AcDbEntity
  8
SPOJOVACÍ
  6
DASHED
100
AcDbLine
 10
1211.139322530998
 20
330.3408944064482
 30
0.0
 11
1210.824738939001
 21
330.026310812863
 31
0.0
  0
LINE
  5
404B
330
1F
100
AcDbEntity
  8
SPOJOVACÍ
  6
DASHED
100
AcDbLine
 10
1211.139322530998
 20
330.3408944064482
 30
0.0
 11
1210.824738939001
 21
330.5229809693666
 31
0.0
  0
LINE
  5
404C
330
1F
100
AcDbEntity
  8
SPOJOVACÍ
  6
DASHED
100
AcDbLine
 10
1210.264532196009
 20
332.818046498544
 30
0.0
 11
1210.264532196009
 21
330.7197894247047
 31
0.0
  0
LINE
  5
404D
330
1F
100
AcDbEntity
  8
SPOJOVACÍ
  6
DASHED
100
AcDbLine
 10
1211.139322530998
 20
332.9396958192738
 30
0.0
 11
1210.824738939001
 21
332.6251122254581
 31
0.0
  0
LINE
  5
404E
330
1F
100
AcDbEntity
  8
SPOJOVACÍ
  6
DASHED
100
AcDbLine
 10
1211.139322530998
 20
332.9396958192738
 30
0.0
 11
1210.824738939001
 21
333.1217823821922
 31
0.0
  0
LINE
  5
404F
330
1F
100
AcDbEntity
  8
SPOJOVACÍ
  6
DASHED
100
AcDbLine
 10
1210.264532196009
 20
335.4081713134998
 30
0.0
 11
1210.264532196009
 21
333.3021658753797
 31
0.0
  0
LINE
  5
4050
330
1F
100
AcDbEntity
  8
SPOJOVACÍ
  6
DASHED
100
AcDbLine
 10
1211.139322530998
 20
335.5259464519773
 30
0.0
 11
1210.824738939001
 21
335.2113628583917
 31
0.0
  0
LINE
  5
4051
330
1F
100
AcDbEntity
  8
SPOJOVACÍ
  6
DASHED
100
AcDbLine
 10
1211.139322530998
 20
335.5259464519773
 30
0.0
 11
1210.824738939001
 21
335.7080330148952
 31
0.0
  0
LINE
  5
4052
330
1F
100
AcDbEntity
  8
SPOJOVACÍ
  6
DASHED
100
AcDbLine
 10
1210.264532196009
 20
338.0030985440727
 30
0.0
 11
1210.264532196009
 21
335.9048414702339
 31
0.0
  0
LINE
  5
4053
330
1F
100
AcDbEntity
  8
SPOJOVACÍ
  6
DASHED
100
AcDbLine
 10
1211.139322530998
 20
338.124747864803
 30
0.0
 11
1210.824738939001
 21
337.8101642709872
 31
0.0
  0
LINE
  5
4054
330
1F
100
AcDbEntity
  8
SPOJOVACÍ
  6
DASHED
100
AcDbLine
 10
1211.139322530998
 20
338.124747864803
 30
0.0
 11
1210.824738939001
 21
338.3068344277209
 31
0.0
  0
LINE
  5
4055
330
1F
100
AcDbEntity
  8
SPOJOVACÍ
  6
DASHED
100
AcDbLine
 10
1210.264532196009
 20
340.5893491770067
 30
0.0
 11
1210.264532196009
 21
338.4910921031675
 31
0.0
  0
LINE
  5
4056
330
1F
100
AcDbEntity
  8
SPOJOVACÍ
  6
DASHED
100
AcDbLine
 10
1211.139322530998
 20
340.7109984977365
 30
0.0
 11
1210.824738939001
 21
340.3964149039207
 31
0.0
  0
LINE
  5
4057
330
1F
100
AcDbEntity
  8
SPOJOVACÍ
  6
DASHED
100
AcDbLine
 10
1211.139322530998
 20
340.7109984977365
 30
0.0
 11
1210.824738939001
 21
340.8930850606549
 31
0.0
  0
LINE
  5
4058
330
1F
100
AcDbEntity
  8
SPOJOVACÍ
  6
DASHED
100
AcDbLine
 10
1210.264532196009
 20
342.9633961776581
 30
0.0
 11
1210.264532196009
 21
341.0814526453488
 31
0.0
  0
LINE
  5
4059
330
1F
100
AcDbEntity
  8
SPOJOVACÍ
  6
DASHED
100
AcDbLine
 10
1210.264532196009
 20
342.9633961776568
 30
0.0
 11
1210.453592284117
 21
344.2325782628632
 31
0.0
  0
LINE
  5
405A
330
1F
100
AcDbEntity
  8
SPOJOVACÍ
  6
DASHED
100
AcDbLine
 10
1210.453592284117
 20
344.2325782628632
 30
0.0
 11
1210.964209496456
 21
345.410329648546
 31
0.0
  0
LINE
  5
405B
330
1F
100
AcDbEntity
  8
SPOJOVACÍ
  6
DASHED
100
AcDbLine
 10
1210.964209496456
 20
345.410329648546
 30
0.0
 11
1211.762291027753
 21
346.416067344901
 31
0.0
  0
LINE
  5
405C
330
1F
100
AcDbEntity
  8
SPOJOVACÍ
  6
DASHED
100
AcDbLine
 10
1211.762291027753
 20
346.416067344901
 30
0.0
 11
1212.792823490566
 21
347.1808309090989
 31
0.0
  0
LINE
  5
405D
330
1F
100
AcDbEntity
  8
SPOJOVACÍ
  6
DASHED
100
AcDbLine
 10
1204.891816332179
 20
348.460860704473
 30
0.0
 11
1204.891816332179
 21
347.4613216994558
 31
0.0
  0
LINE
  5
405E
330
1F
100
AcDbEntity
  8
SPOJOVACÍ
  6
DASHED
100
AcDbLine
 10
1204.891816332179
 20
347.4613216994558
 30
0.0
 11
1206.016104006778
 21
346.8414525492727
 31
0.0
  0
LINE
  5
405F
330
1F
100
AcDbEntity
  8
SPOJOVACÍ
  6
DASHED
100
AcDbLine
 10
1206.016104006778
 20
346.8414525492727
 30
0.0
 11
1206.941258713777
 21
345.9511654820922
 31
0.0
  0
LINE
  5
4060
330
1F
100
AcDbEntity
  8
SPOJOVACÍ
  6
DASHED
100
AcDbLine
 10
1206.941258713777
 20
345.9511654820922
 30
0.0
 11
1207.604518703048
 21
344.8524474132706
 31
0.0
  0
LINE
  5
4061
330
1F
100
AcDbEntity
  8
SPOJOVACÍ
  6
DASHED
100
AcDbLine
 10
1207.604518703048
 20
344.8524474132706
 30
0.0
 11
1207.960943463011
 21
343.6189078040175
 31
0.0
  0
LINE
  5
4062
330
1F
100
AcDbEntity
  8
SPOJOVACÍ
  6
DASHED
100
AcDbLine
 10
1207.960943463011
 20
343.6189078040175
 30
0.0
 11
1208.015956850451
 21
342.9633961776568
 31
0.0
  0
LINE
  5
4063
330
1F
100
AcDbEntity
  8
SPOJOVACÍ
  6
DASHED
100
AcDbLine
 10
1207.98845015673
 20
343.2911519908372
 30
0.0
 11
1208.015956850451
 21
341.8375283480123
 31
0.0
  0
LINE
  5
4064
330
1F
100
AcDbEntity
  8
SPOJOVACÍ
  6
DASHED
100
AcDbLine
 10
1207.455750107459
 20
342.0258959327048
 30
0.0
 11
1210.824738939001
 21
340.8930850606549
 31
0.0
  0
LINE
  5
4065
330
1F
100
AcDbEntity
  8
SPOJOVACÍ
  6
DASHED
100
AcDbLine
 10
1207.141166511826
 20
341.7105375025295
 30
0.0
 11
1207.455750107459
 21
342.0258959327048
 31
0.0
  0
LINE
  5
4066
330
1F
100
AcDbEntity
  8
SPOJOVACÍ
  6
DASHED
100
AcDbLine
 10
1207.141166511826
 20
341.7105375025295
 30
0.0
 11
1207.455750107459
 21
341.5292257762013
 31
0.0
  0
LINE
  5
4067
330
1F
100
AcDbEntity
  8
SPOJOVACÍ
  6
DASHED
100
AcDbLine
 10
1207.455750107459
 20
341.5292257762013
 30
0.0
 11
1210.824738939001
 21
340.3964149039207
 31
0.0
  0
LINE
  5
4068
330
1F
100
AcDbEntity
  8
SPOJOVACÍ
  6
DASHED
100
AcDbLine
 10
1208.015956850451
 20
341.3502385589519
 30
0.0
 11
1208.015956850451
 21
339.2519814851131
 31
0.0
  0
LINE
  5
4069
330
1F
100
AcDbEntity
  8
SPOJOVACÍ
  6
DASHED
100
AcDbLine
 10
1207.455750107459
 20
339.4396452997713
 30
0.0
 11
1210.824738939001
 21
338.3068344277209
 31
0.0
  0
LINE
  5
406A
330
1F
100
AcDbEntity
  8
SPOJOVACÍ
  6
DASHED
100
AcDbLine
 10
1207.141166511826
 20
339.1242868695959
 30
0.0
 11
1207.455750107459
 21
339.4396452997713
 31
0.0
  0
LINE
  5
406B
330
1F
100
AcDbEntity
  8
SPOJOVACÍ
  6
DASHED
100
AcDbLine
 10
1207.141166511826
 20
339.1242868695959
 30
0.0
 11
1207.455750107459
 21
338.9429751432677
 31
0.0
  0
LINE
  5
406C
330
1F
100
AcDbEntity
  8
SPOJOVACÍ
  6
DASHED
100
AcDbLine
 10
1207.455750107459
 20
338.9429751432677
 30
0.0
 11
1210.824738939001
 21
337.8101642709872
 31
0.0
  0
LINE
  5
406D
330
1F
100
AcDbEntity
  8
SPOJOVACÍ
  6
DASHED
100
AcDbLine
 10
1208.015956850451
 20
338.7639879260183
 30
0.0
 11
1208.015956850451
 21
336.665730852179
 31
0.0
  0
LINE
  5
406E
330
1F
100
AcDbEntity
  8
SPOJOVACÍ
  6
DASHED
100
AcDbLine
 10
1207.455750107459
 20
336.8400690508166
 30
0.0
 11
1210.824738939001
 21
335.7080330148952
 31
0.0
  0
LINE
  5
406F
330
1F
100
AcDbEntity
  8
SPOJOVACÍ
  6
DASHED
100
AcDbLine
 10
1207.141166511826
 20
336.5254854570008
 30
0.0
 11
1207.455750107459
 21
336.8400690508166
 31
0.0
  0
LINE
  5
4070
330
1F
100
AcDbEntity
  8
SPOJOVACÍ
  6
DASHED
100
AcDbLine
 10
1207.141166511826
 20
336.5254854570008
 30
0.0
 11
1207.455750107459
 21
336.3433988940824
 31
0.0
  0
LINE
  5
4071
330
1F
100
AcDbEntity
  8
SPOJOVACÍ
  6
DASHED
100
AcDbLine
 10
1207.455750107459
 20
336.3433988940824
 30
0.0
 11
1210.824738939001
 21
335.2113628583917
 31
0.0
  0
LINE
  5
4072
330
1F
100
AcDbEntity
  8
SPOJOVACÍ
  6
DASHED
100
AcDbLine
 10
1208.015956850451
 20
336.1628620041138
 30
0.0
 11
1208.015956850451
 21
334.0630552573253
 31
0.0
  0
LINE
  5
4073
330
1F
100
AcDbEntity
  8
SPOJOVACÍ
  6
DASHED
100
AcDbLine
 10
1207.455750107459
 20
334.2545932542421
 30
0.0
 11
1210.824738939001
 21
333.1217823821922
 31
0.0
  0
LINE
  5
4074
330
1F
100
AcDbEntity
  8
SPOJOVACÍ
  6
DASHED
100
AcDbLine
 10
1207.141166511826
 20
333.9392348240668
 30
0.0
 11
1207.455750107459
 21
334.2545932542421
 31
0.0
  0
LINE
  5
4075
330
1F
100
AcDbEntity
  8
SPOJOVACÍ
  6
DASHED
100
AcDbLine
 10
1207.141166511826
 20
333.9392348240668
 30
0.0
 11
1207.455750107459
 21
333.7579230977386
 31
0.0
  0
LINE
  5
4076
330
1F
100
AcDbEntity
  8
SPOJOVACÍ
  6
DASHED
100
AcDbLine
 10
1207.455750107459
 20
333.7579230977386
 30
0.0
 11
1210.824738939001
 21
332.6251122254581
 31
0.0
  0
LINE
  5
4077
330
1F
100
AcDbEntity
  8
SPOJOVACÍ
  6
DASHED
100
AcDbLine
 10
1208.015956850451
 20
333.5789358804892
 30
0.0
 11
1208.015956850451
 21
331.4806788066504
 31
0.0
  0
LINE
  5
4078
330
1F
100
AcDbEntity
  8
SPOJOVACÍ
  6
DASHED
100
AcDbLine
 10
1207.455750107459
 20
331.6550170052875
 30
0.0
 11
1210.824738939001
 21
330.5229809693666
 31
0.0
  0
LINE
  5
4079
330
1F
100
AcDbEntity
  8
SPOJOVACÍ
  6
DASHED
100
AcDbLine
 10
1207.141166511826
 20
331.3404334114717
 30
0.0
 11
1207.455750107459
 21
331.6550170052875
 31
0.0
  0
LINE
  5
407A
330
1F
100
AcDbEntity
  8
SPOJOVACÍ
  6
DASHED
100
AcDbLine
 10
1207.141166511826
 20
331.3404334114717
 30
0.0
 11
1207.455750107459
 21
331.1583468485533
 31
0.0
  0
LINE
  5
407B
330
1F
100
AcDbEntity
  8
SPOJOVACÍ
  6
DASHED
100
AcDbLine
 10
1207.455750107459
 20
331.1583468485533
 30
0.0
 11
1210.824738939001
 21
330.026310812863
 31
0.0
  0
LINE
  5
407C
330
1F
100
AcDbEntity
  8
SPOJOVACÍ
  6
DASHED
100
AcDbLine
 10
1208.015956850451
 20
330.9778099585847
 30
0.0
 11
1208.015956850451
 21
328.8780032117962
 31
0.0
  0
LINE
  5
407D
330
1F
100
AcDbEntity
  8
SPOJOVACÍ
  6
DASHED
100
AcDbLine
 10
1204.891816332179
 20
347.4613216994558
 30
0.0
 11
1213.388672710643
 21
347.4613216994558
 31
0.0
  0
LINE
  5
407E
330
1F
100
AcDbEntity
  8
SPOJOVACÍ
  6
DASHED
100
AcDbLine
 10
1212.792823490566
 20
347.1808309090989
 30
0.0
 11
1213.388672710643
 21
347.4613216994558
 31
0.0
  0
LINE
  5
407F
330
1F
100
AcDbEntity
  8
SPOJOVACÍ
  6
DASHED
100
AcDbLine
 10
1213.388672710643
 20
348.460860704473
 30
0.0
 11
1213.388672710643
 21
347.4613216994558
 31
0.0
  0
LINE
  5
4080
330
1F
100
AcDbEntity
  8
SPOJOVACÍ
  6
DASHED
100
AcDbLine
 10
1204.891816332179
 20
348.460860704473
 30
0.0
 11
1213.388672710643
 21
348.460860704473
 31
0.0
  0
LINE
  5
4081
330
1F
100
AcDbEntity
  8
POPIS
100
AcDbLine
 10
1160.143724094478
 20
417.1546755407786
 30
0.0
 11
1160.143724094478
 21
327.4159193518995
 31
0.0
  0
LINE
  5
4082
330
1F
100
AcDbEntity
  8
POPIS
100
AcDbLine
 10
1209.232239558763
 20
417.1546755407786
 30
0.0
 11
1209.232239558763
 21
337.8070314575203
 31
0.0
  0
INSERT
  5
4083
330
1F
100
AcDbEntity
  8
POPIS
100
AcDbBlockReference
  2
E_PUNKT
 10
1113.232340949436
 20
337.8346418331472
 30
0.0
 50
270.0
  0
LINE
  5
4084
330
1F
100
AcDbEntity
  8
POPIS
100
AcDbLine
 10
1113.26140928031
 20
417.1546755407786
 30
0.0
 11
1113.26140928031
 21
337.8070314575203
 31
0.0
  0
TEXT
  5
4085
330
1F
100
AcDbEntity
  8
POPIS
100
AcDbText
 10
1096.363738348505
 20
426.0040366135022
 30
0.0
 40
25.0
  1
03
 41
0.85
  7
SIMPLEX7
100
AcDbText
  0
TEXT
  5
4086
330
1F
100
AcDbEntity
  8
POPIS
100
AcDbText
 10
663.3222201134467
 20
665.9883126142491
 30
0.0
 40
35.0
  1
SVISLÝ ŘEZ
 41
0.85
  7
SIMPLEX7
100
AcDbText
  0
TEXT
  5
4087
330
1F
100
AcDbEntity
  8
POPIS
100
AcDbText
 10
1742.953857070819
 20
579.5738521269946
 30
0.0
 40
25.0
  1
Rohová lišta
 41
0.7
  7
SIMPLEX7
100
AcDbText
  0
TEXT
  5
4088
330
1F
100
AcDbEntity
  8
POPIS
100
AcDbText
 10
1688.610153911076
 20
579.5738521269946
 30
0.0
 40
25.0
  1
01
 41
0.85
  7
SIMPLEX7
100
AcDbText
  0
TEXT
  5
4089
330
1F
100
AcDbEntity
  8
POPIS
100
AcDbText
 10
1742.953857070819
 20
365.4256396857296
 30
0.0
 40
25.0
  1
Stropní konstrukce
 41
0.7
  7
SIMPLEX7
100
AcDbText
  0
TEXT
  5
408A
330
1F
100
AcDbEntity
  8
POPIS
100
AcDbText
 10
1742.953857070819
 20
468.6652606879002
 30
0.0
 40
25.0
  1
Vrut Bűhnen 4,2x45 mm
 41
0.7
  7
SIMPLEX7
100
AcDbText
  0
TEXT
  5
408B
330
1F
100
AcDbEntity
  8
POPIS
100
AcDbText
 10
1742.953857070819
 20
434.7150724431782
 30
0.0
 40
25.0
  1
Zvukoizolační podložka-separační fólie
 41
0.7
  7
SIMPLEX7
100
AcDbText
  0
TEXT
  5
408C
330
1F
100
AcDbEntity
  8
POPIS
100
AcDbText
 10
1742.953857070819
 20
399.3109112250154
 30
0.0
 40
25.0
  1
Stávající dřevěná podlaha
 41
0.7
  7
SIMPLEX7
100
AcDbText
  0
TEXT
  5
408D
330
1F
100
AcDbEntity
  8
POPIS
100
AcDbText
 10
1742.953857070819
 20
328.5900996828373
 30
0.0
 40
25.0
  1
Dilatační spára tl. 15 mm
 41
0.7
  7
SIMPLEX7
100
AcDbText
  0
TEXT
  5
408E
330
1F
100
AcDbEntity
  8
POPIS
100
AcDbText
 10
1742.953857070819
 20
505.2602723035276
 30
0.0
 40
25.0
  1
Podlahová deska CETRIS   PD (PDB)
 41
0.7
  7
SIMPLEX7
100
AcDbText
  0
TEXT
  5
408F
330
1F
100
AcDbEntity
  8
POPIS
100
AcDbText
 10
1742.953857070819
 20
542.9788405113673
 30
0.0
 40
25.0
  1
Nášlapná vrstva
 41
0.7
  7
SIMPLEX7
100
AcDbText
  0
LWPOLYLINE
  5
4090
330
1F
100
AcDbEntity
  8
STAVBA OBRYS
100
AcDbPolyline
 90
        6
 70
     0
 43
0.0
 10
1539.612031032238
 20
311.4608607044734
 42
0.0121757200102759
 10
1538.242041318577
 20
316.1327780369407
 42
0.0457786284636091
 10
1537.034018428961
 20
318.9813884198171
 42
0.0295006114745606
 10
1534.617957974662
 20
322.9082876332191
 42
0.0258674098621065
 10
1531.385282660698
 20
327.054067711973
 42
0.0093759062953949
 10
1529.219470481041
 20
329.4608607044734
  0
LWPOLYLINE
  5
4091
330
1F
100
AcDbEntity
  8
STAVBA OBRYS
100
AcDbPolyline
 90
        3
 70
     0
 43
0.0
 10
1517.488699260329
 20
311.4608607044734
 10
1531.280747186969
 20
318.3619322679602
 10
1539.447851836094
 20
326.5432339690538
  0
LWPOLYLINE
  5
4092
330
1F
100
AcDbEntity
  8
STAVBA OBRYS
100
AcDbPolyline
 90
        8
 70
     0
 43
0.0
 10
1530.239227024436
 20
311.4608607044734
 42
0.0217273703039143
 10
1528.041556763926
 20
316.4965510419512
 42
0.0882970623535771
 10
1526.404334843833
 20
318.7369200927511
 42
0.0171636441953577
 10
1523.590970781975
 20
321.2508374479963
 42
0.0157521173632038
 10
1520.352115944939
 20
323.7823335005028
 42
0.0073640874174249
 10
1515.718466588618
 20
327.0707349262389
 42
0.0194185739168057
 10
1513.896423268941
 20
328.2223039255201
 42
0.0229547400386702
 10
1511.510965204927
 20
329.4608607044734
  0
LWPOLYLINE
  5
4093
330
1F
100
AcDbEntity
  8
STAVBA OBRYS
100
AcDbPolyline
 90
        3
 70
     0
 43
0.0
 10
1517.488699260329
 20
170.4608607044725
 10
1531.280747186969
 20
177.3619322679593
 10
1539.447851836094
 20
185.5432339690529
  0
LWPOLYLINE
  5
4094
330
1F
100
AcDbEntity
  8
STAVBA OBRYS
100
AcDbPolyline
 90
        6
 70
     0
 43
0.0
 10
1539.612031032238
 20
170.4608607044725
 42
0.0121757200102759
 10
1538.242041318577
 20
175.1327780369398
 42
0.0457786284636091
 10
1537.034018428961
 20
177.9813884198162
 42
0.0295006114745606
 10
1534.617957974662
 20
181.9082876332182
 42
0.0258674098621065
 10
1531.385282660698
 20
186.0540677119721
 42
0.0093759062953949
 10
1529.219470481041
 20
188.4608607044725
  0
LWPOLYLINE
  5
4095
330
1F
100
AcDbEntity
  8
STAVBA OBRYS
100
AcDbPolyline
 90
        8
 70
     0
 43
0.0
 10
1530.239227024436
 20
170.4608607044725
 42
0.0217273703039143
 10
1528.041556763926
 20
175.4965510419502
 42
0.0882970623535771
 10
1526.404334843833
 20
177.7369200927502
 42
0.0171636441953577
 10
1523.590970781975
 20
180.2508374479954
 42
0.0157521173632038
 10
1520.352115944939
 20
182.7823335005019
 42
0.0073640874174249
 10
1515.718466588618
 20
186.070734926238
 42
0.0194185739168057
 10
1513.896423268941
 20
187.2223039255192
 42
0.0229547400386702
 10
1511.510965204927
 20
188.4608607044725
  0
LINE
  5
4096
330
1F
100
AcDbEntity
  8
STAVBA OBRYS
100
AcDbLine
 10
1507.666155450932
 20
329.4608607044725
 30
0.0
 11
1507.666155450932
 21
311.4608607044734
 31
0.0
  0
LWPOLYLINE
  5
4097
330
1F
100
AcDbEntity
  8
STAVBA OBRYS
100
AcDbPolyline
 90
        3
 70
     0
 43
0.0
 10
1435.307538409124
 20
311.4608607044734
 42
-0.0052038508054843
 10
1438.505935349106
 20
327.8646871864708
 42
-0.0065712046643719
 10
1438.856361118871
 20
329.4608607044734
  0
LWPOLYLINE
  5
4098
330
1F
100
AcDbEntity
  8
STAVBA OBRYS
100
AcDbPolyline
 90
        4
 70
     0
 43
0.0
 10
1446.760076272092
 20
311.4608607044734
 42
-0.0334776267545482
 10
1447.197354066798
 20
315.5078356332102
 42
-0.0091133963862869
 10
1449.674958391717
 20
328.1995654186699
 42
-0.007828075361276
 10
1449.965857526875
 20
329.4608607044734
  0
LWPOLYLINE
  5
4099
330
1F
100
AcDbEntity
  8
STAVBA OBRYS
100
AcDbPolyline
 90
        6
 70
     0
 43
0.0
 10
1475.720279869625
 20
311.4608607044734
 42
-0.0121757200102759
 10
1477.090269583286
 20
316.1327780369407
 42
-0.0457786284636091
 10
1478.298292472902
 20
318.9813884198171
 42
-0.0295006114745606
 10
1480.714352927201
 20
322.9082876332191
 42
-0.0258674098621065
 10
1483.947028241165
 20
327.054067711973
 42
-0.0093759062953949
 10
1486.112840420823
 20
329.4608607044734
  0
LWPOLYLINE
  5
409A
330
1F
100
AcDbEntity
  8
STAVBA OBRYS
100
AcDbPolyline
 90
        3
 70
     0
 43
0.0
 10
1497.843611641534
 20
311.4608607044734
 10
1484.051563714894
 20
318.3619322679602
 10
1475.88445906577
 20
326.5432339690538
  0
LWPOLYLINE
  5
409B
330
1F
100
AcDbEntity
  8
STAVBA OBRYS
100
AcDbPolyline
 90
        8
 70
     0
 43
0.0
 10
1485.093083877427
 20
311.4608607044734
 42
-0.0217273703039143
 10
1487.290754137937
 20
316.4965510419512
 42
-0.0882970623535771
 10
1488.92797605803
 20
318.7369200927511
 42
-0.0171636441953577
 10
1491.741340119888
 20
321.2508374479963
 42
-0.0157521173632038
 10
1494.980194956924
 20
323.7823335005028
 42
-0.0073640874174249
 10
1499.613844313246
 20
327.0707349262389
 42
-0.0194185739168057
 10
1501.435887632922
 20
328.2223039255201
 42
-0.0229547400386702
 10
1503.821345696937
 20
329.4608607044734
  0
LWPOLYLINE
  5
409C
330
1F
100
AcDbEntity
  8
STAVBA OBRYS
100
AcDbPolyline
 90
        4
 70
     0
 43
0.0
 10
1466.909818520782
 20
311.4608607044734
 42
-0.0186324019486548
 10
1470.278187892889
 20
323.1559723226979
 42
-0.0582629403736403
 10
1471.93768776097
 20
326.7358065216336
 42
-0.0146402521923566
 10
1473.722095742554
 20
329.4608607044734
  0
LWPOLYLINE
  5
409D
330
1F
100
AcDbEntity
  8
STAVBA OBRYS
100
AcDbPolyline
 90
        4
 70
     0
 43
0.0
 10
1481.514203709377
 20
310.960030273725
 10
1461.517951277384
 20
320.1760593242448
 10
1444.740060706166
 20
322.883203586936
 10
1441.476449458461
 20
323.0135049513061
  0
LWPOLYLINE
  5
409E
330
1F
100
AcDbEntity
  8
STAVBA OBRYS
100
AcDbPolyline
 90
        5
 70
     0
 43
0.0
 10
1457.004214646886
 20
311.4608607044734
 42
-0.0133579731639958
 10
1457.391025135914
 20
313.9786629920287
 42
-0.0072443097182286
 10
1459.511022083372
 20
324.7895538869357
 42
-0.0219777111230329
 10
1460.417134585355
 20
328.3076671427712
 42
-0.0092752982622242
 10
1460.792361547302
 20
329.4608607044734
  0
LINE
  5
409F
330
1F
100
AcDbEntity
  8
STAVBA OBRYS
100
AcDbLine
 10
1357.666155450932
 20
329.4608607044725
 30
0.0
 11
1357.666155450932
 21
311.4608607044734
 31
0.0
  0
LWPOLYLINE
  5
40A0
330
1F
100
AcDbEntity
  8
STAVBA OBRYS
100
AcDbPolyline
 90
        4
 70
     0
 43
0.0
 10
1340.821127245706
 20
311.4608607044734
 42
0.0334776267545482
 10
1340.383849451
 20
315.5078356332102
 42
0.0091133963862869
 10
1337.906245126081
 20
328.1995654186699
 42
0.007828075361276
 10
1337.615345990923
 20
329.4608607044734
  0
LWPOLYLINE
  5
40A1
330
1F
100
AcDbEntity
  8
STAVBA OBRYS
100
AcDbPolyline
 90
        3
 70
     0
 43
0.0
 10
1352.273665108674
 20
311.4608607044734
 42
0.0052038508054843
 10
1349.075268168691
 20
327.8646871864708
 42
0.0065712046643719
 10
1348.724842398927
 20
329.4608607044734
  0
LWPOLYLINE
  5
40A2
330
1F
100
AcDbEntity
  8
STAVBA OBRYS
100
AcDbPolyline
 90
        3
 70
     0
 43
0.0
 10
1363.058645793189
 20
311.4608607044734
 42
-0.0052038508054843
 10
1366.257042733172
 20
327.8646871864708
 42
-0.0065712046643719
 10
1366.607468502936
 20
329.4608607044734
  0
LWPOLYLINE
  5
40A3
330
1F
100
AcDbEntity
  8
STAVBA OBRYS
100
AcDbPolyline
 90
        5
 70
     0
 43
0.0
 10
1384.755322030951
 20
311.4608607044734
 42
-0.0133579731639958
 10
1385.142132519979
 20
313.9786629920287
 42
-0.0072443097182286
 10
1387.262129467437
 20
324.7895538869357
 42
-0.0219777111230329
 10
1388.16824196942
 20
328.3076671427712
 42
-0.0092752982622242
 10
1388.543468931368
 20
329.4608607044734
  0
LWPOLYLINE
  5
40A4
330
1F
100
AcDbEntity
  8
STAVBA OBRYS
100
AcDbPolyline
 90
        4
 70
     0
 43
0.0
 10
1374.511183656157
 20
311.4608607044734
 42
-0.0334776267545482
 10
1374.948461450864
 20
315.5078356332102
 42
-0.0091133963862869
 10
1377.426065775782
 20
328.1995654186699
 42
-0.007828075361276
 10
1377.71696491094
 20
329.4608607044734
  0
LWPOLYLINE
  5
40A5
330
1F
100
AcDbEntity
  8
STAVBA OBRYS
100
AcDbPolyline
 90
        3
 70
     0
 43
0.0
 10
1393.205654649664
 20
311.4608607044734
 42
-0.0052038508054843
 10
1396.404051589646
 20
327.8646871864708
 42
-0.0065712046643719
 10
1396.754477359411
 20
329.4608607044734
  0
LWPOLYLINE
  5
40A6
330
1F
100
AcDbEntity
  8
STAVBA OBRYS
100
AcDbPolyline
 90
        4
 70
     0
 43
0.0
 10
1409.265311093442
 20
310.960030273725
 10
1389.26905866145
 20
320.1760593242448
 10
1372.491168090231
 20
322.883203586936
 10
1369.227556842526
 20
323.0135049513061
  0
LWPOLYLINE
  5
40A7
330
1F
100
AcDbEntity
  8
STAVBA OBRYS
100
AcDbPolyline
 90
        4
 70
     0
 43
0.0
 10
1404.658192512632
 20
311.4608607044734
 42
-0.0334776267545482
 10
1405.095470307338
 20
315.5078356332102
 42
-0.0091133963862869
 10
1407.573074632257
 20
328.1995654186699
 42
-0.007828075361276
 10
1407.863973767415
 20
329.4608607044734
  0
LWPOLYLINE
  5
40A8
330
1F
100
AcDbEntity
  8
STAVBA OBRYS
100
AcDbPolyline
 90
        5
 70
     0
 43
0.0
 10
1414.902330887425
 20
311.4608607044734
 42
-0.0133579731639958
 10
1415.289141376453
 20
313.9786629920287
 42
-0.0072443097182286
 10
1417.409138323912
 20
324.7895538869357
 42
-0.0219777111230329
 10
1418.315250825895
 20
328.3076671427712
 42
-0.0092752982622242
 10
1418.690477787842
 20
329.4608607044734
  0
LWPOLYLINE
  5
40A9
330
1F
100
AcDbEntity
  8
STAVBA OBRYS
100
AcDbPolyline
 90
        4
 70
     0
 43
0.0
 10
1439.412319949917
 20
310.960030273725
 10
1419.416067517924
 20
320.1760593242448
 10
1402.638176946706
 20
322.883203586936
 10
1399.374565699001
 20
323.0135049513061
  0
LWPOLYLINE
  5
40AA
330
1F
100
AcDbEntity
  8
STAVBA OBRYS
100
AcDbPolyline
 90
        4
 70
     0
 43
0.0
 10
1424.807934761322
 20
311.4608607044734
 42
-0.0186324019486548
 10
1428.176304133429
 20
323.1559723226979
 42
-0.0582629403736403
 10
1429.83580400151
 20
326.7358065216336
 42
-0.0146402521923566
 10
1431.620211983094
 20
329.4608607044734
  0
LWPOLYLINE
  5
40AB
330
1F
100
AcDbEntity
  8
STAVBA OBRYS
100
AcDbPolyline
 90
        4
 70
     0
 43
0.0
 10
1290.524376140541
 20
311.4608607044734
 42
0.0186324019486548
 10
1287.156006768435
 20
323.1559723226979
 42
0.0582629403736403
 10
1285.496506900353
 20
326.7358065216336
 42
0.0146402521923566
 10
1283.712098918769
 20
329.4608607044734
  0
LWPOLYLINE
  5
40AC
330
1F
100
AcDbEntity
  8
STAVBA OBRYS
100
AcDbPolyline
 90
        5
 70
     0
 43
0.0
 10
1300.429980014438
 20
311.4608607044734
 42
0.0133579731639958
 10
1300.04316952541
 20
313.9786629920287
 42
0.0072443097182286
 10
1297.923172577951
 20
324.7895538869357
 42
0.0219777111230329
 10
1297.017060075968
 20
328.3076671427712
 42
0.0092752982622242
 10
1296.641833114021
 20
329.4608607044734
  0
LWPOLYLINE
  5
40AD
330
1F
100
AcDbEntity
  8
STAVBA OBRYS
100
AcDbPolyline
 90
        4
 70
     0
 43
0.0
 10
1310.674118389231
 20
311.4608607044734
 42
0.0334776267545482
 10
1310.236840594525
 20
315.5078356332102
 42
0.0091133963862869
 10
1307.759236269606
 20
328.1995654186699
 42
0.007828075361276
 10
1307.468337134449
 20
329.4608607044734
  0
LWPOLYLINE
  5
40AE
330
1F
100
AcDbEntity
  8
STAVBA OBRYS
100
AcDbPolyline
 90
        4
 70
     0
 43
0.0
 10
1275.919990951946
 20
310.960030273725
 10
1295.916243383939
 20
320.1760593242448
 10
1312.694133955157
 20
322.883203586936
 10
1315.957745202862
 20
323.0135049513061
  0
LWPOLYLINE
  5
40AF
330
1F
100
AcDbEntity
  8
STAVBA OBRYS
100
AcDbPolyline
 90
        5
 70
     0
 43
0.0
 10
1258.328096254977
 20
311.4608607044734
 42
0.0133579731639958
 10
1257.94128576595
 20
313.9786629920287
 42
0.0072443097182286
 10
1255.821288818491
 20
324.7895538869357
 42
0.0219777111230329
 10
1254.915176316508
 20
328.3076671427712
 42
0.0092752982622242
 10
1254.539949354561
 20
329.4608607044734
  0
LWPOLYLINE
  5
40B0
330
1F
100
AcDbEntity
  8
STAVBA OBRYS
100
AcDbPolyline
 90
        4
 70
     0
 43
0.0
 10
1233.818107192486
 20
310.960030273725
 10
1253.814359624479
 20
320.1760593242448
 10
1270.592250195697
 20
322.883203586936
 10
1273.855861443402
 20
323.0135049513061
  0
LWPOLYLINE
  5
40B1
330
1F
100
AcDbEntity
  8
STAVBA OBRYS
100
AcDbPolyline
 90
        4
 70
     0
 43
0.0
 10
1248.422492381081
 20
311.4608607044734
 42
0.0186324019486548
 10
1245.054123008974
 20
323.1559723226979
 42
0.0582629403736403
 10
1243.394623140893
 20
326.7358065216336
 42
0.0146402521923566
 10
1241.610215159309
 20
329.4608607044734
  0
LWPOLYLINE
  5
40B2
330
1F
100
AcDbEntity
  8
STAVBA OBRYS
100
AcDbPolyline
 90
        4
 70
     0
 43
0.0
 10
1268.572234629771
 20
311.4608607044734
 42
0.0334776267545482
 10
1268.134956835065
 20
315.5078356332102
 42
0.0091133963862869
 10
1265.657352510146
 20
328.1995654186699
 42
0.007828075361276
 10
1265.366453374989
 20
329.4608607044734
  0
LWPOLYLINE
  5
40B3
330
1F
100
AcDbEntity
  8
STAVBA OBRYS
100
AcDbPolyline
 90
        3
 70
     0
 43
0.0
 10
1280.024772492739
 20
311.4608607044734
 42
0.0052038508054843
 10
1276.826375552756
 20
327.8646871864708
 42
0.0065712046643719
 10
1276.475949782992
 20
329.4608607044734
  0
LWPOLYLINE
  5
40B4
330
1F
100
AcDbEntity
  8
STAVBA OBRYS
100
AcDbPolyline
 90
        3
 70
     0
 43
0.0
 10
1322.126656252199
 20
311.4608607044734
 42
0.0052038508054843
 10
1318.928259312217
 20
327.8646871864708
 42
0.0065712046643719
 10
1318.577833542453
 20
329.4608607044734
  0
LWPOLYLINE
  5
40B5
330
1F
100
AcDbEntity
  8
STAVBA OBRYS
100
AcDbPolyline
 90
        5
 70
     0
 43
0.0
 10
1330.576988870912
 20
311.4608607044734
 42
0.0133579731639958
 10
1330.190178381885
 20
313.9786629920287
 42
0.0072443097182286
 10
1328.070181434426
 20
324.7895538869357
 42
0.0219777111230329
 10
1327.164068932443
 20
328.3076671427712
 42
0.0092752982622242
 10
1326.788841970496
 20
329.4608607044734
  0
LWPOLYLINE
  5
40B6
330
1F
100
AcDbEntity
  8
STAVBA OBRYS
100
AcDbPolyline
 90
        4
 70
     0
 43
0.0
 10
1306.066999808421
 20
310.960030273725
 10
1326.063252240413
 20
320.1760593242448
 10
1342.841142811632
 20
322.883203586936
 10
1346.104754059337
 20
323.0135049513061
  0
INSERT
  5
40B7
330
1F
100
AcDbEntity
  8
POPIS
100
AcDbBlockReference
  2
E_PUNKT
 10
1411.784766310034
 20
321.1500268855794
 30
0.0
 50
270.0
  0
LINE
  5
40B8
330
1F
100
AcDbEntity
  8
POPIS
100
AcDbLine
 10
1411.813834640905
 20
417.1546755407786
 30
0.0
 11
1411.813834640905
 21
319.8724165099525
 31
0.0
  0
LINE
  5
40B9
330
1F
100
AcDbEntity
  8
POPIS
100
AcDbLine
 10
1460.902350105194
 20
417.1546755407786
 30
0.0
 11
1460.902350105194
 21
222.4089330022276
 31
0.0
  0
LINE
  5
40BA
330
1F
100
AcDbEntity
  8
SPOJOVACÍ
  6
DASHED
100
AcDbLine
 10
1256.959588149742
 20
323.3619426105316
 30
0.0
 11
1260.328576981282
 21
322.2291317382506
 31
0.0
  0
LINE
  5
40BB
330
1F
100
AcDbEntity
  8
SPOJOVACÍ
  6
DASHED
100
AcDbLine
 10
1260.643160573281
 20
322.5437153320664
 30
0.0
 11
1260.328576981282
 21
322.7258018949847
 31
0.0
  0
LINE
  5
40BC
330
1F
100
AcDbEntity
  8
SPOJOVACÍ
  6
DASHED
100
AcDbLine
 10
1256.645004554107
 20
323.5432543368598
 30
0.0
 11
1260.643160573281
 21
322.5437153320664
 31
0.0
  0
LINE
  5
40BD
330
1F
100
AcDbEntity
  8
SPOJOVACÍ
  6
DASHED
100
AcDbLine
 10
1257.519794892732
 20
323.1790812110294
 30
0.0
 11
1257.519794892732
 21
322.1400255480363
 31
0.0
  0
LWPOLYLINE
  5
40BE
330
1F
100
AcDbEntity
  8
STAVBA OBRYS
100
AcDbPolyline
 90
        4
 70
     0
 43
0.0
 10
1409.265311093442
 20
169.9600302737241
 10
1389.26905866145
 20
179.1760593242439
 10
1372.491168090231
 20
181.883203586935
 10
1369.227556842526
 20
182.0135049513052
  0
LINE
  5
40BF
330
1F
100
AcDbEntity
  8
STAVBA OBRYS
100
AcDbLine
 10
1357.666155450932
 20
188.4608607044716
 30
0.0
 11
1357.666155450932
 21
170.4608607044725
 31
0.0
  0
LWPOLYLINE
  5
40C0
330
1F
100
AcDbEntity
  8
STAVBA OBRYS
100
AcDbPolyline
 90
        4
 70
     0
 43
0.0
 10
1340.821127245706
 20
170.4608607044725
 42
0.0334776267545482
 10
1340.383849451
 20
174.5078356332093
 42
0.0091133963862869
 10
1337.906245126081
 20
187.199565418669
 42
0.007828075361276
 10
1337.615345990923
 20
188.4608607044725
  0
LWPOLYLINE
  5
40C1
330
1F
100
AcDbEntity
  8
STAVBA OBRYS
100
AcDbPolyline
 90
        5
 70
     0
 43
0.0
 10
1330.576988870912
 20
170.4608607044725
 42
0.0133579731639958
 10
1330.190178381885
 20
172.9786629920278
 42
0.0072443097182286
 10
1328.070181434426
 20
183.7895538869348
 42
0.0219777111230329
 10
1327.164068932443
 20
187.3076671427703
 42
0.0092752982622242
 10
1326.788841970496
 20
188.4608607044725
  0
LWPOLYLINE
  5
40C2
330
1F
100
AcDbEntity
  8
STAVBA OBRYS
100
AcDbPolyline
 90
        3
 70
     0
 43
0.0
 10
1352.273665108674
 20
170.4608607044725
 42
0.0052038508054843
 10
1349.075268168691
 20
186.8646871864699
 42
0.0065712046643719
 10
1348.724842398927
 20
188.4608607044725
  0
LWPOLYLINE
  5
40C3
330
1F
100
AcDbEntity
  8
STAVBA OBRYS
100
AcDbPolyline
 90
        3
 70
     0
 43
0.0
 10
1363.058645793189
 20
170.4608607044725
 42
-0.0052038508054843
 10
1366.257042733172
 20
186.8646871864699
 42
-0.0065712046643719
 10
1366.607468502936
 20
188.4608607044725
  0
LWPOLYLINE
  5
40C4
330
1F
100
AcDbEntity
  8
STAVBA OBRYS
100
AcDbPolyline
 90
        4
 70
     0
 43
0.0
 10
1374.511183656157
 20
170.4608607044725
 42
-0.0334776267545482
 10
1374.948461450864
 20
174.5078356332093
 42
-0.0091133963862869
 10
1377.426065775782
 20
187.199565418669
 42
-0.007828075361276
 10
1377.71696491094
 20
188.4608607044725
  0
LINE
  5
40C5
330
1F
100
AcDbEntity
  8
SPOJOVACÍ
  6
DASHED
100
AcDbLine
 10
1260.643160573281
 20
322.5437153320664
 30
0.0
 11
1260.328576981282
 21
322.2291317382506
 31
0.0
  0
LINE
  5
40C6
330
1F
100
AcDbEntity
  8
SPOJOVACÍ
  6
DASHED
100
AcDbLine
 10
1257.79718633947
 20
315.9583804463719
 30
0.0
 11
1259.591707528303
 21
315.6995850761323
 31
0.0
  0
LINE
  5
40C7
330
1F
100
AcDbEntity
  8
SPOJOVACÍ
  6
DASHED
100
AcDbLine
 10
1258.111769931467
 20
316.2729640401877
 30
0.0
 11
1259.277123936306
 21
315.8808968026848
 31
0.0
  0
LINE
  5
40C8
330
1F
100
AcDbEntity
  8
SPOJOVACÍ
  6
DASHED
100
AcDbLine
 10
1258.111769931467
 20
315.7762938834599
 30
0.0
 11
1259.277123936306
 21
315.384226645957
 31
0.0
  0
LINE
  5
40C9
330
1F
100
AcDbEntity
  8
SPOJOVACÍ
  6
DASHED
100
AcDbLine
 10
1259.591707528303
 20
315.6995850761323
 30
0.0
 11
1259.277123936306
 21
315.8808968026848
 31
0.0
  0
LINE
  5
40CA
330
1F
100
AcDbEntity
  8
SPOJOVACÍ
  6
DASHED
100
AcDbLine
 10
1259.591707528303
 20
315.6995850761323
 30
0.0
 11
1259.277123936306
 21
315.384226645957
 31
0.0
  0
LINE
  5
40CB
330
1F
100
AcDbEntity
  8
SPOJOVACÍ
  6
DASHED
100
AcDbLine
 10
1257.79718633947
 20
315.9583804463719
 30
0.0
 11
1258.111769931467
 21
316.2729640401877
 31
0.0
  0
LINE
  5
40CC
330
1F
100
AcDbEntity
  8
SPOJOVACÍ
  6
DASHED
100
AcDbLine
 10
1257.79718633947
 20
315.9583804463719
 30
0.0
 11
1258.111769931467
 21
315.7762938834599
 31
0.0
  0
LINE
  5
40CD
330
1F
100
AcDbEntity
  8
SPOJOVACÍ
  6
DASHED
100
AcDbLine
 10
1257.326860619647
 20
318.4688505051123
 30
0.0
 11
1259.922562687034
 21
317.941186891043
 31
0.0
  0
LINE
  5
40CE
330
1F
100
AcDbEntity
  8
SPOJOVACÍ
  6
DASHED
100
AcDbLine
 10
1257.641444215281
 20
318.7842089355177
 30
0.0
 11
1259.607979095037
 21
318.1224986173712
 31
0.0
  0
LINE
  5
40CF
330
1F
100
AcDbEntity
  8
SPOJOVACÍ
  6
DASHED
100
AcDbLine
 10
1257.641444215281
 20
318.2875387787841
 30
0.0
 11
1259.607979095037
 21
317.6258284608676
 31
0.0
  0
LINE
  5
40D0
330
1F
100
AcDbEntity
  8
SPOJOVACÍ
  6
DASHED
100
AcDbLine
 10
1259.922562687034
 20
317.941186891043
 30
0.0
 11
1259.607979095037
 21
318.1224986173712
 31
0.0
  0
LINE
  5
40D1
330
1F
100
AcDbEntity
  8
SPOJOVACÍ
  6
DASHED
100
AcDbLine
 10
1259.922562687034
 20
317.941186891043
 30
0.0
 11
1259.607979095037
 21
317.6258284608676
 31
0.0
  0
LINE
  5
40D2
330
1F
100
AcDbEntity
  8
SPOJOVACÍ
  6
DASHED
100
AcDbLine
 10
1257.326860619647
 20
318.4688505051123
 30
0.0
 11
1257.641444215281
 21
318.7842089355177
 31
0.0
  0
LINE
  5
40D3
330
1F
100
AcDbEntity
  8
SPOJOVACÍ
  6
DASHED
100
AcDbLine
 10
1257.326860619647
 20
318.4688505051123
 30
0.0
 11
1257.641444215281
 21
318.2875387787841
 31
0.0
  0
LINE
  5
40D4
330
1F
100
AcDbEntity
  8
SPOJOVACÍ
  6
DASHED
100
AcDbLine
 10
1256.856534903461
 20
320.9800954004423
 30
0.0
 11
1260.292934504195
 21
320.1696164864825
 31
0.0
  0
LINE
  5
40D5
330
1F
100
AcDbEntity
  8
SPOJOVACÍ
  6
DASHED
100
AcDbLine
 10
1257.171893333181
 20
321.2946789942581
 30
0.0
 11
1259.978350912199
 21
320.3509282128107
 31
0.0
  0
LINE
  5
40D6
330
1F
100
AcDbEntity
  8
SPOJOVACÍ
  6
DASHED
100
AcDbLine
 10
1257.171893333181
 20
320.7980088375244
 30
0.0
 11
1259.978350912199
 21
319.8542580560771
 31
0.0
  0
LINE
  5
40D7
330
1F
100
AcDbEntity
  8
SPOJOVACÍ
  6
DASHED
100
AcDbLine
 10
1260.292934504195
 20
320.1696164864825
 30
0.0
 11
1259.978350912199
 21
320.3509282128107
 31
0.0
  0
LINE
  5
40D8
330
1F
100
AcDbEntity
  8
SPOJOVACÍ
  6
DASHED
100
AcDbLine
 10
1260.292934504195
 20
320.1696164864825
 30
0.0
 11
1259.978350912199
 21
319.8542580560771
 31
0.0
  0
LINE
  5
40D9
330
1F
100
AcDbEntity
  8
SPOJOVACÍ
  6
DASHED
100
AcDbLine
 10
1256.856534903461
 20
320.9800954004423
 30
0.0
 11
1257.171893333181
 21
321.2946789942581
 31
0.0
  0
LINE
  5
40DA
330
1F
100
AcDbEntity
  8
SPOJOVACÍ
  6
DASHED
100
AcDbLine
 10
1256.856534903461
 20
320.9800954004423
 30
0.0
 11
1257.171893333181
 21
320.7980088375244
 31
0.0
  0
LINE
  5
40DB
330
1F
100
AcDbEntity
  8
SPOJOVACÍ
  6
DASHED
100
AcDbLine
 10
1259.56381341754
 20
320.4981471361349
 30
0.0
 11
1259.768370238292
 21
322.1400255480363
 31
0.0
  0
LINE
  5
40DC
330
1F
100
AcDbEntity
  8
SPOJOVACÍ
  6
DASHED
100
AcDbLine
 10
1259.281772951735
 20
318.2433731017414
 30
0.0
 11
1259.504151011033
 21
320.0231723995181
 31
0.0
  0
LINE
  5
40DD
330
1F
100
AcDbEntity
  8
SPOJOVACÍ
  6
DASHED
100
AcDbLine
 10
1258.998957655481
 20
315.9800758667135
 30
0.0
 11
1259.222110548866
 21
317.7668486924054
 31
0.0
  0
LINE
  5
40DE
330
1F
100
AcDbEntity
  8
SPOJOVACÍ
  6
DASHED
100
AcDbLine
 10
1258.322525443096
 20
315.7166314778616
 30
0.0
 11
1258.644082563694
 21
313.1433996676302
 31
0.0
  0
LINE
  5
40DF
330
1F
100
AcDbEntity
  8
SPOJOVACÍ
  6
DASHED
100
AcDbLine
 10
1258.016465051508
 20
318.1666642944138
 30
0.0
 11
1258.258214017523
 21
316.2334473819875
 31
0.0
  0
LINE
  5
40E0
330
1F
100
AcDbEntity
  8
SPOJOVACÍ
  6
DASHED
100
AcDbLine
 10
1257.708854984475
 20
320.6259951481962
 30
0.0
 11
1257.950603954124
 21
318.6920033994043
 31
0.0
  0
LINE
  5
40E1
330
1F
100
AcDbEntity
  8
SPOJOVACÍ
  6
DASHED
100
AcDbLine
 10
1258.644082563694
 20
313.1433996676302
 30
0.0
 11
1258.939295248974
 21
315.5058759666868
 31
0.0
  0
LINE
  5
40E2
330
1F
100
AcDbEntity
  8
SPOJOVACÍ
  6
DASHED
100
AcDbLine
 10
1257.519794892732
 20
322.1400255480363
 30
0.0
 11
1257.644543558901
 21
321.1428110523221
 31
0.0
  0
LINE
  5
40E3
330
1F
100
AcDbEntity
  8
SPOJOVACÍ
  6
DASHED
100
AcDbLine
 10
1259.768370238292
 20
322.4205163383932
 30
0.0
 11
1259.768370238292
 21
322.1400255480363
 31
0.0
  0
LWPOLYLINE
  5
40E4
330
1F
100
AcDbEntity
  8
STAVBA OBRYS
100
AcDbPolyline
 90
        4
 70
     0
 43
0.0
 10
1290.524376140541
 20
170.4608607044725
 42
0.0186324019486548
 10
1287.156006768435
 20
182.155972322697
 42
0.0582629403736403
 10
1285.496506900353
 20
185.7358065216327
 42
0.0146402521923566
 10
1283.712098918769
 20
188.4608607044725
  0
LWPOLYLINE
  5
40E5
330
1F
100
AcDbEntity
  8
STAVBA OBRYS
100
AcDbPolyline
 90
        5
 70
     0
 43
0.0
 10
1300.429980014438
 20
170.4608607044725
 42
0.0133579731639958
 10
1300.04316952541
 20
172.9786629920278
 42
0.0072443097182286
 10
1297.923172577951
 20
183.7895538869348
 42
0.0219777111230329
 10
1297.017060075968
 20
187.3076671427703
 42
0.0092752982622242
 10
1296.641833114021
 20
188.4608607044725
  0
LWPOLYLINE
  5
40E6
330
1F
100
AcDbEntity
  8
STAVBA OBRYS
100
AcDbPolyline
 90
        4
 70
     0
 43
0.0
 10
1310.674118389231
 20
170.4608607044725
 42
0.0334776267545482
 10
1310.236840594525
 20
174.5078356332093
 42
0.0091133963862869
 10
1307.759236269606
 20
187.199565418669
 42
0.007828075361276
 10
1307.468337134449
 20
188.4608607044725
  0
LWPOLYLINE
  5
40E7
330
1F
100
AcDbEntity
  8
STAVBA OBRYS
100
AcDbPolyline
 90
        4
 70
     0
 43
0.0
 10
1275.919990951946
 20
169.9600302737241
 10
1295.916243383939
 20
179.1760593242439
 10
1312.694133955157
 20
181.883203586935
 10
1315.957745202862
 20
182.0135049513052
  0
LWPOLYLINE
  5
40E8
330
1F
100
AcDbEntity
  8
STAVBA OBRYS
100
AcDbPolyline
 90
        5
 70
     0
 43
0.0
 10
1258.328096254977
 20
170.4608607044725
 42
0.0133579731639958
 10
1257.94128576595
 20
172.9786629920278
 42
0.0072443097182286
 10
1255.821288818491
 20
183.7895538869348
 42
0.0219777111230329
 10
1254.915176316508
 20
187.3076671427703
 42
0.0092752982622242
 10
1254.539949354561
 20
188.4608607044725
  0
LWPOLYLINE
  5
40E9
330
1F
100
AcDbEntity
  8
STAVBA OBRYS
100
AcDbPolyline
 90
        4
 70
     0
 43
0.0
 10
1233.818107192486
 20
169.9600302737241
 10
1253.814359624479
 20
179.1760593242439
 10
1270.592250195697
 20
181.883203586935
 10
1273.855861443402
 20
182.0135049513052
  0
LWPOLYLINE
  5
40EA
330
1F
100
AcDbEntity
  8
STAVBA OBRYS
100
AcDbPolyline
 90
        4
 70
     0
 43
0.0
 10
1248.422492381081
 20
170.4608607044725
 42
0.0186324019486548
 10
1245.054123008974
 20
182.155972322697
 42
0.0582629403736403
 10
1243.394623140893
 20
185.7358065216327
 42
0.0146402521923566
 10
1241.610215159309
 20
188.4608607044725
  0
LWPOLYLINE
  5
40EB
330
1F
100
AcDbEntity
  8
STAVBA OBRYS
100
AcDbPolyline
 90
        4
 70
     0
 43
0.0
 10
1268.572234629771
 20
170.4608607044725
 42
0.0334776267545482
 10
1268.134956835065
 20
174.5078356332093
 42
0.0091133963862869
 10
1265.657352510146
 20
187.199565418669
 42
0.007828075361276
 10
1265.366453374989
 20
188.4608607044725
  0
LWPOLYLINE
  5
40EC
330
1F
100
AcDbEntity
  8
STAVBA OBRYS
100
AcDbPolyline
 90
        3
 70
     0
 43
0.0
 10
1280.024772492739
 20
170.4608607044725
 42
0.0052038508054843
 10
1276.826375552756
 20
186.8646871864699
 42
0.0065712046643719
 10
1276.475949782992
 20
188.4608607044725
  0
LWPOLYLINE
  5
40ED
330
1F
100
AcDbEntity
  8
STAVBA OBRYS
100
AcDbPolyline
 90
        4
 70
     0
 43
0.0
 10
1306.066999808421
 20
169.9600302737241
 10
1326.063252240413
 20
179.1760593242439
 10
1342.841142811632
 20
181.883203586935
 10
1346.104754059337
 20
182.0135049513052
  0
LWPOLYLINE
  5
40EE
330
1F
100
AcDbEntity
  8
STAVBA OBRYS
100
AcDbPolyline
 90
        3
 70
     0
 43
0.0
 10
1322.126656252199
 20
170.4608607044725
 42
0.0052038508054843
 10
1318.928259312217
 20
186.8646871864699
 42
0.0065712046643719
 10
1318.577833542453
 20
188.4608607044725
  0
POLYLINE
  5
40EF
330
1F
100
AcDbEntity
  8
STAVBA OBRYS
100
AcDb2dPolyline
 66
     1
 10
0.0
 20
0.0
 30
0.0
  0
VERTEX
  5
40F0
330
40EF
100
AcDbEntity
  8
STAVBA OBRYS
100
AcDbVertex
100
AcDb2dVertex
 10
1502.498281214279
 20
311.4608607044734
 30
0.0
 42
-0.0094186890201653
  0
VERTEX
  5
40F1
330
40EF
100
AcDbEntity
  8
STAVBA OBRYS
100
AcDbVertex
100
AcDb2dVertex
 10
1502.845079777153
 20
311.6195335752414
 30
0.0
 42
-0.0322692699774654
  0
VERTEX
  5
40F2
330
40EF
100
AcDbEntity
  8
STAVBA OBRYS
100
AcDbVertex
100
AcDb2dVertex
 10
1505.736433958243
 20
312.6610570766421
 30
0.0
 42
-0.0276160659512937
  0
VERTEX
  5
40F3
330
40EF
100
AcDbEntity
  8
STAVBA OBRYS
100
AcDbVertex
100
AcDb2dVertex
 10
1506.592010396531
 20
312.8577925055866
 30
0.0
 42
-0.0126891984598699
  0
VERTEX
  5
40F4
330
40EF
100
AcDbEntity
  8
STAVBA OBRYS
100
AcDbVertex
100
AcDb2dVertex
 10
1507.515178792322
 20
312.9929948951281
 30
0.0
  0
SEQEND
  5
40F5
330
40EF
100
AcDbEntity
  8
STAVBA OBRYS
  0
POLYLINE
  5
40F6
330
1F
100
AcDbEntity
  8
STAVBA OBRYS
100
AcDb2dPolyline
 66
     1
 10
0.0
 20
0.0
 30
0.0
  0
VERTEX
  5
40F7
330
40F6
100
AcDbEntity
  8
STAVBA OBRYS
100
AcDbVertex
100
AcDb2dVertex
 10
1512.834029687585
 20
311.4608607044734
 30
0.0
 42
0.0094186890201653
  0
VERTEX
  5
40F8
330
40F6
100
AcDbEntity
  8
STAVBA OBRYS
100
AcDbVertex
100
AcDb2dVertex
 10
1512.487231124711
 20
311.6195335752414
 30
0.0
 42
0.0322692699774654
  0
VERTEX
  5
40F9
330
40F6
100
AcDbEntity
  8
STAVBA OBRYS
100
AcDbVertex
100
AcDb2dVertex
 10
1509.59587694362
 20
312.6610570766421
 30
0.0
 42
0.0276160659512937
  0
VERTEX
  5
40FA
330
40F6
100
AcDbEntity
  8
STAVBA OBRYS
100
AcDbVertex
100
AcDb2dVertex
 10
1508.740300505333
 20
312.8577925055866
 30
0.0
 42
0.0126891984598699
  0
VERTEX
  5
40FB
330
40F6
100
AcDbEntity
  8
STAVBA OBRYS
100
AcDbVertex
100
AcDb2dVertex
 10
1507.817132109541
 20
312.9929948951281
 30
0.0
  0
SEQEND
  5
40FC
330
40F6
100
AcDbEntity
  8
STAVBA OBRYS
  0
POLYLINE
  5
40FD
330
1F
100
AcDbEntity
  8
STAVBA OBRYS
100
AcDb2dPolyline
 66
     1
 10
0.0
 20
0.0
 30
0.0
  0
VERTEX
  5
40FE
330
40FD
100
AcDbEntity
  8
STAVBA OBRYS
100
AcDbVertex
100
AcDb2dVertex
 10
1521.887175637121
 20
311.4608607044734
 30
0.0
 42
0.0502247168465557
  0
VERTEX
  5
40FF
330
40FD
100
AcDbEntity
  8
STAVBA OBRYS
100
AcDbVertex
100
AcDb2dVertex
 10
1520.288128460955
 20
313.4683313771962
 30
0.0
 42
0.0274923553235744
  0
VERTEX
  5
4100
330
40FD
100
AcDbEntity
  8
STAVBA OBRYS
100
AcDbVertex
100
AcDb2dVertex
 10
1517.690822730402
 20
315.8534067003344
 30
0.0
 42
0.0255412025538677
  0
VERTEX
  5
4101
330
40FD
100
AcDbEntity
  8
STAVBA OBRYS
100
AcDbVertex
100
AcDb2dVertex
 10
1514.639392692692
 20
318.1101203773502
 30
0.0
 42
0.0272796991712396
  0
VERTEX
  5
4102
330
40FD
100
AcDbEntity
  8
STAVBA OBRYS
100
AcDbVertex
100
AcDb2dVertex
 10
1510.526393539507
 20
320.526456259016
 30
0.0
 42
0.056967459841729
  0
VERTEX
  5
4103
330
40FD
100
AcDbEntity
  8
STAVBA OBRYS
100
AcDbVertex
100
AcDb2dVertex
 10
1508.385446258775
 20
321.3391920942155
 30
0.0
 42
0.0373408083348504
  0
VERTEX
  5
4104
330
40FD
100
AcDbEntity
  8
STAVBA OBRYS
100
AcDbVertex
100
AcDb2dVertex
 10
1508.163091883301
 20
321.378357635163
 30
0.0
 42
0.0052305969362967
  0
VERTEX
  5
4105
330
40FD
100
AcDbEntity
  8
STAVBA OBRYS
100
AcDbVertex
100
AcDb2dVertex
 10
1507.817132109541
 20
321.4093146020674
 30
0.0
  0
SEQEND
  5
4106
330
40FD
100
AcDbEntity
  8
STAVBA OBRYS
  0
POLYLINE
  5
4107
330
1F
100
AcDbEntity
  8
STAVBA OBRYS
100
AcDb2dPolyline
 66
     1
 10
0.0
 20
0.0
 30
0.0
  0
VERTEX
  5
4108
330
4107
100
AcDbEntity
  8
STAVBA OBRYS
100
AcDbVertex
100
AcDb2dVertex
 10
1493.445135264742
 20
311.4608607044734
 30
0.0
 42
-0.0502247168465557
  0
VERTEX
  5
4109
330
4107
100
AcDbEntity
  8
STAVBA OBRYS
100
AcDbVertex
100
AcDb2dVertex
 10
1495.044182440908
 20
313.4683313771962
 30
0.0
 42
-0.0274923553235744
  0
VERTEX
  5
410A
330
4107
100
AcDbEntity
  8
STAVBA OBRYS
100
AcDbVertex
100
AcDb2dVertex
 10
1497.641488171461
 20
315.8534067003344
 30
0.0
 42
-0.0255412025538677
  0
VERTEX
  5
410B
330
4107
100
AcDbEntity
  8
STAVBA OBRYS
100
AcDbVertex
100
AcDb2dVertex
 10
1500.692918209171
 20
318.1101203773502
 30
0.0
 42
-0.0272796991712396
  0
VERTEX
  5
410C
330
4107
100
AcDbEntity
  8
STAVBA OBRYS
100
AcDbVertex
100
AcDb2dVertex
 10
1504.805917362356
 20
320.526456259016
 30
0.0
 42
-0.056967459841729
  0
VERTEX
  5
410D
330
4107
100
AcDbEntity
  8
STAVBA OBRYS
100
AcDbVertex
100
AcDb2dVertex
 10
1506.946864643088
 20
321.3391920942155
 30
0.0
 42
-0.0373408083348504
  0
VERTEX
  5
410E
330
4107
100
AcDbEntity
  8
STAVBA OBRYS
100
AcDbVertex
100
AcDb2dVertex
 10
1507.169219018562
 20
321.378357635163
 30
0.0
 42
-0.0052305969362967
  0
VERTEX
  5
410F
330
4107
100
AcDbEntity
  8
STAVBA OBRYS
100
AcDbVertex
100
AcDb2dVertex
 10
1507.515178792322
 20
321.4093146020674
 30
0.0
  0
SEQEND
  5
4110
330
4107
100
AcDbEntity
  8
STAVBA OBRYS
  0
INSERT
  5
4111
330
1F
100
AcDbEntity
  8
POPIS
100
AcDbBlockReference
  2
E_PUNKT
 10
1460.873281774316
 20
222.4365433778544
 30
0.0
 50
270.0
  0
LINE
  5
4112
330
1F
100
AcDbEntity
  8
STAVBA OBRYS
100
AcDbLine
 10
1507.666155450932
 20
188.4608607044716
 30
0.0
 11
1507.666155450932
 21
170.4608607044725
 31
0.0
  0
LWPOLYLINE
  5
4113
330
1F
100
AcDbEntity
  8
STAVBA OBRYS
100
AcDbPolyline
 90
        3
 70
     0
 43
0.0
 10
1435.307538409124
 20
170.4608607044725
 42
-0.0052038508054843
 10
1438.505935349106
 20
186.8646871864699
 42
-0.0065712046643719
 10
1438.856361118871
 20
188.4608607044725
  0
LWPOLYLINE
  5
4114
330
1F
100
AcDbEntity
  8
STAVBA OBRYS
100
AcDbPolyline
 90
        4
 70
     0
 43
0.0
 10
1446.760076272092
 20
170.4608607044725
 42
-0.0334776267545482
 10
1447.197354066798
 20
174.5078356332093
 42
-0.0091133963862869
 10
1449.674958391717
 20
187.199565418669
 42
-0.007828075361276
 10
1449.965857526875
 20
188.4608607044725
  0
LWPOLYLINE
  5
4115
330
1F
100
AcDbEntity
  8
STAVBA OBRYS
100
AcDbPolyline
 90
        6
 70
     0
 43
0.0
 10
1475.720279869625
 20
170.4608607044725
 42
-0.0121757200102759
 10
1477.090269583286
 20
175.1327780369398
 42
-0.0457786284636091
 10
1478.298292472902
 20
177.9813884198162
 42
-0.0295006114745606
 10
1480.714352927201
 20
181.9082876332182
 42
-0.0258674098621065
 10
1483.947028241165
 20
186.0540677119721
 42
-0.0093759062953949
 10
1486.112840420823
 20
188.4608607044725
  0
LWPOLYLINE
  5
4116
330
1F
100
AcDbEntity
  8
STAVBA OBRYS
100
AcDbPolyline
 90
        3
 70
     0
 43
0.0
 10
1497.843611641534
 20
170.4608607044725
 10
1484.051563714894
 20
177.3619322679593
 10
1475.88445906577
 20
185.5432339690529
  0
LWPOLYLINE
  5
4117
330
1F
100
AcDbEntity
  8
STAVBA OBRYS
100
AcDbPolyline
 90
        8
 70
     0
 43
0.0
 10
1485.093083877427
 20
170.4608607044725
 42
-0.0217273703039143
 10
1487.290754137937
 20
175.4965510419502
 42
-0.0882970623535771
 10
1488.92797605803
 20
177.7369200927502
 42
-0.0171636441953577
 10
1491.741340119888
 20
180.2508374479954
 42
-0.0157521173632038
 10
1494.980194956924
 20
182.7823335005019
 42
-0.0073640874174249
 10
1499.613844313246
 20
186.070734926238
 42
-0.0194185739168057
 10
1501.435887632922
 20
187.2223039255192
 42
-0.0229547400386702
 10
1503.821345696937
 20
188.4608607044725
  0
POLYLINE
  5
4118
330
1F
100
AcDbEntity
  8
STAVBA OBRYS
100
AcDb2dPolyline
 66
     1
 10
0.0
 20
0.0
 30
0.0
  0
VERTEX
  5
4119
330
4118
100
AcDbEntity
  8
STAVBA OBRYS
100
AcDbVertex
100
AcDb2dVertex
 10
1493.445135264742
 20
170.4608607044725
 30
0.0
 42
-0.0502247168465557
  0
VERTEX
  5
411A
330
4118
100
AcDbEntity
  8
STAVBA OBRYS
100
AcDbVertex
100
AcDb2dVertex
 10
1495.044182440908
 20
172.4683313771953
 30
0.0
 42
-0.0274923553235744
  0
VERTEX
  5
411B
330
4118
100
AcDbEntity
  8
STAVBA OBRYS
100
AcDbVertex
100
AcDb2dVertex
 10
1497.641488171461
 20
174.8534067003334
 30
0.0
 42
-0.0255412025538677
  0
VERTEX
  5
411C
330
4118
100
AcDbEntity
  8
STAVBA OBRYS
100
AcDbVertex
100
AcDb2dVertex
 10
1500.692918209171
 20
177.1101203773493
 30
0.0
 42
-0.0272796991712396
  0
VERTEX
  5
411D
330
4118
100
AcDbEntity
  8
STAVBA OBRYS
100
AcDbVertex
100
AcDb2dVertex
 10
1504.805917362356
 20
179.5264562590151
 30
0.0
 42
-0.056967459841729
  0
VERTEX
  5
411E
330
4118
100
AcDbEntity
  8
STAVBA OBRYS
100
AcDbVertex
100
AcDb2dVertex
 10
1506.946864643088
 20
180.3391920942145
 30
0.0
 42
-0.0373408083348504
  0
VERTEX
  5
411F
330
4118
100
AcDbEntity
  8
STAVBA OBRYS
100
AcDbVertex
100
AcDb2dVertex
 10
1507.169219018562
 20
180.3783576351621
 30
0.0
 42
-0.0052305969362967
  0
VERTEX
  5
4120
330
4118
100
AcDbEntity
  8
STAVBA OBRYS
100
AcDbVertex
100
AcDb2dVertex
 10
1507.515178792322
 20
180.4093146020665
 30
0.0
  0
SEQEND
  5
4121
330
4118
100
AcDbEntity
  8
STAVBA OBRYS
  0
LWPOLYLINE
  5
4122
330
1F
100
AcDbEntity
  8
STAVBA OBRYS
100
AcDbPolyline
 90
        4
 70
     0
 43
0.0
 10
1466.909818520782
 20
170.4608607044725
 42
-0.0186324019486548
 10
1470.278187892889
 20
182.155972322697
 42
-0.0582629403736403
 10
1471.93768776097
 20
185.7358065216327
 42
-0.0146402521923566
 10
1473.722095742554
 20
188.4608607044725
  0
LWPOLYLINE
  5
4123
330
1F
100
AcDbEntity
  8
STAVBA OBRYS
100
AcDbPolyline
 90
        4
 70
     0
 43
0.0
 10
1481.514203709377
 20
169.9600302737241
 10
1461.517951277384
 20
179.1760593242439
 10
1444.740060706166
 20
181.883203586935
 10
1441.476449458461
 20
182.0135049513052
  0
LWPOLYLINE
  5
4124
330
1F
100
AcDbEntity
  8
STAVBA OBRYS
100
AcDbPolyline
 90
        5
 70
     0
 43
0.0
 10
1457.004214646886
 20
170.4608607044725
 42
-0.0133579731639958
 10
1457.391025135914
 20
172.9786629920278
 42
-0.0072443097182286
 10
1459.511022083372
 20
183.7895538869348
 42
-0.0219777111230329
 10
1460.417134585355
 20
187.3076671427703
 42
-0.0092752982622242
 10
1460.792361547302
 20
188.4608607044725
  0
LWPOLYLINE
  5
4125
330
1F
100
AcDbEntity
  8
STAVBA OBRYS
100
AcDbPolyline
 90
        4
 70
     0
 43
0.0
 10
1424.807934761322
 20
170.4608607044725
 42
-0.0186324019486548
 10
1428.176304133429
 20
182.155972322697
 42
-0.0582629403736403
 10
1429.83580400151
 20
185.7358065216327
 42
-0.0146402521923566
 10
1431.620211983094
 20
188.4608607044725
  0
POLYLINE
  5
4126
330
1F
100
AcDbEntity
  8
STAVBA OBRYS
100
AcDb2dPolyline
 66
     1
 10
0.0
 20
0.0
 30
0.0
  0
VERTEX
  5
4127
330
4126
100
AcDbEntity
  8
STAVBA OBRYS
100
AcDbVertex
100
AcDb2dVertex
 10
1502.498281214279
 20
170.4608607044725
 30
0.0
 42
-0.0094186890201653
  0
VERTEX
  5
4128
330
4126
100
AcDbEntity
  8
STAVBA OBRYS
100
AcDbVertex
100
AcDb2dVertex
 10
1502.845079777153
 20
170.6195335752405
 30
0.0
 42
-0.0322692699774654
  0
VERTEX
  5
4129
330
4126
100
AcDbEntity
  8
STAVBA OBRYS
100
AcDbVertex
100
AcDb2dVertex
 10
1505.736433958243
 20
171.6610570766412
 30
0.0
 42
-0.0276160659512937
  0
VERTEX
  5
412A
330
4126
100
AcDbEntity
  8
STAVBA OBRYS
100
AcDbVertex
100
AcDb2dVertex
 10
1506.592010396531
 20
171.8577925055857
 30
0.0
 42
-0.0126891984598699
  0
VERTEX
  5
412B
330
4126
100
AcDbEntity
  8
STAVBA OBRYS
100
AcDbVertex
100
AcDb2dVertex
 10
1507.515178792322
 20
171.9929948951272
 30
0.0
  0
SEQEND
  5
412C
330
4126
100
AcDbEntity
  8
STAVBA OBRYS
  0
POLYLINE
  5
412D
330
1F
100
AcDbEntity
  8
STAVBA OBRYS
100
AcDb2dPolyline
 66
     1
 10
0.0
 20
0.0
 30
0.0
  0
VERTEX
  5
412E
330
412D
100
AcDbEntity
  8
STAVBA OBRYS
100
AcDbVertex
100
AcDb2dVertex
 10
1512.834029687585
 20
170.4608607044725
 30
0.0
 42
0.0094186890201653
  0
VERTEX
  5
412F
330
412D
100
AcDbEntity
  8
STAVBA OBRYS
100
AcDbVertex
100
AcDb2dVertex
 10
1512.487231124711
 20
170.6195335752405
 30
0.0
 42
0.0322692699774654
  0
VERTEX
  5
4130
330
412D
100
AcDbEntity
  8
STAVBA OBRYS
100
AcDbVertex
100
AcDb2dVertex
 10
1509.59587694362
 20
171.6610570766412
 30
0.0
 42
0.0276160659512937
  0
VERTEX
  5
4131
330
412D
100
AcDbEntity
  8
STAVBA OBRYS
100
AcDbVertex
100
AcDb2dVertex
 10
1508.740300505333
 20
171.8577925055857
 30
0.0
 42
0.0126891984598699
  0
VERTEX
  5
4132
330
412D
100
AcDbEntity
  8
STAVBA OBRYS
100
AcDbVertex
100
AcDb2dVertex
 10
1507.817132109541
 20
171.9929948951272
 30
0.0
  0
SEQEND
  5
4133
330
412D
100
AcDbEntity
  8
STAVBA OBRYS
  0
LWPOLYLINE
  5
4134
330
1F
100
AcDbEntity
  8
STAVBA OBRYS
100
AcDbPolyline
 90
        5
 70
     0
 43
0.0
 10
1384.755322030951
 20
170.4608607044725
 42
-0.0133579731639958
 10
1385.142132519979
 20
172.9786629920278
 42
-0.0072443097182286
 10
1387.262129467437
 20
183.7895538869348
 42
-0.0219777111230329
 10
1388.16824196942
 20
187.3076671427703
 42
-0.0092752982622242
 10
1388.543468931368
 20
188.4608607044725
  0
LWPOLYLINE
  5
4135
330
1F
100
AcDbEntity
  8
STAVBA OBRYS
100
AcDbPolyline
 90
        3
 70
     0
 43
0.0
 10
1393.205654649664
 20
170.4608607044725
 42
-0.0052038508054843
 10
1396.404051589646
 20
186.8646871864699
 42
-0.0065712046643719
 10
1396.754477359411
 20
188.4608607044725
  0
LWPOLYLINE
  5
4136
330
1F
100
AcDbEntity
  8
STAVBA OBRYS
100
AcDbPolyline
 90
        4
 70
     0
 43
0.0
 10
1404.658192512632
 20
170.4608607044725
 42
-0.0334776267545482
 10
1405.095470307338
 20
174.5078356332093
 42
-0.0091133963862869
 10
1407.573074632257
 20
187.199565418669
 42
-0.007828075361276
 10
1407.863973767415
 20
188.4608607044725
  0
LWPOLYLINE
  5
4137
330
1F
100
AcDbEntity
  8
STAVBA OBRYS
100
AcDbPolyline
 90
        4
 70
     0
 43
0.0
 10
1439.412319949917
 20
169.9600302737241
 10
1419.416067517924
 20
179.1760593242439
 10
1402.638176946706
 20
181.883203586935
 10
1399.374565699001
 20
182.0135049513052
  0
LWPOLYLINE
  5
4138
330
1F
100
AcDbEntity
  8
STAVBA OBRYS
100
AcDbPolyline
 90
        5
 70
     0
 43
0.0
 10
1414.902330887425
 20
170.4608607044725
 42
-0.0133579731639958
 10
1415.289141376453
 20
172.9786629920278
 42
-0.0072443097182286
 10
1417.409138323912
 20
183.7895538869348
 42
-0.0219777111230329
 10
1418.315250825895
 20
187.3076671427703
 42
-0.0092752982622242
 10
1418.690477787842
 20
188.4608607044725
  0
POLYLINE
  5
4139
330
1F
100
AcDbEntity
  8
STAVBA OBRYS
100
AcDb2dPolyline
 66
     1
 10
0.0
 20
0.0
 30
0.0
  0
VERTEX
  5
413A
330
4139
100
AcDbEntity
  8
STAVBA OBRYS
100
AcDbVertex
100
AcDb2dVertex
 10
1521.887175637121
 20
170.4608607044725
 30
0.0
 42
0.0502247168465557
  0
VERTEX
  5
413B
330
4139
100
AcDbEntity
  8
STAVBA OBRYS
100
AcDbVertex
100
AcDb2dVertex
 10
1520.288128460955
 20
172.4683313771953
 30
0.0
 42
0.0274923553235744
  0
VERTEX
  5
413C
330
4139
100
AcDbEntity
  8
STAVBA OBRYS
100
AcDbVertex
100
AcDb2dVertex
 10
1517.690822730402
 20
174.8534067003334
 30
0.0
 42
0.0255412025538677
  0
VERTEX
  5
413D
330
4139
100
AcDbEntity
  8
STAVBA OBRYS
100
AcDbVertex
100
AcDb2dVertex
 10
1514.639392692692
 20
177.1101203773493
 30
0.0
 42
0.0272796991712396
  0
VERTEX
  5
413E
330
4139
100
AcDbEntity
  8
STAVBA OBRYS
100
AcDbVertex
100
AcDb2dVertex
 10
1510.526393539507
 20
179.5264562590151
 30
0.0
 42
0.056967459841729
  0
VERTEX
  5
413F
330
4139
100
AcDbEntity
  8
STAVBA OBRYS
100
AcDbVertex
100
AcDb2dVertex
 10
1508.385446258775
 20
180.3391920942145
 30
0.0
 42
0.0373408083348504
  0
VERTEX
  5
4140
330
4139
100
AcDbEntity
  8
STAVBA OBRYS
100
AcDbVertex
100
AcDb2dVertex
 10
1508.163091883301
 20
180.3783576351621
 30
0.0
 42
0.0052305969362967
  0
VERTEX
  5
4141
330
4139
100
AcDbEntity
  8
STAVBA OBRYS
100
AcDbVertex
100
AcDb2dVertex
 10
1507.817132109541
 20
180.4093146020665
 30
0.0
  0
SEQEND
  5
4142
330
4139
100
AcDbEntity
  8
STAVBA OBRYS
  0
LWPOLYLINE
  5
4143
330
1F
100
AcDbEntity
  8
STAVBA OBRYS
100
AcDbPolyline
 90
        4
 70
     1
 43
0.0
 10
1381.859076937793
 20
332.460860704473
 10
1358.217344227958
 20
332.460860704473
 10
1358.217344227958
 20
329.460860704473
 10
1381.859076937793
 20
329.460860704473
  0
HATCH
  5
4144
330
1F
100
AcDbEntity
  8
izolace
100
AcDbHatch
 10
0.0
 20
0.0
 30
0.0
210
0.0
220
0.0
230
1.0
  2
SOLID
 70
     1
 71
     0
 91
        1
 92
        7
 72
     0
 73
     1
 93
        4
 10
1381.859076937796
 20
332.460860704473
 10
1358.217344227961
 20
332.460860704473
 10
1358.217344227958
 20
329.460860704473
 10
1381.859076937796
 20
329.460860704473
 97
        0
 75
     0
 76
     1
 47
0.1901250437635136
 98
        1
 10
1367.575138986301
 20
331.6440491533932
  0
TEXT
  5
4145
330
1F
100
AcDbEntity
  8
POPIS
100
AcDbText
 10
1348.033848894929
 20
426.0040366135022
 30
0.0
 40
25.0
  1
05
 41
0.85
  7
SIMPLEX7
100
AcDbText
  0
LWPOLYLINE
  5
4146
330
1F
100
AcDbEntity
  8
izolace
100
AcDbPolyline
 90
        4
 70
     1
 43
0.0
 10
1334.575611518123
 20
332.460860704473
 10
1310.933878808287
 20
332.460860704473
 10
1310.933878808287
 20
329.460860704473
 10
1334.575611518123
 20
329.460860704473
  0
HATCH
  5
4147
330
1F
100
AcDbEntity
  8
izolace
100
AcDbHatch
 10
0.0
 20
0.0
 30
0.0
210
0.0
220
0.0
230
1.0
  2
SOLID
 70
     1
 71
     0
 91
        1
 92
        7
 72
     0
 73
     1
 93
        4
 10
1334.575611518126
 20
332.460860704473
 10
1310.933878808291
 20
332.460860704473
 10
1310.933878808287
 20
329.460860704473
 10
1334.575611518126
 20
329.460860704473
 97
        0
 75
     0
 76
     1
 47
0.1901250437635136
 98
        1
 10
1320.291673566631
 20
331.6440491533932
  0
LWPOLYLINE
  5
4148
330
1F
100
AcDbEntity
  8
izolace
100
AcDbPolyline
 90
        4
 70
     1
 43
0.0
 10
1287.292146098452
 20
332.460860704473
 10
1263.650413388617
 20
332.460860704473
 10
1263.650413388617
 20
329.460860704473
 10
1287.292146098452
 20
329.460860704473
  0
HATCH
  5
4149
330
1F
100
AcDbEntity
  8
izolace
100
AcDbHatch
 10
0.0
 20
0.0
 30
0.0
210
0.0
220
0.0
230
1.0
  2
SOLID
 70
     1
 71
     0
 91
        1
 92
        7
 72
     0
 73
     1
 93
        4
 10
1287.292146098456
 20
332.460860704473
 10
1263.650413388621
 20
332.460860704473
 10
1263.650413388617
 20
329.460860704473
 10
1287.292146098456
 20
329.460860704473
 97
        0
 75
     0
 76
     1
 47
0.1901250437635136
 98
        1
 10
1273.00820814696
 20
331.6440491533932
  0
LINE
  5
414A
330
1F
100
AcDbEntity
  8
CETRIS
100
AcDbLine
 10
1235.719746809305
 20
337.460860704473
 30
0.0
 11
1235.719746809305
 21
332.460860704473
 31
0.0
  0
LINE
  5
414B
330
1F
100
AcDbEntity
  8
CETRIS
100
AcDbLine
 10
1235.719746809305
 20
348.460860704473
 30
0.0
 11
1235.719746809305
 21
342.460860704473
 31
0.0
  0
INSERT
  5
414C
330
1F
100
AcDbEntity
  8
POPIS
100
AcDbBlockReference
  2
E_PUNKT
 10
1364.902451495867
 20
330.8144058394442
 30
0.0
 50
270.0
  0
LINE
  5
414D
330
1F
100
AcDbEntity
  8
POPIS
100
AcDbLine
 10
1364.931519826737
 20
417.1546755407786
 30
0.0
 11
1364.931519826737
 21
331.8612167875913
 31
0.0
  0
LINE
  5
414E
330
1F
100
AcDbEntity
  8
SPOJOVACÍ
  6
DASHED
100
AcDbLine
 10
1256.645004554107
 20
341.7105375025295
 30
0.0
 11
1260.643160573281
 21
340.7109984977365
 31
0.0
  0
LINE
  5
414F
330
1F
100
AcDbEntity
  8
SPOJOVACÍ
  6
DASHED
100
AcDbLine
 10
1256.645004554107
 20
339.1242868695959
 30
0.0
 11
1260.643160573281
 21
338.124747864803
 31
0.0
  0
LINE
  5
4150
330
1F
100
AcDbEntity
  8
SPOJOVACÍ
  6
DASHED
100
AcDbLine
 10
1256.645004554107
 20
336.5254854570008
 30
0.0
 11
1260.643160573281
 21
335.5259464519773
 31
0.0
  0
LINE
  5
4151
330
1F
100
AcDbEntity
  8
SPOJOVACÍ
  6
DASHED
100
AcDbLine
 10
1256.959588149742
 20
323.8586127672653
 30
0.0
 11
1260.328576981282
 21
322.7258018949847
 31
0.0
  0
LINE
  5
4152
330
1F
100
AcDbEntity
  8
SPOJOVACÍ
  6
DASHED
100
AcDbLine
 10
1256.645004554107
 20
323.5432543368598
 30
0.0
 11
1256.959588149742
 21
323.8586127672653
 31
0.0
  0
LINE
  5
4153
330
1F
100
AcDbEntity
  8
SPOJOVACÍ
  6
DASHED
100
AcDbLine
 10
1256.645004554107
 20
323.5432543368598
 30
0.0
 11
1256.959588149742
 21
323.3619426105316
 31
0.0
  0
LINE
  5
4154
330
1F
100
AcDbEntity
  8
SPOJOVACÍ
  6
DASHED
100
AcDbLine
 10
1256.959588149742
 20
326.4574141798604
 30
0.0
 11
1260.328576981282
 21
325.3246033075798
 31
0.0
  0
LINE
  5
4155
330
1F
100
AcDbEntity
  8
SPOJOVACÍ
  6
DASHED
100
AcDbLine
 10
1256.959588149742
 20
325.9607440231326
 30
0.0
 11
1260.328576981282
 21
324.8279331510762
 31
0.0
  0
LINE
  5
4156
330
1F
100
AcDbEntity
  8
SPOJOVACÍ
  6
DASHED
100
AcDbLine
 10
1260.643160573281
 20
325.1432915812516
 30
0.0
 11
1260.328576981282
 21
325.3246033075798
 31
0.0
  0
LINE
  5
4157
330
1F
100
AcDbEntity
  8
SPOJOVACÍ
  6
DASHED
100
AcDbLine
 10
1260.643160573281
 20
325.1432915812516
 30
0.0
 11
1260.328576981282
 21
324.8279331510762
 31
0.0
  0
LINE
  5
4158
330
1F
100
AcDbEntity
  8
SPOJOVACÍ
  6
DASHED
100
AcDbLine
 10
1256.645004554107
 20
326.1428305860446
 30
0.0
 11
1256.959588149742
 21
326.4574141798604
 31
0.0
  0
LINE
  5
4159
330
1F
100
AcDbEntity
  8
SPOJOVACÍ
  6
DASHED
100
AcDbLine
 10
1256.645004554107
 20
326.1428305860446
 30
0.0
 11
1256.959588149742
 21
325.9607440231326
 31
0.0
  0
LINE
  5
415A
330
1F
100
AcDbEntity
  8
SPOJOVACÍ
  6
DASHED
100
AcDbLine
 10
1256.645004554107
 20
326.1428305860446
 30
0.0
 11
1260.643160573281
 21
325.1432915812516
 31
0.0
  0
LINE
  5
415B
330
1F
100
AcDbEntity
  8
SPOJOVACÍ
  6
DASHED
100
AcDbLine
 10
1260.643160573281
 20
327.7420929938531
 30
0.0
 11
1260.328576981282
 21
327.9234047204055
 31
0.0
  0
LINE
  5
415C
330
1F
100
AcDbEntity
  8
SPOJOVACÍ
  6
DASHED
100
AcDbLine
 10
1260.643160573281
 20
327.7420929938531
 30
0.0
 11
1260.328576981282
 21
327.4267345636777
 31
0.0
  0
LINE
  5
415D
330
1F
100
AcDbEntity
  8
SPOJOVACÍ
  6
DASHED
100
AcDbLine
 10
1256.645004554107
 20
333.9392348240668
 30
0.0
 11
1260.643160573281
 21
332.9396958192738
 31
0.0
  0
LINE
  5
415E
330
1F
100
AcDbEntity
  8
SPOJOVACÍ
  6
DASHED
100
AcDbLine
 10
1259.768370238292
 20
325.0216422605218
 30
0.0
 11
1259.768370238292
 21
322.9233851866826
 31
0.0
  0
LINE
  5
415F
330
1F
100
AcDbEntity
  8
SPOJOVACÍ
  6
DASHED
100
AcDbLine
 10
1257.519794892732
 20
325.7732336052427
 30
0.0
 11
1257.519794892732
 21
323.6757513677636
 31
0.0
  0
LINE
  5
4160
330
1F
100
AcDbEntity
  8
SPOJOVACÍ
  6
DASHED
100
AcDbLine
 10
1259.768370238292
 20
327.6219933460666
 30
0.0
 11
1259.768370238292
 21
325.5221865992781
 31
0.0
  0
LINE
  5
4161
330
1F
100
AcDbEntity
  8
SPOJOVACÍ
  6
DASHED
100
AcDbLine
 10
1256.645004554107
 20
328.741631998646
 30
0.0
 11
1260.643160573281
 21
327.7420929938531
 31
0.0
  0
LINE
  5
4162
330
1F
100
AcDbEntity
  8
SPOJOVACÍ
  6
DASHED
100
AcDbLine
 10
1256.645004554107
 20
331.3404334114717
 30
0.0
 11
1260.643160573281
 21
330.3408944064482
 31
0.0
  0
LINE
  5
4163
330
1F
100
AcDbEntity
  8
SPOJOVACÍ
  6
DASHED
100
AcDbLine
 10
1256.645004554107
 20
328.741631998646
 30
0.0
 11
1256.959588149742
 21
329.0562155924618
 31
0.0
  0
LINE
  5
4164
330
1F
100
AcDbEntity
  8
SPOJOVACÍ
  6
DASHED
100
AcDbLine
 10
1256.645004554107
 20
328.741631998646
 30
0.0
 11
1256.959588149742
 21
328.5595454357281
 31
0.0
  0
LINE
  5
4165
330
1F
100
AcDbEntity
  8
SPOJOVACÍ
  6
DASHED
100
AcDbLine
 10
1256.959588149742
 20
328.5595454357281
 30
0.0
 11
1260.328576981282
 21
327.4267345636777
 31
0.0
  0
LINE
  5
4166
330
1F
100
AcDbEntity
  8
SPOJOVACÍ
  6
DASHED
100
AcDbLine
 10
1257.519794892732
 20
328.3828827280118
 30
0.0
 11
1257.519794892732
 21
326.2768772898918
 31
0.0
  0
LINE
  5
4167
330
1F
100
AcDbEntity
  8
SPOJOVACÍ
  6
DASHED
100
AcDbLine
 10
1256.959588149742
 20
329.0562155924618
 30
0.0
 11
1260.328576981282
 21
327.9234047204055
 31
0.0
  0
LINE
  5
4168
330
1F
100
AcDbEntity
  8
SPOJOVACÍ
  6
DASHED
100
AcDbLine
 10
1259.768370238292
 20
330.2231192679711
 30
0.0
 11
1259.768370238292
 21
328.117113829851
 31
0.0
  0
LINE
  5
4169
330
1F
100
AcDbEntity
  8
SPOJOVACÍ
  6
DASHED
100
AcDbLine
 10
1260.643160573281
 20
330.3408944064482
 30
0.0
 11
1260.328576981282
 21
330.026310812863
 31
0.0
  0
LINE
  5
416A
330
1F
100
AcDbEntity
  8
SPOJOVACÍ
  6
DASHED
100
AcDbLine
 10
1260.643160573281
 20
330.3408944064482
 30
0.0
 11
1260.328576981282
 21
330.5229809693666
 31
0.0
  0
LINE
  5
416B
330
1F
100
AcDbEntity
  8
SPOJOVACÍ
  6
DASHED
100
AcDbLine
 10
1259.768370238292
 20
332.818046498544
 30
0.0
 11
1259.768370238292
 21
330.7197894247047
 31
0.0
  0
LINE
  5
416C
330
1F
100
AcDbEntity
  8
SPOJOVACÍ
  6
DASHED
100
AcDbLine
 10
1260.643160573281
 20
332.9396958192738
 30
0.0
 11
1260.328576981282
 21
332.6251122254581
 31
0.0
  0
LINE
  5
416D
330
1F
100
AcDbEntity
  8
SPOJOVACÍ
  6
DASHED
100
AcDbLine
 10
1260.643160573281
 20
332.9396958192738
 30
0.0
 11
1260.328576981282
 21
333.1217823821922
 31
0.0
  0
LINE
  5
416E
330
1F
100
AcDbEntity
  8
SPOJOVACÍ
  6
DASHED
100
AcDbLine
 10
1259.768370238292
 20
335.4081713134998
 30
0.0
 11
1259.768370238292
 21
333.3021658753797
 31
0.0
  0
LINE
  5
416F
330
1F
100
AcDbEntity
  8
SPOJOVACÍ
  6
DASHED
100
AcDbLine
 10
1260.643160573281
 20
335.5259464519773
 30
0.0
 11
1260.328576981282
 21
335.2113628583917
 31
0.0
  0
LINE
  5
4170
330
1F
100
AcDbEntity
  8
SPOJOVACÍ
  6
DASHED
100
AcDbLine
 10
1260.643160573281
 20
335.5259464519773
 30
0.0
 11
1260.328576981282
 21
335.7080330148952
 31
0.0
  0
LINE
  5
4171
330
1F
100
AcDbEntity
  8
SPOJOVACÍ
  6
DASHED
100
AcDbLine
 10
1259.768370238292
 20
338.0030985440727
 30
0.0
 11
1259.768370238292
 21
335.9048414702339
 31
0.0
  0
LINE
  5
4172
330
1F
100
AcDbEntity
  8
SPOJOVACÍ
  6
DASHED
100
AcDbLine
 10
1260.643160573281
 20
338.124747864803
 30
0.0
 11
1260.328576981282
 21
337.8101642709872
 31
0.0
  0
LINE
  5
4173
330
1F
100
AcDbEntity
  8
SPOJOVACÍ
  6
DASHED
100
AcDbLine
 10
1260.643160573281
 20
338.124747864803
 30
0.0
 11
1260.328576981282
 21
338.3068344277209
 31
0.0
  0
LINE
  5
4174
330
1F
100
AcDbEntity
  8
SPOJOVACÍ
  6
DASHED
100
AcDbLine
 10
1259.768370238292
 20
340.5893491770067
 30
0.0
 11
1259.768370238292
 21
338.4910921031675
 31
0.0
  0
LINE
  5
4175
330
1F
100
AcDbEntity
  8
SPOJOVACÍ
  6
DASHED
100
AcDbLine
 10
1260.643160573281
 20
340.7109984977365
 30
0.0
 11
1260.328576981282
 21
340.3964149039207
 31
0.0
  0
LINE
  5
4176
330
1F
100
AcDbEntity
  8
SPOJOVACÍ
  6
DASHED
100
AcDbLine
 10
1260.643160573281
 20
340.7109984977365
 30
0.0
 11
1260.328576981282
 21
340.8930850606549
 31
0.0
  0
LINE
  5
4177
330
1F
100
AcDbEntity
  8
SPOJOVACÍ
  6
DASHED
100
AcDbLine
 10
1259.768370238292
 20
342.9633961776581
 30
0.0
 11
1259.768370238292
 21
341.0814526453488
 31
0.0
  0
LINE
  5
4178
330
1F
100
AcDbEntity
  8
SPOJOVACÍ
  6
DASHED
100
AcDbLine
 10
1259.768370238292
 20
342.9633961776568
 30
0.0
 11
1259.957430326398
 21
344.2325782628632
 31
0.0
  0
LINE
  5
4179
330
1F
100
AcDbEntity
  8
SPOJOVACÍ
  6
DASHED
100
AcDbLine
 10
1259.957430326398
 20
344.2325782628632
 30
0.0
 11
1260.468047538737
 21
345.410329648546
 31
0.0
  0
LINE
  5
417A
330
1F
100
AcDbEntity
  8
SPOJOVACÍ
  6
DASHED
100
AcDbLine
 10
1260.468047538737
 20
345.410329648546
 30
0.0
 11
1261.266129070036
 21
346.416067344901
 31
0.0
  0
LINE
  5
417B
330
1F
100
AcDbEntity
  8
SPOJOVACÍ
  6
DASHED
100
AcDbLine
 10
1261.266129070036
 20
346.416067344901
 30
0.0
 11
1262.296661532849
 21
347.1808309090989
 31
0.0
  0
LINE
  5
417C
330
1F
100
AcDbEntity
  8
SPOJOVACÍ
  6
DASHED
100
AcDbLine
 10
1254.395654374462
 20
348.460860704473
 30
0.0
 11
1254.395654374462
 21
347.4613216994558
 31
0.0
  0
LINE
  5
417D
330
1F
100
AcDbEntity
  8
SPOJOVACÍ
  6
DASHED
100
AcDbLine
 10
1254.395654374462
 20
347.4613216994558
 30
0.0
 11
1255.51994204906
 21
346.8414525492727
 31
0.0
  0
LINE
  5
417E
330
1F
100
AcDbEntity
  8
SPOJOVACÍ
  6
DASHED
100
AcDbLine
 10
1255.51994204906
 20
346.8414525492727
 30
0.0
 11
1256.445096756058
 21
345.9511654820922
 31
0.0
  0
LINE
  5
417F
330
1F
100
AcDbEntity
  8
SPOJOVACÍ
  6
DASHED
100
AcDbLine
 10
1256.445096756058
 20
345.9511654820922
 30
0.0
 11
1257.108356745331
 21
344.8524474132706
 31
0.0
  0
LINE
  5
4180
330
1F
100
AcDbEntity
  8
SPOJOVACÍ
  6
DASHED
100
AcDbLine
 10
1257.108356745331
 20
344.8524474132706
 30
0.0
 11
1257.464781505292
 21
343.6189078040175
 31
0.0
  0
LINE
  5
4181
330
1F
100
AcDbEntity
  8
SPOJOVACÍ
  6
DASHED
100
AcDbLine
 10
1257.464781505292
 20
343.6189078040175
 30
0.0
 11
1257.519794892732
 21
342.9633961776568
 31
0.0
  0
LINE
  5
4182
330
1F
100
AcDbEntity
  8
SPOJOVACÍ
  6
DASHED
100
AcDbLine
 10
1257.492288199013
 20
343.2911519908372
 30
0.0
 11
1257.519794892732
 21
341.8375283480123
 31
0.0
  0
LINE
  5
4183
330
1F
100
AcDbEntity
  8
SPOJOVACÍ
  6
DASHED
100
AcDbLine
 10
1256.959588149742
 20
342.0258959327048
 30
0.0
 11
1260.328576981282
 21
340.8930850606549
 31
0.0
  0
LINE
  5
4184
330
1F
100
AcDbEntity
  8
SPOJOVACÍ
  6
DASHED
100
AcDbLine
 10
1256.645004554107
 20
341.7105375025295
 30
0.0
 11
1256.959588149742
 21
342.0258959327048
 31
0.0
  0
LINE
  5
4185
330
1F
100
AcDbEntity
  8
SPOJOVACÍ
  6
DASHED
100
AcDbLine
 10
1256.645004554107
 20
341.7105375025295
 30
0.0
 11
1256.959588149742
 21
341.5292257762013
 31
0.0
  0
LINE
  5
4186
330
1F
100
AcDbEntity
  8
SPOJOVACÍ
  6
DASHED
100
AcDbLine
 10
1256.959588149742
 20
341.5292257762013
 30
0.0
 11
1260.328576981282
 21
340.3964149039207
 31
0.0
  0
LINE
  5
4187
330
1F
100
AcDbEntity
  8
SPOJOVACÍ
  6
DASHED
100
AcDbLine
 10
1257.519794892732
 20
341.3502385589519
 30
0.0
 11
1257.519794892732
 21
339.2519814851131
 31
0.0
  0
LINE
  5
4188
330
1F
100
AcDbEntity
  8
SPOJOVACÍ
  6
DASHED
100
AcDbLine
 10
1256.959588149742
 20
339.4396452997713
 30
0.0
 11
1260.328576981282
 21
338.3068344277209
 31
0.0
  0
LINE
  5
4189
330
1F
100
AcDbEntity
  8
SPOJOVACÍ
  6
DASHED
100
AcDbLine
 10
1256.645004554107
 20
339.1242868695959
 30
0.0
 11
1256.959588149742
 21
339.4396452997713
 31
0.0
  0
LINE
  5
418A
330
1F
100
AcDbEntity
  8
SPOJOVACÍ
  6
DASHED
100
AcDbLine
 10
1256.645004554107
 20
339.1242868695959
 30
0.0
 11
1256.959588149742
 21
338.9429751432677
 31
0.0
  0
LINE
  5
418B
330
1F
100
AcDbEntity
  8
SPOJOVACÍ
  6
DASHED
100
AcDbLine
 10
1256.959588149742
 20
338.9429751432677
 30
0.0
 11
1260.328576981282
 21
337.8101642709872
 31
0.0
  0
LINE
  5
418C
330
1F
100
AcDbEntity
  8
SPOJOVACÍ
  6
DASHED
100
AcDbLine
 10
1257.519794892732
 20
338.7639879260183
 30
0.0
 11
1257.519794892732
 21
336.665730852179
 31
0.0
  0
LINE
  5
418D
330
1F
100
AcDbEntity
  8
SPOJOVACÍ
  6
DASHED
100
AcDbLine
 10
1256.959588149742
 20
336.8400690508166
 30
0.0
 11
1260.328576981282
 21
335.7080330148952
 31
0.0
  0
LINE
  5
418E
330
1F
100
AcDbEntity
  8
SPOJOVACÍ
  6
DASHED
100
AcDbLine
 10
1256.645004554107
 20
336.5254854570008
 30
0.0
 11
1256.959588149742
 21
336.8400690508166
 31
0.0
  0
LINE
  5
418F
330
1F
100
AcDbEntity
  8
SPOJOVACÍ
  6
DASHED
100
AcDbLine
 10
1256.645004554107
 20
336.5254854570008
 30
0.0
 11
1256.959588149742
 21
336.3433988940824
 31
0.0
  0
LINE
  5
4190
330
1F
100
AcDbEntity
  8
SPOJOVACÍ
  6
DASHED
100
AcDbLine
 10
1256.959588149742
 20
336.3433988940824
 30
0.0
 11
1260.328576981282
 21
335.2113628583917
 31
0.0
  0
LINE
  5
4191
330
1F
100
AcDbEntity
  8
SPOJOVACÍ
  6
DASHED
100
AcDbLine
 10
1257.519794892732
 20
336.1628620041138
 30
0.0
 11
1257.519794892732
 21
334.0630552573253
 31
0.0
  0
LINE
  5
4192
330
1F
100
AcDbEntity
  8
SPOJOVACÍ
  6
DASHED
100
AcDbLine
 10
1256.959588149742
 20
334.2545932542421
 30
0.0
 11
1260.328576981282
 21
333.1217823821922
 31
0.0
  0
LINE
  5
4193
330
1F
100
AcDbEntity
  8
SPOJOVACÍ
  6
DASHED
100
AcDbLine
 10
1256.645004554107
 20
333.9392348240668
 30
0.0
 11
1256.959588149742
 21
334.2545932542421
 31
0.0
  0
LINE
  5
4194
330
1F
100
AcDbEntity
  8
SPOJOVACÍ
  6
DASHED
100
AcDbLine
 10
1256.645004554107
 20
333.9392348240668
 30
0.0
 11
1256.959588149742
 21
333.7579230977386
 31
0.0
  0
LINE
  5
4195
330
1F
100
AcDbEntity
  8
SPOJOVACÍ
  6
DASHED
100
AcDbLine
 10
1256.959588149742
 20
333.7579230977386
 30
0.0
 11
1260.328576981282
 21
332.6251122254581
 31
0.0
  0
LINE
  5
4196
330
1F
100
AcDbEntity
  8
SPOJOVACÍ
  6
DASHED
100
AcDbLine
 10
1257.519794892732
 20
333.5789358804892
 30
0.0
 11
1257.519794892732
 21
331.4806788066504
 31
0.0
  0
LINE
  5
4197
330
1F
100
AcDbEntity
  8
SPOJOVACÍ
  6
DASHED
100
AcDbLine
 10
1256.959588149742
 20
331.6550170052875
 30
0.0
 11
1260.328576981282
 21
330.5229809693666
 31
0.0
  0
LINE
  5
4198
330
1F
100
AcDbEntity
  8
SPOJOVACÍ
  6
DASHED
100
AcDbLine
 10
1256.645004554107
 20
331.3404334114717
 30
0.0
 11
1256.959588149742
 21
331.6550170052875
 31
0.0
  0
LINE
  5
4199
330
1F
100
AcDbEntity
  8
SPOJOVACÍ
  6
DASHED
100
AcDbLine
 10
1256.645004554107
 20
331.3404334114717
 30
0.0
 11
1256.959588149742
 21
331.1583468485533
 31
0.0
  0
LINE
  5
419A
330
1F
100
AcDbEntity
  8
SPOJOVACÍ
  6
DASHED
100
AcDbLine
 10
1256.959588149742
 20
331.1583468485533
 30
0.0
 11
1260.328576981282
 21
330.026310812863
 31
0.0
  0
LINE
  5
419B
330
1F
100
AcDbEntity
  8
SPOJOVACÍ
  6
DASHED
100
AcDbLine
 10
1257.519794892732
 20
330.9778099585847
 30
0.0
 11
1257.519794892732
 21
328.8780032117962
 31
0.0
  0
LINE
  5
419C
330
1F
100
AcDbEntity
  8
SPOJOVACÍ
  6
DASHED
100
AcDbLine
 10
1254.395654374462
 20
347.4613216994558
 30
0.0
 11
1262.892510752926
 21
347.4613216994558
 31
0.0
  0
LINE
  5
419D
330
1F
100
AcDbEntity
  8
SPOJOVACÍ
  6
DASHED
100
AcDbLine
 10
1262.296661532849
 20
347.1808309090989
 30
0.0
 11
1262.892510752926
 21
347.4613216994558
 31
0.0
  0
LINE
  5
419E
330
1F
100
AcDbEntity
  8
SPOJOVACÍ
  6
DASHED
100
AcDbLine
 10
1262.892510752926
 20
348.460860704473
 30
0.0
 11
1262.892510752926
 21
347.4613216994558
 31
0.0
  0
LINE
  5
419F
330
1F
100
AcDbEntity
  8
SPOJOVACÍ
  6
DASHED
100
AcDbLine
 10
1254.395654374462
 20
348.460860704473
 30
0.0
 11
1262.892510752926
 21
348.460860704473
 31
0.0
  0
HATCH
  5
41A0
330
1F
100
AcDbEntity
  8
izolace
100
AcDbHatch
 10
0.0
 20
0.0
 30
0.0
210
0.0
220
0.0
230
1.0
  2
SOLID
 70
     1
 71
     0
 91
        1
 92
        7
 72
     0
 73
     1
 93
        4
 10
1429.142542357467
 20
332.460860704473
 10
1405.500809647632
 20
332.460860704473
 10
1405.500809647628
 20
329.460860704473
 10
1429.142542357467
 20
329.460860704473
 97
        0
 75
     0
 76
     1
 47
0.1901250437635136
 98
        1
 10
1414.858604405972
 20
331.6440491533932
  0
LWPOLYLINE
  5
41A1
330
1F
100
AcDbEntity
  8
izolace
100
AcDbPolyline
 90
        4
 70
     1
 43
0.0
 10
1476.426007777134
 20
332.460860704473
 10
1452.784275067299
 20
332.460860704473
 10
1452.784275067299
 20
329.460860704473
 10
1476.426007777134
 20
329.460860704473
  0
HATCH
  5
41A2
330
1F
100
AcDbEntity
  8
izolace
100
AcDbHatch
 10
0.0
 20
0.0
 30
0.0
210
0.0
220
0.0
230
1.0
  2
SOLID
 70
     1
 71
     0
 91
        1
 92
        7
 72
     0
 73
     1
 93
        4
 10
1476.426007777138
 20
332.460860704473
 10
1452.784275067302
 20
332.460860704473
 10
1452.784275067299
 20
329.460860704473
 10
1476.426007777138
 20
329.460860704473
 97
        0
 75
     0
 76
     1
 47
0.1901250437635136
 98
        1
 10
1462.142069825642
 20
331.6440491533932
  0
LWPOLYLINE
  5
41A3
330
1F
100
AcDbEntity
  8
izolace
100
AcDbPolyline
 90
        4
 70
     1
 43
0.0
 10
1523.709473196804
 20
332.460860704473
 10
1500.067740486969
 20
332.460860704473
 10
1500.067740486969
 20
329.460860704473
 10
1523.709473196804
 20
329.460860704473
  0
HATCH
  5
41A4
330
1F
100
AcDbEntity
  8
izolace
100
AcDbHatch
 10
0.0
 20
0.0
 30
0.0
210
0.0
220
0.0
230
1.0
  2
SOLID
 70
     1
 71
     0
 91
        1
 92
        7
 72
     0
 73
     1
 93
        4
 10
1523.709473196808
 20
332.460860704473
 10
1500.067740486973
 20
332.460860704473
 10
1500.067740486969
 20
329.460860704473
 10
1523.709473196808
 20
329.460860704473
 97
        0
 75
     0
 76
     1
 47
0.1901250437635136
 98
        1
 10
1509.425535245313
 20
331.6440491533932
  0
TEXT
  5
41A5
330
1F
100
AcDbEntity
  8
POPIS
100
AcDbText
 10
1444.004679173385
 20
426.0040366135022
 30
0.0
 40
25.0
  1
07
 41
0.85
  7
SIMPLEX7
100
AcDbText
  0
TEXT
  5
41A6
330
1F
100
AcDbEntity
  8
POPIS
100
AcDbText
 10
1394.916163709096
 20
426.0040366135022
 30
0.0
 40
25.0
  1
06
 41
0.85
  7
SIMPLEX7
100
AcDbText
  0
LWPOLYLINE
  5
41A7
330
1F
100
AcDbEntity
  8
STAVBA OBRYS
100
AcDbPolyline
 90
        4
 70
     0
 43
0.0
 10
1575.919990951946
 20
310.960030273725
 10
1595.916243383939
 20
320.1760593242448
 10
1612.694133955157
 20
322.883203586936
 10
1615.957745202862
 20
323.0135049513061
  0
LWPOLYLINE
  5
41A8
330
1F
100
AcDbEntity
  8
STAVBA OBRYS
100
AcDbPolyline
 90
        4
 70
     0
 43
0.0
 10
1590.524376140541
 20
311.4608607044734
 42
0.0186324019486548
 10
1587.156006768434
 20
323.1559723226979
 42
0.0582629403736403
 10
1585.496506900353
 20
326.7358065216336
 42
0.0146402521923566
 10
1583.712098918769
 20
329.4608607044734
  0
LWPOLYLINE
  5
41A9
330
1F
100
AcDbEntity
  8
STAVBA OBRYS
100
AcDbPolyline
 90
        5
 70
     0
 43
0.0
 10
1600.429980014438
 20
311.4608607044734
 42
0.0133579731639958
 10
1600.04316952541
 20
313.9786629920287
 42
0.0072443097182286
 10
1597.923172577951
 20
324.7895538869357
 42
0.0219777111230329
 10
1597.017060075968
 20
328.3076671427712
 42
0.0092752982622242
 10
1596.641833114021
 20
329.4608607044734
  0
LWPOLYLINE
  5
41AA
330
1F
100
AcDbEntity
  8
STAVBA OBRYS
100
AcDbPolyline
 90
        5
 70
     0
 43
0.0
 10
1558.328096254978
 20
311.4608607044734
 42
0.0133579731639958
 10
1557.94128576595
 20
313.9786629920287
 42
0.0072443097182286
 10
1555.821288818491
 20
324.7895538869357
 42
0.0219777111230329
 10
1554.915176316508
 20
328.3076671427712
 42
0.0092752982622242
 10
1554.539949354561
 20
329.4608607044734
  0
LWPOLYLINE
  5
41AB
330
1F
100
AcDbEntity
  8
STAVBA OBRYS
100
AcDbPolyline
 90
        4
 70
     0
 43
0.0
 10
1533.818107192486
 20
310.960030273725
 10
1553.814359624479
 20
320.1760593242448
 10
1570.592250195697
 20
322.883203586936
 10
1573.855861443402
 20
323.0135049513061
  0
LWPOLYLINE
  5
41AC
330
1F
100
AcDbEntity
  8
STAVBA OBRYS
100
AcDbPolyline
 90
        4
 70
     0
 43
0.0
 10
1548.422492381081
 20
311.4608607044734
 42
0.0186324019486548
 10
1545.054123008974
 20
323.1559723226979
 42
0.0582629403736403
 10
1543.394623140893
 20
326.7358065216336
 42
0.0146402521923566
 10
1541.610215159309
 20
329.4608607044734
  0
LWPOLYLINE
  5
41AD
330
1F
100
AcDbEntity
  8
STAVBA OBRYS
100
AcDbPolyline
 90
        4
 70
     0
 43
0.0
 10
1568.572234629771
 20
311.4608607044734
 42
0.0334776267545482
 10
1568.134956835065
 20
315.5078356332102
 42
0.0091133963862869
 10
1565.657352510146
 20
328.1995654186699
 42
0.007828075361276
 10
1565.366453374989
 20
329.4608607044734
  0
LWPOLYLINE
  5
41AE
330
1F
100
AcDbEntity
  8
STAVBA OBRYS
100
AcDbPolyline
 90
        3
 70
     0
 43
0.0
 10
1580.024772492739
 20
311.4608607044734
 42
0.0052038508054843
 10
1576.826375552756
 20
327.8646871864708
 42
0.0065712046643719
 10
1576.475949782992
 20
329.4608607044734
  0
LWPOLYLINE
  5
41AF
330
1F
100
AcDbEntity
  8
STAVBA OBRYS
100
AcDbPolyline
 90
        4
 70
     0
 43
0.0
 10
1610.674118389231
 20
311.4608607044734
 42
0.0334776267545482
 10
1610.236840594525
 20
315.5078356332102
 42
0.0091133963862869
 10
1607.759236269607
 20
328.1995654186699
 42
0.007828075361276
 10
1607.468337134449
 20
329.4608607044734
  0
LINE
  5
41B0
330
1F
100
AcDbEntity
  8
SPOJOVACÍ
  6
DASHED
100
AcDbLine
 10
1536.323368734656
 20
323.3619426105316
 30
0.0
 11
1539.692357566196
 21
322.2291317382506
 31
0.0
  0
LINE
  5
41B1
330
1F
100
AcDbEntity
  8
SPOJOVACÍ
  6
DASHED
100
AcDbLine
 10
1540.006941158195
 20
322.5437153320664
 30
0.0
 11
1539.692357566196
 21
322.7258018949847
 31
0.0
  0
LINE
  5
41B2
330
1F
100
AcDbEntity
  8
SPOJOVACÍ
  6
DASHED
100
AcDbLine
 10
1536.008785139021
 20
323.5432543368598
 30
0.0
 11
1540.006941158195
 21
322.5437153320664
 31
0.0
  0
LINE
  5
41B3
330
1F
100
AcDbEntity
  8
SPOJOVACÍ
  6
DASHED
100
AcDbLine
 10
1536.883575477646
 20
323.1790812110294
 30
0.0
 11
1536.883575477646
 21
322.1400255480363
 31
0.0
  0
TEXT
  5
41B4
330
1F
100
AcDbEntity
  8
POPIS
100
AcDbText
 10
1689.49292491111
 20
328.9045606919977
 30
0.0
 40
25.0
  1
08
 41
0.85
  7
SIMPLEX7
100
AcDbText
  0
LWPOLYLINE
  5
41B5
330
1F
100
AcDbEntity
  8
STAVBA OBRYS
100
AcDbPolyline
 90
        2
 70
     0
 43
0.0
 10
1606.066999808421
 20
310.960030273725
 10
1617.408035233829
 20
316.1869752874978
  0
LINE
  5
41B6
330
1F
100
AcDbEntity
  8
SPOJOVACÍ
  6
DASHED
100
AcDbLine
 10
1540.006941158195
 20
322.5437153320664
 30
0.0
 11
1539.692357566196
 21
322.2291317382506
 31
0.0
  0
LINE
  5
41B7
330
1F
100
AcDbEntity
  8
SPOJOVACÍ
  6
DASHED
100
AcDbLine
 10
1537.160966924384
 20
315.9583804463719
 30
0.0
 11
1538.955488113217
 21
315.6995850761323
 31
0.0
  0
LINE
  5
41B8
330
1F
100
AcDbEntity
  8
SPOJOVACÍ
  6
DASHED
100
AcDbLine
 10
1537.475550516381
 20
316.2729640401877
 30
0.0
 11
1538.64090452122
 21
315.8808968026848
 31
0.0
  0
LINE
  5
41B9
330
1F
100
AcDbEntity
  8
SPOJOVACÍ
  6
DASHED
100
AcDbLine
 10
1537.475550516381
 20
315.7762938834599
 30
0.0
 11
1538.64090452122
 21
315.384226645957
 31
0.0
  0
LINE
  5
41BA
330
1F
100
AcDbEntity
  8
SPOJOVACÍ
  6
DASHED
100
AcDbLine
 10
1538.955488113217
 20
315.6995850761323
 30
0.0
 11
1538.64090452122
 21
315.8808968026848
 31
0.0
  0
LINE
  5
41BB
330
1F
100
AcDbEntity
  8
SPOJOVACÍ
  6
DASHED
100
AcDbLine
 10
1538.955488113217
 20
315.6995850761323
 30
0.0
 11
1538.64090452122
 21
315.384226645957
 31
0.0
  0
LINE
  5
41BC
330
1F
100
AcDbEntity
  8
SPOJOVACÍ
  6
DASHED
100
AcDbLine
 10
1537.160966924384
 20
315.9583804463719
 30
0.0
 11
1537.475550516381
 21
316.2729640401877
 31
0.0
  0
LINE
  5
41BD
330
1F
100
AcDbEntity
  8
SPOJOVACÍ
  6
DASHED
100
AcDbLine
 10
1537.160966924384
 20
315.9583804463719
 30
0.0
 11
1537.475550516381
 21
315.7762938834599
 31
0.0
  0
LINE
  5
41BE
330
1F
100
AcDbEntity
  8
SPOJOVACÍ
  6
DASHED
100
AcDbLine
 10
1536.690641204561
 20
318.4688505051123
 30
0.0
 11
1539.286343271947
 21
317.941186891043
 31
0.0
  0
LINE
  5
41BF
330
1F
100
AcDbEntity
  8
SPOJOVACÍ
  6
DASHED
100
AcDbLine
 10
1537.005224800195
 20
318.7842089355177
 30
0.0
 11
1538.971759679951
 21
318.1224986173712
 31
0.0
  0
LINE
  5
41C0
330
1F
100
AcDbEntity
  8
SPOJOVACÍ
  6
DASHED
100
AcDbLine
 10
1537.005224800195
 20
318.2875387787841
 30
0.0
 11
1538.971759679951
 21
317.6258284608676
 31
0.0
  0
LINE
  5
41C1
330
1F
100
AcDbEntity
  8
SPOJOVACÍ
  6
DASHED
100
AcDbLine
 10
1539.286343271947
 20
317.941186891043
 30
0.0
 11
1538.971759679951
 21
318.1224986173712
 31
0.0
  0
LINE
  5
41C2
330
1F
100
AcDbEntity
  8
SPOJOVACÍ
  6
DASHED
100
AcDbLine
 10
1539.286343271947
 20
317.941186891043
 30
0.0
 11
1538.971759679951
 21
317.6258284608676
 31
0.0
  0
LINE
  5
41C3
330
1F
100
AcDbEntity
  8
SPOJOVACÍ
  6
DASHED
100
AcDbLine
 10
1536.690641204561
 20
318.4688505051123
 30
0.0
 11
1537.005224800195
 21
318.7842089355177
 31
0.0
  0
LINE
  5
41C4
330
1F
100
AcDbEntity
  8
SPOJOVACÍ
  6
DASHED
100
AcDbLine
 10
1536.690641204561
 20
318.4688505051123
 30
0.0
 11
1537.005224800195
 21
318.2875387787841
 31
0.0
  0
LINE
  5
41C5
330
1F
100
AcDbEntity
  8
SPOJOVACÍ
  6
DASHED
100
AcDbLine
 10
1536.220315488375
 20
320.9800954004423
 30
0.0
 11
1539.656715089109
 21
320.1696164864825
 31
0.0
  0
LINE
  5
41C6
330
1F
100
AcDbEntity
  8
SPOJOVACÍ
  6
DASHED
100
AcDbLine
 10
1536.535673918095
 20
321.2946789942581
 30
0.0
 11
1539.342131497113
 21
320.3509282128107
 31
0.0
  0
LINE
  5
41C7
330
1F
100
AcDbEntity
  8
SPOJOVACÍ
  6
DASHED
100
AcDbLine
 10
1536.535673918095
 20
320.7980088375244
 30
0.0
 11
1539.342131497113
 21
319.8542580560771
 31
0.0
  0
LINE
  5
41C8
330
1F
100
AcDbEntity
  8
SPOJOVACÍ
  6
DASHED
100
AcDbLine
 10
1539.656715089109
 20
320.1696164864825
 30
0.0
 11
1539.342131497113
 21
320.3509282128107
 31
0.0
  0
LINE
  5
41C9
330
1F
100
AcDbEntity
  8
SPOJOVACÍ
  6
DASHED
100
AcDbLine
 10
1539.656715089109
 20
320.1696164864825
 30
0.0
 11
1539.342131497113
 21
319.8542580560771
 31
0.0
  0
LINE
  5
41CA
330
1F
100
AcDbEntity
  8
SPOJOVACÍ
  6
DASHED
100
AcDbLine
 10
1536.220315488375
 20
320.9800954004423
 30
0.0
 11
1536.535673918095
 21
321.2946789942581
 31
0.0
  0
LINE
  5
41CB
330
1F
100
AcDbEntity
  8
SPOJOVACÍ
  6
DASHED
100
AcDbLine
 10
1536.220315488375
 20
320.9800954004423
 30
0.0
 11
1536.535673918095
 21
320.7980088375244
 31
0.0
  0
LINE
  5
41CC
330
1F
100
AcDbEntity
  8
SPOJOVACÍ
  6
DASHED
100
AcDbLine
 10
1538.927594002454
 20
320.4981471361349
 30
0.0
 11
1539.132150823206
 21
322.1400255480363
 31
0.0
  0
LINE
  5
41CD
330
1F
100
AcDbEntity
  8
SPOJOVACÍ
  6
DASHED
100
AcDbLine
 10
1538.645553536649
 20
318.2433731017414
 30
0.0
 11
1538.867931595947
 21
320.0231723995181
 31
0.0
  0
LINE
  5
41CE
330
1F
100
AcDbEntity
  8
SPOJOVACÍ
  6
DASHED
100
AcDbLine
 10
1538.362738240395
 20
315.9800758667135
 30
0.0
 11
1538.58589113378
 21
317.7668486924054
 31
0.0
  0
LINE
  5
41CF
330
1F
100
AcDbEntity
  8
SPOJOVACÍ
  6
DASHED
100
AcDbLine
 10
1537.68630602801
 20
315.7166314778616
 30
0.0
 11
1538.007863148608
 21
313.1433996676302
 31
0.0
  0
LINE
  5
41D0
330
1F
100
AcDbEntity
  8
SPOJOVACÍ
  6
DASHED
100
AcDbLine
 10
1537.380245636422
 20
318.1666642944138
 30
0.0
 11
1537.621994602437
 21
316.2334473819875
 31
0.0
  0
LINE
  5
41D1
330
1F
100
AcDbEntity
  8
SPOJOVACÍ
  6
DASHED
100
AcDbLine
 10
1537.072635569389
 20
320.6259951481962
 30
0.0
 11
1537.314384539038
 21
318.6920033994043
 31
0.0
  0
LINE
  5
41D2
330
1F
100
AcDbEntity
  8
SPOJOVACÍ
  6
DASHED
100
AcDbLine
 10
1538.007863148608
 20
313.1433996676302
 30
0.0
 11
1538.303075833888
 21
315.5058759666868
 31
0.0
  0
LINE
  5
41D3
330
1F
100
AcDbEntity
  8
SPOJOVACÍ
  6
DASHED
100
AcDbLine
 10
1536.883575477646
 20
322.1400255480363
 30
0.0
 11
1537.008324143815
 21
321.1428110523221
 31
0.0
  0
LINE
  5
41D4
330
1F
100
AcDbEntity
  8
SPOJOVACÍ
  6
DASHED
100
AcDbLine
 10
1539.132150823206
 20
322.4205163383932
 30
0.0
 11
1539.132150823206
 21
322.1400255480363
 31
0.0
  0
LWPOLYLINE
  5
41D5
330
1F
100
AcDbEntity
  8
STAVBA OBRYS
100
AcDbPolyline
 90
        4
 70
     0
 43
0.0
 10
1590.524376140541
 20
170.4608607044725
 42
0.0186324019486548
 10
1587.156006768434
 20
182.155972322697
 42
0.0582629403736403
 10
1585.496506900353
 20
185.7358065216327
 42
0.0146402521923566
 10
1583.712098918769
 20
188.4608607044725
  0
LWPOLYLINE
  5
41D6
330
1F
100
AcDbEntity
  8
STAVBA OBRYS
100
AcDbPolyline
 90
        5
 70
     0
 43
0.0
 10
1600.429980014438
 20
170.4608607044725
 42
0.0133579731639958
 10
1600.04316952541
 20
172.9786629920278
 42
0.0072443097182286
 10
1597.923172577951
 20
183.7895538869348
 42
0.0219777111230329
 10
1597.017060075968
 20
187.3076671427703
 42
0.0092752982622242
 10
1596.641833114021
 20
188.4608607044725
  0
LWPOLYLINE
  5
41D7
330
1F
100
AcDbEntity
  8
STAVBA OBRYS
100
AcDbPolyline
 90
        5
 70
     0
 43
0.0
 10
1558.328096254978
 20
170.4608607044725
 42
0.0133579731639958
 10
1557.94128576595
 20
172.9786629920278
 42
0.0072443097182286
 10
1555.821288818491
 20
183.7895538869348
 42
0.0219777111230329
 10
1554.915176316508
 20
187.3076671427703
 42
0.0092752982622242
 10
1554.539949354561
 20
188.4608607044725
  0
LWPOLYLINE
  5
41D8
330
1F
100
AcDbEntity
  8
STAVBA OBRYS
100
AcDbPolyline
 90
        4
 70
     0
 43
0.0
 10
1533.818107192486
 20
169.9600302737241
 10
1553.814359624479
 20
179.1760593242439
 10
1570.592250195697
 20
181.883203586935
 10
1573.855861443402
 20
182.0135049513052
  0
LWPOLYLINE
  5
41D9
330
1F
100
AcDbEntity
  8
STAVBA OBRYS
100
AcDbPolyline
 90
        4
 70
     0
 43
0.0
 10
1548.422492381081
 20
170.4608607044725
 42
0.0186324019486548
 10
1545.054123008974
 20
182.155972322697
 42
0.0582629403736403
 10
1543.394623140893
 20
185.7358065216327
 42
0.0146402521923566
 10
1541.610215159309
 20
188.4608607044725
  0
LWPOLYLINE
  5
41DA
330
1F
100
AcDbEntity
  8
STAVBA OBRYS
100
AcDbPolyline
 90
        4
 70
     0
 43
0.0
 10
1568.572234629771
 20
170.4608607044725
 42
0.0334776267545482
 10
1568.134956835065
 20
174.5078356332093
 42
0.0091133963862869
 10
1565.657352510146
 20
187.199565418669
 42
0.007828075361276
 10
1565.366453374989
 20
188.4608607044725
  0
LWPOLYLINE
  5
41DB
330
1F
100
AcDbEntity
  8
STAVBA OBRYS
100
AcDbPolyline
 90
        3
 70
     0
 43
0.0
 10
1580.024772492739
 20
170.4608607044725
 42
0.0052038508054843
 10
1576.826375552756
 20
186.8646871864699
 42
0.0065712046643719
 10
1576.475949782992
 20
188.4608607044725
  0
LWPOLYLINE
  5
41DC
330
1F
100
AcDbEntity
  8
STAVBA OBRYS
100
AcDbPolyline
 90
        4
 70
     0
 43
0.0
 10
1610.674118389231
 20
170.4608607044725
 42
0.0334776267545482
 10
1610.236840594525
 20
174.5078356332093
 42
0.0091133963862869
 10
1607.759236269607
 20
187.199565418669
 42
0.007828075361276
 10
1607.468337134449
 20
188.4608607044725
  0
LWPOLYLINE
  5
41DD
330
1F
100
AcDbEntity
  8
STAVBA OBRYS
100
AcDbPolyline
 90
        4
 70
     0
 43
0.0
 10
1575.919990951946
 20
169.9600302737241
 10
1595.916243383939
 20
179.1760593242439
 10
1612.694133955157
 20
181.883203586935
 10
1615.957745202862
 20
182.0135049513052
  0
LWPOLYLINE
  5
41DE
330
1F
100
AcDbEntity
  8
STAVBA OBRYS
100
AcDbPolyline
 90
        2
 70
     0
 43
0.0
 10
1606.066999808421
 20
169.9600302737241
 10
1617.408035233829
 20
175.1869752874969
  0
LWPOLYLINE
  5
41DF
330
1F
100
AcDbEntity
  8
izolace
100
AcDbPolyline
 90
        4
 70
     1
 43
0.0
 10
1618.276404036145
 20
332.460860704473
 10
1594.63467132631
 20
332.460860704473
 10
1594.63467132631
 20
329.460860704473
 10
1618.276404036145
 20
329.460860704473
  0
HATCH
  5
41E0
330
1F
100
AcDbEntity
  8
izolace
100
AcDbHatch
 10
0.0
 20
0.0
 30
0.0
210
0.0
220
0.0
230
1.0
  2
SOLID
 70
     1
 71
     0
 91
        1
 92
        7
 72
     0
 73
     1
 93
        4
 10
1618.276404036149
 20
332.460860704473
 10
1594.634671326313
 20
332.460860704473
 10
1594.63467132631
 20
329.460860704473
 10
1618.276404036149
 20
329.460860704473
 97
        0
 75
     0
 76
     1
 47
0.1901250437635136
 98
        1
 10
1603.992466084653
 20
331.6440491533932
  0
LWPOLYLINE
  5
41E1
330
1F
100
AcDbEntity
  8
izolace
100
AcDbPolyline
 90
        4
 70
     1
 43
0.0
 10
1570.992938616474
 20
332.460860704473
 10
1547.351205906639
 20
332.460860704473
 10
1547.351205906639
 20
329.460860704473
 10
1570.992938616474
 20
329.460860704473
  0
HATCH
  5
41E2
330
1F
100
AcDbEntity
  8
izolace
100
AcDbHatch
 10
0.0
 20
0.0
 30
0.0
210
0.0
220
0.0
230
1.0
  2
SOLID
 70
     1
 71
     0
 91
        1
 92
        7
 72
     0
 73
     1
 93
        4
 10
1570.992938616478
 20
332.460860704473
 10
1547.351205906643
 20
332.460860704473
 10
1547.351205906639
 20
329.460860704473
 10
1570.992938616478
 20
329.460860704473
 97
        0
 75
     0
 76
     1
 47
0.1901250437635136
 98
        1
 10
1556.709000664983
 20
331.6440491533932
  0
LINE
  5
41E3
330
1F
100
AcDbEntity
  8
SPOJOVACÍ
  6
DASHED
100
AcDbLine
 10
1536.008785139021
 20
341.7105375025295
 30
0.0
 11
1540.006941158195
 21
340.7109984977365
 31
0.0
  0
LINE
  5
41E4
330
1F
100
AcDbEntity
  8
SPOJOVACÍ
  6
DASHED
100
AcDbLine
 10
1536.008785139021
 20
339.1242868695959
 30
0.0
 11
1540.006941158195
 21
338.124747864803
 31
0.0
  0
LINE
  5
41E5
330
1F
100
AcDbEntity
  8
SPOJOVACÍ
  6
DASHED
100
AcDbLine
 10
1536.008785139021
 20
336.5254854570008
 30
0.0
 11
1540.006941158195
 21
335.5259464519773
 31
0.0
  0
LINE
  5
41E6
330
1F
100
AcDbEntity
  8
SPOJOVACÍ
  6
DASHED
100
AcDbLine
 10
1536.323368734656
 20
323.8586127672653
 30
0.0
 11
1539.692357566196
 21
322.7258018949847
 31
0.0
  0
LINE
  5
41E7
330
1F
100
AcDbEntity
  8
SPOJOVACÍ
  6
DASHED
100
AcDbLine
 10
1536.008785139021
 20
323.5432543368598
 30
0.0
 11
1536.323368734656
 21
323.8586127672653
 31
0.0
  0
LINE
  5
41E8
330
1F
100
AcDbEntity
  8
SPOJOVACÍ
  6
DASHED
100
AcDbLine
 10
1536.008785139021
 20
323.5432543368598
 30
0.0
 11
1536.323368734656
 21
323.3619426105316
 31
0.0
  0
LINE
  5
41E9
330
1F
100
AcDbEntity
  8
SPOJOVACÍ
  6
DASHED
100
AcDbLine
 10
1536.323368734656
 20
326.4574141798604
 30
0.0
 11
1539.692357566196
 21
325.3246033075798
 31
0.0
  0
LINE
  5
41EA
330
1F
100
AcDbEntity
  8
SPOJOVACÍ
  6
DASHED
100
AcDbLine
 10
1536.323368734656
 20
325.9607440231326
 30
0.0
 11
1539.692357566196
 21
324.8279331510762
 31
0.0
  0
LINE
  5
41EB
330
1F
100
AcDbEntity
  8
SPOJOVACÍ
  6
DASHED
100
AcDbLine
 10
1540.006941158195
 20
325.1432915812516
 30
0.0
 11
1539.692357566196
 21
325.3246033075798
 31
0.0
  0
LINE
  5
41EC
330
1F
100
AcDbEntity
  8
SPOJOVACÍ
  6
DASHED
100
AcDbLine
 10
1540.006941158195
 20
325.1432915812516
 30
0.0
 11
1539.692357566196
 21
324.8279331510762
 31
0.0
  0
LINE
  5
41ED
330
1F
100
AcDbEntity
  8
SPOJOVACÍ
  6
DASHED
100
AcDbLine
 10
1536.008785139021
 20
326.1428305860446
 30
0.0
 11
1536.323368734656
 21
326.4574141798604
 31
0.0
  0
LINE
  5
41EE
330
1F
100
AcDbEntity
  8
SPOJOVACÍ
  6
DASHED
100
AcDbLine
 10
1536.008785139021
 20
326.1428305860446
 30
0.0
 11
1536.323368734656
 21
325.9607440231326
 31
0.0
  0
LINE
  5
41EF
330
1F
100
AcDbEntity
  8
SPOJOVACÍ
  6
DASHED
100
AcDbLine
 10
1536.008785139021
 20
326.1428305860446
 30
0.0
 11
1540.006941158195
 21
325.1432915812516
 31
0.0
  0
LINE
  5
41F0
330
1F
100
AcDbEntity
  8
SPOJOVACÍ
  6
DASHED
100
AcDbLine
 10
1540.006941158195
 20
327.7420929938531
 30
0.0
 11
1539.692357566196
 21
327.9234047204055
 31
0.0
  0
LINE
  5
41F1
330
1F
100
AcDbEntity
  8
SPOJOVACÍ
  6
DASHED
100
AcDbLine
 10
1540.006941158195
 20
327.7420929938531
 30
0.0
 11
1539.692357566196
 21
327.4267345636777
 31
0.0
  0
LINE
  5
41F2
330
1F
100
AcDbEntity
  8
SPOJOVACÍ
  6
DASHED
100
AcDbLine
 10
1536.008785139021
 20
333.9392348240668
 30
0.0
 11
1540.006941158195
 21
332.9396958192738
 31
0.0
  0
LINE
  5
41F3
330
1F
100
AcDbEntity
  8
SPOJOVACÍ
  6
DASHED
100
AcDbLine
 10
1539.132150823206
 20
325.0216422605218
 30
0.0
 11
1539.132150823206
 21
322.9233851866826
 31
0.0
  0
LINE
  5
41F4
330
1F
100
AcDbEntity
  8
SPOJOVACÍ
  6
DASHED
100
AcDbLine
 10
1536.883575477646
 20
325.7732336052427
 30
0.0
 11
1536.883575477646
 21
323.6757513677636
 31
0.0
  0
LINE
  5
41F5
330
1F
100
AcDbEntity
  8
SPOJOVACÍ
  6
DASHED
100
AcDbLine
 10
1539.132150823206
 20
327.6219933460666
 30
0.0
 11
1539.132150823206
 21
325.5221865992781
 31
0.0
  0
LINE
  5
41F6
330
1F
100
AcDbEntity
  8
SPOJOVACÍ
  6
DASHED
100
AcDbLine
 10
1536.008785139021
 20
328.741631998646
 30
0.0
 11
1540.006941158195
 21
327.7420929938531
 31
0.0
  0
LINE
  5
41F7
330
1F
100
AcDbEntity
  8
SPOJOVACÍ
  6
DASHED
100
AcDbLine
 10
1536.008785139021
 20
331.3404334114717
 30
0.0
 11
1540.006941158195
 21
330.3408944064482
 31
0.0
  0
LINE
  5
41F8
330
1F
100
AcDbEntity
  8
SPOJOVACÍ
  6
DASHED
100
AcDbLine
 10
1536.008785139021
 20
328.741631998646
 30
0.0
 11
1536.323368734656
 21
329.0562155924618
 31
0.0
  0
LINE
  5
41F9
330
1F
100
AcDbEntity
  8
SPOJOVACÍ
  6
DASHED
100
AcDbLine
 10
1536.008785139021
 20
328.741631998646
 30
0.0
 11
1536.323368734656
 21
328.5595454357281
 31
0.0
  0
LINE
  5
41FA
330
1F
100
AcDbEntity
  8
SPOJOVACÍ
  6
DASHED
100
AcDbLine
 10
1536.323368734656
 20
328.5595454357281
 30
0.0
 11
1539.692357566196
 21
327.4267345636777
 31
0.0
  0
LINE
  5
41FB
330
1F
100
AcDbEntity
  8
SPOJOVACÍ
  6
DASHED
100
AcDbLine
 10
1536.883575477646
 20
328.3828827280118
 30
0.0
 11
1536.883575477646
 21
326.2768772898918
 31
0.0
  0
LINE
  5
41FC
330
1F
100
AcDbEntity
  8
SPOJOVACÍ
  6
DASHED
100
AcDbLine
 10
1536.323368734656
 20
329.0562155924618
 30
0.0
 11
1539.692357566196
 21
327.9234047204055
 31
0.0
  0
LINE
  5
41FD
330
1F
100
AcDbEntity
  8
SPOJOVACÍ
  6
DASHED
100
AcDbLine
 10
1539.132150823206
 20
330.2231192679711
 30
0.0
 11
1539.132150823206
 21
328.117113829851
 31
0.0
  0
LINE
  5
41FE
330
1F
100
AcDbEntity
  8
SPOJOVACÍ
  6
DASHED
100
AcDbLine
 10
1540.006941158195
 20
330.3408944064482
 30
0.0
 11
1539.692357566196
 21
330.026310812863
 31
0.0
  0
LINE
  5
41FF
330
1F
100
AcDbEntity
  8
SPOJOVACÍ
  6
DASHED
100
AcDbLine
 10
1540.006941158195
 20
330.3408944064482
 30
0.0
 11
1539.692357566196
 21
330.5229809693666
 31
0.0
  0
LINE
  5
4200
330
1F
100
AcDbEntity
  8
SPOJOVACÍ
  6
DASHED
100
AcDbLine
 10
1539.132150823206
 20
332.818046498544
 30
0.0
 11
1539.132150823206
 21
330.7197894247047
 31
0.0
  0
LINE
  5
4201
330
1F
100
AcDbEntity
  8
SPOJOVACÍ
  6
DASHED
100
AcDbLine
 10
1540.006941158195
 20
332.9396958192738
 30
0.0
 11
1539.692357566196
 21
332.6251122254581
 31
0.0
  0
LINE
  5
4202
330
1F
100
AcDbEntity
  8
SPOJOVACÍ
  6
DASHED
100
AcDbLine
 10
1540.006941158195
 20
332.9396958192738
 30
0.0
 11
1539.692357566196
 21
333.1217823821922
 31
0.0
  0
LINE
  5
4203
330
1F
100
AcDbEntity
  8
SPOJOVACÍ
  6
DASHED
100
AcDbLine
 10
1539.132150823206
 20
335.4081713134998
 30
0.0
 11
1539.132150823206
 21
333.3021658753797
 31
0.0
  0
LINE
  5
4204
330
1F
100
AcDbEntity
  8
SPOJOVACÍ
  6
DASHED
100
AcDbLine
 10
1540.006941158195
 20
335.5259464519773
 30
0.0
 11
1539.692357566196
 21
335.2113628583917
 31
0.0
  0
LINE
  5
4205
330
1F
100
AcDbEntity
  8
SPOJOVACÍ
  6
DASHED
100
AcDbLine
 10
1540.006941158195
 20
335.5259464519773
 30
0.0
 11
1539.692357566196
 21
335.7080330148952
 31
0.0
  0
LINE
  5
4206
330
1F
100
AcDbEntity
  8
SPOJOVACÍ
  6
DASHED
100
AcDbLine
 10
1539.132150823206
 20
338.0030985440727
 30
0.0
 11
1539.132150823206
 21
335.9048414702339
 31
0.0
  0
LINE
  5
4207
330
1F
100
AcDbEntity
  8
SPOJOVACÍ
  6
DASHED
100
AcDbLine
 10
1540.006941158195
 20
338.124747864803
 30
0.0
 11
1539.692357566196
 21
337.8101642709872
 31
0.0
  0
LINE
  5
4208
330
1F
100
AcDbEntity
  8
SPOJOVACÍ
  6
DASHED
100
AcDbLine
 10
1540.006941158195
 20
338.124747864803
 30
0.0
 11
1539.692357566196
 21
338.3068344277209
 31
0.0
  0
LINE
  5
4209
330
1F
100
AcDbEntity
  8
SPOJOVACÍ
  6
DASHED
100
AcDbLine
 10
1539.132150823206
 20
340.5893491770067
 30
0.0
 11
1539.132150823206
 21
338.4910921031675
 31
0.0
  0
LINE
  5
420A
330
1F
100
AcDbEntity
  8
SPOJOVACÍ
  6
DASHED
100
AcDbLine
 10
1540.006941158195
 20
340.7109984977365
 30
0.0
 11
1539.692357566196
 21
340.3964149039207
 31
0.0
  0
LINE
  5
420B
330
1F
100
AcDbEntity
  8
SPOJOVACÍ
  6
DASHED
100
AcDbLine
 10
1540.006941158195
 20
340.7109984977365
 30
0.0
 11
1539.692357566196
 21
340.8930850606549
 31
0.0
  0
LINE
  5
420C
330
1F
100
AcDbEntity
  8
SPOJOVACÍ
  6
DASHED
100
AcDbLine
 10
1539.132150823206
 20
342.9633961776581
 30
0.0
 11
1539.132150823206
 21
341.0814526453488
 31
0.0
  0
LINE
  5
420D
330
1F
100
AcDbEntity
  8
SPOJOVACÍ
  6
DASHED
100
AcDbLine
 10
1539.132150823206
 20
342.9633961776568
 30
0.0
 11
1539.321210911312
 21
344.2325782628632
 31
0.0
  0
LINE
  5
420E
330
1F
100
AcDbEntity
  8
SPOJOVACÍ
  6
DASHED
100
AcDbLine
 10
1539.321210911312
 20
344.2325782628632
 30
0.0
 11
1539.831828123651
 21
345.410329648546
 31
0.0
  0
LINE
  5
420F
330
1F
100
AcDbEntity
  8
SPOJOVACÍ
  6
DASHED
100
AcDbLine
 10
1539.831828123651
 20
345.410329648546
 30
0.0
 11
1540.62990965495
 21
346.416067344901
 31
0.0
  0
LINE
  5
4210
330
1F
100
AcDbEntity
  8
SPOJOVACÍ
  6
DASHED
100
AcDbLine
 10
1540.62990965495
 20
346.416067344901
 30
0.0
 11
1541.660442117763
 21
347.1808309090989
 31
0.0
  0
LINE
  5
4211
330
1F
100
AcDbEntity
  8
SPOJOVACÍ
  6
DASHED
100
AcDbLine
 10
1533.759434959376
 20
348.460860704473
 30
0.0
 11
1533.759434959376
 21
347.4613216994558
 31
0.0
  0
LINE
  5
4212
330
1F
100
AcDbEntity
  8
SPOJOVACÍ
  6
DASHED
100
AcDbLine
 10
1533.759434959376
 20
347.4613216994558
 30
0.0
 11
1534.883722633974
 21
346.8414525492727
 31
0.0
  0
LINE
  5
4213
330
1F
100
AcDbEntity
  8
SPOJOVACÍ
  6
DASHED
100
AcDbLine
 10
1534.883722633974
 20
346.8414525492727
 30
0.0
 11
1535.808877340972
 21
345.9511654820922
 31
0.0
  0
LINE
  5
4214
330
1F
100
AcDbEntity
  8
SPOJOVACÍ
  6
DASHED
100
AcDbLine
 10
1535.808877340972
 20
345.9511654820922
 30
0.0
 11
1536.472137330245
 21
344.8524474132706
 31
0.0
  0
LINE
  5
4215
330
1F
100
AcDbEntity
  8
SPOJOVACÍ
  6
DASHED
100
AcDbLine
 10
1536.472137330245
 20
344.8524474132706
 30
0.0
 11
1536.828562090206
 21
343.6189078040175
 31
0.0
  0
LINE
  5
4216
330
1F
100
AcDbEntity
  8
SPOJOVACÍ
  6
DASHED
100
AcDbLine
 10
1536.828562090206
 20
343.6189078040175
 30
0.0
 11
1536.883575477646
 21
342.9633961776568
 31
0.0
  0
LINE
  5
4217
330
1F
100
AcDbEntity
  8
SPOJOVACÍ
  6
DASHED
100
AcDbLine
 10
1536.856068783927
 20
343.2911519908372
 30
0.0
 11
1536.883575477646
 21
341.8375283480123
 31
0.0
  0
LINE
  5
4218
330
1F
100
AcDbEntity
  8
SPOJOVACÍ
  6
DASHED
100
AcDbLine
 10
1536.323368734656
 20
342.0258959327048
 30
0.0
 11
1539.692357566196
 21
340.8930850606549
 31
0.0
  0
LINE
  5
4219
330
1F
100
AcDbEntity
  8
SPOJOVACÍ
  6
DASHED
100
AcDbLine
 10
1536.008785139021
 20
341.7105375025295
 30
0.0
 11
1536.323368734656
 21
342.0258959327048
 31
0.0
  0
LINE
  5
421A
330
1F
100
AcDbEntity
  8
SPOJOVACÍ
  6
DASHED
100
AcDbLine
 10
1536.008785139021
 20
341.7105375025295
 30
0.0
 11
1536.323368734656
 21
341.5292257762013
 31
0.0
  0
LINE
  5
421B
330
1F
100
AcDbEntity
  8
SPOJOVACÍ
  6
DASHED
100
AcDbLine
 10
1536.323368734656
 20
341.5292257762013
 30
0.0
 11
1539.692357566196
 21
340.3964149039207
 31
0.0
  0
LINE
  5
421C
330
1F
100
AcDbEntity
  8
SPOJOVACÍ
  6
DASHED
100
AcDbLine
 10
1536.883575477646
 20
341.3502385589519
 30
0.0
 11
1536.883575477646
 21
339.2519814851131
 31
0.0
  0
LINE
  5
421D
330
1F
100
AcDbEntity
  8
SPOJOVACÍ
  6
DASHED
100
AcDbLine
 10
1536.323368734656
 20
339.4396452997713
 30
0.0
 11
1539.692357566196
 21
338.3068344277209
 31
0.0
  0
LINE
  5
421E
330
1F
100
AcDbEntity
  8
SPOJOVACÍ
  6
DASHED
100
AcDbLine
 10
1536.008785139021
 20
339.1242868695959
 30
0.0
 11
1536.323368734656
 21
339.4396452997713
 31
0.0
  0
LINE
  5
421F
330
1F
100
AcDbEntity
  8
SPOJOVACÍ
  6
DASHED
100
AcDbLine
 10
1536.008785139021
 20
339.1242868695959
 30
0.0
 11
1536.323368734656
 21
338.9429751432677
 31
0.0
  0
LINE
  5
4220
330
1F
100
AcDbEntity
  8
SPOJOVACÍ
  6
DASHED
100
AcDbLine
 10
1536.323368734656
 20
338.9429751432677
 30
0.0
 11
1539.692357566196
 21
337.8101642709872
 31
0.0
  0
LINE
  5
4221
330
1F
100
AcDbEntity
  8
SPOJOVACÍ
  6
DASHED
100
AcDbLine
 10
1536.883575477646
 20
338.7639879260183
 30
0.0
 11
1536.883575477646
 21
336.665730852179
 31
0.0
  0
LINE
  5
4222
330
1F
100
AcDbEntity
  8
SPOJOVACÍ
  6
DASHED
100
AcDbLine
 10
1536.323368734656
 20
336.8400690508166
 30
0.0
 11
1539.692357566196
 21
335.7080330148952
 31
0.0
  0
LINE
  5
4223
330
1F
100
AcDbEntity
  8
SPOJOVACÍ
  6
DASHED
100
AcDbLine
 10
1536.008785139021
 20
336.5254854570008
 30
0.0
 11
1536.323368734656
 21
336.8400690508166
 31
0.0
  0
LINE
  5
4224
330
1F
100
AcDbEntity
  8
SPOJOVACÍ
  6
DASHED
100
AcDbLine
 10
1536.008785139021
 20
336.5254854570008
 30
0.0
 11
1536.323368734656
 21
336.3433988940824
 31
0.0
  0
LINE
  5
4225
330
1F
100
AcDbEntity
  8
SPOJOVACÍ
  6
DASHED
100
AcDbLine
 10
1536.323368734656
 20
336.3433988940824
 30
0.0
 11
1539.692357566196
 21
335.2113628583917
 31
0.0
  0
LINE
  5
4226
330
1F
100
AcDbEntity
  8
SPOJOVACÍ
  6
DASHED
100
AcDbLine
 10
1536.883575477646
 20
336.1628620041138
 30
0.0
 11
1536.883575477646
 21
334.0630552573253
 31
0.0
  0
LINE
  5
4227
330
1F
100
AcDbEntity
  8
SPOJOVACÍ
  6
DASHED
100
AcDbLine
 10
1536.323368734656
 20
334.2545932542421
 30
0.0
 11
1539.692357566196
 21
333.1217823821922
 31
0.0
  0
LINE
  5
4228
330
1F
100
AcDbEntity
  8
SPOJOVACÍ
  6
DASHED
100
AcDbLine
 10
1536.008785139021
 20
333.9392348240668
 30
0.0
 11
1536.323368734656
 21
334.2545932542421
 31
0.0
  0
LINE
  5
4229
330
1F
100
AcDbEntity
  8
SPOJOVACÍ
  6
DASHED
100
AcDbLine
 10
1536.008785139021
 20
333.9392348240668
 30
0.0
 11
1536.323368734656
 21
333.7579230977386
 31
0.0
  0
LINE
  5
422A
330
1F
100
AcDbEntity
  8
SPOJOVACÍ
  6
DASHED
100
AcDbLine
 10
1536.323368734656
 20
333.7579230977386
 30
0.0
 11
1539.692357566196
 21
332.6251122254581
 31
0.0
  0
LINE
  5
422B
330
1F
100
AcDbEntity
  8
SPOJOVACÍ
  6
DASHED
100
AcDbLine
 10
1536.883575477646
 20
333.5789358804892
 30
0.0
 11
1536.883575477646
 21
331.4806788066504
 31
0.0
  0
LINE
  5
422C
330
1F
100
AcDbEntity
  8
SPOJOVACÍ
  6
DASHED
100
AcDbLine
 10
1536.323368734656
 20
331.6550170052875
 30
0.0
 11
1539.692357566196
 21
330.5229809693666
 31
0.0
  0
LINE
  5
422D
330
1F
100
AcDbEntity
  8
SPOJOVACÍ
  6
DASHED
100
AcDbLine
 10
1536.008785139021
 20
331.3404334114717
 30
0.0
 11
1536.323368734656
 21
331.6550170052875
 31
0.0
  0
LINE
  5
422E
330
1F
100
AcDbEntity
  8
SPOJOVACÍ
  6
DASHED
100
AcDbLine
 10
1536.008785139021
 20
331.3404334114717
 30
0.0
 11
1536.323368734656
 21
331.1583468485533
 31
0.0
  0
LINE
  5
422F
330
1F
100
AcDbEntity
  8
SPOJOVACÍ
  6
DASHED
100
AcDbLine
 10
1536.323368734656
 20
331.1583468485533
 30
0.0
 11
1539.692357566196
 21
330.026310812863
 31
0.0
  0
LINE
  5
4230
330
1F
100
AcDbEntity
  8
SPOJOVACÍ
  6
DASHED
100
AcDbLine
 10
1536.883575477646
 20
330.9778099585847
 30
0.0
 11
1536.883575477646
 21
328.8780032117962
 31
0.0
  0
LINE
  5
4231
330
1F
100
AcDbEntity
  8
SPOJOVACÍ
  6
DASHED
100
AcDbLine
 10
1533.759434959376
 20
347.4613216994558
 30
0.0
 11
1542.25629133784
 21
347.4613216994558
 31
0.0
  0
LINE
  5
4232
330
1F
100
AcDbEntity
  8
SPOJOVACÍ
  6
DASHED
100
AcDbLine
 10
1541.660442117763
 20
347.1808309090989
 30
0.0
 11
1542.25629133784
 21
347.4613216994558
 31
0.0
  0
LINE
  5
4233
330
1F
100
AcDbEntity
  8
SPOJOVACÍ
  6
DASHED
100
AcDbLine
 10
1542.25629133784
 20
348.460860704473
 30
0.0
 11
1542.25629133784
 21
347.4613216994558
 31
0.0
  0
LINE
  5
4234
330
1F
100
AcDbEntity
  8
SPOJOVACÍ
  6
DASHED
100
AcDbLine
 10
1533.759434959376
 20
348.460860704473
 30
0.0
 11
1542.25629133784
 21
348.460860704473
 31
0.0
  0
TEXT
  5
4235
330
1F
100
AcDbEntity
  8
POPIS
100
AcDbText
 10
1688.610153911076
 20
435.8053227163314
 30
0.0
 40
25.0
  1
05
 41
0.85
  7
SIMPLEX7
100
AcDbText
  0
TEXT
  5
4236
330
1F
100
AcDbEntity
  8
POPIS
100
AcDbText
 10
1688.610153911076
 20
542.9788405113673
 30
0.0
 40
25.0
  1
02
 41
0.85
  7
SIMPLEX7
100
AcDbText
  0
TEXT
  5
4237
330
1F
100
AcDbEntity
  8
POPIS
100
AcDbText
 10
1688.610153911076
 20
505.0947554737801
 30
0.0
 40
25.0
  1
03
 41
0.85
  7
SIMPLEX7
100
AcDbText
  0
TEXT
  5
4238
330
1F
100
AcDbEntity
  8
POPIS
100
AcDbText
 10
1688.610153911076
 20
469.6905942556173
 30
0.0
 40
25.0
  1
04
 41
0.85
  7
SIMPLEX7
100
AcDbText
  0
TEXT
  5
4239
330
1F
100
AcDbEntity
  8
POPIS
100
AcDbText
 10
1688.610153911076
 20
398.9697827134392
 30
0.0
 40
25.0
  1
06
 41
0.85
  7
SIMPLEX7
100
AcDbText
  0
TEXT
  5
423A
330
1F
100
AcDbEntity
  8
POPIS
100
AcDbText
 10
1688.610153911076
 20
364.7163901742411
 30
0.0
 40
25.0
  1
07
 41
0.85
  7
SIMPLEX7
100
AcDbText
  0
CIRCLE
  5
423B
330
1F
100
AcDbEntity
  8
POPIS
100
AcDbCircle
 10
2034.299364349268
 20
536.3911002380342
 30
0.0
 40
8.909248386336209
  0
TEXT
  5
423C
330
1F
100
AcDbEntity
  8
POPIS
100
AcDbText
 10
2030.492141105118
 20
531.9548236420438
 30
0.0
 40
9.600000000000001
  1
R
 41
0.85
  7
SIMPLEX7
100
AcDbText
  0
ENDSEC
  0
SECTION
  2
OBJECTS
  0
DICTIONARY
  5
C
330
0
100
AcDbDictionary
281
     1
  3
ACAD_GROUP
350
D
  3
ACAD_LAYOUT
350
1A
  3
ACAD_MLINESTYLE
350
17
  3
ACAD_PLOTSETTINGS
350
19
  3
ACAD_PLOTSTYLENAME
350
E
  3
AcDbVariableDictionary
350
4249
  0
DICTIONARY
  5
D
102
{ACAD_REACTORS
330
C
102
}
330
C
100
AcDbDictionary
281
     1
  0
DICTIONARY
  5
1A
102
{ACAD_REACTORS
330
C
102
}
330
C
100
AcDbDictionary
281
     1
  3
Model
350
22
  3
Rozvržení1
350
1E
  3
Rozvržení2
350
26
  0
DICTIONARY
  5
17
102
{ACAD_REACTORS
330
C
102
}
330
C
100
AcDbDictionary
281
     1
  3
Standard
350
18
  0
DICTIONARY
  5
19
102
{ACAD_REACTORS
330
C
102
}
330
C
100
AcDbDictionary
281
     1
  0
ACDBDICTIONARYWDFLT
  5
E
102
{ACAD_REACTORS
330
C
102
}
330
C
100
AcDbDictionary
281
     1
  3
Normal
350
F
100
AcDbDictionaryWithDefault
340
F
  0
DICTIONARY
  5
4249
102
{ACAD_REACTORS
330
C
102
}
330
C
100
AcDbDictionary
281
     1
  3
DIMASSOC
350
424A
  0
LAYOUT
  5
22
102
{ACAD_REACTORS
330
1A
102
}
330
1A
100
AcDbPlotSettings
  1

  2
HP DeskJet 690C
  4

  6

 40
0.0
 41
0.0
 42
0.0
 43
0.0
 44
0.0
 45
0.0
 46
0.0
 47
0.0
 48
0.0
 49
0.0
140
0.0
141
0.0
142
1.0
143
1.0
 70
  1712
 72
     0
 73
     0
 74
     0
  7
monochrome.ctb
 75
     0
147
1.0
148
0.0
149
0.0
100
AcDbLayout
  1
Model
 70
     1
 71
     0
 10
0.0
 20
0.0
 11
12.0
 21
9.0
 12
0.0
 22
0.0
 32
0.0
 14
0.0
 24
0.0
 34
0.0
 15
0.0
 25
0.0
 35
0.0
146
0.0
 13
0.0
 23
0.0
 33
0.0
 16
1.0
 26
0.0
 36
0.0
 17
0.0
 27
1.0
 37
0.0
 76
     0
330
1F
  0
LAYOUT
  5
1E
102
{ACAD_REACTORS
330
1A
102
}
330
1A
100
AcDbPlotSettings
  1

  2
HP DeskJet 690C
  4

  6

 40
0.0
 41
0.0
 42
0.0
 43
0.0
 44
0.0
 45
0.0
 46
0.0
 47
0.0
 48
0.0
 49
0.0
140
0.0
141
0.0
142
1.0
143
1.0
 70
   688
 72
     0
 73
     0
 74
     5
  7
monochrome.ctb
 75
    16
147
1.0
148
0.0
149
0.0
100
AcDbLayout
  1
Rozvržení1
 70
     1
 71
     1
 10
0.0
 20
0.0
 11
420.0
 21
297.0
 12
0.0
 22
0.0
 32
0.0
 14
1.000000000000000E+20
 24
1.000000000000000E+20
 34
1.000000000000000E+20
 15
-1.000000000000000E+20
 25
-1.000000000000000E+20
 35
-1.000000000000000E+20
146
0.0
 13
0.0
 23
0.0
 33
0.0
 16
1.0
 26
0.0
 36
0.0
 17
0.0
 27
1.0
 37
0.0
 76
     0
330
1B
  0
LAYOUT
  5
26
102
{ACAD_REACTORS
330
1A
102
}
330
1A
100
AcDbPlotSettings
  1

  2
HP DeskJet 690C
  4

  6

 40
0.0
 41
0.0
 42
0.0
 43
0.0
 44
0.0
 45
0.0
 46
0.0
 47
0.0
 48
0.0
 49
0.0
140
0.0
141
0.0
142
1.0
143
1.0
 70
   688
 72
     0
 73
     0
 74
     5
  7
monochrome.ctb
 75
    16
147
1.0
148
0.0
149
0.0
100
AcDbLayout
  1
Rozvržení2
 70
     1
 71
     2
 10
0.0
 20
0.0
 11
12.0
 21
9.0
 12
0.0
 22
0.0
 32
0.0
 14
0.0
 24
0.0
 34
0.0
 15
0.0
 25
0.0
 35
0.0
146
0.0
 13
0.0
 23
0.0
 33
0.0
 16
1.0
 26
0.0
 36
0.0
 17
0.0
 27
1.0
 37
0.0
 76
     0
330
23
  0
MLINESTYLE
  5
18
102
{ACAD_REACTORS
330
17
102
}
330
17
100
AcDbMlineStyle
  2
STANDARD
 70
     0
  3

 62
   256
 51
90.0
 52
90.0
 71
     2
 49
0.5
 62
   256
  6
BYLAYER
 49
-0.5
 62
   256
  6
BYLAYER
  0
ACDBPLACEHOLDER
  5
F
102
{ACAD_REACTORS
330
E
102
}
330
E
  0
DICTIONARYVAR
  5
424A
102
{ACAD_REACTORS
330
4249
102
}
330
4249
100
DictionaryVariables
280
     0
  1
1
  0
ENDSEC
  0
EOF
