  0
SECTION
  2
HEADER
  9
$ACADVER
  1
AC1015
  9
$ACADMAINTVER
 70
    14
  9
$DWGCODEPAGE
  3
ANSI_1250
  9
$INSBASE
 10
0.0
 20
0.0
 30
0.0
  9
$EXTMIN
 10
1333.028190727618
 20
-192.9480673601556
 30
-0.0015258207003583
  9
$EXTMAX
 10
2821.433419289549
 20
583.3845769321751
 30
0.0000000349246037
  9
$LIMMIN
 10
0.0
 20
0.0
  9
$LIMMAX
 10
420.0
 20
297.0
  9
$ORTHOMODE
 70
     1
  9
$REGENMODE
 70
     1
  9
$FILLMODE
 70
     1
  9
$QTEXTMODE
 70
     0
  9
$MIRRTEXT
 70
     1
  9
$LTSCALE
 40
1.0
  9
$ATTMODE
 70
     1
  9
$TEXTSIZE
 40
2.5
  9
$TRACEWID
 40
1.0
  9
$TEXTSTYLE
  7
Standard
  9
$CLAYER
  8
0
  9
$CELTYPE
  6
ByLayer
  9
$CECOLOR
 62
   256
  9
$CELTSCALE
 40
1.0
  9
$DISPSILH
 70
     0
  9
$DIMSCALE
 40
1.0
  9
$DIMASZ
 40
2.5
  9
$DIMEXO
 40
0.625
  9
$DIMDLI
 40
3.75
  9
$DIMRND
 40
0.0
  9
$DIMDLE
 40
0.0
  9
$DIMEXE
 40
1.25
  9
$DIMTP
 40
0.0
  9
$DIMTM
 40
0.0
  9
$DIMTXT
 40
2.5
  9
$DIMCEN
 40
2.5
  9
$DIMTSZ
 40
0.0
  9
$DIMTOL
 70
     0
  9
$DIMLIM
 70
     0
  9
$DIMTIH
 70
     0
  9
$DIMTOH
 70
     0
  9
$DIMSE1
 70
     0
  9
$DIMSE2
 70
     0
  9
$DIMTAD
 70
     1
  9
$DIMZIN
 70
     8
  9
$DIMBLK
  1

  9
$DIMASO
 70
     1
  9
$DIMSHO
 70
     1
  9
$DIMPOST
  1

  9
$DIMAPOST
  1

  9
$DIMALT
 70
     0
  9
$DIMALTD
 70
     3
  9
$DIMALTF
 40
0.03937007874016
  9
$DIMLFAC
 40
1.0
  9
$DIMTOFL
 70
     1
  9
$DIMTVP
 40
0.0
  9
$DIMTIX
 70
     0
  9
$DIMSOXD
 70
     0
  9
$DIMSAH
 70
     0
  9
$DIMBLK1
  1

  9
$DIMBLK2
  1

  9
$DIMSTYLE
  2
ISO-25
  9
$DIMCLRD
 70
     0
  9
$DIMCLRE
 70
     0
  9
$DIMCLRT
 70
     0
  9
$DIMTFAC
 40
1.0
  9
$DIMGAP
 40
0.625
  9
$DIMJUST
 70
     0
  9
$DIMSD1
 70
     0
  9
$DIMSD2
 70
     0
  9
$DIMTOLJ
 70
     0
  9
$DIMTZIN
 70
     8
  9
$DIMALTZ
 70
     0
  9
$DIMALTTZ
 70
     0
  9
$DIMUPT
 70
     0
  9
$DIMDEC
 70
     2
  9
$DIMTDEC
 70
     2
  9
$DIMALTU
 70
     2
  9
$DIMALTTD
 70
     3
  9
$DIMTXSTY
  7
Standard
  9
$DIMAUNIT
 70
     0
  9
$DIMADEC
 70
     0
  9
$DIMALTRND
 40
0.0
  9
$DIMAZIN
 70
     0
  9
$DIMDSEP
 70
    44
  9
$DIMATFIT
 70
     3
  9
$DIMFRAC
 70
     0
  9
$DIMLDRBLK
  1

  9
$DIMLUNIT
 70
     2
  9
$DIMLWD
 70
    -2
  9
$DIMLWE
 70
    -2
  9
$DIMTMOVE
 70
     0
  9
$LUNITS
 70
     2
  9
$LUPREC
 70
     4
  9
$SKETCHINC
 40
1.0
  9
$FILLETRAD
 40
10.0
  9
$AUNITS
 70
     0
  9
$AUPREC
 70
     0
  9
$MENU
  1
.
  9
$ELEVATION
 40
0.0
  9
$PELEVATION
 40
0.0
  9
$THICKNESS
 40
0.0
  9
$LIMCHECK
 70
     0
  9
$CHAMFERA
 40
10.0
  9
$CHAMFERB
 40
10.0
  9
$CHAMFERC
 40
20.0
  9
$CHAMFERD
 40
0.0
  9
$SKPOLY
 70
     0
  9
$TDCREATE
 40
2452332.468649768
  9
$TDUCREATE
 40
2452332.426983101
  9
$TDUPDATE
 40
2455595.604602361
  9
$TDUUPDATE
 40
2455595.562935694
  9
$TDINDWG
 40
0.0555154977
  9
$TDUSRTIMER
 40
0.0555129514
  9
$USRTIMER
 70
     1
  9
$ANGBASE
 50
0.0
  9
$ANGDIR
 70
     0
  9
$PDMODE
 70
     0
  9
$PDSIZE
 40
0.0
  9
$PLINEWID
 40
0.0
  9
$SPLFRAME
 70
     0
  9
$SPLINETYPE
 70
     6
  9
$SPLINESEGS
 70
     8
  9
$HANDSEED
  5
2D9C
  9
$SURFTAB1
 70
     6
  9
$SURFTAB2
 70
     6
  9
$SURFTYPE
 70
     6
  9
$SURFU
 70
     6
  9
$SURFV
 70
     6
  9
$UCSBASE
  2

  9
$UCSNAME
  2

  9
$UCSORG
 10
0.0
 20
0.0
 30
0.0
  9
$UCSXDIR
 10
1.0
 20
0.0
 30
0.0
  9
$UCSYDIR
 10
0.0
 20
1.0
 30
0.0
  9
$UCSORTHOREF
  2

  9
$UCSORTHOVIEW
 70
     0
  9
$UCSORGTOP
 10
0.0
 20
0.0
 30
0.0
  9
$UCSORGBOTTOM
 10
0.0
 20
0.0
 30
0.0
  9
$UCSORGLEFT
 10
0.0
 20
0.0
 30
0.0
  9
$UCSORGRIGHT
 10
0.0
 20
0.0
 30
0.0
  9
$UCSORGFRONT
 10
0.0
 20
0.0
 30
0.0
  9
$UCSORGBACK
 10
0.0
 20
0.0
 30
0.0
  9
$PUCSBASE
  2

  9
$PUCSNAME
  2

  9
$PUCSORG
 10
0.0
 20
0.0
 30
0.0
  9
$PUCSXDIR
 10
1.0
 20
0.0
 30
0.0
  9
$PUCSYDIR
 10
0.0
 20
1.0
 30
0.0
  9
$PUCSORTHOREF
  2

  9
$PUCSORTHOVIEW
 70
     0
  9
$PUCSORGTOP
 10
0.0
 20
0.0
 30
0.0
  9
$PUCSORGBOTTOM
 10
0.0
 20
0.0
 30
0.0
  9
$PUCSORGLEFT
 10
0.0
 20
0.0
 30
0.0
  9
$PUCSORGRIGHT
 10
0.0
 20
0.0
 30
0.0
  9
$PUCSORGFRONT
 10
0.0
 20
0.0
 30
0.0
  9
$PUCSORGBACK
 10
0.0
 20
0.0
 30
0.0
  9
$USERI1
 70
     0
  9
$USERI2
 70
     0
  9
$USERI3
 70
     0
  9
$USERI4
 70
     0
  9
$USERI5
 70
     0
  9
$USERR1
 40
0.0
  9
$USERR2
 40
0.0
  9
$USERR3
 40
0.0
  9
$USERR4
 40
0.0
  9
$USERR5
 40
0.0
  9
$WORLDVIEW
 70
     1
  9
$SHADEDGE
 70
     3
  9
$SHADEDIF
 70
    70
  9
$TILEMODE
 70
     1
  9
$MAXACTVP
 70
    64
  9
$PINSBASE
 10
0.0
 20
0.0
 30
0.0
  9
$PLIMCHECK
 70
     0
  9
$PEXTMIN
 10
1.000000000000000E+20
 20
1.000000000000000E+20
 30
1.000000000000000E+20
  9
$PEXTMAX
 10
-1.000000000000000E+20
 20
-1.000000000000000E+20
 30
-1.000000000000000E+20
  9
$PLIMMIN
 10
0.0
 20
0.0
  9
$PLIMMAX
 10
420.0
 20
297.0
  9
$UNITMODE
 70
     0
  9
$VISRETAIN
 70
     1
  9
$PLINEGEN
 70
     0
  9
$PSLTSCALE
 70
     1
  9
$TREEDEPTH
 70
  3020
  9
$CMLSTYLE
  2
Standard
  9
$CMLJUST
 70
     0
  9
$CMLSCALE
 40
20.0
  9
$PROXYGRAPHICS
 70
     1
  9
$MEASUREMENT
 70
     1
  9
$CELWEIGHT
370
    -1
  9
$ENDCAPS
280
     0
  9
$JOINSTYLE
280
     0
  9
$LWDISPLAY
290
     0
  9
$INSUNITS
 70
     4
  9
$HYPERLINKBASE
  1

  9
$STYLESHEET
  1

  9
$XEDIT
290
     1
  9
$CEPSNTYPE
380
     0
  9
$PSTYLEMODE
290
     1
  9
$FINGERPRINTGUID
  2
{A3477950-F6EC-44A0-8776-592C40033ABE}
  9
$VERSIONGUID
  2
{478B3B0B-F263-4247-B67A-10CC8DC31A0F}
  9
$EXTNAMES
290
     1
  9
$PSVPSCALE
 40
0.0
  9
$OLESTARTUP
290
     0
  0
ENDSEC
  0
SECTION
  2
CLASSES
  0
CLASS
  1
ACDBDICTIONARYWDFLT
  2
AcDbDictionaryWithDefault
  3
AutoCAD 2000
 90
        0
280
     0
281
     0
  0
CLASS
  1
ACDBPLACEHOLDER
  2
AcDbPlaceHolder
  3
AutoCAD 2000
 90
        0
280
     0
281
     0
  0
CLASS
  1
LAYOUT
  2
AcDbLayout
  3
AutoCAD 2000
 90
        0
280
     0
281
     0
  0
CLASS
  1
DICTIONARYVAR
  2
AcDbDictionaryVar
  3
AutoCAD 2000
 90
        0
280
     0
281
     0
  0
ENDSEC
  0
SECTION
  2
TABLES
  0
TABLE
  2
VPORT
  5
8
330
0
100
AcDbSymbolTable
 70
     2
  0
VPORT
  5
2D9B
330
8
100
AcDbSymbolTableRecord
100
AcDbViewportTableRecord
  2
*Active
 70
     0
 10
0.0
 20
0.0
 11
1.0
 21
1.0
 12
1936.081602853545
 22
156.2070681779257
 13
0.0
 23
0.0
 14
10.0
 24
10.0
 15
10.0
 25
10.0
 16
0.0
 26
0.0
 36
1.0
 17
0.0
 27
0.0
 37
0.0
 40
877.180887108871
 41
2.031862745098039
 42
50.0
 43
0.0
 44
0.0
 50
0.0
 51
0.0
 71
     0
 72
   100
 73
     1
 74
     3
 75
     0
 76
     0
 77
     0
 78
     0
281
     0
 65
     1
110
0.0
120
0.0
130
0.0
111
1.0
121
0.0
131
0.0
112
0.0
122
1.0
132
0.0
 79
     0
146
0.0
  0
ENDTAB
  0
TABLE
  2
LTYPE
  5
5
330
0
100
AcDbSymbolTable
 70
     4
  0
LTYPE
  5
14
330
5
100
AcDbSymbolTableRecord
100
AcDbLinetypeTableRecord
  2
ByBlock
 70
     0
  3

 72
    65
 73
     0
 40
0.0
  0
LTYPE
  5
15
330
5
100
AcDbSymbolTableRecord
100
AcDbLinetypeTableRecord
  2
ByLayer
 70
     0
  3

 72
    65
 73
     0
 40
0.0
  0
LTYPE
  5
16
330
5
100
AcDbSymbolTableRecord
100
AcDbLinetypeTableRecord
  2
Continuous
 70
     0
  3
Solid line
 72
    65
 73
     0
 40
0.0
  0
LTYPE
  5
279D
330
5
100
AcDbSymbolTableRecord
100
AcDbLinetypeTableRecord
  2
DASHED
 70
     0
  3
Dashed __ __ __ __ __ __ __ __ __ __ __ __ __ _
 72
    65
 73
     2
 40
19.04999999999999
 49
12.7
 74
     0
 49
-6.349999999999999
 74
     0
  0
LTYPE
  5
279E
330
5
100
AcDbSymbolTableRecord
100
AcDbLinetypeTableRecord
  2
CIKCAK
 70
     0
  3
Cik-cak /\/\/\/\/\/\/\/\/\/\/\/\/\/\/\/\/\/\/\/
 72
    65
 73
     4
 40
20.32254
 49
0.00254
 74
     0
 49
-5.08
 74
     4
 75
   131
340
27A7
 46
5.08
 50
0.0
 44
-5.08
 45
0.0
 49
-10.16
 74
     4
 75
   131
340
27A7
 46
5.08
 50
180.0
 44
5.08
 45
0.0
 49
-5.08
 74
     0
  0
LTYPE
  5
279F
330
5
100
AcDbSymbolTableRecord
100
AcDbLinetypeTableRecord
  2
IZOLACE
 70
     0
  3
Izolace SSSSSSSSSSSSSSSSSSSSSSSSSSSSSSSSSSSSSSS
 72
    65
 73
     4
 40
10.16253999999999
 49
0.00254
 74
     0
 49
-2.54
 74
     4
 75
   134
340
27A7
 46
2.54
 50
0.0
 44
-2.54
 45
0.0
 49
-5.08
 74
     4
 75
   134
340
27A7
 46
2.54
 50
180.0
 44
2.54
 45
0.0
 49
-2.54
 74
     0
  0
ENDTAB
  0
TABLE
  2
LAYER
  5
2
330
0
100
AcDbSymbolTable
 70
     7
  0
LAYER
  5
10
330
2
100
AcDbSymbolTableRecord
100
AcDbLayerTableRecord
  2
0
 70
     0
 62
     7
  6
Continuous
370
    -3
390
F
  0
LAYER
  5
27A0
330
2
100
AcDbSymbolTableRecord
100
AcDbLayerTableRecord
  2
POPIS
 70
     0
 62
    30
  6
Continuous
370
    -3
390
F
  0
LAYER
  5
27A1
330
2
100
AcDbSymbolTableRecord
100
AcDbLayerTableRecord
  2
SPOJOVACÍ
 70
     0
 62
   180
  6
Continuous
370
    -3
390
F
  0
LAYER
  5
27A2
330
2
100
AcDbSymbolTableRecord
100
AcDbLayerTableRecord
  2
CETRIS
 70
     0
 62
     1
  6
Continuous
370
    -3
390
F
  0
LAYER
  5
27A3
330
2
100
AcDbSymbolTableRecord
100
AcDbLayerTableRecord
  2
izolace
 70
     0
 62
    33
  6
Continuous
370
    -3
390
F
  0
LAYER
  5
27A4
330
2
100
AcDbSymbolTableRecord
100
AcDbLayerTableRecord
  2
nášlap_vrstvy
 70
     0
 62
    73
  6
Continuous
370
    -3
390
F
  0
LAYER
  5
27A5
330
2
100
AcDbSymbolTableRecord
100
AcDbLayerTableRecord
  2
STAVBA OBRYS
 70
     0
 62
     6
  6
Continuous
370
    -3
390
F
  0
ENDTAB
  0
TABLE
  2
STYLE
  5
3
330
0
100
AcDbSymbolTable
 70
     3
  0
STYLE
  5
11
330
3
100
AcDbSymbolTableRecord
100
AcDbTextStyleTableRecord
  2
Standard
 70
     0
 40
0.0
 41
1.0
 50
0.0
 71
     0
 42
2.5
  3
txt
  4

  0
STYLE
  5
27A6
330
3
100
AcDbSymbolTableRecord
100
AcDbTextStyleTableRecord
  2
SIMPLEX7
 70
     0
 40
0.0
 41
0.85
 50
0.0
 71
     0
 42
102.0
  3
ARIAL.TTF
  4

1001
ACAD
1000
Arial CE
1071
    60962
  0
STYLE
  5
27A7
330
3
100
AcDbSymbolTableRecord
100
AcDbTextStyleTableRecord
  2

 70
     1
 40
0.0
 41
1.0
 50
0.0
 71
     0
 42
2.5
  3
ltypeshp.shx
  4

  0
ENDTAB
  0
TABLE
  2
VIEW
  5
6
330
0
100
AcDbSymbolTable
 70
     0
  0
ENDTAB
  0
TABLE
  2
UCS
  5
7
330
0
100
AcDbSymbolTable
 70
     0
  0
ENDTAB
  0
TABLE
  2
APPID
  5
9
330
0
100
AcDbSymbolTable
 70
     1
  0
APPID
  5
12
330
9
100
AcDbSymbolTableRecord
100
AcDbRegAppTableRecord
  2
ACAD
 70
     0
  0
ENDTAB
  0
TABLE
  2
DIMSTYLE
  5
A
330
0
100
AcDbSymbolTable
 70
     1
100
AcDbDimStyleTable
 71
     0
  0
DIMSTYLE
105
27
330
A
100
AcDbSymbolTableRecord
100
AcDbDimStyleTableRecord
  2
ISO-25
 70
     0
 41
2.5
 42
0.625
 43
3.75
 44
1.25
 73
     0
 74
     0
 77
     1
 78
     8
140
2.5
141
2.5
143
0.03937007874016
147
0.625
171
     3
172
     1
271
     2
272
     2
274
     3
278
    44
283
     0
284
     8
340
11
  0
ENDTAB
  0
TABLE
  2
BLOCK_RECORD
  5
1
330
0
100
AcDbSymbolTable
 70
     2
  0
BLOCK_RECORD
  5
1F
330
1
100
AcDbSymbolTableRecord
100
AcDbBlockTableRecord
  2
*Model_Space
340
22
  0
BLOCK_RECORD
  5
1B
330
1
100
AcDbSymbolTableRecord
100
AcDbBlockTableRecord
  2
*Paper_Space
340
1E
  0
BLOCK_RECORD
  5
23
330
1
100
AcDbSymbolTableRecord
100
AcDbBlockTableRecord
  2
*Paper_Space0
340
26
  0
BLOCK_RECORD
  5
2799
330
1
100
AcDbSymbolTableRecord
100
AcDbBlockTableRecord
  2
E_PUNKT
340
0
102
{BLKREFS
331
2B58
331
2B65
331
2B79
331
2C6C
331
2C6E
331
2C71
331
2A9C
331
2C86
331
2C8A
102
}
  0
ENDTAB
  0
ENDSEC
  0
SECTION
  2
BLOCKS
  0
BLOCK
  5
20
330
1F
100
AcDbEntity
  8
0
100
AcDbBlockBegin
  2
*Model_Space
 70
     0
 10
0.0
 20
0.0
 30
0.0
  3
*Model_Space
  1

  0
ENDBLK
  5
21
330
1F
100
AcDbEntity
  8
0
100
AcDbBlockEnd
  0
BLOCK
  5
1C
330
1B
100
AcDbEntity
 67
     1
  8
0
100
AcDbBlockBegin
  2
*Paper_Space
 70
     0
 10
0.0
 20
0.0
 30
0.0
  3
*Paper_Space
  1

  0
ENDBLK
  5
1D
330
1B
100
AcDbEntity
 67
     1
  8
0
100
AcDbBlockEnd
  0
BLOCK
  5
24
330
23
100
AcDbEntity
  8
0
100
AcDbBlockBegin
  2
*Paper_Space0
 70
     0
 10
0.0
 20
0.0
 30
0.0
  3
*Paper_Space0
  1

  0
ENDBLK
  5
25
330
23
100
AcDbEntity
  8
0
100
AcDbBlockEnd
  0
BLOCK
  5
279B
330
2799
100
AcDbEntity
  8
0
100
AcDbBlockBegin
  2
E_PUNKT
 70
     0
 10
0.0
 20
0.0
 30
0.0
  3
E_PUNKT
  1

  0
LWPOLYLINE
  5
279A
330
2799
100
AcDbEntity
  8
POPIS
100
AcDbPolyline
 90
        2
 70
     1
 43
2.5
 10
1.27761037562675
 20
0.0290683308725193
 42
-1.0
 10
-1.222389624373249
 20
0.0290683308725193
 42
-1.0
  0
ENDBLK
  5
279C
330
2799
100
AcDbEntity
  8
0
100
AcDbBlockEnd
  0
ENDSEC
  0
SECTION
  2
ENTITIES
  0
TEXT
  5
2A7E
330
1F
100
AcDbEntity
  8
POPIS
100
AcDbText
 10
2409.694579496529
 20
137.1439530994613
 30
0.0
 40
25.0
  1
Podlahová deska CETRIS   PD (PDB)
 41
0.7
  7
SIMPLEX7
100
AcDbText
  0
TEXT
  5
2A7F
330
1F
100
AcDbEntity
  8
POPIS
100
AcDbText
 10
2411.255475481693
 20
245.6341184920022
 30
0.0
 40
25.0
  1
Disperzní lepidlo 
 41
0.7
  7
SIMPLEX7
100
AcDbText
  0
TEXT
  5
2A80
330
1F
100
AcDbEntity
  8
POPIS
100
AcDbText
 10
2411.255475481693
 20
68.27028239438021
 30
0.0
 40
25.0
  1
Dilatační spára tl. 15 mm
 41
0.7
  7
SIMPLEX7
100
AcDbText
  0
TEXT
  5
2A81
330
1F
100
AcDbEntity
  8
POPIS
100
AcDbText
 10
2411.255475481693
 20
36.487122008639
 30
0.0
 40
25.0
  1
Stropní konstrukce
 41
0.7
  7
SIMPLEX7
100
AcDbText
  0
TEXT
  5
2A82
330
1F
100
AcDbEntity
  8
POPIS
100
AcDbText
 10
2409.694579496529
 20
103.2586815601754
 30
0.0
 40
25.0
  1
Tepelná izolace
 41
0.7
  7
SIMPLEX7
100
AcDbText
  0
TEXT
  5
2A83
330
1F
100
AcDbEntity
  8
POPIS
100
AcDbText
 10
2356.91177232195
 20
102.5537861731483
 30
0.0
 40
25.0
  1
07
 41
0.85
  7
SIMPLEX7
100
AcDbText
  0
LINE
  5
2A84
330
1F
100
AcDbEntity
  8
POPIS
100
AcDbLine
 10
2144.650912559061
 20
269.736621332797
 30
0.0
 11
2144.650912559061
 21
74.99087879424604
 31
0.0
  0
LINE
  5
2A85
330
1F
100
AcDbEntity
  8
izolace
  6
IZOLACE
 48
2.1
100
AcDbLine
 10
1374.714836181073
 20
-86.1685275048983
 30
0.0
 11
1374.714836181073
 21
126.4041288216344
 31
0.0
  0
LINE
  5
2A86
330
1F
100
AcDbEntity
  8
STAVBA OBRYS
100
AcDbLine
 10
1396.035334108431
 20
-86.1685275048983
 30
0.0
 11
1396.035334108431
 21
127.4431625796098
 31
0.0
  0
LINE
  5
2A87
330
1F
100
AcDbEntity
  8
STAVBA OBRYS
100
AcDbLine
 10
1342.334122076307
 20
-192.9111764097176
 30
0.0
 11
1342.334122076304
 21
402.8640425813565
 31
0.0
  0
LINE
  5
2A88
330
1F
100
AcDbEntity
  8
STAVBA OBRYS
100
AcDbLine
 10
1352.334122076307
 20
-192.9111764097176
 30
0.0
 11
1352.334122076304
 21
402.8640425813565
 31
0.0
  0
HATCH
  5
2A89
330
1F
100
AcDbEntity
  8
STAVBA OBRYS
100
AcDbHatch
 10
0.0
 20
0.0
 30
0.0
210
0.0
220
0.0
230
1.0
  2
BRICK
 70
     0
 71
     0
 91
        3
 92
        7
 72
     0
 73
     1
 93
        4
 10
1591.414717904802
 20
402.8640425813593
 10
1352.334122076307
 20
402.8640425813565
 10
1352.334122076307
 20
127.4431625796116
 10
1591.414717904809
 20
127.4431625796116
 97
        0
 92
        7
 72
     0
 73
     1
 93
        4
 10
1591.414717904802
 20
-86.16852750489835
 10
1352.334122076307
 20
-86.16852750489654
 10
1352.334122076307
 20
-192.4249244750188
 10
1591.414717904806
 20
-180.7995842479929
 97
        0
 92
       24
 93
        4
 72
     1
 10
1490.278513400336
 20
164.2524395782576
 11
1531.109942459004
 21
164.2524395782576
 72
     1
 10
1531.109942459004
 20
164.2524395782576
 11
1531.109942459004
 21
202.5454136573845
 72
     1
 10
1531.109942459004
 20
202.5454136573845
 11
1490.278513400336
 21
202.5454136573845
 72
     1
 10
1490.278513400336
 20
202.5454136573845
 11
1490.278513400336
 21
164.2524395782585
 97
        0
 75
     0
 76
     1
 52
0.0
 41
10.0
 77
     0
 78
     3
 53
0.0
 43
-26095.97674922139
 44
3054.162392574403
 45
0.0
 46
63.5
 79
     0
 53
90.0
 43
-26095.97674922139
 44
3054.162392574403
 45
-127.0
 46
0.0000000000000078
 79
     2
 49
63.5
 49
-63.5
 53
90.0
 43
-26032.47674922139
 44
3054.162392574403
 45
-127.0
 46
0.0000000000000078
 79
     2
 49
-63.5
 49
63.5
 47
3.017070218097292
 98
        2
 10
1515.522790211395
 20
259.5632133671862
 10
1485.333552825414
 20
-135.6729874895025
  0
HATCH
  5
2A8A
330
1F
100
AcDbEntity
  8
STAVBA OBRYS
100
AcDbHatch
 10
0.0
 20
0.0
 30
0.0
210
0.0
220
0.0
230
1.0
  2
AR-CONC
 70
     0
 71
     0
 91
        2
 92
        7
 72
     0
 73
     1
 93
        4
 10
1601.414717904802
 20
402.8640425813593
 10
1591.414717904802
 20
402.8640425813593
 10
1591.414717904802
 20
154.8745912975556
 10
1601.414717904802
 20
149.9925320033627
 97
        0
 92
        7
 72
     0
 73
     1
 93
        4
 10
1352.334122076307
 20
402.8640425813565
 10
1342.334122076304
 20
402.8640425813557
 10
1342.334122076307
 20
-192.9111764097177
 10
1352.334122076307
 20
-192.4249244750197
 97
        0
 75
     0
 76
     1
 52
90.0
 41
0.1
 77
     0
 78
    13
 53
140.0
 43
-26095.97674922139
 44
3054.162392574403
 45
1.593908553890309
 46
18.2184668996004
 79
     2
 49
1.905
 49
-20.955
 53
85.00000000000001
 43
-26095.97674922139
 44
3054.162392574403
 45
-19.10566428821799
 46
-3.524282597566697
 79
     2
 49
1.524
 49
-16.764
 53
190.4509999999999
 43
-26095.84392422139
 44
3055.680592574403
 45
-17.51166878202918
 46
14.69425016659592
 79
     2
 49
1.619
 49
-17.809
 53
136.1841999999999
 43
-26101.05674922139
 44
3054.162392574403
 45
4.204232793272717
 46
27.10790408921299
 79
     2
 49
2.857499999999999
 49
-31.4325
 53
186.6355999999999
 43
-26100.70639922139
 44
3056.421382574402
 45
-24.74255558900492
 46
23.74042344662371
 79
     2
 49
2.4285
 49
-26.7135
 53
81.18400000000004
 43
-26101.05674922139
 44
3054.162392574403
 45
-24.74251178605976
 46
23.74046058139339
 79
     2
 49
2.286
 49
-25.146
 53
111.0
 43
-26099.78674922139
 44
3056.702392574402
 45
10.22655185167625
 46
15.16148798353833
 79
     2
 49
1.905
 49
-20.955
 53
56.00000000000004
 43
-26099.78674922139
 44
3056.702392574402
 45
-18.41879661223192
 46
6.180202834764708
 79
     2
 49
1.524
 49
-16.764
 53
161.4514
 43
-26098.93453922139
 44
3057.965842574402
 45
-8.192285771605742
 46
21.34164907701245
 79
     2
 49
1.618999999999997
 49
-17.80899999999995
 53
127.5
 43
-26095.97674922139
 44
3054.162392574403
 45
-8.455503887315311
 46
0.3088603250591822
 79
     6
 49
0.0
 49
-16.5608
 49
0.0
 49
-17.018
 49
0.0
 49
-16.8275
 53
97.49999999999985
 43
-26095.97674922139
 44
3054.162392574403
 45
-10.01805748181195
 46
6.681966251030575
 79
     6
 49
0.0
 49
-9.702799999999998
 49
0.0
 49
-16.17979999999999
 49
0.0
 49
-6.413499999999999
 53
57.5
 43
-26095.97674922139
 44
3048.498192574402
 45
0.5728743992673473
 46
13.55905951668713
 79
     6
 49
0.0
 49
-6.35
 49
0.0
 49
-19.812
 49
0.0
 49
-26.289
 53
47.5
 43
-26095.97674922139
 44
3045.958192574402
 45
-2.5426491033333
 46
14.8129181386018
 79
     6
 49
0.0
 49
-8.255
 49
0.0
 49
-13.1572
 49
0.0
 49
-18.669
 47
1.255134839913078
 98
        2
 10
1595.2973396805
 20
251.431986888667
 10
1347.883924346545
 20
199.9714472213019
  0
LINE
  5
2A8B
330
1F
100
AcDbEntity
  8
STAVBA OBRYS
100
AcDbLine
 10
1591.414717904802
 20
-86.1685275048983
 30
0.0
 11
1352.334122076307
 21
-86.1685275048992
 31
0.0
  0
LINE
  5
2A8D
330
1F
100
AcDbEntity
  8
STAVBA OBRYS
100
AcDbLine
 10
1591.414717904802
 20
7.443162579609804
 30
0.0
 11
2301.1565976877
 21
7.443162579609804
 31
0.0
  0
LINE
  5
2A8E
330
1F
100
AcDbEntity
  8
STAVBA OBRYS
100
AcDbLine
 10
1601.414717904798
 20
-2.556837420390195
 30
0.0
 11
2301.1565976877
 21
-2.556837420390195
 31
0.0
  0
HATCH
  5
2A8F
330
1F
100
AcDbEntity
  8
STAVBA OBRYS
100
AcDbHatch
 10
0.0
 20
0.0
 30
0.0
210
0.0
220
0.0
230
1.0
  2
AR-CONC
 70
     0
 71
     0
 91
        1
 92
        7
 72
     0
 73
     1
 93
        6
 10
2301.1565976877
 20
7.443162579609804
 10
1591.414717904806
 20
7.443162579610714
 10
1591.414717904798
 20
-180.799584247992
 10
1601.414717904795
 20
-180.313332313295
 10
1601.414717904802
 20
-2.556837420390195
 10
2301.1565976877
 20
-2.556837420390195
 97
        0
 75
     0
 76
     1
 52
90.0
 41
0.1
 77
     0
 78
    13
 53
140.0
 43
-26095.97674922139
 44
3054.162392574403
 45
1.593908553890309
 46
18.2184668996004
 79
     2
 49
1.905
 49
-20.955
 53
85.00000000000001
 43
-26095.97674922139
 44
3054.162392574403
 45
-19.10566428821799
 46
-3.524282597566697
 79
     2
 49
1.524
 49
-16.764
 53
190.4509999999999
 43
-26095.84392422139
 44
3055.680592574403
 45
-17.51166878202918
 46
14.69425016659592
 79
     2
 49
1.619
 49
-17.809
 53
136.1841999999999
 43
-26101.05674922139
 44
3054.162392574403
 45
4.204232793272717
 46
27.10790408921299
 79
     2
 49
2.857499999999999
 49
-31.4325
 53
186.6355999999999
 43
-26100.70639922139
 44
3056.421382574402
 45
-24.74255558900492
 46
23.74042344662371
 79
     2
 49
2.4285
 49
-26.7135
 53
81.18400000000004
 43
-26101.05674922139
 44
3054.162392574403
 45
-24.74251178605976
 46
23.74046058139339
 79
     2
 49
2.286
 49
-25.146
 53
111.0
 43
-26099.78674922139
 44
3056.702392574402
 45
10.22655185167625
 46
15.16148798353833
 79
     2
 49
1.905
 49
-20.955
 53
56.00000000000004
 43
-26099.78674922139
 44
3056.702392574402
 45
-18.41879661223192
 46
6.180202834764708
 79
     2
 49
1.524
 49
-16.764
 53
161.4514
 43
-26098.93453922139
 44
3057.965842574402
 45
-8.192285771605742
 46
21.34164907701245
 79
     2
 49
1.618999999999997
 49
-17.80899999999995
 53
127.5
 43
-26095.97674922139
 44
3054.162392574403
 45
-8.455503887315311
 46
0.3088603250591822
 79
     6
 49
0.0
 49
-16.5608
 49
0.0
 49
-17.018
 49
0.0
 49
-16.8275
 53
97.49999999999985
 43
-26095.97674922139
 44
3054.162392574403
 45
-10.01805748181195
 46
6.681966251030575
 79
     6
 49
0.0
 49
-9.702799999999998
 49
0.0
 49
-16.17979999999999
 49
0.0
 49
-6.413499999999999
 53
57.5
 43
-26095.97674922139
 44
3048.498192574402
 45
0.5728743992673473
 46
13.55905951668713
 79
     6
 49
0.0
 49
-6.35
 49
0.0
 49
-19.812
 49
0.0
 49
-26.289
 53
47.5
 43
-26095.97674922139
 44
3045.958192574402
 45
-2.5426491033333
 46
14.8129181386018
 79
     6
 49
0.0
 49
-8.255
 49
0.0
 49
-13.1572
 49
0.0
 49
-18.669
 47
1.255134839913078
 98
        1
 10
1775.013066316653
 20
3.77098899898209
  0
LINE
  5
2A90
330
1F
100
AcDbEntity
  8
STAVBA OBRYS
100
AcDbLine
 10
1601.414717904798
 20
-2.556837420390195
 30
0.0
 11
1601.414717904798
 21
-180.3133323132949
 31
0.0
  0
LINE
  5
2A91
330
1F
100
AcDbEntity
  8
STAVBA OBRYS
100
AcDbLine
 10
1591.414717904802
 20
7.443162579609804
 30
0.0
 11
1591.414717904802
 21
-180.3133323132949
 31
0.0
  0
INSERT
  5
2A9C
330
1F
100
AcDbEntity
  8
POPIS
100
AcDbBlockReference
  2
E_PUNKT
 10
2144.621844228187
 20
75.01848916987291
 30
0.0
 50
270.0
  0
TEXT
  5
2A9E
330
1F
100
AcDbEntity
  8
POPIS
100
AcDbText
 10
2357.794543321984
 20
35.85594884717119
 30
0.0
 40
25.0
  1
09
 41
0.85
  7
SIMPLEX7
100
AcDbText
  0
TEXT
  5
2A9F
330
1F
100
AcDbEntity
  8
POPIS
100
AcDbText
 10
2357.794543321984
 20
67.61485544979968
 30
0.0
 40
25.0
  1
08
 41
0.85
  7
SIMPLEX7
100
AcDbText
  0
LINE
  5
2AA0
330
1F
100
AcDbEntity
  8
STAVBA OBRYS
100
AcDbLine
 10
1352.334122076304
 20
127.4431625796107
 30
0.0
 11
2301.1565976877
 21
127.4431625796098
 31
0.0
  0
TEXT
  5
2AA1
330
1F
100
AcDbEntity
  8
POPIS
100
AcDbText
 10
1333.07186847146
 20
465.478620623837
 30
0.0
 40
35.0
  1
SVISLÝ ŘEZ
 41
0.85
  7
SIMPLEX7
100
AcDbText
  0
TEXT
  5
2AA2
330
1F
100
AcDbEntity
  8
POPIS
100
AcDbText
 10
1333.07186847146
 20
520.1033636496378
 30
0.0
 40
50.0
  1
Podlahová krytina - PVC, koberec
 41
0.85
  7
SIMPLEX7
100
AcDbText
  0
LINE
  5
2AA3
330
1F
100
AcDbEntity
  8
CETRIS
100
AcDbLine
 10
1616.414717904795
 20
197.4431625796095
 30
0.0
 11
2301.156597687696
 21
197.4431625796095
 31
0.0
  0
LWPOLYLINE
  5
2AA4
330
1F
100
AcDbEntity
  8
CETRIS
100
AcDbPolyline
 90
        4
 70
     0
 43
0.0
 10
2301.156597687696
 20
173.4431625796095
 10
1616.414717904795
 20
173.4431625796095
 10
1616.414717904795
 20
173.4431625796086
 10
1616.414717904795
 20
197.4431625796095
  0
HATCH
  5
2AA5
330
1F
100
AcDbEntity
  8
CETRIS
100
AcDbHatch
 10
0.0
 20
0.0
 30
0.0
210
0.0
220
0.0
230
1.0
  2
ANSI31
 70
     0
 71
     0
 91
        6
 92
        7
 72
     0
 73
     1
 93
       37
 10
2048.680082280605
 20
197.4431625796095
 10
1947.390795828422
 20
197.4431625796095
 10
1947.390795828422
 20
196.2672343384128
 10
1946.689796745978
 20
195.937245173286
 10
1945.477405613258
 20
195.0375233330541
 10
1944.538486164671
 20
193.8543025138123
 10
1943.937760032508
 20
192.4687126483058
 10
1943.715336399441
 20
190.9755572539479
 10
1943.715336399441
 20
188.7615060394627
 10
1944.374403155901
 20
188.5398971162939
 10
1944.744501499428
 20
188.3256776305078
 10
1944.374403155901
 20
187.955579284844
 10
1943.715336399441
 20
188.1771882080574
 10
1943.715336399441
 20
185.7188582360112
 10
1944.374403155905
 20
185.4972493128424
 10
1944.744501499428
 20
185.2830298270563
 10
1944.374403155901
 20
184.9129314813907
 10
1943.715336399441
 20
185.134540404605
 10
1943.715336399441
 20
182.6612932299275
 10
1944.374403155894
 20
182.4398358859907
 10
1944.744501499428
 20
182.2256164002028
 10
1944.374403155901
 20
181.8555180548091
 10
1943.715336399442
 20
182.0769753987023
 10
1943.715336399442
 20
179.6187970059781
 10
1944.374403155898
 20
179.3971880828075
 10
1944.744501499427
 20
179.1829685970232
 10
1944.374403155901
 20
178.8128702513576
 10
1943.715336399441
 20
179.0344791745719
 10
1943.715336399441
 20
176.5612319998935
 10
1944.374403155902
 20
176.3397746559539
 10
1944.744501499427
 20
176.1255551701678
 10
1944.374403155901
 20
175.7554568247732
 10
1943.715336399442
 20
175.9769141686674
 10
1943.715336399441
 20
173.5030585803478
 10
1943.893467597264
 20
173.4431625796086
 10
1969.468309263172
 20
173.4431625796086
 10
2048.680082280604
 20
173.4431625796095
 97
        0
 92
        7
 72
     0
 73
     1
 93
       44
 10
1941.069953639959
 20
186.0240412314487
 10
1940.410886883496
 20
186.2456501546621
 10
1940.040788535696
 20
186.4589580679893
 10
1940.4108868835
 20
186.8299679858427
 10
1941.069953639959
 20
186.6083590626748
 10
1941.069953639959
 20
189.0666890349002
 10
1940.410886883496
 20
189.2882979581135
 10
1940.040788535694
 20
189.5016058714408
 10
1940.4108868835
 20
189.8726157892951
 10
1941.069953639959
 20
189.6510068661272
 10
1941.037592823817
 20
191.3611523282579
 10
1941.005232007676
 20
191.7467474025988
 10
1940.585908760663
 20
193.1979704723097
 10
1939.805602890929
 20
194.4905799650459
 10
1938.717185588578
 20
195.5379765146707
 10
1937.3944942067
 20
196.2672343384137
 10
1937.3944942067
 20
197.4431625796095
 10
1919.468309263172
 20
197.4431625796095
 10
1919.468309263172
 20
189.4431625796095
 10
1909.468309263172
 20
189.4431625796095
 10
1909.468309263172
 20
181.4431625796095
 10
1919.468309263172
 20
181.4431625796095
 10
1919.468309263171
 20
173.4431625796086
 10
1941.069953639958
 20
173.4431625796086
 10
1941.069953639959
 20
173.8082415755642
 10
1940.410886883503
 20
174.0298504987321
 10
1940.040788535694
 20
174.24406998452
 10
1940.410886883501
 20
174.6141683301838
 10
1941.069953639959
 20
174.3925594070169
 10
1941.069953639959
 20
176.8658065816952
 10
1940.410886883507
 20
177.0872639255839
 10
1940.040788535695
 20
177.3014834113736
 10
1940.410886883499
 20
177.6715817570383
 10
1941.069953639959
 20
177.4501244131005
 10
1941.069953639958
 20
179.9239800014137
 10
1940.410886883499
 20
180.145588924628
 10
1940.040788535695
 20
180.3588968379544
 10
1940.410886883501
 20
180.7299067558087
 10
1941.069953639959
 20
180.5082978326417
 10
1941.069953639959
 20
182.9658678117284
 10
1940.410886883502
 20
183.1873251556198
 10
1940.040788535695
 20
183.4015446414068
 10
1940.4108868835
 20
183.7716429870724
 10
1941.069953639959
 20
183.5501856431346
 97
        0
 92
        7
 72
     0
 73
     1
 93
        4
 10
2095.562397094771
 20
197.4431625796104
 10
2048.680082280604
 20
197.4431625796104
 10
2048.680082280603
 20
173.4431625796095
 10
2095.562397094771
 20
173.4431625796104
 97
        0
 92
        7
 72
     0
 73
     1
 93
        4
 10
2144.65091255906
 20
197.4431625796104
 10
2095.562397094771
 20
197.4431625796104
 10
2095.562397094771
 20
173.4431625796086
 10
2144.65091255906
 20
173.4431625796086
 97
        0
 92
        7
 72
     0
 73
     1
 93
       40
 10
2220.433734224872
 20
189.0666890349002
 10
2219.774667468413
 20
189.2882979581144
 10
2219.40456912061
 20
189.5016058714417
 10
2219.774667468414
 20
189.8726157892951
 10
2220.433734224874
 20
189.6510068661272
 10
2220.401373408731
 20
191.3611523282679
 10
2220.369012592591
 20
191.746747402607
 10
2219.949689345575
 20
193.1979704723125
 10
2219.169383475843
 20
194.4905799650477
 10
2218.080966173499
 20
195.5379765146662
 10
2216.758274791613
 20
196.2672343384128
 10
2216.758274791613
 20
197.4431625796095
 10
2144.650912559061
 20
197.4431625796086
 10
2144.65091255906
 20
173.4431625796095
 10
2220.433734224874
 20
173.4431625796095
 10
2220.433734224874
 20
173.8082415755642
 10
2219.774667468407
 20
174.029850498734
 10
2219.404569120609
 20
174.2440699845191
 10
2219.774667468414
 20
174.6141683301857
 10
2220.433734224874
 20
174.3925594070169
 10
2220.433734224874
 20
176.8658065816943
 10
2219.774667468415
 20
177.0872639255848
 10
2219.404569120609
 20
177.3014834113736
 10
2219.774667468414
 20
177.6715817570392
 10
2220.433734224874
 20
177.4501244131014
 10
2220.433734224874
 20
179.9239800014156
 10
2219.774667468415
 20
180.1455889246253
 10
2219.404569120608
 20
180.3588968379553
 10
2219.774667468414
 20
180.7299067558096
 10
2220.433734224874
 20
180.5082978326417
 10
2220.433734224874
 20
182.9658678117274
 10
2219.774667468425
 20
183.1873251556189
 10
2219.404569120609
 20
183.4015446414058
 10
2219.774667468415
 20
183.7716429870733
 10
2220.433734224874
 20
183.5501856431373
 10
2220.433734224874
 20
186.0240412314487
 10
2219.774667468413
 20
186.2456501546602
 10
2219.404569120609
 20
186.4589580679902
 10
2219.774667468415
 20
186.8299679858427
 10
2220.433734224874
 20
186.6083590626757
 97
        0
 92
        7
 72
     0
 73
     1
 93
       37
 10
2301.156597687696
 20
197.4431625796095
 10
2226.754576413336
 20
197.4431625796095
 10
2226.754576413336
 20
196.2672343384128
 10
2226.053577330894
 20
195.9372451732896
 10
2224.841186198171
 20
195.0375233330541
 10
2223.902266749584
 20
193.8543025138105
 10
2223.301540617421
 20
192.4687126483003
 10
2223.079116984355
 20
190.9755572539515
 10
2223.079116984355
 20
188.7615060394627
 10
2223.738183740811
 20
188.5398971162939
 10
2224.10828208434
 20
188.3256776305078
 10
2223.738183740815
 20
187.9555792848422
 10
2223.079116984355
 20
188.1771882080556
 10
2223.079116984354
 20
185.7188582360103
 10
2223.738183740815
 20
185.4972493128406
 10
2224.10828208434
 20
185.2830298270573
 10
2223.738183740814
 20
184.9129314813907
 10
2223.079116984355
 20
185.134540404605
 10
2223.079116984355
 20
182.6612932299275
 10
2223.738183740813
 20
182.4398358859907
 10
2224.108282084341
 20
182.2256164002037
 10
2223.738183740814
 20
181.8555180548082
 10
2223.079116984355
 20
182.0769753987014
 10
2223.079116984355
 20
179.6187970059763
 10
2223.738183740814
 20
179.3971880828093
 10
2224.10828208434
 20
179.1829685970223
 10
2223.738183740814
 20
178.8128702513576
 10
2223.079116984355
 20
179.0344791745719
 10
2223.079116984355
 20
176.5612319998935
 10
2223.73818374082
 20
176.3397746559539
 10
2224.108282084341
 20
176.1255551701678
 10
2223.738183740814
 20
175.7554568247741
 10
2223.079116984354
 20
175.9769141686655
 10
2223.079116984355
 20
173.5030585803469
 10
2223.257248182175
 20
173.4431625796086
 10
2247.521900621549
 20
173.4431625796086
 10
2301.156597687696
 20
173.4431625796104
 97
        0
 75
     0
 76
     1
 52
90.0
 41
1.0
 77
     0
 78
     1
 53
135.0
 43
-3589.747973249586
 44
-4961.124740931831
 45
-2.245064030267288
 46
-2.245064030267287
 79
     0
 47
0.7293997082383822
 98
        6
 10
2005.641963999219
 20
183.8392823674075
 10
1928.278135649902
 20
184.568689124142
 10
2057.461147536213
 20
186.7568926194289
 10
2138.474247260389
 20
186.7568926194289
 10
2160.369677322668
 20
188.9450793398027
 10
2237.733533984398
 20
188.9450793398027
  0
LINE
  5
2AA6
330
1F
100
AcDbEntity
  8
izolace
  6
IZOLACE
 48
1.5
100
AcDbLine
 10
1969.468309263172
 20
150.4431625796095
 30
0.0
 11
2197.521900621549
 21
150.4431625796095
 31
0.0
  0
LINE
  5
2AA7
330
1F
100
AcDbEntity
  8
izolace
100
AcDbLine
 10
1969.468309263172
 20
165.7407618884353
 30
0.0
 11
2197.521900621549
 21
165.7407618884353
 31
0.0
  0
LINE
  5
2AA8
330
1F
100
AcDbEntity
  8
izolace
100
AcDbLine
 10
1969.468309263172
 20
135.101299853406
 30
0.0
 11
2197.521900621549
 21
135.101299853406
 31
0.0
  0
LWPOLYLINE
  5
2AAA
330
1F
100
AcDbEntity
  8
nášlap_vrstvy
100
AcDbPolyline
 90
        4
 70
     1
 43
0.0
 10
2301.156597687703
 20
197.4431625796098
 10
1951.285657796253
 20
197.4431625796098
 10
1951.285657796253
 20
198.9431625796098
 10
2301.156597687703
 20
198.9431625796098
  0
LINE
  5
2AAB
330
1F
100
AcDbEntity
  8
CETRIS
100
AcDbLine
 10
1616.414717904798
 20
197.4431625796098
 30
0.0
 11
2301.1565976877
 21
197.4431625796098
 31
0.0
  0
LINE
  5
2AAC
330
1F
100
AcDbEntity
  8
nášlap_vrstvy
100
AcDbLine
 10
1601.414717904798
 20
201.280823345761
 30
0.0
 11
2301.1565976877
 21
201.2808233457673
 31
0.0
  0
LINE
  5
2AAD
330
1F
100
AcDbEntity
  8
nášlap_vrstvy
  6
CIKCAK
 48
0.2
100
AcDbLine
 10
1632.06642054605
 20
206.1301574271748
 30
0.0
 11
2301.1565976877
 21
206.1301574271748
 31
0.0
  0
LINE
  5
2AAE
330
1F
100
AcDbEntity
  8
nášlap_vrstvy
100
AcDbLine
 10
1601.414717904798
 20
203.8208049464803
 30
0.0
 11
2301.1565976877
 21
203.8208049464866
 31
0.0
  0
HATCH
  5
2AAF
330
1F
100
AcDbEntity
  8
CETRIS
100
AcDbHatch
 10
0.0
 20
0.0
 30
0.0
210
0.0
220
0.0
230
1.0
  2
ANSI31
 70
     0
 71
     0
 91
        3
 92
        7
 72
     1
 73
     1
 93
       42
 10
1919.468309263172
 20
181.4431625796095
 42
0.0
 10
1909.468309263172
 20
181.4431625796095
 42
0.0
 10
1909.468309263172
 20
189.4431625796095
 42
0.0
 10
1919.468309263172
 20
189.4431625796095
 42
0.0
 10
1919.468309263172
 20
197.4431625796095
 42
0.0
 10
1897.870723367784
 20
197.4431625796095
 42
0.0
 10
1897.870723367785
 20
196.2672343384128
 42
0.0
 10
1897.169724285342
 20
195.9372451732887
 42
0.0
 10
1895.957333152619
 20
195.0375233330559
 42
0.0
 10
1895.018413704033
 20
193.8543025138132
 42
0.0
 10
1894.417687571868
 20
192.4687126483058
 42
0.0
 10
1894.195263938802
 20
190.975557253946
 42
0.0
 10
1894.195263938802
 20
190.6849201999065
 42
-0.1200842046796913
 10
1894.195263938802
 20
190.0930342991704
 42
0.0
 10
1894.195263938802
 20
188.7615060394636
 42
0.0
 10
1894.854330695268
 20
188.539897116293
 42
0.0
 10
1895.22442903879
 20
188.3256776305078
 42
0.0
 10
1894.854330695263
 20
187.9555792848431
 42
0.0
 10
1894.195263938802
 20
188.1771882080556
 42
0.0
 10
1894.195263938802
 20
185.7188582360103
 42
0.0
 10
1894.85433069526
 20
185.4972493128443
 42
0.0
 10
1895.224429038789
 20
185.2830298270563
 42
0.0
 10
1894.854330695261
 20
184.9129314813907
 42
0.0
 10
1894.195263938802
 20
185.134540404605
 42
0.0
 10
1894.195263938802
 20
182.6612932299266
 42
0.0
 10
1894.854330695265
 20
182.4398358859861
 42
0.0
 10
1895.224429038789
 20
182.2256164002018
 42
0.0
 10
1894.854330695262
 20
181.8555180548082
 42
0.0
 10
1894.195263938802
 20
182.0769753987014
 42
0.0
 10
1894.195263938802
 20
179.6187970059772
 42
0.0
 10
1894.854330695266
 20
179.3971880828057
 42
0.0
 10
1895.22442903879
 20
179.1829685970223
 42
0.0
 10
1894.854330695263
 20
178.8128702513567
 42
0.0
 10
1894.195263938802
 20
179.03447917457
 42
0.0
 10
1894.195263938802
 20
176.5612319998935
 42
0.0
 10
1894.854330695267
 20
176.3397746559557
 42
0.0
 10
1895.224429038788
 20
176.1255551701678
 42
0.0
 10
1894.854330695262
 20
175.755456824775
 42
0.0
 10
1894.195263938802
 20
175.9769141686674
 42
0.0
 10
1894.195263938802
 20
173.503058580346
 42
0.0
 10
1894.373395136621
 20
173.4431625796086
 42
0.0
 10
1919.468309263172
 20
173.4431625796086
 42
0.0
 97
        0
 92
        7
 72
     1
 73
     1
 93
       83
 10
1891.549881179321
 20
182.9658678117274
 42
0.0
 10
1890.89081442286
 20
183.1873251556207
 42
0.0
 10
1890.520716075057
 20
183.4015446414068
 42
0.0
 10
1890.89081442286
 20
183.7716429870724
 42
0.0
 10
1891.549881179322
 20
183.5501856431337
 42
0.0
 10
1891.54988117932
 20
186.0240412314478
 42
0.0
 10
1890.890814422862
 20
186.2456501546629
 42
0.0
 10
1890.520716075057
 20
186.4589580679893
 42
0.0
 10
1890.89081442286
 20
186.8299679858418
 42
0.0
 10
1891.549881179322
 20
186.608359062673
 42
0.0
 10
1891.549881179321
 20
189.0666890349002
 42
0.0
 10
1890.890814422853
 20
189.2882979581153
 42
0.0
 10
1890.520716075056
 20
189.5016058714408
 42
0.0
 10
1890.890814422862
 20
189.8726157892951
 42
0.0
 10
1891.549881179322
 20
189.6510068661263
 42
0.0
 10
1891.517520363179
 20
191.3611523282688
 42
0.0
 10
1891.485159547039
 20
191.746747402596
 42
0.0
 10
1891.065836300023
 20
193.1979704723125
 42
0.0
 10
1890.285530430291
 20
194.4905799650441
 42
0.0
 10
1889.197113127944
 20
195.5379765146653
 42
0.0
 10
1887.874421746062
 20
196.2672343384119
 42
0.0
 10
1887.874421746061
 20
197.4431625796095
 42
0.0
 10
1843.892286548344
 20
197.4431625796095
 42
0.0
 10
1843.892286548344
 20
176.9978651439177
 42
-1.0
 10
1843.892286548342
 20
174.4978651439177
 42
-1.0
 10
1843.892286548344
 20
176.9978651439177
 42
0.0
 10
1843.892286548344
 20
197.4431625796104
 42
0.0
 10
1797.009971734177
 20
197.4431625796114
 42
0.0
 10
1797.009971734177
 20
188.6389772495385
 42
-1.0
 10
1797.009971734175
 20
186.1389772495385
 42
-1.0
 10
1797.009971734177
 20
188.6389772495385
 42
0.0
 10
1797.009971734177
 20
197.4431625796095
 42
0.0
 10
1647.975572400428
 20
197.4431625796095
 42
0.0
 10
1647.975572400429
 20
196.2672343384128
 42
0.0
 10
1647.274573317987
 20
195.9372451732887
 42
0.0
 10
1646.062182185264
 20
195.037523333055
 42
0.0
 10
1645.123262736676
 20
193.8543025138123
 42
0.0
 10
1644.522536604514
 20
192.4687126483039
 42
0.0
 10
1644.300112971447
 20
190.9755572539406
 42
0.0
 10
1644.300112971446
 20
188.7615060394627
 42
0.0
 10
1644.95917972791
 20
188.539897116293
 42
0.0
 10
1645.329278071433
 20
188.3256776305087
 42
0.0
 10
1644.959179727907
 20
187.9555792848422
 42
0.0
 10
1644.300112971447
 20
188.1771882080565
 42
0.0
 10
1644.300112971447
 20
185.7188582360094
 42
0.0
 10
1644.959179727909
 20
185.4972493128415
 42
0.0
 10
1645.329278071434
 20
185.2830298270573
 42
0.0
 10
1644.959179727906
 20
184.9129314813907
 42
0.0
 10
1644.300112971448
 20
185.1345404046041
 42
0.0
 10
1644.300112971447
 20
182.6612932299266
 42
0.0
 10
1644.959179727906
 20
182.4398358859907
 42
0.0
 10
1645.329278071434
 20
182.2256164002028
 42
0.0
 10
1644.959179727907
 20
181.8555180548091
 42
0.0
 10
1644.300112971447
 20
182.0769753987023
 42
0.0
 10
1644.300112971447
 20
179.6187970059754
 42
0.0
 10
1644.959179727901
 20
179.3971880828111
 42
0.0
 10
1645.329278071433
 20
179.1829685970214
 42
0.0
 10
1644.959179727906
 20
178.8128702513558
 42
0.0
 10
1644.300112971448
 20
179.03447917457
 42
0.0
 10
1644.300112971447
 20
176.5612319998926
 42
0.0
 10
1644.959179727914
 20
176.3397746559539
 42
0.0
 10
1645.329278071434
 20
176.1255551701696
 42
0.0
 10
1644.959179727906
 20
175.7554568247741
 42
0.0
 10
1644.300112971447
 20
175.9769141686655
 42
0.0
 10
1644.300112971447
 20
173.5030585803478
 42
0.0
 10
1644.478244169267
 20
173.4431625796086
 42
0.0
 10
1666.414717904795
 20
173.4431625796086
 42
0.0
 10
1891.54988117932
 20
173.4431625796086
 42
0.0
 10
1891.54988117932
 20
173.8082415755642
 42
0.0
 10
1890.890814422859
 20
174.0298504987294
 42
0.0
 10
1890.520716075057
 20
174.24406998452
 42
0.0
 10
1890.890814422862
 20
174.6141683301838
 42
0.0
 10
1891.549881179321
 20
174.392559407015
 42
0.0
 10
1891.549881179321
 20
176.8658065816943
 42
0.0
 10
1890.890814422857
 20
177.0872639255885
 42
0.0
 10
1890.520716075056
 20
177.3014834113718
 42
0.0
 10
1890.890814422862
 20
177.6715817570383
 42
0.0
 10
1891.549881179321
 20
177.4501244131005
 42
0.0
 10
1891.549881179321
 20
179.9239800014137
 42
0.0
 10
1890.89081442286
 20
180.145588924628
 42
0.0
 10
1890.520716075057
 20
180.3588968379553
 42
0.0
 10
1890.890814422862
 20
180.7299067558087
 42
0.0
 10
1891.549881179321
 20
180.5082978326417
 42
0.0
 97
        0
 92
        7
 72
     0
 73
     1
 93
       40
 10
1641.654730211965
 20
179.9239800014146
 10
1640.995663455508
 20
180.1455889246289
 10
1640.625565107701
 20
180.3588968379553
 10
1640.995663455505
 20
180.7299067558087
 10
1641.654730211966
 20
180.5082978326399
 10
1641.654730211966
 20
182.9658678117284
 10
1640.995663455513
 20
183.187325155618
 10
1640.625565107701
 20
183.4015446414068
 10
1640.995663455506
 20
183.7716429870724
 10
1641.654730211966
 20
183.5501856431337
 10
1641.654730211966
 20
186.0240412314487
 10
1640.995663455503
 20
186.2456501546621
 10
1640.625565107702
 20
186.4589580679893
 10
1640.995663455505
 20
186.8299679858418
 10
1641.654730211966
 20
186.608359062673
 10
1641.654730211966
 20
189.0666890348992
 10
1640.995663455509
 20
189.2882979581108
 10
1640.625565107701
 20
189.5016058714399
 10
1640.995663455506
 20
189.8726157892951
 10
1641.654730211966
 20
189.6510068661272
 10
1641.622369395825
 20
191.3611523282579
 10
1641.590008579683
 20
191.7467474026033
 10
1641.170685332668
 20
193.1979704723125
 10
1640.390379462939
 20
194.4905799650413
 10
1639.301962160589
 20
195.5379765146653
 10
1637.979270778706
 20
196.2672343384128
 10
1637.979270778706
 20
197.4431625796095
 10
1616.414717904794
 20
197.4431625796095
 10
1616.414717904795
 20
173.4431625796086
 10
1641.654730211966
 20
173.4431625796086
 10
1641.654730211965
 20
173.8082415755633
 10
1640.995663455506
 20
174.0298504987303
 10
1640.625565107701
 20
174.2440699845182
 10
1640.995663455506
 20
174.6141683301847
 10
1641.654730211966
 20
174.392559407015
 10
1641.654730211966
 20
176.8658065816943
 10
1640.995663455505
 20
177.0872639255866
 10
1640.625565107701
 20
177.3014834113718
 10
1640.995663455506
 20
177.6715817570383
 10
1641.654730211966
 20
177.4501244131005
 97
        0
 75
     0
 76
     1
 52
0.0
 41
1.0
 77
     0
 78
     1
 53
45.0
 43
-3589.747973249586
 44
-4961.124740931831
 45
-2.245064030267287
 46
2.245064030267288
 79
     0
 47
0.7293997082383822
 98
        3
 10
1902.003596925234
 20
180.1922821335683
 10
1866.24106021309
 20
180.9216888902992
 10
1633.419681252794
 20
178.0040954131909
  0
LINE
  5
2AB0
330
1F
100
AcDbEntity
  8
izolace
  6
IZOLACE
 48
1.5
100
AcDbLine
 10
1666.414717904795
 20
150.4431625796095
 30
0.0
 11
1869.468309263172
 21
150.4431625796095
 31
0.0
  0
LINE
  5
2AB1
330
1F
100
AcDbEntity
  8
izolace
100
AcDbLine
 10
1666.554741442544
 20
165.7407618884353
 30
0.0
 11
1869.468309263172
 21
165.7407618884353
 31
0.0
  0
LINE
  5
2AB2
330
1F
100
AcDbEntity
  8
izolace
100
AcDbLine
 10
1666.554741442544
 20
135.101299853406
 30
0.0
 11
1869.468309263172
 21
135.101299853406
 31
0.0
  0
TEXT
  5
2AB3
330
1F
100
AcDbEntity
  8
POPIS
100
AcDbText
 10
1666.79310946132
 20
278.5859824055207
 30
0.0
 40
25.0
  1
01
 41
0.85
  7
SIMPLEX7
100
AcDbText
  0
LWPOLYLINE
  5
2AB4
330
1F
100
AcDbEntity
  8
nášlap_vrstvy
100
AcDbPolyline
 90
        4
 70
     1
 43
0.0
 10
1707.802515099058
 20
198.9431625796098
 10
1695.981648744143
 20
198.9431625796098
 10
1695.981648744143
 20
197.4431625796098
 10
1707.802515099058
 20
197.4431625796098
  0
HATCH
  5
2AB5
330
1F
100
AcDbEntity
  8
nášlap_vrstvy
100
AcDbHatch
 10
0.0
 20
0.0
 30
0.0
210
0.0
220
0.0
230
1.0
  2
SOLID
 70
     1
 71
     0
 91
        1
 92
        7
 72
     0
 73
     1
 93
        4
 10
1707.802515099062
 20
198.9431625796098
 10
1695.981648744143
 20
198.9431625796098
 10
1695.981648744143
 20
197.4431625796098
 10
1707.802515099062
 20
197.4431625796098
 97
        0
 75
     0
 76
     1
 47
0.1901250437635136
 98
        1
 10
1700.660546123312
 20
198.5347568040699
  0
LWPOLYLINE
  5
2AB6
330
1F
100
AcDbEntity
  8
nášlap_vrstvy
100
AcDbPolyline
 90
        4
 70
     1
 43
0.0
 10
1951.285657796253
 20
197.4431625796098
 10
1601.414717904802
 20
197.4431625796098
 10
1601.414717904802
 20
198.9431625796098
 10
1951.285657796253
 20
198.9431625796098
  0
LINE
  5
2AB8
330
1F
100
AcDbEntity
  8
STAVBA OBRYS
100
AcDbLine
 10
1601.414717904802
 20
127.4431625796098
 30
0.0
 11
1601.414717904798
 21
402.8640425813593
 31
0.0
  0
LINE
  5
2AB9
330
1F
100
AcDbEntity
  8
STAVBA OBRYS
100
AcDbLine
 10
1591.414717904802
 20
127.4431625796098
 30
0.0
 11
1591.414717904798
 21
402.8640425813593
 31
0.0
  0
LINE
  5
2ABA
330
1F
100
AcDbEntity
  8
POPIS
100
AcDbLine
 10
1605.988761141369
 20
150.7594569738523
 30
0.0
 11
1534.869071682282
 21
185.4805110662238
 31
0.0
  0
TEXT
  5
2ABB
330
1F
100
AcDbEntity
  8
POPIS
100
AcDbText
 10
1496.660675746858
 20
174.0609320748464
 30
0.0
 40
25.0
  1
08
 41
0.85
  7
SIMPLEX7
100
AcDbText
  0
LINE
  5
2ABC
330
1F
100
AcDbEntity
  8
SPOJOVACÍ
  6
DASHED
100
AcDbLine
 10
1637.979270778706
 20
197.4431625796095
 30
0.0
 11
1647.975572400429
 21
197.4431625796095
 31
0.0
  0
LINE
  5
2ABD
330
1F
100
AcDbEntity
  8
SPOJOVACÍ
  6
DASHED
100
AcDbLine
 10
1640.625565107701
 20
177.3014834113727
 30
0.0
 11
1645.329278071433
 21
176.1255551701687
 31
0.0
  0
LINE
  5
2ABE
330
1F
100
AcDbEntity
  8
SPOJOVACÍ
  6
DASHED
100
AcDbLine
 10
1640.625565107701
 20
174.2440699845191
 30
0.0
 11
1645.329278071433
 21
173.0681417435861
 31
0.0
  0
LINE
  5
2ABF
330
1F
100
AcDbEntity
  8
SPOJOVACÍ
  6
DASHED
100
AcDbLine
 10
1640.625565107701
 20
180.3588968379553
 30
0.0
 11
1645.329278071433
 21
179.1829685970223
 31
0.0
  0
LINE
  5
2AC0
330
1F
100
AcDbEntity
  8
SPOJOVACÍ
  6
DASHED
100
AcDbLine
 10
1645.329278071433
 20
173.0681417435861
 30
0.0
 11
1644.959179727907
 21
172.6971318257328
 31
0.0
  0
LINE
  5
2AC1
330
1F
100
AcDbEntity
  8
SPOJOVACÍ
  6
DASHED
100
AcDbLine
 10
1645.329278071433
 20
173.0681417435861
 30
0.0
 11
1644.959179727907
 21
173.2814496571772
 31
0.0
  0
LINE
  5
2AC2
330
1F
100
AcDbEntity
  8
SPOJOVACÍ
  6
DASHED
100
AcDbLine
 10
1640.625565107701
 20
183.4015446414068
 30
0.0
 11
1645.329278071433
 21
182.2256164002028
 31
0.0
  0
LINE
  5
2AC3
330
1F
100
AcDbEntity
  8
SPOJOVACÍ
  6
DASHED
100
AcDbLine
 10
1640.625565107701
 20
186.4589580679893
 30
0.0
 11
1645.329278071433
 21
185.2830298270563
 31
0.0
  0
LINE
  5
2AC4
330
1F
100
AcDbEntity
  8
SPOJOVACÍ
  6
DASHED
100
AcDbLine
 10
1640.625565107701
 20
189.5016058714408
 30
0.0
 11
1645.329278071433
 21
188.3256776305078
 31
0.0
  0
LINE
  5
2AC5
330
1F
100
AcDbEntity
  8
SPOJOVACÍ
  6
DASHED
100
AcDbLine
 10
1637.979270778706
 20
196.2672343384128
 30
0.0
 11
1647.975572400429
 21
196.2672343384128
 31
0.0
  0
LINE
  5
2AC6
330
1F
100
AcDbEntity
  8
SPOJOVACÍ
  6
DASHED
100
AcDbLine
 10
1641.654730211966
 20
179.935015727864
 30
0.0
 11
1641.654730211966
 21
177.4664779939357
 31
0.0
  0
LINE
  5
2AC7
330
1F
100
AcDbEntity
  8
SPOJOVACÍ
  6
DASHED
100
AcDbLine
 10
1640.625565107701
 20
177.3014834113727
 30
0.0
 11
1640.995663455506
 21
177.6715817570383
 31
0.0
  0
LINE
  5
2AC8
330
1F
100
AcDbEntity
  8
SPOJOVACÍ
  6
DASHED
100
AcDbLine
 10
1640.625565107701
 20
177.3014834113727
 30
0.0
 11
1640.995663455506
 21
177.0872639255866
 31
0.0
  0
LINE
  5
2AC9
330
1F
100
AcDbEntity
  8
SPOJOVACÍ
  6
DASHED
100
AcDbLine
 10
1641.654730211966
 20
176.8748675844471
 30
0.0
 11
1641.654730211966
 21
174.4045067058722
 31
0.0
  0
LINE
  5
2ACA
330
1F
100
AcDbEntity
  8
SPOJOVACÍ
  6
DASHED
100
AcDbLine
 10
1640.625565107701
 20
174.2440699845191
 30
0.0
 11
1640.995663455506
 21
174.6141683301847
 31
0.0
  0
LINE
  5
2ACB
330
1F
100
AcDbEntity
  8
SPOJOVACÍ
  6
DASHED
100
AcDbLine
 10
1640.625565107701
 20
174.2440699845191
 30
0.0
 11
1640.995663455506
 21
174.0298504987331
 31
0.0
  0
LINE
  5
2ACC
330
1F
100
AcDbEntity
  8
SPOJOVACÍ
  6
DASHED
100
AcDbLine
 10
1640.995663455506
 20
174.0298504987331
 30
0.0
 11
1644.959179727907
 21
172.6971318257328
 31
0.0
  0
LINE
  5
2ACD
330
1F
100
AcDbEntity
  8
SPOJOVACÍ
  6
DASHED
100
AcDbLine
 10
1637.979270778706
 20
197.4431625796095
 30
0.0
 11
1637.979270778706
 21
196.2672343384128
 31
0.0
  0
LINE
  5
2ACE
330
1F
100
AcDbEntity
  8
SPOJOVACÍ
  6
DASHED
100
AcDbLine
 10
1637.979270778706
 20
196.2672343384128
 30
0.0
 11
1639.301962160586
 21
195.537976514668
 31
0.0
  0
LINE
  5
2ACF
330
1F
100
AcDbEntity
  8
SPOJOVACÍ
  6
DASHED
100
AcDbLine
 10
1639.301962160586
 20
195.537976514668
 30
0.0
 11
1640.390379462937
 21
194.4905799650441
 31
0.0
  0
LINE
  5
2AD0
330
1F
100
AcDbEntity
  8
SPOJOVACÍ
  6
DASHED
100
AcDbLine
 10
1640.390379462937
 20
194.4905799650441
 30
0.0
 11
1641.170685332669
 21
193.1979704723125
 31
0.0
  0
LINE
  5
2AD1
330
1F
100
AcDbEntity
  8
SPOJOVACÍ
  6
DASHED
100
AcDbLine
 10
1641.170685332669
 20
193.1979704723125
 30
0.0
 11
1641.590008579682
 21
191.7467474026033
 31
0.0
  0
LINE
  5
2AD2
330
1F
100
AcDbEntity
  8
SPOJOVACÍ
  6
DASHED
100
AcDbLine
 10
1641.590008579682
 20
191.7467474026033
 30
0.0
 11
1641.654730211966
 21
190.9755572539433
 31
0.0
  0
LINE
  5
2AD3
330
1F
100
AcDbEntity
  8
SPOJOVACÍ
  6
DASHED
100
AcDbLine
 10
1641.622369395824
 20
191.3611523282733
 30
0.0
 11
1641.654730211966
 21
189.6510068661263
 31
0.0
  0
LINE
  5
2AD4
330
1F
100
AcDbEntity
  8
SPOJOVACÍ
  6
DASHED
100
AcDbLine
 10
1640.625565107701
 20
189.5016058714408
 30
0.0
 11
1640.995663455506
 21
189.8726157892942
 31
0.0
  0
LINE
  5
2AD5
330
1F
100
AcDbEntity
  8
SPOJOVACÍ
  6
DASHED
100
AcDbLine
 10
1640.625565107701
 20
189.5016058714408
 30
0.0
 11
1640.995663455506
 21
189.2882979581135
 31
0.0
  0
LINE
  5
2AD6
330
1F
100
AcDbEntity
  8
SPOJOVACÍ
  6
DASHED
100
AcDbLine
 10
1641.654730211966
 20
189.0777247613495
 30
0.0
 11
1641.654730211966
 21
186.6091870274212
 31
0.0
  0
LINE
  5
2AD7
330
1F
100
AcDbEntity
  8
SPOJOVACÍ
  6
DASHED
100
AcDbLine
 10
1640.625565107701
 20
186.4589580679893
 30
0.0
 11
1640.995663455506
 21
186.8299679858427
 31
0.0
  0
LINE
  5
2AD8
330
1F
100
AcDbEntity
  8
SPOJOVACÍ
  6
DASHED
100
AcDbLine
 10
1640.625565107701
 20
186.4589580679893
 30
0.0
 11
1640.995663455506
 21
186.2456501546621
 31
0.0
  0
LINE
  5
2AD9
330
1F
100
AcDbEntity
  8
SPOJOVACÍ
  6
DASHED
100
AcDbLine
 10
1641.654730211966
 20
186.035076957898
 30
0.0
 11
1641.654730211966
 21
183.5665392239697
 31
0.0
  0
LINE
  5
2ADA
330
1F
100
AcDbEntity
  8
SPOJOVACÍ
  6
DASHED
100
AcDbLine
 10
1640.625565107701
 20
183.4015446414068
 30
0.0
 11
1640.995663455506
 21
183.7716429870724
 31
0.0
  0
LINE
  5
2ADB
330
1F
100
AcDbEntity
  8
SPOJOVACÍ
  6
DASHED
100
AcDbLine
 10
1640.625565107701
 20
183.4015446414068
 30
0.0
 11
1640.995663455506
 21
183.1873251556207
 31
0.0
  0
LINE
  5
2ADC
330
1F
100
AcDbEntity
  8
SPOJOVACÍ
  6
DASHED
100
AcDbLine
 10
1641.654730211966
 20
182.9749288144811
 30
0.0
 11
1641.654730211966
 21
180.5045679359063
 31
0.0
  0
LINE
  5
2ADD
330
1F
100
AcDbEntity
  8
SPOJOVACÍ
  6
DASHED
100
AcDbLine
 10
1640.625565107701
 20
180.3588968379553
 30
0.0
 11
1640.995663455506
 21
180.7299067558087
 31
0.0
  0
LINE
  5
2ADE
330
1F
100
AcDbEntity
  8
SPOJOVACÍ
  6
DASHED
100
AcDbLine
 10
1640.625565107701
 20
180.3588968379553
 30
0.0
 11
1640.995663455506
 21
180.145588924628
 31
0.0
  0
LINE
  5
2ADF
330
1F
100
AcDbEntity
  8
SPOJOVACÍ
  6
DASHED
100
AcDbLine
 10
1640.995663455506
 20
174.6141683301847
 30
0.0
 11
1644.959179727907
 21
173.2814496571772
 31
0.0
  0
LINE
  5
2AE0
330
1F
100
AcDbEntity
  8
SPOJOVACÍ
  6
DASHED
100
AcDbLine
 10
1644.300112971447
 20
175.9869961837248
 30
0.0
 11
1644.300112971447
 21
173.509342727113
 31
0.0
  0
LINE
  5
2AE1
330
1F
100
AcDbEntity
  8
SPOJOVACÍ
  6
DASHED
100
AcDbLine
 10
1640.995663455506
 20
177.0872639255866
 30
0.0
 11
1644.959179727907
 21
175.7554568247741
 31
0.0
  0
LINE
  5
2AE2
330
1F
100
AcDbEntity
  8
SPOJOVACÍ
  6
DASHED
100
AcDbLine
 10
1645.329278071433
 20
176.1255551701687
 30
0.0
 11
1644.959179727907
 21
175.7554568247741
 31
0.0
  0
LINE
  5
2AE3
330
1F
100
AcDbEntity
  8
SPOJOVACÍ
  6
DASHED
100
AcDbLine
 10
1645.329278071433
 20
176.1255551701687
 30
0.0
 11
1644.959179727907
 21
176.3397746559548
 31
0.0
  0
LINE
  5
2AE4
330
1F
100
AcDbEntity
  8
SPOJOVACÍ
  6
DASHED
100
AcDbLine
 10
1640.995663455506
 20
177.6715817570383
 30
0.0
 11
1644.959179727907
 21
176.3397746559548
 31
0.0
  0
LINE
  5
2AE5
330
1F
100
AcDbEntity
  8
SPOJOVACÍ
  6
DASHED
100
AcDbLine
 10
1644.300112971447
 20
179.0398517491047
 30
0.0
 11
1644.300112971447
 21
176.5713140151764
 31
0.0
  0
LINE
  5
2AE6
330
1F
100
AcDbEntity
  8
SPOJOVACÍ
  6
DASHED
100
AcDbLine
 10
1640.995663455506
 20
180.145588924628
 30
0.0
 11
1644.959179727907
 21
178.8128702513567
 31
0.0
  0
LINE
  5
2AE7
330
1F
100
AcDbEntity
  8
SPOJOVACÍ
  6
DASHED
100
AcDbLine
 10
1645.329278071433
 20
179.1829685970223
 30
0.0
 11
1644.959179727907
 21
178.8128702513567
 31
0.0
  0
LINE
  5
2AE8
330
1F
100
AcDbEntity
  8
SPOJOVACÍ
  6
DASHED
100
AcDbLine
 10
1645.329278071433
 20
179.1829685970223
 30
0.0
 11
1644.959179727907
 21
179.3971880828084
 31
0.0
  0
LINE
  5
2AE9
330
1F
100
AcDbEntity
  8
SPOJOVACÍ
  6
DASHED
100
AcDbLine
 10
1640.995663455506
 20
180.7299067558087
 30
0.0
 11
1644.959179727907
 21
179.3971880828084
 31
0.0
  0
LINE
  5
2AEA
330
1F
100
AcDbEntity
  8
SPOJOVACÍ
  6
DASHED
100
AcDbLine
 10
1644.300112971447
 20
182.0870574137588
 30
0.0
 11
1644.300112971447
 21
179.6094039571471
 31
0.0
  0
LINE
  5
2AEB
330
1F
100
AcDbEntity
  8
SPOJOVACÍ
  6
DASHED
100
AcDbLine
 10
1640.995663455506
 20
183.1873251556207
 30
0.0
 11
1644.959179727907
 21
181.8555180548082
 31
0.0
  0
LINE
  5
2AEC
330
1F
100
AcDbEntity
  8
SPOJOVACÍ
  6
DASHED
100
AcDbLine
 10
1645.329278071433
 20
182.2256164002028
 30
0.0
 11
1644.959179727907
 21
181.8555180548082
 31
0.0
  0
LINE
  5
2AED
330
1F
100
AcDbEntity
  8
SPOJOVACÍ
  6
DASHED
100
AcDbLine
 10
1645.329278071433
 20
182.2256164002028
 30
0.0
 11
1644.959179727907
 21
182.4398358859888
 31
0.0
  0
LINE
  5
2AEE
330
1F
100
AcDbEntity
  8
SPOJOVACÍ
  6
DASHED
100
AcDbLine
 10
1640.995663455506
 20
183.7716429870724
 30
0.0
 11
1644.959179727907
 21
182.4398358859888
 31
0.0
  0
LINE
  5
2AEF
330
1F
100
AcDbEntity
  8
SPOJOVACÍ
  6
DASHED
100
AcDbLine
 10
1644.300112971447
 20
185.1399129791388
 30
0.0
 11
1644.300112971447
 21
182.6713752452105
 31
0.0
  0
LINE
  5
2AF0
330
1F
100
AcDbEntity
  8
SPOJOVACÍ
  6
DASHED
100
AcDbLine
 10
1640.995663455506
 20
186.2456501546621
 30
0.0
 11
1644.959179727907
 21
184.9129314813907
 31
0.0
  0
LINE
  5
2AF1
330
1F
100
AcDbEntity
  8
SPOJOVACÍ
  6
DASHED
100
AcDbLine
 10
1645.329278071433
 20
185.2830298270563
 30
0.0
 11
1644.959179727907
 21
184.9129314813907
 31
0.0
  0
LINE
  5
2AF2
330
1F
100
AcDbEntity
  8
SPOJOVACÍ
  6
DASHED
100
AcDbLine
 10
1645.329278071433
 20
185.2830298270563
 30
0.0
 11
1644.959179727907
 21
185.4972493128424
 31
0.0
  0
LINE
  5
2AF3
330
1F
100
AcDbEntity
  8
SPOJOVACÍ
  6
DASHED
100
AcDbLine
 10
1640.995663455506
 20
186.8299679858427
 30
0.0
 11
1644.959179727907
 21
185.4972493128424
 31
0.0
  0
LINE
  5
2AF4
330
1F
100
AcDbEntity
  8
SPOJOVACÍ
  6
DASHED
100
AcDbLine
 10
1644.300112971447
 20
188.1825607825903
 30
0.0
 11
1644.300112971447
 21
185.714023048662
 31
0.0
  0
LINE
  5
2AF5
330
1F
100
AcDbEntity
  8
SPOJOVACÍ
  6
DASHED
100
AcDbLine
 10
1640.995663455506
 20
189.2882979581135
 30
0.0
 11
1644.959179727907
 21
187.9555792848422
 31
0.0
  0
LINE
  5
2AF6
330
1F
100
AcDbEntity
  8
SPOJOVACÍ
  6
DASHED
100
AcDbLine
 10
1645.329278071433
 20
188.3256776305078
 30
0.0
 11
1644.959179727907
 21
187.9555792848422
 31
0.0
  0
LINE
  5
2AF7
330
1F
100
AcDbEntity
  8
SPOJOVACÍ
  6
DASHED
100
AcDbLine
 10
1645.329278071433
 20
188.3256776305078
 30
0.0
 11
1644.959179727907
 21
188.5398971162939
 31
0.0
  0
LINE
  5
2AF8
330
1F
100
AcDbEntity
  8
SPOJOVACÍ
  6
DASHED
100
AcDbLine
 10
1640.995663455506
 20
189.8726157892942
 30
0.0
 11
1644.959179727907
 21
188.5398971162939
 31
0.0
  0
LINE
  5
2AF9
330
1F
100
AcDbEntity
  8
SPOJOVACÍ
  6
DASHED
100
AcDbLine
 10
1644.300112971447
 20
190.9755572539451
 30
0.0
 11
1644.300112971447
 21
188.7615060394636
 31
0.0
  0
LINE
  5
2AFA
330
1F
100
AcDbEntity
  8
SPOJOVACÍ
  6
DASHED
100
AcDbLine
 10
1644.300112971447
 20
190.9755572539433
 30
0.0
 11
1644.522536604513
 21
192.4687126483039
 31
0.0
  0
LINE
  5
2AFB
330
1F
100
AcDbEntity
  8
SPOJOVACÍ
  6
DASHED
100
AcDbLine
 10
1644.522536604513
 20
192.4687126483039
 30
0.0
 11
1645.123262736678
 21
193.8543025138132
 31
0.0
  0
LINE
  5
2AFC
330
1F
100
AcDbEntity
  8
SPOJOVACÍ
  6
DASHED
100
AcDbLine
 10
1645.123262736678
 20
193.8543025138132
 30
0.0
 11
1646.062182185263
 21
195.0375233330541
 31
0.0
  0
LINE
  5
2AFD
330
1F
100
AcDbEntity
  8
SPOJOVACÍ
  6
DASHED
100
AcDbLine
 10
1646.062182185263
 20
195.0375233330541
 30
0.0
 11
1647.274573317984
 21
195.9372451732869
 31
0.0
  0
LINE
  5
2AFE
330
1F
100
AcDbEntity
  8
SPOJOVACÍ
  6
DASHED
100
AcDbLine
 10
1647.274573317984
 20
195.9372451732869
 30
0.0
 11
1647.975572400429
 21
196.2672343384128
 31
0.0
  0
LINE
  5
2AFF
330
1F
100
AcDbEntity
  8
SPOJOVACÍ
  6
DASHED
100
AcDbLine
 10
1647.975572400429
 20
197.4431625796095
 30
0.0
 11
1647.975572400429
 21
196.2672343384128
 31
0.0
  0
HATCH
  5
2B00
330
1F
100
AcDbEntity
  8
izolace
100
AcDbHatch
 10
0.0
 20
0.0
 30
0.0
210
0.0
220
0.0
230
1.0
  2
SOLID
 70
     1
 71
     0
 91
       10
 92
        7
 72
     0
 73
     1
 93
        4
 10
1666.414717904795
 20
173.4431625796086
 10
1662.490296897375
 20
173.4431625796086
 10
1662.490296897375
 20
170.4431625796095
 10
1666.414717904795
 20
170.4431625796095
 97
        0
 92
        7
 72
     0
 73
     1
 93
        9
 10
1650.048351995605
 20
173.4431625796086
 10
1644.651492738222
 20
173.4431625796086
 10
1644.95917972791
 20
173.3397746559539
 10
1645.329278071434
 20
173.1255551701687
 10
1644.959179727907
 20
172.755456824775
 10
1644.300112971447
 20
172.9769141686683
 10
1644.300112971447
 20
170.5030585803469
 10
1644.478244169267
 20
170.4431625796095
 10
1650.048351995605
 20
170.4431625796095
 97
        0
 92
        7
 72
     0
 73
     1
 93
        9
 10
1641.654730211966
 20
173.4431625796086
 10
1636.232434181801
 20
173.4431625796086
 10
1636.232434181801
 20
170.4431625796095
 10
1641.654730211966
 20
170.4431625796095
 10
1641.654730211966
 20
170.8082415755633
 10
1640.995663455511
 20
171.0298504987321
 10
1640.625565107701
 20
171.24406998452
 10
1640.995663455506
 20
171.6141683301857
 10
1641.654730211966
 20
171.3925594070159
 97
        0
 92
        7
 72
     0
 73
     1
 93
        5
 10
1644.300112971447
 20
172.9769141686674
 10
1642.912537276272
 20
173.4431625796086
 10
1641.654730211967
 20
173.4431625796086
 10
1641.654730211967
 20
171.392559407015
 10
1644.300112971447
 20
170.503058580346
 97
        0
 92
        7
 72
     0
 73
     1
 93
        4
 10
1644.058848433967
 20
173.4431625796086
 10
1642.912537276273
 20
173.4431625796095
 10
1644.959179727907
 20
172.7554568247732
 10
1645.329278071433
 20
173.1255551701687
 97
        0
 92
       23
 72
     0
 73
     1
 93
        4
 10
1644.651492738224
 20
173.4431625796086
 10
1644.058848433961
 20
173.4431625796086
 10
1645.329278071433
 20
173.1255551701669
 10
1644.959179727905
 20
173.3397746559557
 97
        0
 92
        7
 72
     0
 73
     1
 93
        4
 10
1640.995663455507
 20
171.6141683301838
 10
1640.625565107702
 20
171.2440699845191
 10
1643.829194727339
 20
170.4431625796095
 10
1644.478244169264
 20
170.4431625796095
 97
        0
 92
        7
 72
     0
 73
     1
 93
        4
 10
1640.625565107698
 20
171.244069984521
 10
1640.99566345551
 20
171.029850498733
 10
1642.740478142493
 20
170.4431625796095
 10
1643.82919472734
 20
170.4431625796095
 97
        0
 92
       23
 72
     0
 73
     1
 93
        3
 10
1641.654730211966
 20
170.8082415755642
 10
1641.654730211966
 20
170.4431625796095
 10
1642.740478142486
 20
170.4431625796095
 97
        0
 92
        7
 72
     0
 73
     1
 93
        4
 10
1622.746242686969
 20
173.4431625796086
 10
1616.414717904795
 20
173.4431625796086
 10
1616.414717904795
 20
170.4431625796095
 10
1622.74624268697
 20
170.4431625796105
 97
        0
 75
     0
 76
     1
 47
0.0980096762587744
 98
       10
 10
1664.12346991676
 20
172.5616091667433
 10
1648.320672153902
 20
171.8095562777816
 10
1639.194704944437
 20
171.8461591374288
 10
1642.738625844204
 20
171.7908187002248
 10
1644.10617183932
 20
173.1457451789537
 10
1644.667550291374
 20
173.3617892804213
 10
1642.358220312543
 20
170.9623057588905
 10
1642.596469236995
 20
170.6509130532831
 10
1641.936676850134
 20
170.6142766438096
 10
1618.891083471516
 20
171.6852038494725
  0
LWPOLYLINE
  5
2B01
330
1F
100
AcDbEntity
  8
izolace
100
AcDbPolyline
 90
        4
 70
     1
 43
0.0
 10
1666.414717904795
 20
170.4431625796095
 10
1616.414717904795
 20
170.4431625796095
 10
1616.414717904795
 20
173.4431625796086
 10
1666.414717904795
 20
173.4431625796086
  0
LWPOLYLINE
  5
2B02
330
1F
100
AcDbEntity
  8
STAVBA OBRYS
100
AcDbPolyline
 90
        7
 70
     0
 43
0.0
 10
1620.929486384479
 20
170.4431625796095
 42
-0.0203924744732807
 10
1620.02740240007
 20
169.4300325504554
 42
-0.0273961979096945
 10
1619.177538049875
 20
168.6418561764293
 42
-0.0243529190212958
 10
1618.014417557456
 20
167.7680968317617
 42
-0.0398020282482987
 10
1617.239459019895
 20
167.3284680883152
 42
-0.104168275620852
 10
1616.853047883555
 20
167.238451628138
 42
-0.007272956268647
 10
1616.414717904796
 20
167.2199982768433
 42
-0.007272956268647
  0
POLYLINE
  5
2B03
330
1F
100
AcDbEntity
  8
STAVBA OBRYS
100
AcDb2dPolyline
 66
     1
 10
0.0
 20
0.0
 30
0.0
  0
VERTEX
  5
2B04
330
2B03
100
AcDbEntity
  8
STAVBA OBRYS
100
AcDbVertex
100
AcDb2dVertex
 10
1626.279172718997
 20
170.4431625796077
 30
0.0
 42
-0.0064239028828688
  0
VERTEX
  5
2B05
330
2B03
100
AcDbEntity
  8
STAVBA OBRYS
100
AcDbVertex
100
AcDb2dVertex
 10
1626.240304278816
 20
170.2240489202576
 30
0.0
 42
-0.0832048017309575
  0
VERTEX
  5
2B06
330
2B03
100
AcDbEntity
  8
STAVBA OBRYS
100
AcDbVertex
100
AcDb2dVertex
 10
1625.456121676134
 20
167.8938353406028
 30
0.0
 42
-0.0336767237692336
  0
VERTEX
  5
2B07
330
2B03
100
AcDbEntity
  8
STAVBA OBRYS
100
AcDbVertex
100
AcDb2dVertex
 10
1623.753305117213
 20
165.1655608211421
 30
0.0
 42
-0.0844635135812105
  0
VERTEX
  5
2B08
330
2B03
100
AcDbEntity
  8
STAVBA OBRYS
100
AcDbVertex
100
AcDb2dVertex
 10
1622.83349535732
 20
164.261139216147
 30
0.0
 42
-0.0495829410719565
  0
VERTEX
  5
2B09
330
2B03
100
AcDbEntity
  8
STAVBA OBRYS
100
AcDbVertex
100
AcDb2dVertex
 10
1621.084816919966
 20
163.2844897088343
 30
0.0
 42
-0.0322692699774654
  0
VERTEX
  5
2B0A
330
2B03
100
AcDbEntity
  8
STAVBA OBRYS
100
AcDbVertex
100
AcDb2dVertex
 10
1618.193462738875
 20
162.2429662074336
 30
0.0
 42
-0.0276160659512937
  0
VERTEX
  5
2B0B
330
2B03
100
AcDbEntity
  8
STAVBA OBRYS
100
AcDbVertex
100
AcDb2dVertex
 10
1617.337886300588
 20
162.0462307784891
 30
0.0
 42
-0.0126891984598699
  0
VERTEX
  5
2B0C
330
2B03
100
AcDbEntity
  8
STAVBA OBRYS
100
AcDbVertex
100
AcDb2dVertex
 10
1616.414717904796
 20
161.9110283889476
 30
0.0
  0
SEQEND
  5
2B0D
330
2B03
100
AcDbEntity
  8
STAVBA OBRYS
  0
LINE
  5
2B0E
330
1F
100
AcDbEntity
  8
SPOJOVACÍ
  6
DASHED
100
AcDbLine
 10
1644.300112971447
 20
172.9268480403079
 30
0.0
 11
1644.300112971447
 21
170.456487161733
 31
0.0
  0
LINE
  5
2B0F
330
1F
100
AcDbEntity
  8
SPOJOVACÍ
  6
DASHED
100
AcDbLine
 10
1641.654730211966
 20
170.7518365805153
 30
0.0
 11
1641.654730211966
 21
168.2842104187747
 31
0.0
  0
LINE
  5
2B10
330
1F
100
AcDbEntity
  8
SPOJOVACÍ
  6
DASHED
100
AcDbLine
 10
1641.654730211966
 20
167.699892587323
 30
0.0
 11
1641.654730211966
 21
166.4774741602722
 31
0.0
  0
LINE
  5
2B11
330
1F
100
AcDbEntity
  8
SPOJOVACÍ
  6
DASHED
100
AcDbLine
 10
1644.300112971447
 20
169.8676114690787
 30
0.0
 11
1644.300112971447
 21
167.3990737351504
 31
0.0
  0
LINE
  5
2B12
330
1F
100
AcDbEntity
  8
SPOJOVACÍ
  6
DASHED
100
AcDbLine
 10
1644.300112971447
 20
166.8074633253981
 30
0.0
 11
1644.300112971447
 21
166.4774741602722
 31
0.0
  0
LINE
  5
2B13
330
1F
100
AcDbEntity
  8
SPOJOVACÍ
  6
DASHED
100
AcDbLine
 10
1641.654730211966
 20
166.4774741602722
 30
0.0
 11
1641.801493348634
 21
165.3042806359025
 31
0.0
  0
LINE
  5
2B14
330
1F
100
AcDbEntity
  8
SPOJOVACÍ
  6
DASHED
100
AcDbLine
 10
1641.87715384931
 20
164.6962619251661
 30
0.0
 11
1642.161564401839
 21
162.4209775148228
 31
0.0
  0
LINE
  5
2B15
330
1F
100
AcDbEntity
  8
SPOJOVACÍ
  6
DASHED
100
AcDbLine
 10
1643.727645575498
 20
161.8931771646311
 30
0.0
 11
1643.98926682173
 21
163.9870586914275
 31
0.0
  0
LINE
  5
2B16
330
1F
100
AcDbEntity
  8
SPOJOVACÍ
  6
DASHED
100
AcDbLine
 10
1644.059457888209
 20
164.5458524992117
 30
0.0
 11
1644.300112971447
 21
166.4774741602722
 31
0.0
  0
LINE
  5
2B17
330
1F
100
AcDbEntity
  8
SPOJOVACÍ
  6
DASHED
100
AcDbLine
 10
1640.874424342234
 20
165.1128504572206
 30
0.0
 11
1641.245434259553
 21
164.8986309714345
 31
0.0
  0
LINE
  5
2B18
330
1F
100
AcDbEntity
  8
SPOJOVACÍ
  6
DASHED
100
AcDbLine
 10
1640.874424342234
 20
165.1128504572206
 30
0.0
 11
1641.245434259553
 21
165.4829488028862
 31
0.0
  0
LINE
  5
2B19
330
1F
100
AcDbEntity
  8
SPOJOVACÍ
  6
DASHED
100
AcDbLine
 10
1644.917247401922
 20
164.1593458525621
 30
0.0
 11
1644.547149058396
 21
163.7883359344377
 31
0.0
  0
LINE
  5
2B1A
330
1F
100
AcDbEntity
  8
SPOJOVACÍ
  6
DASHED
100
AcDbLine
 10
1644.917247401922
 20
164.1593458525621
 30
0.0
 11
1644.547149058396
 21
164.3726537658894
 31
0.0
  0
LINE
  5
2B1B
330
1F
100
AcDbEntity
  8
SPOJOVACÍ
  6
DASHED
100
AcDbLine
 10
1641.245434259553
 20
164.8986309714345
 30
0.0
 11
1644.547149058396
 21
163.7883359344377
 31
0.0
  0
LINE
  5
2B1C
330
1F
100
AcDbEntity
  8
SPOJOVACÍ
  6
DASHED
100
AcDbLine
 10
1641.245434259553
 20
165.4829488028862
 30
0.0
 11
1644.547149058396
 21
164.3726537658894
 31
0.0
  0
LINE
  5
2B1D
330
1F
100
AcDbEntity
  8
SPOJOVACÍ
  6
DASHED
100
AcDbLine
 10
1640.874424342234
 20
165.1128504572206
 30
0.0
 11
1644.917247401922
 21
164.1593458525621
 31
0.0
  0
LINE
  5
2B1E
330
1F
100
AcDbEntity
  8
SPOJOVACÍ
  6
DASHED
100
AcDbLine
 10
1641.427748714217
 20
162.1584446980086
 30
0.0
 11
1641.797847062022
 21
161.9451367846813
 31
0.0
  0
LINE
  5
2B1F
330
1F
100
AcDbEntity
  8
SPOJOVACÍ
  6
DASHED
100
AcDbLine
 10
1641.427748714217
 20
162.1584446980086
 30
0.0
 11
1641.797847062022
 21
162.529454616133
 31
0.0
  0
LINE
  5
2B20
330
1F
100
AcDbEntity
  8
SPOJOVACÍ
  6
DASHED
100
AcDbLine
 10
1644.48151585232
 20
161.537663975574
 30
0.0
 11
1644.111417508794
 21
161.1666540577206
 31
0.0
  0
LINE
  5
2B21
330
1F
100
AcDbEntity
  8
SPOJOVACÍ
  6
DASHED
100
AcDbLine
 10
1644.48151585232
 20
161.537663975574
 30
0.0
 11
1644.111417508794
 21
161.7509718889013
 31
0.0
  0
LINE
  5
2B22
330
1F
100
AcDbEntity
  8
SPOJOVACÍ
  6
DASHED
100
AcDbLine
 10
1641.797847062022
 20
161.9451367846813
 30
0.0
 11
1644.111417508794
 21
161.1666540577206
 31
0.0
  0
LINE
  5
2B23
330
1F
100
AcDbEntity
  8
SPOJOVACÍ
  6
DASHED
100
AcDbLine
 10
1641.797847062022
 20
162.529454616133
 30
0.0
 11
1644.111417508794
 21
161.7509718889013
 31
0.0
  0
LINE
  5
2B24
330
1F
100
AcDbEntity
  8
SPOJOVACÍ
  6
DASHED
100
AcDbLine
 10
1641.427748714217
 20
162.1584446980086
 30
0.0
 11
1644.48151585232
 21
161.537663975574
 31
0.0
  0
LINE
  5
2B25
330
1F
100
AcDbEntity
  8
SPOJOVACÍ
  6
DASHED
100
AcDbLine
 10
1640.625565107701
 20
171.1866565579293
 30
0.0
 11
1645.329278071433
 21
170.0107283169963
 31
0.0
  0
LINE
  5
2B26
330
1F
100
AcDbEntity
  8
SPOJOVACÍ
  6
DASHED
100
AcDbLine
 10
1640.625565107701
 20
171.1866565579293
 30
0.0
 11
1640.995663455506
 21
170.9724370721505
 31
0.0
  0
LINE
  5
2B27
330
1F
100
AcDbEntity
  8
SPOJOVACÍ
  6
DASHED
100
AcDbLine
 10
1640.625565107701
 20
171.1866565579293
 30
0.0
 11
1640.995663455506
 21
171.5567549035949
 31
0.0
  0
LINE
  5
2B28
330
1F
100
AcDbEntity
  8
SPOJOVACÍ
  6
DASHED
100
AcDbLine
 10
1645.329278071433
 20
170.0107283169963
 30
0.0
 11
1644.959179727907
 21
169.6397183991429
 31
0.0
  0
LINE
  5
2B29
330
1F
100
AcDbEntity
  8
SPOJOVACÍ
  6
DASHED
100
AcDbLine
 10
1645.329278071433
 20
170.0107283169963
 30
0.0
 11
1644.959179727907
 21
170.2240362303236
 31
0.0
  0
LINE
  5
2B2A
330
1F
100
AcDbEntity
  8
SPOJOVACÍ
  6
DASHED
100
AcDbLine
 10
1640.995663455506
 20
170.9724370721505
 30
0.0
 11
1644.959179727907
 21
169.6397183991429
 31
0.0
  0
LINE
  5
2B2B
330
1F
100
AcDbEntity
  8
SPOJOVACÍ
  6
DASHED
100
AcDbLine
 10
1640.995663455506
 20
171.5567549035949
 30
0.0
 11
1644.959179727907
 21
170.2240362303236
 31
0.0
  0
LINE
  5
2B2C
330
1F
100
AcDbEntity
  8
SPOJOVACÍ
  6
DASHED
100
AcDbLine
 10
1640.625565107701
 20
168.1283315588879
 30
0.0
 11
1645.329278071433
 21
166.9524033179549
 31
0.0
  0
LINE
  5
2B2D
330
1F
100
AcDbEntity
  8
SPOJOVACÍ
  6
DASHED
100
AcDbLine
 10
1640.625565107701
 20
168.1283315588879
 30
0.0
 11
1640.995663455506
 21
167.9150236455606
 31
0.0
  0
LINE
  5
2B2E
330
1F
100
AcDbEntity
  8
SPOJOVACÍ
  6
DASHED
100
AcDbLine
 10
1640.625565107701
 20
168.1283315588879
 30
0.0
 11
1640.995663455506
 21
168.4993414770123
 31
0.0
  0
LINE
  5
2B2F
330
1F
100
AcDbEntity
  8
SPOJOVACÍ
  6
DASHED
100
AcDbLine
 10
1645.329278071433
 20
166.9524033179549
 30
0.0
 11
1644.959179727907
 21
166.5823049722893
 31
0.0
  0
LINE
  5
2B30
330
1F
100
AcDbEntity
  8
SPOJOVACÍ
  6
DASHED
100
AcDbLine
 10
1645.329278071433
 20
166.9524033179549
 30
0.0
 11
1644.959179727907
 21
167.166622803741
 31
0.0
  0
LINE
  5
2B31
330
1F
100
AcDbEntity
  8
SPOJOVACÍ
  6
DASHED
100
AcDbLine
 10
1640.995663455506
 20
167.9150236455606
 30
0.0
 11
1644.959179727907
 21
166.5823049722893
 31
0.0
  0
LINE
  5
2B32
330
1F
100
AcDbEntity
  8
SPOJOVACÍ
  6
DASHED
100
AcDbLine
 10
1640.995663455506
 20
168.4993414770123
 30
0.0
 11
1644.959179727907
 21
167.166622803741
 31
0.0
  0
LINE
  5
2B33
330
1F
100
AcDbEntity
  8
SPOJOVACÍ
  6
DASHED
100
AcDbLine
 10
1641.654730211966
 20
173.8220120190671
 30
0.0
 11
1641.654730211966
 21
171.3443585624554
 31
0.0
  0
LWPOLYLINE
  5
2B34
330
1F
100
AcDbEntity
  8
STAVBA OBRYS
100
AcDbPolyline
 90
        2
 70
     0
 43
0.0
 10
1663.628864896671
 20
139.4401925304854
 10
1666.414717904795
 20
138.0462464626734
  0
LINE
  5
2B35
330
1F
100
AcDbEntity
  8
SPOJOVACÍ
  6
DASHED
100
AcDbLine
 10
1642.977421589567
 20
155.893208418618
 30
0.0
 11
1643.324730631074
 21
158.6725922998611
 31
0.0
  0
LINE
  5
2B36
330
1F
100
AcDbEntity
  8
SPOJOVACÍ
  6
DASHED
100
AcDbLine
 10
1642.599119094747
 20
158.9205399600668
 30
0.0
 11
1642.977421589567
 21
155.893208418618
 31
0.0
  0
LINE
  5
2B37
330
1F
100
AcDbEntity
  8
SPOJOVACÍ
  6
DASHED
100
AcDbLine
 10
1641.981073090479
 20
159.2049505112553
 30
0.0
 11
1642.351171434006
 21
158.9907310254765
 31
0.0
  0
LINE
  5
2B38
330
1F
100
AcDbEntity
  8
SPOJOVACÍ
  6
DASHED
100
AcDbLine
 10
1641.981073090479
 20
159.2049505112553
 30
0.0
 11
1642.351171434006
 21
159.5750488569209
 31
0.0
  0
LINE
  5
2B39
330
1F
100
AcDbEntity
  8
SPOJOVACÍ
  6
DASHED
100
AcDbLine
 10
1644.092274489107
 20
158.9004853697969
 30
0.0
 11
1643.722176145581
 21
158.5294754519436
 31
0.0
  0
LINE
  5
2B3A
330
1F
100
AcDbEntity
  8
SPOJOVACÍ
  6
DASHED
100
AcDbLine
 10
1644.092274489107
 20
158.9004853697969
 30
0.0
 11
1643.722176145581
 21
159.113793283388
 31
0.0
  0
LINE
  5
2B3B
330
1F
100
AcDbEntity
  8
SPOJOVACÍ
  6
DASHED
100
AcDbLine
 10
1642.351171434006
 20
158.9907310254765
 30
0.0
 11
1643.722176145581
 21
158.5294754519436
 31
0.0
  0
LINE
  5
2B3C
330
1F
100
AcDbEntity
  8
SPOJOVACÍ
  6
DASHED
100
AcDbLine
 10
1642.351171434006
 20
159.5750488569209
 30
0.0
 11
1643.722176145581
 21
159.113793283388
 31
0.0
  0
LINE
  5
2B3D
330
1F
100
AcDbEntity
  8
SPOJOVACÍ
  6
DASHED
100
AcDbLine
 10
1641.981073090479
 20
159.2049505112553
 30
0.0
 11
1644.092274489107
 21
158.9004853697969
 31
0.0
  0
LWPOLYLINE
  5
2B3E
330
1F
100
AcDbEntity
  8
STAVBA OBRYS
100
AcDbPolyline
 90
        4
 70
     1
 43
0.0
 10
1616.414717904795
 20
130.4431625796095
 10
1666.414717904795
 20
130.4431625796095
 10
1666.414717904795
 20
170.4431625796095
 10
1616.414717904795
 20
170.4431625796095
  0
LWPOLYLINE
  5
2B3F
330
1F
100
AcDbEntity
  8
STAVBA OBRYS
100
AcDbPolyline
 90
        3
 70
     0
 43
0.0
 10
1623.1231153625
 20
164.9258318840911
 10
1639.878332982228
 20
156.5420910161228
 10
1648.045437631352
 20
148.3607893150255
  0
LWPOLYLINE
  5
2B40
330
1F
100
AcDbEntity
  8
STAVBA OBRYS
100
AcDbPolyline
 90
       10
 70
     0
 43
0.0
 10
1640.45700176342
 20
170.4431625796095
 42
-0.0168162630274194
 10
1640.321976184356
 20
168.7521244274902
 42
-0.0575155827655532
 10
1639.641943904013
 20
165.6524997667728
 42
-0.0310289133982999
 10
1636.639142559185
 20
158.4074722421282
 42
-0.0882970623535771
 10
1635.001920639092
 20
156.1671031913282
 42
-0.0171636441953577
 10
1632.188556577234
 20
153.653185836083
 42
-0.0157521173632038
 10
1628.949701740198
 20
151.1216897835765
 42
-0.0073640874174249
 10
1624.316052383877
 20
147.8332883578404
 42
-0.0194185739168057
 10
1622.4940090642
 20
146.6817193585592
 42
-0.0567960585128809
 10
1616.414717904796
 20
144.0298551531831
 42
-0.0229547400386702
  0
LWPOLYLINE
  5
2B41
330
1F
100
AcDbEntity
  8
STAVBA OBRYS
100
AcDbPolyline
 90
        8
 70
     0
 43
0.0
 10
1649.32406098693
 20
170.4431625796095
 42
-0.0120721047703132
 10
1649.255078296893
 20
168.7092744408654
 42
-0.044358077361292
 10
1648.859450562219
 20
166.0134744224487
 42
-0.0188067511131767
 10
1646.839627113836
 20
158.7712452471422
 42
-0.0457786284636091
 10
1645.63160422422
 20
155.9226348642622
 42
-0.0295006114745606
 10
1643.215543769921
 20
151.9957356508602
 42
-0.0258674098621065
 10
1639.982868455956
 20
147.8499555721063
 42
-0.2409478365688615
 10
1616.414717904796
 20
133.4254081271328
 42
-0.0884720560394402
  0
POLYLINE
  5
2B42
330
1F
100
AcDbEntity
  8
STAVBA OBRYS
100
AcDb2dPolyline
 66
     1
 10
0.0
 20
0.0
 30
0.0
  0
VERTEX
  5
2B43
330
2B42
100
AcDbEntity
  8
STAVBA OBRYS
100
AcDbVertex
100
AcDb2dVertex
 10
1633.507223739735
 20
170.4431625796077
 30
0.0
 42
-0.0072417954699014
  0
VERTEX
  5
2B44
330
2B42
100
AcDbEntity
  8
STAVBA OBRYS
100
AcDbVertex
100
AcDb2dVertex
 10
1633.451653371891
 20
170.0317573683332
 30
0.0
 42
-0.0707158694326265
  0
VERTEX
  5
2B45
330
2B42
100
AcDbEntity
  8
STAVBA OBRYS
100
AcDbVertex
100
AcDb2dVertex
 10
1632.920526855471
 20
168.0956539157395
 30
0.0
 42
-0.033952657250207
  0
VERTEX
  5
2B46
330
2B42
100
AcDbEntity
  8
STAVBA OBRYS
100
AcDbVertex
100
AcDb2dVertex
 10
1630.671871016063
 20
163.7426161905659
 30
0.0
 42
-0.0571374688189033
  0
VERTEX
  5
2B47
330
2B42
100
AcDbEntity
  8
STAVBA OBRYS
100
AcDbVertex
100
AcDb2dVertex
 10
1628.885714256211
 20
161.4356919068795
 30
0.0
 42
-0.0274923553235744
  0
VERTEX
  5
2B48
330
2B42
100
AcDbEntity
  8
STAVBA OBRYS
100
AcDbVertex
100
AcDb2dVertex
 10
1626.288408525658
 20
159.050616583745
 30
0.0
 42
-0.0255412025538677
  0
VERTEX
  5
2B49
330
2B42
100
AcDbEntity
  8
STAVBA OBRYS
100
AcDbVertex
100
AcDb2dVertex
 10
1623.236978487947
 20
156.7939029067255
 30
0.0
 42
-0.0272796991712396
  0
VERTEX
  5
2B4A
330
2B42
100
AcDbEntity
  8
STAVBA OBRYS
100
AcDbVertex
100
AcDb2dVertex
 10
1619.123979334762
 20
154.3775670250633
 30
0.0
 42
-0.056967459841729
  0
VERTEX
  5
2B4B
330
2B42
100
AcDbEntity
  8
STAVBA OBRYS
100
AcDbVertex
100
AcDb2dVertex
 10
1616.98303205403
 20
153.5648311898639
 30
0.0
 42
-0.0373408083348504
  0
VERTEX
  5
2B4C
330
2B42
100
AcDbEntity
  8
STAVBA OBRYS
100
AcDbVertex
100
AcDb2dVertex
 10
1616.760677678557
 20
153.5256656489127
 30
0.0
 42
-0.0052305969362967
  0
VERTEX
  5
2B4D
330
2B42
100
AcDbEntity
  8
STAVBA OBRYS
100
AcDbVertex
100
AcDb2dVertex
 10
1616.414717904796
 20
153.4947086820083
 30
0.0
  0
SEQEND
  5
2B4E
330
2B42
100
AcDbEntity
  8
STAVBA OBRYS
  0
LWPOLYLINE
  5
2B4F
330
1F
100
AcDbEntity
  8
STAVBA OBRYS
100
AcDbPolyline
 90
        6
 70
     0
 43
0.0
 10
1657.948276366972
 20
170.4431625796095
 42
-0.0128837512779301
 10
1657.663484406747
 20
167.1099977578632
 42
-0.0351641677647434
 10
1657.035724685224
 20
163.5062883035242
 42
-0.0187319685742942
 10
1653.651708804233
 20
151.7480509613814
 42
-0.0582629403736403
 10
1651.992208936152
 20
148.1682167624494
 42
-0.1129599987265478
 10
1634.616667084443
 20
130.4431625796095
 42
-0.1129599987265478
  0
LWPOLYLINE
  5
2B50
330
1F
100
AcDbEntity
  8
STAVBA OBRYS
100
AcDbPolyline
 90
        3
 70
     0
 43
0.0
 10
1642.415692987745
 20
163.9439930103544
 10
1662.411945419738
 20
154.7279639598345
 10
1666.411883053452
 20
154.0825664844923
  0
LWPOLYLINE
  5
2B51
330
1F
100
AcDbEntity
  8
STAVBA OBRYS
100
AcDbPolyline
 90
        4
 70
     0
 43
0.0
 10
1666.414717904795
 20
160.2433324087041
 42
-0.0067884601454759
 10
1664.41887461375
 20
150.1144693971436
 42
-0.0219777111230329
 10
1663.512762111767
 20
146.5963561413081
 42
-0.0757738131361498
 10
1650.231664255547
 20
130.4431625796095
  0
LINE
  5
2B52
330
1F
100
AcDbEntity
  8
SPOJOVACÍ
  6
DASHED
100
AcDbLine
 10
1642.23904804582
 20
161.8029315089515
 30
0.0
 11
1642.523458594071
 21
159.5285586708031
 31
0.0
  0
LINE
  5
2B53
330
1F
100
AcDbEntity
  8
SPOJOVACÍ
  6
DASHED
100
AcDbLine
 10
1643.394921697553
 20
159.2304745351865
 30
0.0
 11
1643.657454513298
 21
161.3325602124713
 31
0.0
  0
LINE
  5
2B54
330
1F
100
AcDbEntity
  8
STAVBA OBRYS
100
AcDbLine
 10
1601.414717904798
 20
130.4431625796098
 30
0.0
 11
1601.414717904798
 21
133.4431625796097
 31
0.0
  0
LINE
  5
2B55
330
1F
100
AcDbEntity
  8
nášlap_vrstvy
100
AcDbLine
 10
1632.06642054605
 20
207.5119830545556
 30
0.0
 11
1604.066420546049
 21
207.5119830545556
 31
0.0
  0
LINE
  5
2B56
330
1F
100
AcDbEntity
  8
nášlap_vrstvy
100
AcDbLine
 10
1604.066420546049
 20
207.5119830545556
 30
0.0
 11
1604.066420546049
 21
235.5119830545556
 31
0.0
  0
LINE
  5
2B57
330
1F
100
AcDbEntity
  8
nášlap_vrstvy
100
AcDbLine
 10
1604.066420546049
 20
235.5119830545556
 30
0.0
 11
1602.06642054605
 21
235.5119830545556
 31
0.0
  0
INSERT
  5
2B58
330
1F
100
AcDbEntity
  8
POPIS
100
AcDbBlockReference
  2
E_PUNKT
 10
1605.400477755972
 20
219.0643008583767
 30
0.0
 50
270.0
  0
LINE
  5
2B59
330
1F
100
AcDbEntity
  8
POPIS
100
AcDbLine
 10
1605.945079803442
 20
219.4851826518626
 30
0.0
 11
1681.63759338301
 21
269.736621332797
 31
0.0
  0
LWPOLYLINE
  5
2B5A
330
1F
100
AcDbEntity
  8
nášlap_vrstvy
100
AcDbPolyline
 90
        4
 70
     1
 43
0.0
 10
1684.160782389227
 20
198.9431625796098
 10
1672.339916034307
 20
198.9431625796098
 10
1672.339916034307
 20
197.4431625796098
 10
1684.160782389227
 20
197.4431625796098
  0
HATCH
  5
2B5B
330
1F
100
AcDbEntity
  8
nášlap_vrstvy
100
AcDbHatch
 10
0.0
 20
0.0
 30
0.0
210
0.0
220
0.0
230
1.0
  2
SOLID
 70
     1
 71
     0
 91
        1
 92
        7
 72
     0
 73
     1
 93
        4
 10
1684.160782389227
 20
198.9431625796098
 10
1672.339916034311
 20
198.9431625796098
 10
1672.339916034307
 20
197.4431625796098
 10
1684.160782389227
 20
197.4431625796098
 97
        0
 75
     0
 76
     1
 47
0.1901250437635136
 98
        1
 10
1677.018813413481
 20
198.5347568040699
  0
LINE
  5
2B5C
330
1F
100
AcDbEntity
  8
izolace
  6
IZOLACE
 48
0.7
100
AcDbLine
 10
1608.914717904798
 20
197.4431625796098
 30
0.0
 11
1608.9147179048
 21
127.4431625796104
 31
0.0
  0
LWPOLYLINE
  5
2B5D
330
1F
100
AcDbEntity
  8
izolace
100
AcDbPolyline
 90
        4
 70
     1
 43
0.0
 10
1601.414717904798
 20
197.4431625796098
 10
1616.414717904798
 20
197.4431625796098
 10
1616.414717904798
 20
127.4431625796104
 10
1601.414717904802
 20
127.4431625796098
  0
HATCH
  5
2B5E
330
1F
100
AcDbEntity
  8
nášlap_vrstvy
100
AcDbHatch
 10
0.0
 20
0.0
 30
0.0
210
0.0
220
0.0
230
1.0
  2
SOLID
 70
     1
 71
     0
 91
        1
 92
        7
 72
     0
 73
     1
 93
        4
 10
1636.877316969556
 20
198.9431625796098
 10
1625.056450614641
 20
198.9431625796098
 10
1625.056450614637
 20
197.4431625796098
 10
1636.877316969556
 20
197.4431625796098
 97
        0
 75
     0
 76
     1
 47
0.1901250437635136
 98
        1
 10
1629.73534799381
 20
198.5347568040699
  0
LWPOLYLINE
  5
2B5F
330
1F
100
AcDbEntity
  8
nášlap_vrstvy
100
AcDbPolyline
 90
        4
 70
     1
 43
0.0
 10
1636.877316969556
 20
198.9431625796098
 10
1625.056450614637
 20
198.9431625796098
 10
1625.056450614637
 20
197.4431625796098
 10
1636.877316969556
 20
197.4431625796098
  0
LINE
  5
2B60
330
1F
100
AcDbEntity
  8
nášlap_vrstvy
100
AcDbLine
 10
1602.06642054605
 20
205.5119830545556
 30
0.0
 11
1632.06642054605
 21
205.5119830545556
 31
0.0
  0
HATCH
  5
2B61
330
1F
100
AcDbEntity
  8
nášlap_vrstvy
100
AcDbHatch
 10
0.0
 20
0.0
 30
0.0
210
0.0
220
0.0
230
1.0
  2
SOLID
 70
     1
 71
     0
 91
        1
 92
        7
 72
     0
 73
     1
 93
        4
 10
1613.235584259718
 20
198.9431625796098
 10
1601.414717904802
 20
198.9431625796098
 10
1601.414717904802
 20
197.4431625796098
 10
1613.235584259721
 20
197.4431625796098
 97
        0
 75
     0
 76
     1
 47
0.1901250437635136
 98
        3
 10
1627.357329391813
 20
198.0594401149157
 10
1609.189233978141
 20
197.964376777085
 10
1607.191697883529
 20
198.249566790577
  0
LWPOLYLINE
  5
2B62
330
1F
100
AcDbEntity
  8
nášlap_vrstvy
100
AcDbPolyline
 90
        4
 70
     1
 43
0.0
 10
1613.235584259718
 20
198.9431625796098
 10
1601.414717904802
 20
198.9431625796098
 10
1601.414717904802
 20
197.4431625796098
 10
1613.235584259718
 20
197.4431625796098
  0
LINE
  5
2B63
330
1F
100
AcDbEntity
  8
CETRIS
100
AcDbLine
 10
1616.414717904798
 20
197.4431625796098
 30
0.0
 11
1616.414717904798
 21
185.4431625796097
 31
0.0
  0
LINE
  5
2B64
330
1F
100
AcDbEntity
  8
CETRIS
100
AcDbLine
 10
1616.414717904798
 20
185.4431625796097
 30
0.0
 11
1616.414717904798
 21
173.4431625796098
 31
0.0
  0
INSERT
  5
2B65
330
1F
100
AcDbEntity
  8
POPIS
100
AcDbBlockReference
  2
E_PUNKT
 10
1605.856738030653
 20
150.8408938459571
 30
0.0
 50
270.0
  0
HATCH
  5
2B66
330
1F
100
AcDbEntity
  8
STAVBA OBRYS
100
AcDbHatch
 10
0.0
 20
0.0
 30
0.0
210
0.0
220
0.0
230
1.0
  2
AR-CONC
 70
     0
 71
     0
 91
        1
 92
        7
 72
     0
 73
     1
 93
        5
 10
1591.414717904802
 20
130.4431625796107
 10
1601.414717904798
 20
130.4431625796107
 10
1601.414717904798
 20
133.4431625796097
 10
1601.414717904802
 20
152.9925320033664
 10
1591.414717904802
 20
157.8745912975547
 97
        0
 75
     0
 76
     1
 52
90.0
 41
0.1
 77
     0
 78
    13
 53
140.0
 43
-26095.97674922139
 44
3057.162392574402
 45
1.593908553890309
 46
18.2184668996004
 79
     2
 49
1.905
 49
-20.955
 53
85.00000000000001
 43
-26095.97674922139
 44
3057.162392574402
 45
-19.10566428821799
 46
-3.524282597566697
 79
     2
 49
1.524
 49
-16.764
 53
190.4509999999999
 43
-26095.84392422139
 44
3058.680592574403
 45
-17.51166878202918
 46
14.69425016659592
 79
     2
 49
1.619
 49
-17.809
 53
136.1841999999999
 43
-26101.05674922139
 44
3057.162392574402
 45
4.204232793272717
 46
27.10790408921299
 79
     2
 49
2.857499999999999
 49
-31.4325
 53
186.6355999999999
 43
-26100.70639922139
 44
3059.421382574402
 45
-24.74255558900492
 46
23.74042344662371
 79
     2
 49
2.4285
 49
-26.7135
 53
81.18400000000004
 43
-26101.05674922139
 44
3057.162392574402
 45
-24.74251178605976
 46
23.74046058139339
 79
     2
 49
2.286
 49
-25.146
 53
111.0
 43
-26099.78674922139
 44
3059.702392574402
 45
10.22655185167625
 46
15.16148798353833
 79
     2
 49
1.905
 49
-20.955
 53
56.00000000000004
 43
-26099.78674922139
 44
3059.702392574402
 45
-18.41879661223192
 46
6.180202834764708
 79
     2
 49
1.524
 49
-16.764
 53
161.4514
 43
-26098.93453922139
 44
3060.965842574402
 45
-8.192285771605742
 46
21.34164907701245
 79
     2
 49
1.618999999999997
 49
-17.80899999999995
 53
127.5
 43
-26095.97674922139
 44
3057.162392574402
 45
-8.455503887315311
 46
0.3088603250591822
 79
     6
 49
0.0
 49
-16.5608
 49
0.0
 49
-17.018
 49
0.0
 49
-16.8275
 53
97.49999999999985
 43
-26095.97674922139
 44
3057.162392574402
 45
-10.01805748181195
 46
6.681966251030575
 79
     6
 49
0.0
 49
-9.702799999999998
 49
0.0
 49
-16.17979999999999
 49
0.0
 49
-6.413499999999999
 53
57.5
 43
-26095.97674922139
 44
3051.498192574402
 45
0.5728743992673473
 46
13.55905951668713
 79
     6
 49
0.0
 49
-6.35
 49
0.0
 49
-19.812
 49
0.0
 49
-26.289
 53
47.5
 43
-26095.97674922139
 44
3048.958192574402
 45
-2.5426491033333
 46
14.8129181386018
 79
     6
 49
0.0
 49
-8.255
 49
0.0
 49
-13.1572
 49
0.0
 49
-18.669
 47
0.415434097446913
 98
        1
 10
1594.000201288396
 20
138.3432719793783
  0
LWPOLYLINE
  5
2B67
330
1F
100
AcDbEntity
  8
nášlap_vrstvy
100
AcDbPolyline
 90
        4
 70
     1
 43
0.0
 10
1660.519049679388
 20
198.9431625796098
 10
1648.698183324472
 20
198.9431625796098
 10
1648.698183324472
 20
197.4431625796098
 10
1660.519049679388
 20
197.4431625796098
  0
HATCH
  5
2B68
330
1F
100
AcDbEntity
  8
nášlap_vrstvy
100
AcDbHatch
 10
0.0
 20
0.0
 30
0.0
210
0.0
220
0.0
230
1.0
  2
SOLID
 70
     1
 71
     0
 91
        1
 92
        7
 72
     0
 73
     1
 93
        4
 10
1660.519049679392
 20
198.9431625796098
 10
1648.698183324472
 20
198.9431625796098
 10
1648.698183324472
 20
197.4431625796098
 10
1660.519049679392
 20
197.4431625796098
 97
        0
 75
     0
 76
     1
 47
0.1901250437635136
 98
        1
 10
1653.377080703642
 20
198.5347568040699
  0
LINE
  5
2B69
330
1F
100
AcDbEntity
  8
nášlap_vrstvy
100
AcDbLine
 10
1602.06642054605
 20
235.5119830545556
 30
0.0
 11
1602.06642054605
 21
205.5119830545556
 31
0.0
  0
LINE
  5
2B6A
330
1F
100
AcDbEntity
  8
nášlap_vrstvy
100
AcDbLine
 10
1632.06642054605
 20
205.5119830545556
 30
0.0
 11
1632.06642054605
 21
207.5119830545556
 31
0.0
  0
HATCH
  5
2B6B
330
1F
100
AcDbEntity
  8
nášlap_vrstvy
100
AcDbHatch
 10
0.0
 20
0.0
 30
0.0
210
0.0
220
0.0
230
1.0
  2
SOLID
 70
     1
 71
     0
 91
        1
 92
        7
 72
     0
 73
     1
 93
        4
 10
1849.652911358074
 20
198.9431625796098
 10
1837.832045003154
 20
198.9431625796098
 10
1837.832045003154
 20
197.4431625796098
 10
1849.652911358074
 20
197.4431625796098
 97
        0
 75
     0
 76
     1
 47
0.1901250437635136
 98
        1
 10
1842.510942382324
 20
198.5347568040699
  0
TEXT
  5
2B6C
330
1F
100
AcDbEntity
  8
POPIS
100
AcDbText
 10
1838.641714785605
 20
278.5859824055207
 30
0.0
 40
25.0
  1
03
 41
0.85
  7
SIMPLEX7
100
AcDbText
  0
LINE
  5
2B6D
330
1F
100
AcDbEntity
  8
POPIS
100
AcDbLine
 10
1733.829753387953
 20
269.736621332797
 30
0.0
 11
1733.829753387953
 21
206.1301574271748
 31
0.0
  0
TEXT
  5
2B6E
330
1F
100
AcDbEntity
  8
POPIS
100
AcDbText
 10
1715.03415997624
 20
278.5859824055207
 30
0.0
 40
25.0
  1
02
 41
0.85
  7
SIMPLEX7
100
AcDbText
  0
LWPOLYLINE
  5
2B6F
330
1F
100
AcDbEntity
  8
nášlap_vrstvy
100
AcDbPolyline
 90
        4
 70
     1
 43
0.0
 10
1826.011178648238
 20
198.9431625796098
 10
1814.190312293319
 20
198.9431625796098
 10
1814.190312293319
 20
197.4431625796098
 10
1826.011178648238
 20
197.4431625796098
  0
HATCH
  5
2B70
330
1F
100
AcDbEntity
  8
nášlap_vrstvy
100
AcDbHatch
 10
0.0
 20
0.0
 30
0.0
210
0.0
220
0.0
230
1.0
  2
SOLID
 70
     1
 71
     0
 91
        1
 92
        7
 72
     0
 73
     1
 93
        4
 10
1826.011178648238
 20
198.9431625796098
 10
1814.190312293322
 20
198.9431625796098
 10
1814.190312293319
 20
197.4431625796098
 10
1826.011178648238
 20
197.4431625796098
 97
        0
 75
     0
 76
     1
 47
0.1901250437635136
 98
        1
 10
1818.869209672492
 20
198.5347568040699
  0
LWPOLYLINE
  5
2B71
330
1F
100
AcDbEntity
  8
nášlap_vrstvy
100
AcDbPolyline
 90
        4
 70
     1
 43
0.0
 10
1802.369445938399
 20
198.9431625796098
 10
1790.548579583483
 20
198.9431625796098
 10
1790.548579583483
 20
197.4431625796098
 10
1802.369445938399
 20
197.4431625796098
  0
HATCH
  5
2B72
330
1F
100
AcDbEntity
  8
nášlap_vrstvy
100
AcDbHatch
 10
0.0
 20
0.0
 30
0.0
210
0.0
220
0.0
230
1.0
  2
SOLID
 70
     1
 71
     0
 91
        1
 92
        7
 72
     0
 73
     1
 93
        4
 10
1802.369445938403
 20
198.9431625796098
 10
1790.548579583483
 20
198.9431625796098
 10
1790.548579583483
 20
197.4431625796098
 10
1802.369445938403
 20
197.4431625796098
 97
        0
 75
     0
 76
     1
 47
0.1901250437635136
 98
        1
 10
1795.227476962653
 20
198.5347568040699
  0
LWPOLYLINE
  5
2B73
330
1F
100
AcDbEntity
  8
nášlap_vrstvy
100
AcDbPolyline
 90
        4
 70
     1
 43
0.0
 10
1755.085980518729
 20
198.9431625796098
 10
1743.265114163813
 20
198.9431625796098
 10
1743.265114163813
 20
197.4431625796098
 10
1755.085980518729
 20
197.4431625796098
  0
HATCH
  5
2B74
330
1F
100
AcDbEntity
  8
nášlap_vrstvy
100
AcDbHatch
 10
0.0
 20
0.0
 30
0.0
210
0.0
220
0.0
230
1.0
  2
SOLID
 70
     1
 71
     0
 91
        1
 92
        7
 72
     0
 73
     1
 93
        4
 10
1755.085980518733
 20
198.9431625796098
 10
1743.265114163813
 20
198.9431625796098
 10
1743.265114163813
 20
197.4431625796098
 10
1755.085980518733
 20
197.4431625796098
 97
        0
 75
     0
 76
     1
 47
0.1901250437635136
 98
        1
 10
1747.944011542983
 20
198.5347568040699
  0
LWPOLYLINE
  5
2B75
330
1F
100
AcDbEntity
  8
nášlap_vrstvy
100
AcDbPolyline
 90
        4
 70
     1
 43
0.0
 10
1731.444247808897
 20
198.9431625796098
 10
1719.623381453978
 20
198.9431625796098
 10
1719.623381453978
 20
197.4431625796098
 10
1731.444247808897
 20
197.4431625796098
  0
HATCH
  5
2B76
330
1F
100
AcDbEntity
  8
nášlap_vrstvy
100
AcDbHatch
 10
0.0
 20
0.0
 30
0.0
210
0.0
220
0.0
230
1.0
  2
SOLID
 70
     1
 71
     0
 91
        1
 92
        7
 72
     0
 73
     1
 93
        4
 10
1731.444247808897
 20
198.9431625796098
 10
1719.623381453982
 20
198.9431625796098
 10
1719.623381453978
 20
197.4431625796098
 10
1731.444247808897
 20
197.4431625796098
 97
        0
 75
     0
 76
     1
 47
0.1901250437635136
 98
        1
 10
1724.302278833151
 20
198.5347568040699
  0
LWPOLYLINE
  5
2B77
330
1F
100
AcDbEntity
  8
nášlap_vrstvy
100
AcDbPolyline
 90
        4
 70
     1
 43
0.0
 10
1778.727713228568
 20
198.9431625796098
 10
1766.906846873648
 20
198.9431625796098
 10
1766.906846873648
 20
197.4431625796098
 10
1778.727713228568
 20
197.4431625796098
  0
HATCH
  5
2B78
330
1F
100
AcDbEntity
  8
nášlap_vrstvy
100
AcDbHatch
 10
0.0
 20
0.0
 30
0.0
210
0.0
220
0.0
230
1.0
  2
SOLID
 70
     1
 71
     0
 91
        1
 92
        7
 72
     0
 73
     1
 93
        4
 10
1778.727713228568
 20
198.9431625796098
 10
1766.906846873652
 20
198.9431625796098
 10
1766.906846873648
 20
197.4431625796098
 10
1778.727713228568
 20
197.4431625796098
 97
        0
 75
     0
 76
     1
 47
0.1901250437635136
 98
        1
 10
1771.585744252822
 20
198.5347568040699
  0
INSERT
  5
2B79
330
1F
100
AcDbEntity
  8
POPIS
100
AcDbBlockReference
  2
E_PUNKT
 10
1733.787616764956
 20
207.61521556119
 30
0.0
 50
270.0
  0
LINE
  5
2B7A
330
1F
100
AcDbEntity
  8
SPOJOVACÍ
  6
DASHED
100
AcDbLine
 10
1940.040788535695
 20
189.5016058714408
 30
0.0
 11
1944.744501499427
 21
188.3256776305078
 31
0.0
  0
LINE
  5
2B7B
330
1F
100
AcDbEntity
  8
SPOJOVACÍ
  6
DASHED
100
AcDbLine
 10
1940.040788535695
 20
186.4589580679893
 30
0.0
 11
1944.744501499427
 21
185.2830298270563
 31
0.0
  0
LINE
  5
2B7C
330
1F
100
AcDbEntity
  8
SPOJOVACÍ
  6
DASHED
100
AcDbLine
 10
1940.040788535695
 20
183.4015446414068
 30
0.0
 11
1944.744501499427
 21
182.2256164002028
 31
0.0
  0
LINE
  5
2B7D
330
1F
100
AcDbEntity
  8
SPOJOVACÍ
  6
DASHED
100
AcDbLine
 10
1944.744501499427
 20
173.0681417435861
 30
0.0
 11
1944.374403155901
 21
173.2814496571772
 31
0.0
  0
LINE
  5
2B7E
330
1F
100
AcDbEntity
  8
SPOJOVACÍ
  6
DASHED
100
AcDbLine
 10
1944.744501499427
 20
173.0681417435861
 30
0.0
 11
1944.374403155901
 21
172.6971318257328
 31
0.0
  0
LINE
  5
2B7F
330
1F
100
AcDbEntity
  8
SPOJOVACÍ
  6
DASHED
100
AcDbLine
 10
1940.040788535695
 20
180.3588968379553
 30
0.0
 11
1944.744501499427
 21
179.1829685970223
 31
0.0
  0
LINE
  5
2B80
330
1F
100
AcDbEntity
  8
SPOJOVACÍ
  6
DASHED
100
AcDbLine
 10
1940.040788535695
 20
174.2440699845191
 30
0.0
 11
1944.744501499427
 21
173.0681417435861
 31
0.0
  0
LINE
  5
2B81
330
1F
100
AcDbEntity
  8
SPOJOVACÍ
  6
DASHED
100
AcDbLine
 10
1940.040788535695
 20
177.3014834113727
 30
0.0
 11
1944.744501499427
 21
176.1255551701687
 31
0.0
  0
LINE
  5
2B82
330
1F
100
AcDbEntity
  8
SPOJOVACÍ
  6
DASHED
100
AcDbLine
 10
1937.3944942067
 20
196.2672343384128
 30
0.0
 11
1947.390795828422
 21
196.2672343384128
 31
0.0
  0
LINE
  5
2B83
330
1F
100
AcDbEntity
  8
SPOJOVACÍ
  6
DASHED
100
AcDbLine
 10
1937.3944942067
 20
197.4431625796095
 30
0.0
 11
1947.390795828422
 21
197.4431625796095
 31
0.0
  0
LINE
  5
2B84
330
1F
100
AcDbEntity
  8
SPOJOVACÍ
  6
DASHED
100
AcDbLine
 10
1941.069953639959
 20
186.035076957898
 30
0.0
 11
1941.069953639959
 21
183.5665392239697
 31
0.0
  0
LINE
  5
2B85
330
1F
100
AcDbEntity
  8
SPOJOVACÍ
  6
DASHED
100
AcDbLine
 10
1940.040788535695
 20
183.4015446414068
 30
0.0
 11
1940.4108868835
 21
183.7716429870724
 31
0.0
  0
LINE
  5
2B86
330
1F
100
AcDbEntity
  8
SPOJOVACÍ
  6
DASHED
100
AcDbLine
 10
1940.040788535695
 20
183.4015446414068
 30
0.0
 11
1940.4108868835
 21
183.1873251556207
 31
0.0
  0
LINE
  5
2B87
330
1F
100
AcDbEntity
  8
SPOJOVACÍ
  6
DASHED
100
AcDbLine
 10
1941.069953639959
 20
182.9749288144811
 30
0.0
 11
1941.069953639959
 21
180.5045679359063
 31
0.0
  0
LINE
  5
2B88
330
1F
100
AcDbEntity
  8
SPOJOVACÍ
  6
DASHED
100
AcDbLine
 10
1940.040788535695
 20
180.3588968379553
 30
0.0
 11
1940.4108868835
 21
180.7299067558087
 31
0.0
  0
LINE
  5
2B89
330
1F
100
AcDbEntity
  8
SPOJOVACÍ
  6
DASHED
100
AcDbLine
 10
1940.040788535695
 20
180.3588968379553
 30
0.0
 11
1940.4108868835
 21
180.145588924628
 31
0.0
  0
LINE
  5
2B8A
330
1F
100
AcDbEntity
  8
SPOJOVACÍ
  6
DASHED
100
AcDbLine
 10
1941.069953639959
 20
179.935015727864
 30
0.0
 11
1941.069953639959
 21
177.4664779939357
 31
0.0
  0
LINE
  5
2B8B
330
1F
100
AcDbEntity
  8
SPOJOVACÍ
  6
DASHED
100
AcDbLine
 10
1940.040788535695
 20
177.3014834113727
 30
0.0
 11
1940.4108868835
 21
177.6715817570383
 31
0.0
  0
LINE
  5
2B8C
330
1F
100
AcDbEntity
  8
SPOJOVACÍ
  6
DASHED
100
AcDbLine
 10
1940.040788535695
 20
177.3014834113727
 30
0.0
 11
1940.4108868835
 21
177.0872639255866
 31
0.0
  0
LINE
  5
2B8D
330
1F
100
AcDbEntity
  8
SPOJOVACÍ
  6
DASHED
100
AcDbLine
 10
1941.069953639959
 20
176.8748675844471
 30
0.0
 11
1941.069953639959
 21
174.4045067058722
 31
0.0
  0
LINE
  5
2B8E
330
1F
100
AcDbEntity
  8
SPOJOVACÍ
  6
DASHED
100
AcDbLine
 10
1940.040788535695
 20
174.2440699845191
 30
0.0
 11
1940.4108868835
 21
174.6141683301847
 31
0.0
  0
LINE
  5
2B8F
330
1F
100
AcDbEntity
  8
SPOJOVACÍ
  6
DASHED
100
AcDbLine
 10
1940.040788535695
 20
174.2440699845191
 30
0.0
 11
1940.4108868835
 21
174.0298504987331
 31
0.0
  0
LINE
  5
2B90
330
1F
100
AcDbEntity
  8
SPOJOVACÍ
  6
DASHED
100
AcDbLine
 10
1940.4108868835
 20
174.0298504987331
 30
0.0
 11
1944.374403155901
 21
172.6971318257328
 31
0.0
  0
LINE
  5
2B91
330
1F
100
AcDbEntity
  8
SPOJOVACÍ
  6
DASHED
100
AcDbLine
 10
1937.3944942067
 20
197.4431625796095
 30
0.0
 11
1937.3944942067
 21
196.2672343384128
 31
0.0
  0
LINE
  5
2B92
330
1F
100
AcDbEntity
  8
SPOJOVACÍ
  6
DASHED
100
AcDbLine
 10
1937.3944942067
 20
196.2672343384128
 30
0.0
 11
1938.717185588579
 21
195.537976514668
 31
0.0
  0
LINE
  5
2B93
330
1F
100
AcDbEntity
  8
SPOJOVACÍ
  6
DASHED
100
AcDbLine
 10
1938.717185588579
 20
195.537976514668
 30
0.0
 11
1939.805602890931
 21
194.4905799650441
 31
0.0
  0
LINE
  5
2B94
330
1F
100
AcDbEntity
  8
SPOJOVACÍ
  6
DASHED
100
AcDbLine
 10
1939.805602890931
 20
194.4905799650441
 30
0.0
 11
1940.585908760663
 21
193.1979704723125
 31
0.0
  0
LINE
  5
2B95
330
1F
100
AcDbEntity
  8
SPOJOVACÍ
  6
DASHED
100
AcDbLine
 10
1940.585908760663
 20
193.1979704723125
 30
0.0
 11
1941.005232007676
 21
191.7467474026033
 31
0.0
  0
LINE
  5
2B96
330
1F
100
AcDbEntity
  8
SPOJOVACÍ
  6
DASHED
100
AcDbLine
 10
1941.005232007676
 20
191.7467474026033
 30
0.0
 11
1941.069953639959
 21
190.9755572539433
 31
0.0
  0
LINE
  5
2B97
330
1F
100
AcDbEntity
  8
SPOJOVACÍ
  6
DASHED
100
AcDbLine
 10
1941.037592823818
 20
191.3611523282733
 30
0.0
 11
1941.069953639959
 21
189.6510068661263
 31
0.0
  0
LINE
  5
2B98
330
1F
100
AcDbEntity
  8
SPOJOVACÍ
  6
DASHED
100
AcDbLine
 10
1940.040788535695
 20
189.5016058714408
 30
0.0
 11
1940.4108868835
 21
189.8726157892942
 31
0.0
  0
LINE
  5
2B99
330
1F
100
AcDbEntity
  8
SPOJOVACÍ
  6
DASHED
100
AcDbLine
 10
1940.040788535695
 20
189.5016058714408
 30
0.0
 11
1940.4108868835
 21
189.2882979581135
 31
0.0
  0
LINE
  5
2B9A
330
1F
100
AcDbEntity
  8
SPOJOVACÍ
  6
DASHED
100
AcDbLine
 10
1941.069953639959
 20
189.0777247613495
 30
0.0
 11
1941.069953639959
 21
186.6091870274212
 31
0.0
  0
LINE
  5
2B9B
330
1F
100
AcDbEntity
  8
SPOJOVACÍ
  6
DASHED
100
AcDbLine
 10
1940.040788535695
 20
186.4589580679893
 30
0.0
 11
1940.4108868835
 21
186.8299679858427
 31
0.0
  0
LINE
  5
2B9C
330
1F
100
AcDbEntity
  8
SPOJOVACÍ
  6
DASHED
100
AcDbLine
 10
1940.040788535695
 20
186.4589580679893
 30
0.0
 11
1940.4108868835
 21
186.2456501546621
 31
0.0
  0
LINE
  5
2B9D
330
1F
100
AcDbEntity
  8
SPOJOVACÍ
  6
DASHED
100
AcDbLine
 10
1940.4108868835
 20
174.6141683301847
 30
0.0
 11
1944.374403155901
 21
173.2814496571772
 31
0.0
  0
LINE
  5
2B9E
330
1F
100
AcDbEntity
  8
SPOJOVACÍ
  6
DASHED
100
AcDbLine
 10
1943.715336399441
 20
175.9869961837248
 30
0.0
 11
1943.715336399441
 21
173.509342727113
 31
0.0
  0
LINE
  5
2B9F
330
1F
100
AcDbEntity
  8
SPOJOVACÍ
  6
DASHED
100
AcDbLine
 10
1940.4108868835
 20
177.0872639255866
 30
0.0
 11
1944.374403155901
 21
175.7554568247741
 31
0.0
  0
LINE
  5
2BA0
330
1F
100
AcDbEntity
  8
SPOJOVACÍ
  6
DASHED
100
AcDbLine
 10
1944.744501499427
 20
176.1255551701687
 30
0.0
 11
1944.374403155901
 21
175.7554568247741
 31
0.0
  0
LINE
  5
2BA1
330
1F
100
AcDbEntity
  8
SPOJOVACÍ
  6
DASHED
100
AcDbLine
 10
1944.744501499427
 20
176.1255551701687
 30
0.0
 11
1944.374403155901
 21
176.3397746559548
 31
0.0
  0
LINE
  5
2BA2
330
1F
100
AcDbEntity
  8
SPOJOVACÍ
  6
DASHED
100
AcDbLine
 10
1940.4108868835
 20
177.6715817570383
 30
0.0
 11
1944.374403155901
 21
176.3397746559548
 31
0.0
  0
LINE
  5
2BA3
330
1F
100
AcDbEntity
  8
SPOJOVACÍ
  6
DASHED
100
AcDbLine
 10
1943.715336399441
 20
179.0398517491047
 30
0.0
 11
1943.715336399441
 21
176.5713140151764
 31
0.0
  0
LINE
  5
2BA4
330
1F
100
AcDbEntity
  8
SPOJOVACÍ
  6
DASHED
100
AcDbLine
 10
1940.4108868835
 20
180.145588924628
 30
0.0
 11
1944.374403155901
 21
178.8128702513567
 31
0.0
  0
LINE
  5
2BA5
330
1F
100
AcDbEntity
  8
SPOJOVACÍ
  6
DASHED
100
AcDbLine
 10
1944.744501499427
 20
179.1829685970223
 30
0.0
 11
1944.374403155901
 21
178.8128702513567
 31
0.0
  0
LINE
  5
2BA6
330
1F
100
AcDbEntity
  8
SPOJOVACÍ
  6
DASHED
100
AcDbLine
 10
1944.744501499427
 20
179.1829685970223
 30
0.0
 11
1944.374403155901
 21
179.3971880828084
 31
0.0
  0
LINE
  5
2BA7
330
1F
100
AcDbEntity
  8
SPOJOVACÍ
  6
DASHED
100
AcDbLine
 10
1940.4108868835
 20
180.7299067558087
 30
0.0
 11
1944.374403155901
 21
179.3971880828084
 31
0.0
  0
LINE
  5
2BA8
330
1F
100
AcDbEntity
  8
SPOJOVACÍ
  6
DASHED
100
AcDbLine
 10
1943.715336399441
 20
182.0870574137588
 30
0.0
 11
1943.715336399441
 21
179.6094039571471
 31
0.0
  0
LINE
  5
2BA9
330
1F
100
AcDbEntity
  8
SPOJOVACÍ
  6
DASHED
100
AcDbLine
 10
1940.4108868835
 20
183.1873251556207
 30
0.0
 11
1944.374403155901
 21
181.8555180548082
 31
0.0
  0
LINE
  5
2BAA
330
1F
100
AcDbEntity
  8
SPOJOVACÍ
  6
DASHED
100
AcDbLine
 10
1944.744501499427
 20
182.2256164002028
 30
0.0
 11
1944.374403155901
 21
181.8555180548082
 31
0.0
  0
LINE
  5
2BAB
330
1F
100
AcDbEntity
  8
SPOJOVACÍ
  6
DASHED
100
AcDbLine
 10
1944.744501499427
 20
182.2256164002028
 30
0.0
 11
1944.374403155901
 21
182.4398358859888
 31
0.0
  0
LINE
  5
2BAC
330
1F
100
AcDbEntity
  8
SPOJOVACÍ
  6
DASHED
100
AcDbLine
 10
1940.4108868835
 20
183.7716429870724
 30
0.0
 11
1944.374403155901
 21
182.4398358859888
 31
0.0
  0
LINE
  5
2BAD
330
1F
100
AcDbEntity
  8
SPOJOVACÍ
  6
DASHED
100
AcDbLine
 10
1943.715336399441
 20
185.1399129791388
 30
0.0
 11
1943.715336399441
 21
182.6713752452105
 31
0.0
  0
LINE
  5
2BAE
330
1F
100
AcDbEntity
  8
SPOJOVACÍ
  6
DASHED
100
AcDbLine
 10
1940.4108868835
 20
186.2456501546621
 30
0.0
 11
1944.374403155901
 21
184.9129314813907
 31
0.0
  0
LINE
  5
2BAF
330
1F
100
AcDbEntity
  8
SPOJOVACÍ
  6
DASHED
100
AcDbLine
 10
1944.744501499427
 20
185.2830298270563
 30
0.0
 11
1944.374403155901
 21
184.9129314813907
 31
0.0
  0
LINE
  5
2BB0
330
1F
100
AcDbEntity
  8
SPOJOVACÍ
  6
DASHED
100
AcDbLine
 10
1944.744501499427
 20
185.2830298270563
 30
0.0
 11
1944.374403155901
 21
185.4972493128424
 31
0.0
  0
LINE
  5
2BB1
330
1F
100
AcDbEntity
  8
SPOJOVACÍ
  6
DASHED
100
AcDbLine
 10
1940.4108868835
 20
186.8299679858427
 30
0.0
 11
1944.374403155901
 21
185.4972493128424
 31
0.0
  0
LINE
  5
2BB2
330
1F
100
AcDbEntity
  8
SPOJOVACÍ
  6
DASHED
100
AcDbLine
 10
1943.715336399441
 20
188.1825607825903
 30
0.0
 11
1943.715336399441
 21
185.714023048662
 31
0.0
  0
LINE
  5
2BB3
330
1F
100
AcDbEntity
  8
SPOJOVACÍ
  6
DASHED
100
AcDbLine
 10
1940.4108868835
 20
189.2882979581135
 30
0.0
 11
1944.374403155901
 21
187.9555792848422
 31
0.0
  0
LINE
  5
2BB4
330
1F
100
AcDbEntity
  8
SPOJOVACÍ
  6
DASHED
100
AcDbLine
 10
1944.744501499427
 20
188.3256776305078
 30
0.0
 11
1944.374403155901
 21
187.9555792848422
 31
0.0
  0
LINE
  5
2BB5
330
1F
100
AcDbEntity
  8
SPOJOVACÍ
  6
DASHED
100
AcDbLine
 10
1944.744501499427
 20
188.3256776305078
 30
0.0
 11
1944.374403155901
 21
188.5398971162939
 31
0.0
  0
LINE
  5
2BB6
330
1F
100
AcDbEntity
  8
SPOJOVACÍ
  6
DASHED
100
AcDbLine
 10
1940.4108868835
 20
189.8726157892942
 30
0.0
 11
1944.374403155901
 21
188.5398971162939
 31
0.0
  0
LINE
  5
2BB7
330
1F
100
AcDbEntity
  8
SPOJOVACÍ
  6
DASHED
100
AcDbLine
 10
1943.715336399441
 20
190.9755572539451
 30
0.0
 11
1943.715336399441
 21
188.7615060394636
 31
0.0
  0
LINE
  5
2BB8
330
1F
100
AcDbEntity
  8
SPOJOVACÍ
  6
DASHED
100
AcDbLine
 10
1943.715336399441
 20
190.9755572539433
 30
0.0
 11
1943.937760032507
 21
192.4687126483039
 31
0.0
  0
LINE
  5
2BB9
330
1F
100
AcDbEntity
  8
SPOJOVACÍ
  6
DASHED
100
AcDbLine
 10
1943.937760032507
 20
192.4687126483039
 30
0.0
 11
1944.538486164671
 21
193.8543025138132
 31
0.0
  0
LINE
  5
2BBA
330
1F
100
AcDbEntity
  8
SPOJOVACÍ
  6
DASHED
100
AcDbLine
 10
1944.538486164671
 20
193.8543025138132
 30
0.0
 11
1945.477405613256
 21
195.0375233330541
 31
0.0
  0
LINE
  5
2BBB
330
1F
100
AcDbEntity
  8
SPOJOVACÍ
  6
DASHED
100
AcDbLine
 10
1945.477405613256
 20
195.0375233330541
 30
0.0
 11
1946.689796745978
 21
195.9372451732869
 31
0.0
  0
LINE
  5
2BBC
330
1F
100
AcDbEntity
  8
SPOJOVACÍ
  6
DASHED
100
AcDbLine
 10
1946.689796745978
 20
195.9372451732869
 30
0.0
 11
1947.390795828422
 21
196.2672343384128
 31
0.0
  0
LINE
  5
2BBD
330
1F
100
AcDbEntity
  8
SPOJOVACÍ
  6
DASHED
100
AcDbLine
 10
1947.390795828422
 20
197.4431625796095
 30
0.0
 11
1947.390795828422
 21
196.2672343384128
 31
0.0
  0
LINE
  5
2BBE
330
1F
100
AcDbEntity
  8
CETRIS
100
AcDbLine
 10
1919.468309263172
 20
181.4431625796095
 30
0.0
 11
1919.468309263172
 21
173.4431625796095
 31
0.0
  0
LINE
  5
2BBF
330
1F
100
AcDbEntity
  8
CETRIS
100
AcDbLine
 10
1909.468309263172
 20
181.4431625796095
 30
0.0
 11
1919.468309263172
 21
181.4431625796095
 31
0.0
  0
LINE
  5
2BC0
330
1F
100
AcDbEntity
  8
CETRIS
100
AcDbLine
 10
1909.468309263172
 20
189.4431625796095
 30
0.0
 11
1909.468309263172
 21
181.4431625796095
 31
0.0
  0
LINE
  5
2BC1
330
1F
100
AcDbEntity
  8
CETRIS
100
AcDbLine
 10
1919.468309263172
 20
189.4431625796095
 30
0.0
 11
1909.468309263172
 21
189.4431625796095
 31
0.0
  0
LINE
  5
2BC2
330
1F
100
AcDbEntity
  8
CETRIS
100
AcDbLine
 10
1919.468309263172
 20
197.4431625796095
 30
0.0
 11
1919.468309263172
 21
189.4431625796095
 31
0.0
  0
LINE
  5
2BC3
330
1F
100
AcDbEntity
  8
SPOJOVACÍ
  6
DASHED
100
AcDbLine
 10
1887.874421746061
 20
196.2672343384128
 30
0.0
 11
1897.870723367784
 21
196.2672343384128
 31
0.0
  0
LINE
  5
2BC4
330
1F
100
AcDbEntity
  8
SPOJOVACÍ
  6
DASHED
100
AcDbLine
 10
1887.874421746061
 20
197.4431625796095
 30
0.0
 11
1897.870723367784
 21
197.4431625796095
 31
0.0
  0
LINE
  5
2BC5
330
1F
100
AcDbEntity
  8
SPOJOVACÍ
  6
DASHED
100
AcDbLine
 10
1895.957333152617
 20
195.0375233330541
 30
0.0
 11
1897.16972428534
 21
195.9372451732869
 31
0.0
  0
LINE
  5
2BC6
330
1F
100
AcDbEntity
  8
SPOJOVACÍ
  6
DASHED
100
AcDbLine
 10
1897.16972428534
 20
195.9372451732869
 30
0.0
 11
1897.870723367784
 21
196.2672343384128
 31
0.0
  0
LINE
  5
2BC7
330
1F
100
AcDbEntity
  8
SPOJOVACÍ
  6
DASHED
100
AcDbLine
 10
1897.870723367784
 20
197.4431625796095
 30
0.0
 11
1897.870723367784
 21
196.2672343384128
 31
0.0
  0
LINE
  5
2BC8
330
1F
100
AcDbEntity
  8
SPOJOVACÍ
  6
DASHED
100
AcDbLine
 10
1887.874421746061
 20
196.2672343384128
 30
0.0
 11
1889.197113127941
 21
195.537976514668
 31
0.0
  0
LINE
  5
2BC9
330
1F
100
AcDbEntity
  8
SPOJOVACÍ
  6
DASHED
100
AcDbLine
 10
1887.874421746061
 20
197.4431625796095
 30
0.0
 11
1887.874421746061
 21
196.2672343384128
 31
0.0
  0
LINE
  5
2BCA
330
1F
100
AcDbEntity
  8
SPOJOVACÍ
  6
DASHED
100
AcDbLine
 10
1890.520716075057
 20
189.5016058714408
 30
0.0
 11
1895.224429038789
 21
188.3256776305078
 31
0.0
  0
LINE
  5
2BCB
330
1F
100
AcDbEntity
  8
SPOJOVACÍ
  6
DASHED
100
AcDbLine
 10
1889.197113127941
 20
195.537976514668
 30
0.0
 11
1890.285530430293
 21
194.4905799650441
 31
0.0
  0
LINE
  5
2BCC
330
1F
100
AcDbEntity
  8
SPOJOVACÍ
  6
DASHED
100
AcDbLine
 10
1890.285530430293
 20
194.4905799650441
 30
0.0
 11
1891.065836300025
 21
193.1979704723125
 31
0.0
  0
LINE
  5
2BCD
330
1F
100
AcDbEntity
  8
SPOJOVACÍ
  6
DASHED
100
AcDbLine
 10
1891.065836300025
 20
193.1979704723125
 30
0.0
 11
1891.485159547038
 21
191.7467474026033
 31
0.0
  0
LINE
  5
2BCE
330
1F
100
AcDbEntity
  8
SPOJOVACÍ
  6
DASHED
100
AcDbLine
 10
1891.485159547038
 20
191.7467474026033
 30
0.0
 11
1891.549881179321
 21
190.9755572539433
 31
0.0
  0
LINE
  5
2BCF
330
1F
100
AcDbEntity
  8
SPOJOVACÍ
  6
DASHED
100
AcDbLine
 10
1891.517520363179
 20
191.3611523282733
 30
0.0
 11
1891.549881179321
 21
189.6510068661263
 31
0.0
  0
LINE
  5
2BD0
330
1F
100
AcDbEntity
  8
SPOJOVACÍ
  6
DASHED
100
AcDbLine
 10
1890.520716075057
 20
189.5016058714408
 30
0.0
 11
1890.890814422862
 21
189.8726157892942
 31
0.0
  0
LINE
  5
2BD1
330
1F
100
AcDbEntity
  8
SPOJOVACÍ
  6
DASHED
100
AcDbLine
 10
1890.520716075057
 20
189.5016058714408
 30
0.0
 11
1890.890814422862
 21
189.2882979581135
 31
0.0
  0
LINE
  5
2BD2
330
1F
100
AcDbEntity
  8
SPOJOVACÍ
  6
DASHED
100
AcDbLine
 10
1895.224429038789
 20
188.3256776305078
 30
0.0
 11
1894.854330695262
 21
188.5398971162939
 31
0.0
  0
LINE
  5
2BD3
330
1F
100
AcDbEntity
  8
SPOJOVACÍ
  6
DASHED
100
AcDbLine
 10
1890.890814422862
 20
189.8726157892942
 30
0.0
 11
1894.854330695262
 21
188.5398971162939
 31
0.0
  0
LINE
  5
2BD4
330
1F
100
AcDbEntity
  8
SPOJOVACÍ
  6
DASHED
100
AcDbLine
 10
1894.195263938802
 20
190.9755572539451
 30
0.0
 11
1894.195263938802
 21
188.7615060394636
 31
0.0
  0
LINE
  5
2BD5
330
1F
100
AcDbEntity
  8
SPOJOVACÍ
  6
DASHED
100
AcDbLine
 10
1894.195263938802
 20
190.9755572539433
 30
0.0
 11
1894.417687571868
 21
192.4687126483039
 31
0.0
  0
LINE
  5
2BD6
330
1F
100
AcDbEntity
  8
SPOJOVACÍ
  6
DASHED
100
AcDbLine
 10
1894.417687571868
 20
192.4687126483039
 30
0.0
 11
1895.018413704033
 21
193.8543025138132
 31
0.0
  0
LINE
  5
2BD7
330
1F
100
AcDbEntity
  8
SPOJOVACÍ
  6
DASHED
100
AcDbLine
 10
1895.018413704033
 20
193.8543025138132
 30
0.0
 11
1895.957333152617
 21
195.0375233330541
 31
0.0
  0
LINE
  5
2BD8
330
1F
100
AcDbEntity
  8
SPOJOVACÍ
  6
DASHED
100
AcDbLine
 10
1895.224429038789
 20
173.0681417435861
 30
0.0
 11
1894.854330695262
 21
173.2814496571772
 31
0.0
  0
LINE
  5
2BD9
330
1F
100
AcDbEntity
  8
SPOJOVACÍ
  6
DASHED
100
AcDbLine
 10
1895.224429038789
 20
173.0681417435861
 30
0.0
 11
1894.854330695262
 21
172.6971318257328
 31
0.0
  0
LINE
  5
2BDA
330
1F
100
AcDbEntity
  8
SPOJOVACÍ
  6
DASHED
100
AcDbLine
 10
1891.549881179321
 20
182.9749288144811
 30
0.0
 11
1891.549881179321
 21
180.5045679359063
 31
0.0
  0
LINE
  5
2BDB
330
1F
100
AcDbEntity
  8
SPOJOVACÍ
  6
DASHED
100
AcDbLine
 10
1891.549881179321
 20
179.935015727864
 30
0.0
 11
1891.549881179321
 21
177.4664779939357
 31
0.0
  0
LINE
  5
2BDC
330
1F
100
AcDbEntity
  8
SPOJOVACÍ
  6
DASHED
100
AcDbLine
 10
1891.549881179321
 20
176.8748675844471
 30
0.0
 11
1891.549881179321
 21
174.4045067058722
 31
0.0
  0
LINE
  5
2BDD
330
1F
100
AcDbEntity
  8
SPOJOVACÍ
  6
DASHED
100
AcDbLine
 10
1890.890814422862
 20
174.0298504987331
 30
0.0
 11
1894.854330695262
 21
172.6971318257328
 31
0.0
  0
LINE
  5
2BDE
330
1F
100
AcDbEntity
  8
SPOJOVACÍ
  6
DASHED
100
AcDbLine
 10
1891.549881179321
 20
189.0777247613495
 30
0.0
 11
1891.549881179321
 21
186.6091870274212
 31
0.0
  0
LINE
  5
2BDF
330
1F
100
AcDbEntity
  8
SPOJOVACÍ
  6
DASHED
100
AcDbLine
 10
1891.549881179321
 20
186.035076957898
 30
0.0
 11
1891.549881179321
 21
183.5665392239697
 31
0.0
  0
LINE
  5
2BE0
330
1F
100
AcDbEntity
  8
SPOJOVACÍ
  6
DASHED
100
AcDbLine
 10
1890.890814422862
 20
174.6141683301847
 30
0.0
 11
1894.854330695262
 21
173.2814496571772
 31
0.0
  0
LINE
  5
2BE1
330
1F
100
AcDbEntity
  8
SPOJOVACÍ
  6
DASHED
100
AcDbLine
 10
1894.195263938802
 20
175.9869961837248
 30
0.0
 11
1894.195263938802
 21
173.509342727113
 31
0.0
  0
LINE
  5
2BE2
330
1F
100
AcDbEntity
  8
SPOJOVACÍ
  6
DASHED
100
AcDbLine
 10
1890.890814422862
 20
177.0872639255866
 30
0.0
 11
1894.854330695262
 21
175.7554568247741
 31
0.0
  0
LINE
  5
2BE3
330
1F
100
AcDbEntity
  8
SPOJOVACÍ
  6
DASHED
100
AcDbLine
 10
1895.224429038789
 20
176.1255551701687
 30
0.0
 11
1894.854330695262
 21
175.7554568247741
 31
0.0
  0
LINE
  5
2BE4
330
1F
100
AcDbEntity
  8
SPOJOVACÍ
  6
DASHED
100
AcDbLine
 10
1895.224429038789
 20
176.1255551701687
 30
0.0
 11
1894.854330695262
 21
176.3397746559548
 31
0.0
  0
LINE
  5
2BE5
330
1F
100
AcDbEntity
  8
SPOJOVACÍ
  6
DASHED
100
AcDbLine
 10
1890.890814422862
 20
177.6715817570383
 30
0.0
 11
1894.854330695262
 21
176.3397746559548
 31
0.0
  0
LINE
  5
2BE6
330
1F
100
AcDbEntity
  8
SPOJOVACÍ
  6
DASHED
100
AcDbLine
 10
1894.195263938802
 20
179.0398517491047
 30
0.0
 11
1894.195263938802
 21
176.5713140151764
 31
0.0
  0
LINE
  5
2BE7
330
1F
100
AcDbEntity
  8
SPOJOVACÍ
  6
DASHED
100
AcDbLine
 10
1890.890814422862
 20
180.145588924628
 30
0.0
 11
1894.854330695262
 21
178.8128702513567
 31
0.0
  0
LINE
  5
2BE8
330
1F
100
AcDbEntity
  8
SPOJOVACÍ
  6
DASHED
100
AcDbLine
 10
1895.224429038789
 20
179.1829685970223
 30
0.0
 11
1894.854330695262
 21
178.8128702513567
 31
0.0
  0
LINE
  5
2BE9
330
1F
100
AcDbEntity
  8
SPOJOVACÍ
  6
DASHED
100
AcDbLine
 10
1895.224429038789
 20
179.1829685970223
 30
0.0
 11
1894.854330695262
 21
179.3971880828084
 31
0.0
  0
LINE
  5
2BEA
330
1F
100
AcDbEntity
  8
SPOJOVACÍ
  6
DASHED
100
AcDbLine
 10
1890.890814422862
 20
180.7299067558087
 30
0.0
 11
1894.854330695262
 21
179.3971880828084
 31
0.0
  0
LINE
  5
2BEB
330
1F
100
AcDbEntity
  8
SPOJOVACÍ
  6
DASHED
100
AcDbLine
 10
1894.195263938802
 20
182.0870574137588
 30
0.0
 11
1894.195263938802
 21
179.6094039571471
 31
0.0
  0
LINE
  5
2BEC
330
1F
100
AcDbEntity
  8
SPOJOVACÍ
  6
DASHED
100
AcDbLine
 10
1890.890814422862
 20
183.1873251556207
 30
0.0
 11
1894.854330695262
 21
181.8555180548082
 31
0.0
  0
LINE
  5
2BED
330
1F
100
AcDbEntity
  8
SPOJOVACÍ
  6
DASHED
100
AcDbLine
 10
1895.224429038789
 20
182.2256164002028
 30
0.0
 11
1894.854330695262
 21
181.8555180548082
 31
0.0
  0
LINE
  5
2BEE
330
1F
100
AcDbEntity
  8
SPOJOVACÍ
  6
DASHED
100
AcDbLine
 10
1895.224429038789
 20
182.2256164002028
 30
0.0
 11
1894.854330695262
 21
182.4398358859888
 31
0.0
  0
LINE
  5
2BEF
330
1F
100
AcDbEntity
  8
SPOJOVACÍ
  6
DASHED
100
AcDbLine
 10
1890.890814422862
 20
183.7716429870724
 30
0.0
 11
1894.854330695262
 21
182.4398358859888
 31
0.0
  0
LINE
  5
2BF0
330
1F
100
AcDbEntity
  8
SPOJOVACÍ
  6
DASHED
100
AcDbLine
 10
1894.195263938802
 20
185.1399129791388
 30
0.0
 11
1894.195263938802
 21
182.6713752452105
 31
0.0
  0
LINE
  5
2BF1
330
1F
100
AcDbEntity
  8
SPOJOVACÍ
  6
DASHED
100
AcDbLine
 10
1890.890814422862
 20
186.2456501546621
 30
0.0
 11
1894.854330695262
 21
184.9129314813907
 31
0.0
  0
LINE
  5
2BF2
330
1F
100
AcDbEntity
  8
SPOJOVACÍ
  6
DASHED
100
AcDbLine
 10
1895.224429038789
 20
185.2830298270563
 30
0.0
 11
1894.854330695262
 21
184.9129314813907
 31
0.0
  0
LINE
  5
2BF3
330
1F
100
AcDbEntity
  8
SPOJOVACÍ
  6
DASHED
100
AcDbLine
 10
1895.224429038789
 20
185.2830298270563
 30
0.0
 11
1894.854330695262
 21
185.4972493128424
 31
0.0
  0
LINE
  5
2BF4
330
1F
100
AcDbEntity
  8
SPOJOVACÍ
  6
DASHED
100
AcDbLine
 10
1890.890814422862
 20
186.8299679858427
 30
0.0
 11
1894.854330695262
 21
185.4972493128424
 31
0.0
  0
LINE
  5
2BF5
330
1F
100
AcDbEntity
  8
SPOJOVACÍ
  6
DASHED
100
AcDbLine
 10
1894.195263938802
 20
188.1825607825903
 30
0.0
 11
1894.195263938802
 21
185.714023048662
 31
0.0
  0
LINE
  5
2BF6
330
1F
100
AcDbEntity
  8
SPOJOVACÍ
  6
DASHED
100
AcDbLine
 10
1890.890814422862
 20
189.2882979581135
 30
0.0
 11
1894.854330695262
 21
187.9555792848422
 31
0.0
  0
LINE
  5
2BF7
330
1F
100
AcDbEntity
  8
SPOJOVACÍ
  6
DASHED
100
AcDbLine
 10
1895.224429038789
 20
188.3256776305078
 30
0.0
 11
1894.854330695262
 21
187.9555792848422
 31
0.0
  0
HATCH
  5
2BF8
330
1F
100
AcDbEntity
  8
izolace
100
AcDbHatch
 10
0.0
 20
0.0
 30
0.0
210
0.0
220
0.0
230
1.0
  2
SOLID
 70
     1
 71
     0
 91
       10
 92
        7
 72
     0
 73
     1
 93
        4
 10
1919.468309263172
 20
173.4431625796086
 10
1915.543888255752
 20
173.4431625796086
 10
1915.543888255752
 20
170.4431625796095
 10
1919.468309263172
 20
170.4431625796095
 97
        0
 92
        7
 72
     0
 73
     1
 93
        9
 10
1903.101943353983
 20
173.4431625796086
 10
1897.705084096599
 20
173.4431625796086
 10
1898.012771086288
 20
173.3397746559539
 10
1898.382869429811
 20
173.1255551701687
 10
1898.012771086284
 20
172.755456824775
 10
1897.353704329824
 20
172.9769141686683
 10
1897.353704329824
 20
170.5030585803469
 10
1897.531835527644
 20
170.4431625796095
 10
1903.101943353982
 20
170.4431625796095
 97
        0
 92
        7
 72
     0
 73
     1
 93
        9
 10
1894.708321570343
 20
173.4431625796086
 10
1889.286025540178
 20
173.4431625796086
 10
1889.286025540178
 20
170.4431625796095
 10
1894.708321570343
 20
170.4431625796095
 10
1894.708321570343
 20
170.8082415755633
 10
1894.049254813888
 20
171.0298504987321
 10
1893.679156466079
 20
171.24406998452
 10
1894.049254813883
 20
171.6141683301857
 10
1894.708321570343
 20
171.3925594070159
 97
        0
 92
        7
 72
     0
 73
     1
 93
        5
 10
1897.353704329824
 20
172.9769141686674
 10
1895.966128634649
 20
173.4431625796086
 10
1894.708321570344
 20
173.4431625796086
 10
1894.708321570344
 20
171.392559407015
 10
1897.353704329824
 20
170.503058580346
 97
        0
 92
        7
 72
     0
 73
     1
 93
        4
 10
1897.112439792343
 20
173.4431625796086
 10
1895.96612863465
 20
173.4431625796095
 10
1898.012771086284
 20
172.7554568247732
 10
1898.38286942981
 20
173.1255551701687
 97
        0
 92
       23
 72
     0
 73
     1
 93
        4
 10
1897.705084096602
 20
173.4431625796086
 10
1897.112439792338
 20
173.4431625796086
 10
1898.38286942981
 20
173.1255551701669
 10
1898.012771086282
 20
173.3397746559557
 97
        0
 92
        7
 72
     0
 73
     1
 93
        4
 10
1894.049254813884
 20
171.6141683301838
 10
1893.679156466079
 20
171.2440699845191
 10
1896.882786085716
 20
170.4431625796095
 10
1897.531835527641
 20
170.4431625796095
 97
        0
 92
        7
 72
     0
 73
     1
 93
        4
 10
1893.679156466075
 20
171.244069984521
 10
1894.049254813887
 20
171.029850498733
 10
1895.79406950087
 20
170.4431625796095
 10
1896.882786085717
 20
170.4431625796095
 97
        0
 92
       23
 72
     0
 73
     1
 93
        3
 10
1894.708321570343
 20
170.8082415755642
 10
1894.708321570343
 20
170.4431625796095
 10
1895.794069500863
 20
170.4431625796095
 97
        0
 92
        7
 72
     0
 73
     1
 93
        4
 10
1875.799834045347
 20
173.4431625796086
 10
1869.468309263172
 20
173.4431625796086
 10
1869.468309263172
 20
170.4431625796095
 10
1875.799834045348
 20
170.4431625796105
 97
        0
 75
     0
 76
     1
 47
0.0980096762587744
 98
       10
 10
1917.177061275138
 20
172.5616091667433
 10
1901.374263512279
 20
171.8095562777816
 10
1892.248296302815
 20
171.8461591374288
 10
1895.792217202582
 20
171.7908187002248
 10
1897.159763197697
 20
173.1457451789537
 10
1897.721141649751
 20
173.3617892804213
 10
1895.41181167092
 20
170.9623057588905
 10
1895.650060595372
 20
170.6509130532831
 10
1894.990268208511
 20
170.6142766438096
 10
1871.944674829893
 20
171.6852038494725
  0
LWPOLYLINE
  5
2BF9
330
1F
100
AcDbEntity
  8
izolace
100
AcDbPolyline
 90
        4
 70
     1
 43
0.0
 10
1919.468309263172
 20
170.4431625796095
 10
1869.468309263172
 20
170.4431625796095
 10
1869.468309263172
 20
173.4431625796086
 10
1919.468309263172
 20
173.4431625796086
  0
LINE
  5
2BFA
330
1F
100
AcDbEntity
  8
SPOJOVACÍ
  6
DASHED
100
AcDbLine
 10
1940.4108868835
 20
168.4993414770123
 30
0.0
 11
1944.374403155901
 21
167.166622803741
 31
0.0
  0
LINE
  5
2BFB
330
1F
100
AcDbEntity
  8
SPOJOVACÍ
  6
DASHED
100
AcDbLine
 10
1940.4108868835
 20
167.9150236455606
 30
0.0
 11
1944.374403155901
 21
166.5823049722893
 31
0.0
  0
LINE
  5
2BFC
330
1F
100
AcDbEntity
  8
SPOJOVACÍ
  6
DASHED
100
AcDbLine
 10
1944.744501499427
 20
166.9524033179549
 30
0.0
 11
1944.374403155901
 21
167.166622803741
 31
0.0
  0
LINE
  5
2BFD
330
1F
100
AcDbEntity
  8
SPOJOVACÍ
  6
DASHED
100
AcDbLine
 10
1944.744501499427
 20
166.9524033179549
 30
0.0
 11
1944.374403155901
 21
166.5823049722893
 31
0.0
  0
LINE
  5
2BFE
330
1F
100
AcDbEntity
  8
SPOJOVACÍ
  6
DASHED
100
AcDbLine
 10
1940.040788535695
 20
168.1283315588879
 30
0.0
 11
1940.4108868835
 21
168.4993414770123
 31
0.0
  0
LINE
  5
2BFF
330
1F
100
AcDbEntity
  8
SPOJOVACÍ
  6
DASHED
100
AcDbLine
 10
1940.040788535695
 20
168.1283315588879
 30
0.0
 11
1940.4108868835
 21
167.9150236455606
 31
0.0
  0
LINE
  5
2C00
330
1F
100
AcDbEntity
  8
SPOJOVACÍ
  6
DASHED
100
AcDbLine
 10
1940.040788535695
 20
168.1283315588879
 30
0.0
 11
1944.744501499427
 21
166.9524033179549
 31
0.0
  0
LINE
  5
2C01
330
1F
100
AcDbEntity
  8
SPOJOVACÍ
  6
DASHED
100
AcDbLine
 10
1940.4108868835
 20
171.5567549035949
 30
0.0
 11
1944.374403155901
 21
170.2240362303236
 31
0.0
  0
LINE
  5
2C02
330
1F
100
AcDbEntity
  8
SPOJOVACÍ
  6
DASHED
100
AcDbLine
 10
1940.4108868835
 20
170.9724370721505
 30
0.0
 11
1944.374403155901
 21
169.6397183991429
 31
0.0
  0
LINE
  5
2C03
330
1F
100
AcDbEntity
  8
SPOJOVACÍ
  6
DASHED
100
AcDbLine
 10
1944.744501499427
 20
170.0107283169963
 30
0.0
 11
1944.374403155901
 21
170.2240362303236
 31
0.0
  0
LINE
  5
2C04
330
1F
100
AcDbEntity
  8
SPOJOVACÍ
  6
DASHED
100
AcDbLine
 10
1944.744501499427
 20
170.0107283169963
 30
0.0
 11
1944.374403155901
 21
169.6397183991429
 31
0.0
  0
LINE
  5
2C05
330
1F
100
AcDbEntity
  8
SPOJOVACÍ
  6
DASHED
100
AcDbLine
 10
1940.040788535695
 20
171.1866565579293
 30
0.0
 11
1940.4108868835
 21
171.5567549035949
 31
0.0
  0
LINE
  5
2C06
330
1F
100
AcDbEntity
  8
SPOJOVACÍ
  6
DASHED
100
AcDbLine
 10
1940.040788535695
 20
171.1866565579293
 30
0.0
 11
1940.4108868835
 21
170.9724370721505
 31
0.0
  0
LINE
  5
2C07
330
1F
100
AcDbEntity
  8
SPOJOVACÍ
  6
DASHED
100
AcDbLine
 10
1940.040788535695
 20
171.1866565579293
 30
0.0
 11
1944.744501499427
 21
170.0107283169963
 31
0.0
  0
LINE
  5
2C08
330
1F
100
AcDbEntity
  8
SPOJOVACÍ
  6
DASHED
100
AcDbLine
 10
1940.842972142211
 20
162.1584446980086
 30
0.0
 11
1943.896739280314
 21
161.537663975574
 31
0.0
  0
LINE
  5
2C09
330
1F
100
AcDbEntity
  8
SPOJOVACÍ
  6
DASHED
100
AcDbLine
 10
1941.213070490016
 20
162.529454616133
 30
0.0
 11
1943.526640936787
 21
161.7509718889013
 31
0.0
  0
LINE
  5
2C0A
330
1F
100
AcDbEntity
  8
SPOJOVACÍ
  6
DASHED
100
AcDbLine
 10
1941.213070490016
 20
161.9451367846813
 30
0.0
 11
1943.526640936787
 21
161.1666540577206
 31
0.0
  0
LINE
  5
2C0B
330
1F
100
AcDbEntity
  8
SPOJOVACÍ
  6
DASHED
100
AcDbLine
 10
1943.896739280314
 20
161.537663975574
 30
0.0
 11
1943.526640936787
 21
161.7509718889013
 31
0.0
  0
LINE
  5
2C0C
330
1F
100
AcDbEntity
  8
SPOJOVACÍ
  6
DASHED
100
AcDbLine
 10
1943.896739280314
 20
161.537663975574
 30
0.0
 11
1943.526640936787
 21
161.1666540577206
 31
0.0
  0
LINE
  5
2C0D
330
1F
100
AcDbEntity
  8
SPOJOVACÍ
  6
DASHED
100
AcDbLine
 10
1940.842972142211
 20
162.1584446980086
 30
0.0
 11
1941.213070490016
 21
162.529454616133
 31
0.0
  0
LINE
  5
2C0E
330
1F
100
AcDbEntity
  8
SPOJOVACÍ
  6
DASHED
100
AcDbLine
 10
1940.842972142211
 20
162.1584446980086
 30
0.0
 11
1941.213070490016
 21
161.9451367846813
 31
0.0
  0
LINE
  5
2C0F
330
1F
100
AcDbEntity
  8
SPOJOVACÍ
  6
DASHED
100
AcDbLine
 10
1940.289647770228
 20
165.1128504572206
 30
0.0
 11
1944.332470829916
 21
164.1593458525621
 31
0.0
  0
LINE
  5
2C10
330
1F
100
AcDbEntity
  8
SPOJOVACÍ
  6
DASHED
100
AcDbLine
 10
1940.660657687546
 20
165.4829488028862
 30
0.0
 11
1943.962372486389
 21
164.3726537658894
 31
0.0
  0
LINE
  5
2C11
330
1F
100
AcDbEntity
  8
SPOJOVACÍ
  6
DASHED
100
AcDbLine
 10
1940.660657687546
 20
164.8986309714345
 30
0.0
 11
1943.962372486389
 21
163.7883359344377
 31
0.0
  0
LINE
  5
2C12
330
1F
100
AcDbEntity
  8
SPOJOVACÍ
  6
DASHED
100
AcDbLine
 10
1944.332470829916
 20
164.1593458525621
 30
0.0
 11
1943.962372486389
 21
164.3726537658894
 31
0.0
  0
LINE
  5
2C13
330
1F
100
AcDbEntity
  8
SPOJOVACÍ
  6
DASHED
100
AcDbLine
 10
1944.332470829916
 20
164.1593458525621
 30
0.0
 11
1943.962372486389
 21
163.7883359344377
 31
0.0
  0
LINE
  5
2C14
330
1F
100
AcDbEntity
  8
SPOJOVACÍ
  6
DASHED
100
AcDbLine
 10
1940.289647770228
 20
165.1128504572206
 30
0.0
 11
1940.660657687546
 21
165.4829488028862
 31
0.0
  0
LINE
  5
2C15
330
1F
100
AcDbEntity
  8
SPOJOVACÍ
  6
DASHED
100
AcDbLine
 10
1940.289647770228
 20
165.1128504572206
 30
0.0
 11
1940.660657687546
 21
164.8986309714345
 31
0.0
  0
LINE
  5
2C16
330
1F
100
AcDbEntity
  8
SPOJOVACÍ
  6
DASHED
100
AcDbLine
 10
1943.474681316202
 20
164.5458524992117
 30
0.0
 11
1943.715336399441
 21
166.4774741602722
 31
0.0
  0
LINE
  5
2C17
330
1F
100
AcDbEntity
  8
SPOJOVACÍ
  6
DASHED
100
AcDbLine
 10
1943.142869003492
 20
161.8931771646311
 30
0.0
 11
1943.404490249723
 21
163.9870586914275
 31
0.0
  0
LINE
  5
2C18
330
1F
100
AcDbEntity
  8
SPOJOVACÍ
  6
DASHED
100
AcDbLine
 10
1941.292377277303
 20
164.6962619251661
 30
0.0
 11
1941.576787829832
 21
162.4209775148228
 31
0.0
  0
LINE
  5
2C19
330
1F
100
AcDbEntity
  8
SPOJOVACÍ
  6
DASHED
100
AcDbLine
 10
1941.069953639959
 20
166.4774741602722
 30
0.0
 11
1941.216716776628
 21
165.3042806359025
 31
0.0
  0
LINE
  5
2C1A
330
1F
100
AcDbEntity
  8
SPOJOVACÍ
  6
DASHED
100
AcDbLine
 10
1943.715336399441
 20
166.8074633253981
 30
0.0
 11
1943.715336399441
 21
166.4774741602722
 31
0.0
  0
LINE
  5
2C1B
330
1F
100
AcDbEntity
  8
SPOJOVACÍ
  6
DASHED
100
AcDbLine
 10
1943.715336399441
 20
169.8676114690787
 30
0.0
 11
1943.715336399441
 21
167.3990737351504
 31
0.0
  0
LINE
  5
2C1C
330
1F
100
AcDbEntity
  8
SPOJOVACÍ
  6
DASHED
100
AcDbLine
 10
1941.069953639959
 20
167.699892587323
 30
0.0
 11
1941.069953639959
 21
166.4774741602722
 31
0.0
  0
LINE
  5
2C1D
330
1F
100
AcDbEntity
  8
SPOJOVACÍ
  6
DASHED
100
AcDbLine
 10
1941.069953639959
 20
170.7518365805153
 30
0.0
 11
1941.069953639959
 21
168.2842104187747
 31
0.0
  0
LINE
  5
2C1E
330
1F
100
AcDbEntity
  8
SPOJOVACÍ
  6
DASHED
100
AcDbLine
 10
1943.715336399441
 20
172.9268480403079
 30
0.0
 11
1943.715336399441
 21
170.456487161733
 31
0.0
  0
LINE
  5
2C1F
330
1F
100
AcDbEntity
  8
SPOJOVACÍ
  6
DASHED
100
AcDbLine
 10
1941.069953639959
 20
173.8220120190671
 30
0.0
 11
1941.069953639959
 21
171.3443585624554
 31
0.0
  0
LINE
  5
2C20
330
1F
100
AcDbEntity
  8
SPOJOVACÍ
  6
DASHED
100
AcDbLine
 10
1890.890814422862
 20
168.4993414770123
 30
0.0
 11
1894.854330695262
 21
167.166622803741
 31
0.0
  0
LINE
  5
2C21
330
1F
100
AcDbEntity
  8
SPOJOVACÍ
  6
DASHED
100
AcDbLine
 10
1890.890814422862
 20
167.9150236455606
 30
0.0
 11
1894.854330695262
 21
166.5823049722893
 31
0.0
  0
LINE
  5
2C22
330
1F
100
AcDbEntity
  8
SPOJOVACÍ
  6
DASHED
100
AcDbLine
 10
1895.224429038789
 20
166.9524033179549
 30
0.0
 11
1894.854330695262
 21
167.166622803741
 31
0.0
  0
LINE
  5
2C23
330
1F
100
AcDbEntity
  8
SPOJOVACÍ
  6
DASHED
100
AcDbLine
 10
1895.224429038789
 20
166.9524033179549
 30
0.0
 11
1894.854330695262
 21
166.5823049722893
 31
0.0
  0
LINE
  5
2C24
330
1F
100
AcDbEntity
  8
SPOJOVACÍ
  6
DASHED
100
AcDbLine
 10
1890.890814422862
 20
171.5567549035949
 30
0.0
 11
1894.854330695262
 21
170.2240362303236
 31
0.0
  0
LINE
  5
2C25
330
1F
100
AcDbEntity
  8
SPOJOVACÍ
  6
DASHED
100
AcDbLine
 10
1890.890814422862
 20
170.9724370721505
 30
0.0
 11
1894.854330695262
 21
169.6397183991429
 31
0.0
  0
LINE
  5
2C26
330
1F
100
AcDbEntity
  8
SPOJOVACÍ
  6
DASHED
100
AcDbLine
 10
1895.224429038789
 20
170.0107283169963
 30
0.0
 11
1894.854330695262
 21
170.2240362303236
 31
0.0
  0
LINE
  5
2C27
330
1F
100
AcDbEntity
  8
SPOJOVACÍ
  6
DASHED
100
AcDbLine
 10
1895.224429038789
 20
170.0107283169963
 30
0.0
 11
1894.854330695262
 21
169.6397183991429
 31
0.0
  0
LINE
  5
2C28
330
1F
100
AcDbEntity
  8
SPOJOVACÍ
  6
DASHED
100
AcDbLine
 10
1891.322899681573
 20
162.1584446980086
 30
0.0
 11
1894.376666819676
 21
161.537663975574
 31
0.0
  0
LINE
  5
2C29
330
1F
100
AcDbEntity
  8
SPOJOVACÍ
  6
DASHED
100
AcDbLine
 10
1891.692998029378
 20
162.529454616133
 30
0.0
 11
1894.006568476149
 21
161.7509718889013
 31
0.0
  0
LINE
  5
2C2A
330
1F
100
AcDbEntity
  8
SPOJOVACÍ
  6
DASHED
100
AcDbLine
 10
1891.692998029378
 20
161.9451367846813
 30
0.0
 11
1894.006568476149
 21
161.1666540577206
 31
0.0
  0
LINE
  5
2C2B
330
1F
100
AcDbEntity
  8
SPOJOVACÍ
  6
DASHED
100
AcDbLine
 10
1894.376666819676
 20
161.537663975574
 30
0.0
 11
1894.006568476149
 21
161.7509718889013
 31
0.0
  0
LINE
  5
2C2C
330
1F
100
AcDbEntity
  8
SPOJOVACÍ
  6
DASHED
100
AcDbLine
 10
1894.376666819676
 20
161.537663975574
 30
0.0
 11
1894.006568476149
 21
161.1666540577206
 31
0.0
  0
LINE
  5
2C2D
330
1F
100
AcDbEntity
  8
SPOJOVACÍ
  6
DASHED
100
AcDbLine
 10
1891.322899681573
 20
162.1584446980086
 30
0.0
 11
1891.692998029378
 21
162.529454616133
 31
0.0
  0
LINE
  5
2C2E
330
1F
100
AcDbEntity
  8
SPOJOVACÍ
  6
DASHED
100
AcDbLine
 10
1891.322899681573
 20
162.1584446980086
 30
0.0
 11
1891.692998029378
 21
161.9451367846813
 31
0.0
  0
LINE
  5
2C2F
330
1F
100
AcDbEntity
  8
SPOJOVACÍ
  6
DASHED
100
AcDbLine
 10
1890.769575309589
 20
165.1128504572206
 30
0.0
 11
1894.812398369277
 21
164.1593458525621
 31
0.0
  0
LINE
  5
2C30
330
1F
100
AcDbEntity
  8
SPOJOVACÍ
  6
DASHED
100
AcDbLine
 10
1891.140585226908
 20
165.4829488028862
 30
0.0
 11
1894.442300025751
 21
164.3726537658894
 31
0.0
  0
LINE
  5
2C31
330
1F
100
AcDbEntity
  8
SPOJOVACÍ
  6
DASHED
100
AcDbLine
 10
1891.140585226908
 20
164.8986309714345
 30
0.0
 11
1894.442300025751
 21
163.7883359344377
 31
0.0
  0
LINE
  5
2C32
330
1F
100
AcDbEntity
  8
SPOJOVACÍ
  6
DASHED
100
AcDbLine
 10
1894.812398369277
 20
164.1593458525621
 30
0.0
 11
1894.442300025751
 21
164.3726537658894
 31
0.0
  0
LINE
  5
2C33
330
1F
100
AcDbEntity
  8
SPOJOVACÍ
  6
DASHED
100
AcDbLine
 10
1894.812398369277
 20
164.1593458525621
 30
0.0
 11
1894.442300025751
 21
163.7883359344377
 31
0.0
  0
LINE
  5
2C34
330
1F
100
AcDbEntity
  8
SPOJOVACÍ
  6
DASHED
100
AcDbLine
 10
1890.769575309589
 20
165.1128504572206
 30
0.0
 11
1891.140585226908
 21
165.4829488028862
 31
0.0
  0
LINE
  5
2C35
330
1F
100
AcDbEntity
  8
SPOJOVACÍ
  6
DASHED
100
AcDbLine
 10
1890.769575309589
 20
165.1128504572206
 30
0.0
 11
1891.140585226908
 21
164.8986309714345
 31
0.0
  0
LINE
  5
2C36
330
1F
100
AcDbEntity
  8
SPOJOVACÍ
  6
DASHED
100
AcDbLine
 10
1893.954608855564
 20
164.5458524992117
 30
0.0
 11
1894.195263938802
 21
166.4774741602722
 31
0.0
  0
LINE
  5
2C37
330
1F
100
AcDbEntity
  8
SPOJOVACÍ
  6
DASHED
100
AcDbLine
 10
1893.622796542854
 20
161.8931771646311
 30
0.0
 11
1893.884417789085
 21
163.9870586914275
 31
0.0
  0
LINE
  5
2C38
330
1F
100
AcDbEntity
  8
SPOJOVACÍ
  6
DASHED
100
AcDbLine
 10
1891.772304816665
 20
164.6962619251661
 30
0.0
 11
1892.056715369194
 21
162.4209775148228
 31
0.0
  0
LINE
  5
2C39
330
1F
100
AcDbEntity
  8
SPOJOVACÍ
  6
DASHED
100
AcDbLine
 10
1891.549881179321
 20
166.4774741602722
 30
0.0
 11
1891.69664431599
 21
165.3042806359025
 31
0.0
  0
LINE
  5
2C3A
330
1F
100
AcDbEntity
  8
SPOJOVACÍ
  6
DASHED
100
AcDbLine
 10
1894.195263938802
 20
166.8074633253981
 30
0.0
 11
1894.195263938802
 21
166.4774741602722
 31
0.0
  0
LINE
  5
2C3B
330
1F
100
AcDbEntity
  8
SPOJOVACÍ
  6
DASHED
100
AcDbLine
 10
1894.195263938802
 20
169.8676114690787
 30
0.0
 11
1894.195263938802
 21
167.3990737351504
 31
0.0
  0
LINE
  5
2C3C
330
1F
100
AcDbEntity
  8
SPOJOVACÍ
  6
DASHED
100
AcDbLine
 10
1891.549881179321
 20
167.699892587323
 30
0.0
 11
1891.549881179321
 21
166.4774741602722
 31
0.0
  0
LINE
  5
2C3D
330
1F
100
AcDbEntity
  8
SPOJOVACÍ
  6
DASHED
100
AcDbLine
 10
1891.549881179321
 20
170.7518365805153
 30
0.0
 11
1891.549881179321
 21
168.2842104187747
 31
0.0
  0
LINE
  5
2C3E
330
1F
100
AcDbEntity
  8
SPOJOVACÍ
  6
DASHED
100
AcDbLine
 10
1894.195263938802
 20
172.9268480403079
 30
0.0
 11
1894.195263938802
 21
170.456487161733
 31
0.0
  0
LINE
  5
2C3F
330
1F
100
AcDbEntity
  8
SPOJOVACÍ
  6
DASHED
100
AcDbLine
 10
1891.549881179321
 20
173.8220120190671
 30
0.0
 11
1891.549881179321
 21
171.3443585624554
 31
0.0
  0
LWPOLYLINE
  5
2C40
330
1F
100
AcDbEntity
  8
STAVBA OBRYS
100
AcDbPolyline
 90
        3
 70
     0
 43
0.0
 10
1916.682456255049
 20
139.4401925304854
 10
1933.437673874777
 20
131.0564516625172
 10
1934.049898714205
 20
130.4431625796095
  0
LINE
  5
2C41
330
1F
100
AcDbEntity
  8
SPOJOVACÍ
  6
DASHED
100
AcDbLine
 10
1941.396296518473
 20
159.2049505112553
 30
0.0
 11
1943.507497917101
 21
158.9004853697969
 31
0.0
  0
LINE
  5
2C42
330
1F
100
AcDbEntity
  8
SPOJOVACÍ
  6
DASHED
100
AcDbLine
 10
1941.766394862
 20
159.5750488569209
 30
0.0
 11
1943.137399573575
 21
159.113793283388
 31
0.0
  0
LINE
  5
2C43
330
1F
100
AcDbEntity
  8
SPOJOVACÍ
  6
DASHED
100
AcDbLine
 10
1941.766394862
 20
158.9907310254765
 30
0.0
 11
1943.137399573575
 21
158.5294754519436
 31
0.0
  0
LINE
  5
2C44
330
1F
100
AcDbEntity
  8
SPOJOVACÍ
  6
DASHED
100
AcDbLine
 10
1943.507497917101
 20
158.9004853697969
 30
0.0
 11
1943.137399573575
 21
159.113793283388
 31
0.0
  0
LINE
  5
2C45
330
1F
100
AcDbEntity
  8
SPOJOVACÍ
  6
DASHED
100
AcDbLine
 10
1943.507497917101
 20
158.9004853697969
 30
0.0
 11
1943.137399573575
 21
158.5294754519436
 31
0.0
  0
LINE
  5
2C46
330
1F
100
AcDbEntity
  8
SPOJOVACÍ
  6
DASHED
100
AcDbLine
 10
1941.396296518473
 20
159.2049505112553
 30
0.0
 11
1941.766394862
 21
159.5750488569209
 31
0.0
  0
LINE
  5
2C47
330
1F
100
AcDbEntity
  8
SPOJOVACÍ
  6
DASHED
100
AcDbLine
 10
1941.396296518473
 20
159.2049505112553
 30
0.0
 11
1941.766394862
 21
158.9907310254765
 31
0.0
  0
LINE
  5
2C48
330
1F
100
AcDbEntity
  8
SPOJOVACÍ
  6
DASHED
100
AcDbLine
 10
1942.014342522741
 20
158.9205399600668
 30
0.0
 11
1942.392645017561
 21
155.893208418618
 31
0.0
  0
LINE
  5
2C49
330
1F
100
AcDbEntity
  8
SPOJOVACÍ
  6
DASHED
100
AcDbLine
 10
1942.392645017561
 20
155.893208418618
 30
0.0
 11
1942.739954059067
 21
158.6725922998611
 31
0.0
  0
LINE
  5
2C4A
330
1F
100
AcDbEntity
  8
SPOJOVACÍ
  6
DASHED
100
AcDbLine
 10
1891.876224057835
 20
159.2049505112553
 30
0.0
 11
1893.987425456463
 21
158.9004853697969
 31
0.0
  0
LINE
  5
2C4B
330
1F
100
AcDbEntity
  8
SPOJOVACÍ
  6
DASHED
100
AcDbLine
 10
1892.246322401361
 20
159.5750488569209
 30
0.0
 11
1893.617327112936
 21
159.113793283388
 31
0.0
  0
LINE
  5
2C4C
330
1F
100
AcDbEntity
  8
SPOJOVACÍ
  6
DASHED
100
AcDbLine
 10
1892.246322401361
 20
158.9907310254765
 30
0.0
 11
1893.617327112936
 21
158.5294754519436
 31
0.0
  0
LINE
  5
2C4D
330
1F
100
AcDbEntity
  8
SPOJOVACÍ
  6
DASHED
100
AcDbLine
 10
1893.987425456463
 20
158.9004853697969
 30
0.0
 11
1893.617327112936
 21
159.113793283388
 31
0.0
  0
LINE
  5
2C4E
330
1F
100
AcDbEntity
  8
SPOJOVACÍ
  6
DASHED
100
AcDbLine
 10
1893.987425456463
 20
158.9004853697969
 30
0.0
 11
1893.617327112936
 21
158.5294754519436
 31
0.0
  0
LINE
  5
2C4F
330
1F
100
AcDbEntity
  8
SPOJOVACÍ
  6
DASHED
100
AcDbLine
 10
1891.876224057835
 20
159.2049505112553
 30
0.0
 11
1892.246322401361
 21
159.5750488569209
 31
0.0
  0
LINE
  5
2C50
330
1F
100
AcDbEntity
  8
SPOJOVACÍ
  6
DASHED
100
AcDbLine
 10
1891.876224057835
 20
159.2049505112553
 30
0.0
 11
1892.246322401361
 21
158.9907310254765
 31
0.0
  0
LINE
  5
2C51
330
1F
100
AcDbEntity
  8
SPOJOVACÍ
  6
DASHED
100
AcDbLine
 10
1892.494270062102
 20
158.9205399600668
 30
0.0
 11
1892.872572556923
 21
155.893208418618
 31
0.0
  0
LINE
  5
2C52
330
1F
100
AcDbEntity
  8
SPOJOVACÍ
  6
DASHED
100
AcDbLine
 10
1892.872572556923
 20
155.893208418618
 30
0.0
 11
1893.219881598429
 21
158.6725922998611
 31
0.0
  0
LWPOLYLINE
  5
2C53
330
1F
100
AcDbEntity
  8
STAVBA OBRYS
100
AcDbPolyline
 90
        6
 70
     0
 43
0.0
 10
1911.001867725349
 20
170.4431625796095
 42
-0.0128837512779301
 10
1910.717075765124
 20
167.1099977578632
 42
-0.0351641677647434
 10
1910.089316043601
 20
163.5062883035242
 42
-0.0187319685742942
 10
1906.705300162611
 20
151.7480509613814
 42
-0.0582629403736403
 10
1905.045800294529
 20
148.1682167624494
 42
-0.1129599987265478
 10
1887.67025844282
 20
130.4431625796095
 42
-0.1129599987265478
  0
LWPOLYLINE
  5
2C54
330
1F
100
AcDbEntity
  8
STAVBA OBRYS
100
AcDbPolyline
 90
        8
 70
     0
 43
0.0
 10
1902.377652345307
 20
170.4431625796095
 42
-0.0120721047703132
 10
1902.308669655269
 20
168.7092744408654
 42
-0.044358077361292
 10
1901.913041920597
 20
166.0134744224487
 42
-0.0188067511131767
 10
1899.893218472213
 20
158.7712452471422
 42
-0.0457786284636091
 10
1898.685195582597
 20
155.9226348642622
 42
-0.0295006114745606
 10
1896.269135128298
 20
151.9957356508602
 42
-0.0258674098621065
 10
1893.036459814334
 20
147.8499555721063
 42
-0.2409478365688615
 10
1869.468309263174
 20
133.4254081271328
 42
-0.0884720560394402
  0
LWPOLYLINE
  5
2C55
330
1F
100
AcDbEntity
  8
STAVBA OBRYS
100
AcDbPolyline
 90
        3
 70
     0
 43
0.0
 10
1876.176706720877
 20
164.9258318840911
 10
1892.931924340605
 20
156.5420910161228
 10
1901.09902898973
 20
148.3607893150255
  0
LWPOLYLINE
  5
2C56
330
1F
100
AcDbEntity
  8
STAVBA OBRYS
100
AcDbPolyline
 90
        3
 70
     0
 43
0.0
 10
1895.469284346122
 20
163.9439930103544
 10
1915.465536778115
 20
154.7279639598345
 10
1919.465474411829
 20
154.0825664844923
  0
LWPOLYLINE
  5
2C57
330
1F
100
AcDbEntity
  8
STAVBA OBRYS
100
AcDbPolyline
 90
        4
 70
     0
 43
0.0
 10
1921.191597329353
 20
170.4431625796095
 42
-0.0135911980674876
 10
1917.472465972127
 20
150.1144693971436
 42
-0.0219777111230329
 10
1916.566353470144
 20
146.5963561413081
 42
-0.0757738131361498
 10
1903.285255613924
 20
130.4431625796095
 42
-0.0757738131361498
  0
LWPOLYLINE
  5
2C58
330
1F
100
AcDbEntity
  8
STAVBA OBRYS
100
AcDbPolyline
 90
        6
 70
     0
 43
0.0
 10
1931.57452814725
 20
170.366413056683
 42
-0.0128837512779301
 10
1931.147340206912
 20
165.3666658240635
 42
-0.0351641677647434
 10
1930.205700624627
 20
159.9611016425551
 42
-0.0187319685742942
 10
1925.129676803141
 20
142.3237456293408
 42
-0.0582629403736403
 10
1922.640427001019
 20
136.9539943309427
 42
-0.0236084222362755
 10
1918.20824109503
 20
130.4431625796095
 42
-0.0236084222362755
  0
LWPOLYLINE
  5
2C59
330
1F
100
AcDbEntity
  8
STAVBA OBRYS
100
AcDbPolyline
 90
        4
 70
     0
 43
0.0
 10
1946.859122553253
 20
170.366413056683
 42
-0.0135911980674875
 10
1941.280425517415
 20
139.8733732829841
 42
-0.0219777111230329
 10
1939.921256764438
 20
134.5962033992308
 42
-0.0117780509051499
 10
1937.315044461866
 20
130.4431625796095
 42
-0.0117780509051499
  0
LINE
  5
2C5A
330
1F
100
AcDbEntity
  8
SPOJOVACÍ
  6
DASHED
100
AcDbLine
 10
1942.810145125547
 20
159.2304745351865
 30
0.0
 11
1943.072677941291
 21
161.3325602124713
 31
0.0
  0
LINE
  5
2C5B
330
1F
100
AcDbEntity
  8
SPOJOVACÍ
  6
DASHED
100
AcDbLine
 10
1941.654271473814
 20
161.8029315089515
 30
0.0
 11
1941.938682022065
 21
159.5285586708031
 31
0.0
  0
LWPOLYLINE
  5
2C5C
330
1F
100
AcDbEntity
  8
STAVBA OBRYS
100
AcDbPolyline
 90
        3
 70
     0
 43
0.0
 10
1962.045130044806
 20
170.4431625796095
 42
-0.0146172580335466
 10
1955.956712564143
 20
136.7739219570166
 42
-0.0212216680259171
 10
1954.336384054605
 20
130.4431625796095
 42
-0.0212216680259171
  0
LINE
  5
2C5D
330
1F
100
AcDbEntity
  8
SPOJOVACÍ
  6
DASHED
100
AcDbLine
 10
1893.290072664908
 20
159.2304745351865
 30
0.0
 11
1893.552605480653
 21
161.3325602124713
 31
0.0
  0
LINE
  5
2C5E
330
1F
100
AcDbEntity
  8
SPOJOVACÍ
  6
DASHED
100
AcDbLine
 10
1892.134199013176
 20
161.8029315089515
 30
0.0
 11
1892.418609561426
 21
159.5285586708031
 31
0.0
  0
LWPOLYLINE
  5
2C5F
330
1F
100
AcDbEntity
  8
STAVBA OBRYS
100
AcDbPolyline
 90
        4
 70
     1
 43
0.0
 10
1869.468309263172
 20
130.4431625796095
 10
1969.468309263172
 20
130.4431625796095
 10
1969.468309263172
 20
170.4431625796095
 10
1869.468309263172
 20
170.4431625796095
  0
HATCH
  5
2C60
330
1F
100
AcDbEntity
  8
izolace
100
AcDbHatch
 10
0.0
 20
0.0
 30
0.0
210
0.0
220
0.0
230
1.0
  2
SOLID
 70
     1
 71
     0
 91
       10
 92
        7
 72
     0
 73
     1
 93
        4
 10
1969.468309263172
 20
173.4431625796086
 10
1965.543888255752
 20
173.4431625796086
 10
1965.543888255752
 20
170.4431625796095
 10
1969.468309263172
 20
170.4431625796095
 97
        0
 92
        7
 72
     0
 73
     1
 93
        9
 10
1953.101943353983
 20
173.4431625796086
 10
1947.705084096599
 20
173.4431625796086
 10
1948.012771086288
 20
173.3397746559539
 10
1948.382869429812
 20
173.1255551701687
 10
1948.012771086284
 20
172.755456824775
 10
1947.353704329824
 20
172.9769141686683
 10
1947.353704329824
 20
170.5030585803469
 10
1947.531835527644
 20
170.4431625796095
 10
1953.101943353982
 20
170.4431625796095
 97
        0
 92
        7
 72
     0
 73
     1
 93
        9
 10
1944.708321570343
 20
173.4431625796086
 10
1939.286025540178
 20
173.4431625796086
 10
1939.286025540178
 20
170.4431625796095
 10
1944.708321570343
 20
170.4431625796095
 10
1944.708321570343
 20
170.8082415755633
 10
1944.049254813888
 20
171.0298504987321
 10
1943.679156466079
 20
171.24406998452
 10
1944.049254813883
 20
171.6141683301857
 10
1944.708321570343
 20
171.3925594070159
 97
        0
 92
        7
 72
     0
 73
     1
 93
        5
 10
1947.353704329824
 20
172.9769141686674
 10
1945.966128634649
 20
173.4431625796086
 10
1944.708321570344
 20
173.4431625796086
 10
1944.708321570344
 20
171.392559407015
 10
1947.353704329824
 20
170.503058580346
 97
        0
 92
        7
 72
     0
 73
     1
 93
        4
 10
1947.112439792343
 20
173.4431625796086
 10
1945.96612863465
 20
173.4431625796095
 10
1948.012771086284
 20
172.7554568247732
 10
1948.38286942981
 20
173.1255551701687
 97
        0
 92
       23
 72
     0
 73
     1
 93
        4
 10
1947.705084096602
 20
173.4431625796086
 10
1947.112439792338
 20
173.4431625796086
 10
1948.38286942981
 20
173.1255551701669
 10
1948.012771086282
 20
173.3397746559557
 97
        0
 92
        7
 72
     0
 73
     1
 93
        4
 10
1944.049254813884
 20
171.6141683301838
 10
1943.679156466079
 20
171.2440699845191
 10
1946.882786085716
 20
170.4431625796095
 10
1947.531835527641
 20
170.4431625796095
 97
        0
 92
        7
 72
     0
 73
     1
 93
        4
 10
1943.679156466075
 20
171.244069984521
 10
1944.049254813887
 20
171.029850498733
 10
1945.79406950087
 20
170.4431625796095
 10
1946.882786085717
 20
170.4431625796095
 97
        0
 92
       23
 72
     0
 73
     1
 93
        3
 10
1944.708321570343
 20
170.8082415755642
 10
1944.708321570343
 20
170.4431625796095
 10
1945.794069500863
 20
170.4431625796095
 97
        0
 92
        7
 72
     0
 73
     1
 93
        4
 10
1925.799834045347
 20
173.4431625796086
 10
1919.468309263172
 20
173.4431625796086
 10
1919.468309263172
 20
170.4431625796095
 10
1925.799834045347
 20
170.4431625796105
 97
        0
 75
     0
 76
     1
 47
0.0980096762587744
 98
       10
 10
1967.177061275138
 20
172.5616091667433
 10
1951.374263512279
 20
171.8095562777816
 10
1942.248296302815
 20
171.8461591374288
 10
1945.792217202582
 20
171.7908187002248
 10
1947.159763197697
 20
173.1457451789537
 10
1947.721141649751
 20
173.3617892804213
 10
1945.41181167092
 20
170.9623057588905
 10
1945.650060595372
 20
170.6509130532831
 10
1944.990268208511
 20
170.6142766438096
 10
1921.944674829893
 20
171.6852038494725
  0
LWPOLYLINE
  5
2C61
330
1F
100
AcDbEntity
  8
STAVBA OBRYS
100
AcDbPolyline
 90
        3
 70
     0
 43
0.0
 10
1947.526084805961
 20
153.1047454218587
 10
1967.522337237954
 20
143.8887163713388
 10
1969.468309263172
 20
143.5747301177588
  0
LWPOLYLINE
  5
2C62
330
1F
100
AcDbEntity
  8
izolace
100
AcDbPolyline
 90
        4
 70
     1
 43
0.0
 10
1969.468309263172
 20
170.4431625796095
 10
1919.468309263172
 20
170.4431625796095
 10
1919.468309263172
 20
173.4431625796086
 10
1969.468309263172
 20
173.4431625796086
  0
LWPOLYLINE
  5
2C63
330
1F
100
AcDbEntity
  8
nášlap_vrstvy
100
AcDbPolyline
 90
        4
 70
     1
 43
0.0
 10
1986.748256861007
 20
198.9431625796098
 10
1974.927390506088
 20
198.9431625796098
 10
1974.927390506088
 20
197.4431625796098
 10
1986.748256861007
 20
197.4431625796098
  0
HATCH
  5
2C64
330
1F
100
AcDbEntity
  8
nášlap_vrstvy
100
AcDbHatch
 10
0.0
 20
0.0
 30
0.0
210
0.0
220
0.0
230
1.0
  2
SOLID
 70
     1
 71
     0
 91
        1
 92
        7
 72
     0
 73
     1
 93
        4
 10
1986.748256861007
 20
198.9431625796098
 10
1974.927390506091
 20
198.9431625796098
 10
1974.927390506088
 20
197.4431625796098
 10
1986.748256861007
 20
197.4431625796098
 97
        0
 75
     0
 76
     1
 47
0.1901250437635136
 98
        1
 10
1979.606287885261
 20
198.5347568040699
  0
TEXT
  5
2C65
330
1F
100
AcDbEntity
  8
POPIS
100
AcDbText
 10
1885.225164212942
 20
278.5859824055207
 30
0.0
 40
25.0
  1
04
 41
0.85
  7
SIMPLEX7
100
AcDbText
  0
LWPOLYLINE
  5
2C66
330
1F
100
AcDbEntity
  8
nášlap_vrstvy
100
AcDbPolyline
 90
        4
 70
     1
 43
0.0
 10
1944.21984219741
 20
198.9431625796098
 10
1932.398975842495
 20
198.9431625796098
 10
1932.398975842495
 20
197.4431625796098
 10
1944.21984219741
 20
197.4431625796098
  0
HATCH
  5
2C67
330
1F
100
AcDbEntity
  8
nášlap_vrstvy
100
AcDbHatch
 10
0.0
 20
0.0
 30
0.0
210
0.0
220
0.0
230
1.0
  2
SOLID
 70
     1
 71
     0
 91
        1
 92
        7
 72
     0
 73
     1
 93
        4
 10
1944.219842197414
 20
198.9431625796098
 10
1932.398975842495
 20
198.9431625796098
 10
1932.398975842495
 20
197.4431625796098
 10
1944.219842197414
 20
197.4431625796098
 97
        0
 75
     0
 76
     1
 47
0.1901250437635136
 98
        1
 10
1937.077873221665
 20
198.5347568040699
  0
LWPOLYLINE
  5
2C68
330
1F
100
AcDbEntity
  8
nášlap_vrstvy
100
AcDbPolyline
 90
        4
 70
     1
 43
0.0
 10
1920.578109487579
 20
198.9431625796098
 10
1908.75724313266
 20
198.9431625796098
 10
1908.75724313266
 20
197.4431625796098
 10
1920.578109487579
 20
197.4431625796098
  0
HATCH
  5
2C69
330
1F
100
AcDbEntity
  8
nášlap_vrstvy
100
AcDbHatch
 10
0.0
 20
0.0
 30
0.0
210
0.0
220
0.0
230
1.0
  2
SOLID
 70
     1
 71
     0
 91
        1
 92
        7
 72
     0
 73
     1
 93
        4
 10
1920.578109487579
 20
198.9431625796098
 10
1908.757243132663
 20
198.9431625796098
 10
1908.75724313266
 20
197.4431625796098
 10
1920.578109487579
 20
197.4431625796098
 97
        0
 75
     0
 76
     1
 47
0.1901250437635136
 98
        1
 10
1913.436140511833
 20
198.5347568040699
  0
LWPOLYLINE
  5
2C6A
330
1F
100
AcDbEntity
  8
nášlap_vrstvy
100
AcDbPolyline
 90
        4
 70
     1
 43
0.0
 10
1963.106524151168
 20
198.9431625796098
 10
1951.285657796253
 20
198.9431625796098
 10
1951.285657796253
 20
197.4431625796098
 10
1963.106524151168
 20
197.4431625796098
  0
HATCH
  5
2C6B
330
1F
100
AcDbEntity
  8
nášlap_vrstvy
100
AcDbHatch
 10
0.0
 20
0.0
 30
0.0
210
0.0
220
0.0
230
1.0
  2
SOLID
 70
     1
 71
     0
 91
        1
 92
        7
 72
     0
 73
     1
 93
        4
 10
1963.106524151168
 20
198.9431625796098
 10
1951.285657796253
 20
198.9431625796098
 10
1951.285657796253
 20
197.4431625796098
 10
1963.106524151172
 20
197.4431625796098
 97
        0
 75
     0
 76
     1
 47
0.1901250437635136
 98
        3
 10
1977.228269283264
 20
198.0594401149157
 10
1959.060173869592
 20
197.964376777085
 10
1957.06263777498
 20
198.249566790577
  0
INSERT
  5
2C6C
330
1F
100
AcDbEntity
  8
POPIS
100
AcDbBlockReference
  2
E_PUNKT
 10
1956.146315804629
 20
198.2655097169965
 30
0.0
 50
270.0
  0
HATCH
  5
2C6D
330
1F
100
AcDbEntity
  8
nášlap_vrstvy
100
AcDbHatch
 10
0.0
 20
0.0
 30
0.0
210
0.0
220
0.0
230
1.0
  2
SOLID
 70
     1
 71
     0
 91
        1
 92
        7
 72
     0
 73
     1
 93
        4
 10
1896.936376777744
 20
198.9431625796098
 10
1885.115510422824
 20
198.9431625796098
 10
1885.115510422824
 20
197.4431625796098
 10
1896.936376777744
 20
197.4431625796098
 97
        0
 75
     0
 76
     1
 47
0.1901250437635136
 98
        1
 10
1889.794407801994
 20
198.5347568040699
  0
INSERT
  5
2C6E
330
1F
100
AcDbEntity
  8
POPIS
100
AcDbBlockReference
  2
E_PUNKT
 10
1857.408239866444
 20
202.7039020593558
 30
0.0
 50
270.0
  0
LWPOLYLINE
  5
2C6F
330
1F
100
AcDbEntity
  8
nášlap_vrstvy
100
AcDbPolyline
 90
        4
 70
     1
 43
0.0
 10
1873.294644067908
 20
198.9431625796098
 10
1861.473777712989
 20
198.9431625796098
 10
1861.473777712989
 20
197.4431625796098
 10
1873.294644067908
 20
197.4431625796098
  0
HATCH
  5
2C70
330
1F
100
AcDbEntity
  8
nášlap_vrstvy
100
AcDbHatch
 10
0.0
 20
0.0
 30
0.0
210
0.0
220
0.0
230
1.0
  2
SOLID
 70
     1
 71
     0
 91
        1
 92
        7
 72
     0
 73
     1
 93
        4
 10
1873.294644067908
 20
198.9431625796098
 10
1861.473777712993
 20
198.9431625796098
 10
1861.473777712989
 20
197.4431625796098
 10
1873.294644067908
 20
197.4431625796098
 97
        0
 75
     0
 76
     1
 47
0.1901250437635136
 98
        1
 10
1866.152675092163
 20
198.5347568040699
  0
INSERT
  5
2C71
330
1F
100
AcDbEntity
  8
POPIS
100
AcDbBlockReference
  2
E_PUNKT
 10
1903.99168929378
 20
200.2789308574767
 30
0.0
 50
270.0
  0
LINE
  5
2C72
330
1F
100
AcDbEntity
  8
POPIS
100
AcDbLine
 10
1857.437308197318
 20
269.736621332797
 30
0.0
 11
1857.437308197318
 21
204.3245655314168
 31
0.0
  0
LINE
  5
2C73
330
1F
100
AcDbEntity
  8
POPIS
100
AcDbLine
 10
1904.020757624654
 20
269.736621332797
 30
0.0
 11
1904.020757624654
 21
200.2513204818498
 31
0.0
  0
LINE
  5
2C74
330
1F
100
AcDbEntity
  8
POPIS
100
AcDbLine
 10
1956.175384135503
 20
269.736621332797
 30
0.0
 11
1956.175384135503
 21
197.4431625796098
 31
0.0
  0
TEXT
  5
2C75
330
1F
100
AcDbEntity
  8
POPIS
100
AcDbText
 10
1939.277713203698
 20
278.5859824055207
 30
0.0
 40
25.0
  1
05
 41
0.85
  7
SIMPLEX7
100
AcDbText
  0
LINE
  5
2C76
330
1F
100
AcDbEntity
  8
izolace
100
AcDbLine
 10
2247.521900621549
 20
165.7407618884353
 30
0.0
 11
2301.156597687696
 21
165.7407618884353
 31
0.0
  0
LINE
  5
2C77
330
1F
100
AcDbEntity
  8
izolace
  6
IZOLACE
 48
1.5
100
AcDbLine
 10
2247.521900621549
 20
150.4431625796095
 30
0.0
 11
2301.838434548516
 21
150.4431625796095
 31
0.0
  0
LINE
  5
2C78
330
1F
100
AcDbEntity
  8
izolace
100
AcDbLine
 10
2247.521900621549
 20
135.101299853406
 30
0.0
 11
2301.156597687696
 21
135.101299853406
 31
0.0
  0
TEXT
  5
2C79
330
1F
100
AcDbEntity
  8
POPIS
100
AcDbText
 10
2127.753241627256
 20
278.5859824055207
 30
0.0
 40
25.0
  1
09
 41
0.85
  7
SIMPLEX7
100
AcDbText
  0
HATCH
  5
2C7A
330
1F
100
AcDbEntity
  8
nášlap_vrstvy
100
AcDbHatch
 10
0.0
 20
0.0
 30
0.0
210
0.0
220
0.0
230
1.0
  2
SOLID
 70
     1
 71
     0
 91
        1
 92
        7
 72
     0
 73
     1
 93
        4
 10
2152.240385829853
 20
198.9431625796098
 10
2140.419519474934
 20
198.9431625796098
 10
2140.419519474934
 20
197.4431625796098
 10
2152.240385829853
 20
197.4431625796098
 97
        0
 75
     0
 76
     1
 47
0.1901250437635136
 98
        1
 10
2145.098416854104
 20
198.5347568040699
  0
LWPOLYLINE
  5
2C7B
330
1F
100
AcDbEntity
  8
STAVBA OBRYS
100
AcDbPolyline
 90
        4
 70
     1
 43
0.0
 10
2152.24038582985
 20
198.9431625796098
 10
2140.419519474934
 20
198.9431625796098
 10
2140.419519474934
 20
197.4431625796098
 10
2152.24038582985
 20
197.4431625796098
  0
HATCH
  5
2C7C
330
1F
100
AcDbEntity
  8
nášlap_vrstvy
100
AcDbHatch
 10
0.0
 20
0.0
 30
0.0
210
0.0
220
0.0
230
1.0
  2
SOLID
 70
     1
 71
     0
 91
        1
 92
        7
 72
     0
 73
     1
 93
        4
 10
2128.598653120018
 20
198.9431625796098
 10
2116.777786765103
 20
198.9431625796098
 10
2116.777786765099
 20
197.4431625796098
 10
2128.598653120018
 20
197.4431625796098
 97
        0
 75
     0
 76
     1
 47
0.1901250437635136
 98
        1
 10
2121.456684144273
 20
198.5347568040699
  0
LWPOLYLINE
  5
2C7D
330
1F
100
AcDbEntity
  8
nášlap_vrstvy
100
AcDbPolyline
 90
        4
 70
     1
 43
0.0
 10
2128.598653120018
 20
198.9431625796098
 10
2116.777786765099
 20
198.9431625796098
 10
2116.777786765099
 20
197.4431625796098
 10
2128.598653120018
 20
197.4431625796098
  0
LINE
  5
2C7E
330
1F
100
AcDbEntity
  8
POPIS
100
AcDbLine
 10
2095.562397094775
 20
269.736621332797
 30
0.0
 11
2095.562397094775
 21
147.1759219902925
 31
0.0
  0
TEXT
  5
2C7F
330
1F
100
AcDbEntity
  8
POPIS
100
AcDbText
 10
2003.560755984738
 20
278.5859824055207
 30
0.0
 40
25.0
  1
06
 41
0.85
  7
SIMPLEX7
100
AcDbText
  0
HATCH
  5
2C80
330
1F
100
AcDbEntity
  8
nášlap_vrstvy
100
AcDbHatch
 10
0.0
 20
0.0
 30
0.0
210
0.0
220
0.0
230
1.0
  2
SOLID
 70
     1
 71
     0
 91
        1
 92
        7
 72
     0
 73
     1
 93
        4
 10
2081.315187700348
 20
198.9431625796098
 10
2069.494321345432
 20
198.9431625796098
 10
2069.494321345429
 20
197.4431625796098
 10
2081.315187700348
 20
197.4431625796098
 97
        0
 75
     0
 76
     1
 47
0.1901250437635136
 98
        1
 10
2074.173218724602
 20
198.5347568040699
  0
LWPOLYLINE
  5
2C81
330
1F
100
AcDbEntity
  8
nášlap_vrstvy
100
AcDbPolyline
 90
        4
 70
     1
 43
0.0
 10
2081.315187700348
 20
198.9431625796098
 10
2069.494321345429
 20
198.9431625796098
 10
2069.494321345429
 20
197.4431625796098
 10
2081.315187700348
 20
197.4431625796098
  0
HATCH
  5
2C82
330
1F
100
AcDbEntity
  8
nášlap_vrstvy
100
AcDbHatch
 10
0.0
 20
0.0
 30
0.0
210
0.0
220
0.0
230
1.0
  2
SOLID
 70
     1
 71
     0
 91
        1
 92
        7
 72
     0
 73
     1
 93
        4
 10
2057.673454990513
 20
198.9431625796098
 10
2045.852588635594
 20
198.9431625796098
 10
2045.852588635594
 20
197.4431625796098
 10
2057.673454990513
 20
197.4431625796098
 97
        0
 75
     0
 76
     1
 47
0.1901250437635136
 98
        1
 10
2050.531486014763
 20
198.5347568040699
  0
LWPOLYLINE
  5
2C83
330
1F
100
AcDbEntity
  8
nášlap_vrstvy
100
AcDbPolyline
 90
        4
 70
     1
 43
0.0
 10
2057.673454990509
 20
198.9431625796098
 10
2045.852588635594
 20
198.9431625796098
 10
2045.852588635594
 20
197.4431625796098
 10
2057.673454990509
 20
197.4431625796098
  0
HATCH
  5
2C84
330
1F
100
AcDbEntity
  8
nášlap_vrstvy
100
AcDbHatch
 10
0.0
 20
0.0
 30
0.0
210
0.0
220
0.0
230
1.0
  2
SOLID
 70
     1
 71
     0
 91
        1
 92
        7
 72
     0
 73
     1
 93
        4
 10
2010.389989570842
 20
198.9431625796098
 10
1998.569123215923
 20
198.9431625796098
 10
1998.569123215923
 20
197.4431625796098
 10
2010.389989570842
 20
197.4431625796098
 97
        0
 75
     0
 76
     1
 47
0.1901250437635136
 98
        1
 10
2003.248020595093
 20
198.5347568040699
  0
LWPOLYLINE
  5
2C85
330
1F
100
AcDbEntity
  8
nášlap_vrstvy
100
AcDbPolyline
 90
        4
 70
     1
 43
0.0
 10
2010.389989570839
 20
198.9431625796098
 10
1998.569123215923
 20
198.9431625796098
 10
1998.569123215923
 20
197.4431625796098
 10
2010.389989570839
 20
197.4431625796098
  0
INSERT
  5
2C86
330
1F
100
AcDbEntity
  8
POPIS
100
AcDbBlockReference
  2
E_PUNKT
 10
2020.429358585669
 20
184.5348228308223
 30
0.0
 50
270.0
  0
HATCH
  5
2C87
330
1F
100
AcDbEntity
  8
nášlap_vrstvy
100
AcDbHatch
 10
0.0
 20
0.0
 30
0.0
210
0.0
220
0.0
230
1.0
  2
SOLID
 70
     1
 71
     0
 91
        1
 92
        7
 72
     0
 73
     1
 93
        4
 10
2034.031722280678
 20
198.9431625796098
 10
2022.210855925762
 20
198.9431625796098
 10
2022.210855925758
 20
197.4431625796098
 10
2034.031722280678
 20
197.4431625796098
 97
        0
 75
     0
 76
     1
 47
0.1901250437635136
 98
        1
 10
2026.889753304932
 20
198.5347568040699
  0
LWPOLYLINE
  5
2C88
330
1F
100
AcDbEntity
  8
nášlap_vrstvy
100
AcDbPolyline
 90
        4
 70
     1
 43
0.0
 10
2034.031722280678
 20
198.9431625796098
 10
2022.210855925758
 20
198.9431625796098
 10
2022.210855925758
 20
197.4431625796098
 10
2034.031722280678
 20
197.4431625796098
  0
LINE
  5
2C89
330
1F
100
AcDbEntity
  8
POPIS
100
AcDbLine
 10
2020.458426916543
 20
269.736621332797
 30
0.0
 11
2020.458426916543
 21
183.2572124551954
 31
0.0
  0
INSERT
  5
2C8A
330
1F
100
AcDbEntity
  8
POPIS
100
AcDbBlockReference
  2
E_PUNKT
 10
2095.533328763901
 20
148.4535323659194
 30
0.0
 50
270.0
  0
HATCH
  5
2C8B
330
1F
100
AcDbEntity
  8
nášlap_vrstvy
100
AcDbHatch
 10
0.0
 20
0.0
 30
0.0
210
0.0
220
0.0
230
1.0
  2
SOLID
 70
     1
 71
     0
 91
        1
 92
        7
 72
     0
 73
     1
 93
        4
 10
2104.956920410183
 20
198.9431625796098
 10
2093.136054055264
 20
198.9431625796098
 10
2093.136054055264
 20
197.4431625796098
 10
2104.956920410183
 20
197.4431625796098
 97
        0
 75
     0
 76
     1
 47
0.1901250437635136
 98
        1
 10
2097.814951434434
 20
198.5347568040699
  0
LWPOLYLINE
  5
2C8C
330
1F
100
AcDbEntity
  8
nášlap_vrstvy
100
AcDbPolyline
 90
        4
 70
     1
 43
0.0
 10
2104.95692041018
 20
198.9431625796098
 10
2093.136054055264
 20
198.9431625796098
 10
2093.136054055264
 20
197.4431625796098
 10
2104.95692041018
 20
197.4431625796098
  0
TEXT
  5
2C8D
330
1F
100
AcDbEntity
  8
POPIS
100
AcDbText
 10
2078.66472616297
 20
278.5859824055207
 30
0.0
 40
25.0
  1
07
 41
0.85
  7
SIMPLEX7
100
AcDbText
  0
LINE
  5
2C8E
330
1F
100
AcDbEntity
  8
SPOJOVACÍ
  6
DASHED
100
AcDbLine
 10
2216.758274791613
 20
196.2672343384128
 30
0.0
 11
2226.754576413336
 21
196.2672343384128
 31
0.0
  0
LINE
  5
2C8F
330
1F
100
AcDbEntity
  8
SPOJOVACÍ
  6
DASHED
100
AcDbLine
 10
2216.758274791613
 20
197.4431625796095
 30
0.0
 11
2226.754576413336
 21
197.4431625796095
 31
0.0
  0
LINE
  5
2C90
330
1F
100
AcDbEntity
  8
SPOJOVACÍ
  6
DASHED
100
AcDbLine
 10
2226.754576413336
 20
197.4431625796095
 30
0.0
 11
2226.754576413336
 21
196.2672343384128
 31
0.0
  0
LINE
  5
2C91
330
1F
100
AcDbEntity
  8
SPOJOVACÍ
  6
DASHED
100
AcDbLine
 10
2216.758274791613
 20
197.4431625796095
 30
0.0
 11
2216.758274791613
 21
196.2672343384128
 31
0.0
  0
HATCH
  5
2C92
330
1F
100
AcDbEntity
  8
izolace
100
AcDbHatch
 10
0.0
 20
0.0
 30
0.0
210
0.0
220
0.0
230
1.0
  2
SOLID
 70
     1
 71
     0
 91
       10
 92
        7
 72
     0
 73
     1
 93
        4
 10
2247.521900621549
 20
173.4431625796086
 10
2243.59747961413
 20
173.4431625796086
 10
2243.59747961413
 20
170.4431625796095
 10
2247.521900621549
 20
170.4431625796095
 97
        0
 92
        7
 72
     0
 73
     1
 93
        9
 10
2231.15553471236
 20
173.4431625796086
 10
2225.758675454976
 20
173.4431625796086
 10
2226.066362444665
 20
173.3397746559539
 10
2226.436460788189
 20
173.1255551701687
 10
2226.066362444661
 20
172.755456824775
 10
2225.407295688202
 20
172.9769141686683
 10
2225.407295688202
 20
170.5030585803469
 10
2225.585426886021
 20
170.4431625796095
 10
2231.155534712359
 20
170.4431625796095
 97
        0
 92
        7
 72
     0
 73
     1
 93
        9
 10
2222.76191292872
 20
173.4431625796086
 10
2217.339616898555
 20
173.4431625796086
 10
2217.339616898555
 20
170.4431625796095
 10
2222.76191292872
 20
170.4431625796095
 10
2222.76191292872
 20
170.8082415755633
 10
2222.102846172265
 20
171.0298504987321
 10
2221.732747824455
 20
171.24406998452
 10
2222.10284617226
 20
171.6141683301857
 10
2222.76191292872
 20
171.3925594070159
 97
        0
 92
        7
 72
     0
 73
     1
 93
        5
 10
2225.407295688202
 20
172.9769141686674
 10
2224.019719993026
 20
173.4431625796086
 10
2222.761912928721
 20
173.4431625796086
 10
2222.761912928721
 20
171.392559407015
 10
2225.407295688202
 20
170.503058580346
 97
        0
 92
        7
 72
     0
 73
     1
 93
        4
 10
2225.166031150721
 20
173.4431625796086
 10
2224.019719993028
 20
173.4431625796095
 10
2226.066362444661
 20
172.7554568247732
 10
2226.436460788188
 20
173.1255551701687
 97
        0
 92
       23
 72
     0
 73
     1
 93
        4
 10
2225.758675454979
 20
173.4431625796086
 10
2225.166031150715
 20
173.4431625796086
 10
2226.436460788188
 20
173.1255551701669
 10
2226.066362444659
 20
173.3397746559557
 97
        0
 92
        7
 72
     0
 73
     1
 93
        4
 10
2222.102846172262
 20
171.6141683301838
 10
2221.732747824457
 20
171.2440699845191
 10
2224.936377444093
 20
170.4431625796095
 10
2225.585426886018
 20
170.4431625796095
 97
        0
 92
        7
 72
     0
 73
     1
 93
        4
 10
2221.732747824452
 20
171.244069984521
 10
2222.102846172264
 20
171.029850498733
 10
2223.847660859247
 20
170.4431625796095
 10
2224.936377444094
 20
170.4431625796095
 97
        0
 92
       23
 72
     0
 73
     1
 93
        3
 10
2222.76191292872
 20
170.8082415755642
 10
2222.76191292872
 20
170.4431625796095
 10
2223.847660859241
 20
170.4431625796095
 97
        0
 92
        7
 72
     0
 73
     1
 93
        4
 10
2203.853425403724
 20
173.4431625796086
 10
2197.521900621549
 20
173.4431625796086
 10
2197.521900621549
 20
170.4431625796095
 10
2203.853425403724
 20
170.4431625796105
 97
        0
 75
     0
 76
     1
 47
0.0980096762587744
 98
       10
 10
2245.230652633515
 20
172.5616091667433
 10
2229.427854870656
 20
171.8095562777816
 10
2220.301887661192
 20
171.8461591374288
 10
2223.845808560958
 20
171.7908187002248
 10
2225.213354556074
 20
173.1457451789537
 10
2225.774733008128
 20
173.3617892804213
 10
2223.465403029297
 20
170.9623057588905
 10
2223.703651953749
 20
170.6509130532831
 10
2223.043859566888
 20
170.6142766438096
 10
2199.99826618827
 20
171.6852038494725
  0
POLYLINE
  5
2C93
330
1F
100
AcDbEntity
  8
STAVBA OBRYS
100
AcDb2dPolyline
 66
     1
 10
0.0
 20
0.0
 30
0.0
  0
VERTEX
  5
2C94
330
2C93
100
AcDbEntity
  8
STAVBA OBRYS
100
AcDbVertex
100
AcDb2dVertex
 10
2207.386355435751
 20
170.4431625796077
 30
0.0
 42
-0.0064239028828688
  0
VERTEX
  5
2C95
330
2C93
100
AcDbEntity
  8
STAVBA OBRYS
100
AcDbVertex
100
AcDb2dVertex
 10
2207.34748699557
 20
170.2240489202576
 30
0.0
 42
-0.0832048017309575
  0
VERTEX
  5
2C96
330
2C93
100
AcDbEntity
  8
STAVBA OBRYS
100
AcDbVertex
100
AcDb2dVertex
 10
2206.563304392889
 20
167.8938353406028
 30
0.0
 42
-0.0336767237692336
  0
VERTEX
  5
2C97
330
2C93
100
AcDbEntity
  8
STAVBA OBRYS
100
AcDbVertex
100
AcDb2dVertex
 10
2204.860487833967
 20
165.1655608211421
 30
0.0
 42
-0.0844635135812105
  0
VERTEX
  5
2C98
330
2C93
100
AcDbEntity
  8
STAVBA OBRYS
100
AcDbVertex
100
AcDb2dVertex
 10
2203.940678074074
 20
164.261139216147
 30
0.0
 42
-0.0495829410719565
  0
VERTEX
  5
2C99
330
2C93
100
AcDbEntity
  8
STAVBA OBRYS
100
AcDbVertex
100
AcDb2dVertex
 10
2202.19199963672
 20
163.2844897088343
 30
0.0
 42
-0.0322692699774654
  0
VERTEX
  5
2C9A
330
2C93
100
AcDbEntity
  8
STAVBA OBRYS
100
AcDbVertex
100
AcDb2dVertex
 10
2199.300645455629
 20
162.2429662074336
 30
0.0
 42
-0.0276160659512937
  0
VERTEX
  5
2C9B
330
2C93
100
AcDbEntity
  8
STAVBA OBRYS
100
AcDbVertex
100
AcDb2dVertex
 10
2198.445069017342
 20
162.0462307784891
 30
0.0
 42
-0.0126891984598699
  0
VERTEX
  5
2C9C
330
2C93
100
AcDbEntity
  8
STAVBA OBRYS
100
AcDbVertex
100
AcDb2dVertex
 10
2197.521900621551
 20
161.9110283889476
 30
0.0
  0
SEQEND
  5
2C9D
330
2C93
100
AcDbEntity
  8
STAVBA OBRYS
  0
LWPOLYLINE
  5
2C9E
330
1F
100
AcDbEntity
  8
izolace
100
AcDbPolyline
 90
        4
 70
     1
 43
0.0
 10
2247.521900621549
 20
170.4431625796095
 10
2197.521900621549
 20
170.4431625796095
 10
2197.521900621549
 20
173.4431625796086
 10
2247.521900621549
 20
173.4431625796086
  0
LWPOLYLINE
  5
2C9F
330
1F
100
AcDbEntity
  8
STAVBA OBRYS
100
AcDbPolyline
 90
        7
 70
     0
 43
0.0
 10
2202.036669101234
 20
170.4431625796095
 42
-0.0203924744732807
 10
2201.134585116825
 20
169.4300325504554
 42
-0.0273961979096945
 10
2200.284720766629
 20
168.6418561764293
 42
-0.0243529190212958
 10
2199.12160027421
 20
167.7680968317617
 42
-0.0398020282482987
 10
2198.346641736649
 20
167.3284680883152
 42
-0.104168275620852
 10
2197.96023060031
 20
167.238451628138
 42
-0.007272956268647
 10
2197.521900621551
 20
167.2199982768433
 42
-0.007272956268647
  0
LINE
  5
2CA0
330
1F
100
AcDbEntity
  8
SPOJOVACÍ
  6
DASHED
100
AcDbLine
 10
2219.404569120609
 20
189.5016058714408
 30
0.0
 11
2224.108282084341
 21
188.3256776305078
 31
0.0
  0
LINE
  5
2CA1
330
1F
100
AcDbEntity
  8
SPOJOVACÍ
  6
DASHED
100
AcDbLine
 10
2219.404569120609
 20
186.4589580679893
 30
0.0
 11
2224.108282084341
 21
185.2830298270563
 31
0.0
  0
LINE
  5
2CA2
330
1F
100
AcDbEntity
  8
SPOJOVACÍ
  6
DASHED
100
AcDbLine
 10
2219.404569120609
 20
183.4015446414068
 30
0.0
 11
2224.108282084341
 21
182.2256164002028
 31
0.0
  0
LINE
  5
2CA3
330
1F
100
AcDbEntity
  8
SPOJOVACÍ
  6
DASHED
100
AcDbLine
 10
2219.774667468414
 20
168.4993414770123
 30
0.0
 11
2223.738183740814
 21
167.166622803741
 31
0.0
  0
LINE
  5
2CA4
330
1F
100
AcDbEntity
  8
SPOJOVACÍ
  6
DASHED
100
AcDbLine
 10
2219.774667468414
 20
167.9150236455606
 30
0.0
 11
2223.738183740814
 21
166.5823049722893
 31
0.0
  0
LINE
  5
2CA5
330
1F
100
AcDbEntity
  8
SPOJOVACÍ
  6
DASHED
100
AcDbLine
 10
2224.108282084341
 20
166.9524033179549
 30
0.0
 11
2223.738183740814
 21
167.166622803741
 31
0.0
  0
LINE
  5
2CA6
330
1F
100
AcDbEntity
  8
SPOJOVACÍ
  6
DASHED
100
AcDbLine
 10
2224.108282084341
 20
166.9524033179549
 30
0.0
 11
2223.738183740814
 21
166.5823049722893
 31
0.0
  0
LINE
  5
2CA7
330
1F
100
AcDbEntity
  8
SPOJOVACÍ
  6
DASHED
100
AcDbLine
 10
2219.404569120609
 20
168.1283315588879
 30
0.0
 11
2219.774667468414
 21
168.4993414770123
 31
0.0
  0
LINE
  5
2CA8
330
1F
100
AcDbEntity
  8
SPOJOVACÍ
  6
DASHED
100
AcDbLine
 10
2219.404569120609
 20
168.1283315588879
 30
0.0
 11
2219.774667468414
 21
167.9150236455606
 31
0.0
  0
LINE
  5
2CA9
330
1F
100
AcDbEntity
  8
SPOJOVACÍ
  6
DASHED
100
AcDbLine
 10
2219.404569120609
 20
168.1283315588879
 30
0.0
 11
2224.108282084341
 21
166.9524033179549
 31
0.0
  0
LINE
  5
2CAA
330
1F
100
AcDbEntity
  8
SPOJOVACÍ
  6
DASHED
100
AcDbLine
 10
2219.774667468414
 20
171.5567549035949
 30
0.0
 11
2223.738183740814
 21
170.2240362303236
 31
0.0
  0
LINE
  5
2CAB
330
1F
100
AcDbEntity
  8
SPOJOVACÍ
  6
DASHED
100
AcDbLine
 10
2219.774667468414
 20
170.9724370721505
 30
0.0
 11
2223.738183740814
 21
169.6397183991429
 31
0.0
  0
LINE
  5
2CAC
330
1F
100
AcDbEntity
  8
SPOJOVACÍ
  6
DASHED
100
AcDbLine
 10
2224.108282084341
 20
170.0107283169963
 30
0.0
 11
2223.738183740814
 21
170.2240362303236
 31
0.0
  0
LINE
  5
2CAD
330
1F
100
AcDbEntity
  8
SPOJOVACÍ
  6
DASHED
100
AcDbLine
 10
2224.108282084341
 20
170.0107283169963
 30
0.0
 11
2223.738183740814
 21
169.6397183991429
 31
0.0
  0
LINE
  5
2CAE
330
1F
100
AcDbEntity
  8
SPOJOVACÍ
  6
DASHED
100
AcDbLine
 10
2219.404569120609
 20
171.1866565579293
 30
0.0
 11
2219.774667468414
 21
171.5567549035949
 31
0.0
  0
LINE
  5
2CAF
330
1F
100
AcDbEntity
  8
SPOJOVACÍ
  6
DASHED
100
AcDbLine
 10
2219.404569120609
 20
171.1866565579293
 30
0.0
 11
2219.774667468414
 21
170.9724370721505
 31
0.0
  0
LINE
  5
2CB0
330
1F
100
AcDbEntity
  8
SPOJOVACÍ
  6
DASHED
100
AcDbLine
 10
2219.404569120609
 20
171.1866565579293
 30
0.0
 11
2224.108282084341
 21
170.0107283169963
 31
0.0
  0
LINE
  5
2CB1
330
1F
100
AcDbEntity
  8
SPOJOVACÍ
  6
DASHED
100
AcDbLine
 10
2224.108282084341
 20
173.0681417435861
 30
0.0
 11
2223.738183740814
 21
173.2814496571772
 31
0.0
  0
LINE
  5
2CB2
330
1F
100
AcDbEntity
  8
SPOJOVACÍ
  6
DASHED
100
AcDbLine
 10
2224.108282084341
 20
173.0681417435861
 30
0.0
 11
2223.738183740814
 21
172.6971318257328
 31
0.0
  0
LINE
  5
2CB3
330
1F
100
AcDbEntity
  8
SPOJOVACÍ
  6
DASHED
100
AcDbLine
 10
2220.206752727125
 20
162.1584446980086
 30
0.0
 11
2223.260519865228
 21
161.537663975574
 31
0.0
  0
LINE
  5
2CB4
330
1F
100
AcDbEntity
  8
SPOJOVACÍ
  6
DASHED
100
AcDbLine
 10
2220.57685107493
 20
162.529454616133
 30
0.0
 11
2222.890421521702
 21
161.7509718889013
 31
0.0
  0
LINE
  5
2CB5
330
1F
100
AcDbEntity
  8
SPOJOVACÍ
  6
DASHED
100
AcDbLine
 10
2220.57685107493
 20
161.9451367846813
 30
0.0
 11
2222.890421521702
 21
161.1666540577206
 31
0.0
  0
LINE
  5
2CB6
330
1F
100
AcDbEntity
  8
SPOJOVACÍ
  6
DASHED
100
AcDbLine
 10
2223.260519865228
 20
161.537663975574
 30
0.0
 11
2222.890421521702
 21
161.7509718889013
 31
0.0
  0
LINE
  5
2CB7
330
1F
100
AcDbEntity
  8
SPOJOVACÍ
  6
DASHED
100
AcDbLine
 10
2223.260519865228
 20
161.537663975574
 30
0.0
 11
2222.890421521702
 21
161.1666540577206
 31
0.0
  0
LINE
  5
2CB8
330
1F
100
AcDbEntity
  8
SPOJOVACÍ
  6
DASHED
100
AcDbLine
 10
2220.206752727125
 20
162.1584446980086
 30
0.0
 11
2220.57685107493
 21
162.529454616133
 31
0.0
  0
LINE
  5
2CB9
330
1F
100
AcDbEntity
  8
SPOJOVACÍ
  6
DASHED
100
AcDbLine
 10
2220.206752727125
 20
162.1584446980086
 30
0.0
 11
2220.57685107493
 21
161.9451367846813
 31
0.0
  0
LINE
  5
2CBA
330
1F
100
AcDbEntity
  8
SPOJOVACÍ
  6
DASHED
100
AcDbLine
 10
2219.653428355142
 20
165.1128504572206
 30
0.0
 11
2223.69625141483
 21
164.1593458525621
 31
0.0
  0
LINE
  5
2CBB
330
1F
100
AcDbEntity
  8
SPOJOVACÍ
  6
DASHED
100
AcDbLine
 10
2220.02443827246
 20
165.4829488028862
 30
0.0
 11
2223.326153071303
 21
164.3726537658894
 31
0.0
  0
LINE
  5
2CBC
330
1F
100
AcDbEntity
  8
SPOJOVACÍ
  6
DASHED
100
AcDbLine
 10
2220.02443827246
 20
164.8986309714345
 30
0.0
 11
2223.326153071303
 21
163.7883359344377
 31
0.0
  0
LINE
  5
2CBD
330
1F
100
AcDbEntity
  8
SPOJOVACÍ
  6
DASHED
100
AcDbLine
 10
2223.69625141483
 20
164.1593458525621
 30
0.0
 11
2223.326153071303
 21
164.3726537658894
 31
0.0
  0
LINE
  5
2CBE
330
1F
100
AcDbEntity
  8
SPOJOVACÍ
  6
DASHED
100
AcDbLine
 10
2223.69625141483
 20
164.1593458525621
 30
0.0
 11
2223.326153071303
 21
163.7883359344377
 31
0.0
  0
LINE
  5
2CBF
330
1F
100
AcDbEntity
  8
SPOJOVACÍ
  6
DASHED
100
AcDbLine
 10
2219.653428355142
 20
165.1128504572206
 30
0.0
 11
2220.02443827246
 21
165.4829488028862
 31
0.0
  0
LINE
  5
2CC0
330
1F
100
AcDbEntity
  8
SPOJOVACÍ
  6
DASHED
100
AcDbLine
 10
2219.653428355142
 20
165.1128504572206
 30
0.0
 11
2220.02443827246
 21
164.8986309714345
 31
0.0
  0
LINE
  5
2CC1
330
1F
100
AcDbEntity
  8
SPOJOVACÍ
  6
DASHED
100
AcDbLine
 10
2219.404569120609
 20
180.3588968379553
 30
0.0
 11
2224.108282084341
 21
179.1829685970223
 31
0.0
  0
LINE
  5
2CC2
330
1F
100
AcDbEntity
  8
SPOJOVACÍ
  6
DASHED
100
AcDbLine
 10
2222.838461901116
 20
164.5458524992117
 30
0.0
 11
2223.079116984355
 21
166.4774741602722
 31
0.0
  0
LINE
  5
2CC3
330
1F
100
AcDbEntity
  8
SPOJOVACÍ
  6
DASHED
100
AcDbLine
 10
2222.506649588406
 20
161.8931771646311
 30
0.0
 11
2222.768270834637
 21
163.9870586914275
 31
0.0
  0
LINE
  5
2CC4
330
1F
100
AcDbEntity
  8
SPOJOVACÍ
  6
DASHED
100
AcDbLine
 10
2220.656157862217
 20
164.6962619251661
 30
0.0
 11
2220.940568414746
 21
162.4209775148228
 31
0.0
  0
LINE
  5
2CC5
330
1F
100
AcDbEntity
  8
SPOJOVACÍ
  6
DASHED
100
AcDbLine
 10
2220.433734224874
 20
166.4774741602722
 30
0.0
 11
2220.580497361542
 21
165.3042806359025
 31
0.0
  0
LINE
  5
2CC6
330
1F
100
AcDbEntity
  8
SPOJOVACÍ
  6
DASHED
100
AcDbLine
 10
2223.079116984355
 20
166.8074633253981
 30
0.0
 11
2223.079116984355
 21
166.4774741602722
 31
0.0
  0
LINE
  5
2CC7
330
1F
100
AcDbEntity
  8
SPOJOVACÍ
  6
DASHED
100
AcDbLine
 10
2223.079116984355
 20
169.8676114690787
 30
0.0
 11
2223.079116984355
 21
167.3990737351504
 31
0.0
  0
LINE
  5
2CC8
330
1F
100
AcDbEntity
  8
SPOJOVACÍ
  6
DASHED
100
AcDbLine
 10
2220.433734224874
 20
167.699892587323
 30
0.0
 11
2220.433734224874
 21
166.4774741602722
 31
0.0
  0
LINE
  5
2CC9
330
1F
100
AcDbEntity
  8
SPOJOVACÍ
  6
DASHED
100
AcDbLine
 10
2220.433734224874
 20
170.7518365805153
 30
0.0
 11
2220.433734224874
 21
168.2842104187747
 31
0.0
  0
LINE
  5
2CCA
330
1F
100
AcDbEntity
  8
SPOJOVACÍ
  6
DASHED
100
AcDbLine
 10
2223.079116984355
 20
172.9268480403079
 30
0.0
 11
2223.079116984355
 21
170.456487161733
 31
0.0
  0
LINE
  5
2CCB
330
1F
100
AcDbEntity
  8
SPOJOVACÍ
  6
DASHED
100
AcDbLine
 10
2219.404569120609
 20
174.2440699845191
 30
0.0
 11
2224.108282084341
 21
173.0681417435861
 31
0.0
  0
LINE
  5
2CCC
330
1F
100
AcDbEntity
  8
SPOJOVACÍ
  6
DASHED
100
AcDbLine
 10
2219.404569120609
 20
177.3014834113727
 30
0.0
 11
2224.108282084341
 21
176.1255551701687
 31
0.0
  0
LINE
  5
2CCD
330
1F
100
AcDbEntity
  8
SPOJOVACÍ
  6
DASHED
100
AcDbLine
 10
2223.079116984355
 20
175.9869961837248
 30
0.0
 11
2223.079116984355
 21
173.509342727113
 31
0.0
  0
LINE
  5
2CCE
330
1F
100
AcDbEntity
  8
SPOJOVACÍ
  6
DASHED
100
AcDbLine
 10
2224.108282084341
 20
176.1255551701687
 30
0.0
 11
2223.738183740814
 21
175.7554568247741
 31
0.0
  0
LINE
  5
2CCF
330
1F
100
AcDbEntity
  8
SPOJOVACÍ
  6
DASHED
100
AcDbLine
 10
2224.108282084341
 20
176.1255551701687
 30
0.0
 11
2223.738183740814
 21
176.3397746559548
 31
0.0
  0
LINE
  5
2CD0
330
1F
100
AcDbEntity
  8
SPOJOVACÍ
  6
DASHED
100
AcDbLine
 10
2223.079116984355
 20
179.0398517491047
 30
0.0
 11
2223.079116984355
 21
176.5713140151764
 31
0.0
  0
LINE
  5
2CD1
330
1F
100
AcDbEntity
  8
SPOJOVACÍ
  6
DASHED
100
AcDbLine
 10
2224.108282084341
 20
179.1829685970223
 30
0.0
 11
2223.738183740814
 21
178.8128702513567
 31
0.0
  0
LINE
  5
2CD2
330
1F
100
AcDbEntity
  8
SPOJOVACÍ
  6
DASHED
100
AcDbLine
 10
2224.108282084341
 20
179.1829685970223
 30
0.0
 11
2223.738183740814
 21
179.3971880828084
 31
0.0
  0
LINE
  5
2CD3
330
1F
100
AcDbEntity
  8
SPOJOVACÍ
  6
DASHED
100
AcDbLine
 10
2223.079116984355
 20
182.0870574137588
 30
0.0
 11
2223.079116984355
 21
179.6094039571471
 31
0.0
  0
LINE
  5
2CD4
330
1F
100
AcDbEntity
  8
SPOJOVACÍ
  6
DASHED
100
AcDbLine
 10
2224.108282084341
 20
182.2256164002028
 30
0.0
 11
2223.738183740814
 21
181.8555180548082
 31
0.0
  0
LINE
  5
2CD5
330
1F
100
AcDbEntity
  8
SPOJOVACÍ
  6
DASHED
100
AcDbLine
 10
2224.108282084341
 20
182.2256164002028
 30
0.0
 11
2223.738183740814
 21
182.4398358859888
 31
0.0
  0
LINE
  5
2CD6
330
1F
100
AcDbEntity
  8
SPOJOVACÍ
  6
DASHED
100
AcDbLine
 10
2223.079116984355
 20
185.1399129791388
 30
0.0
 11
2223.079116984355
 21
182.6713752452105
 31
0.0
  0
LINE
  5
2CD7
330
1F
100
AcDbEntity
  8
SPOJOVACÍ
  6
DASHED
100
AcDbLine
 10
2224.108282084341
 20
185.2830298270563
 30
0.0
 11
2223.738183740814
 21
184.9129314813907
 31
0.0
  0
LINE
  5
2CD8
330
1F
100
AcDbEntity
  8
SPOJOVACÍ
  6
DASHED
100
AcDbLine
 10
2224.108282084341
 20
185.2830298270563
 30
0.0
 11
2223.738183740814
 21
185.4972493128424
 31
0.0
  0
LINE
  5
2CD9
330
1F
100
AcDbEntity
  8
SPOJOVACÍ
  6
DASHED
100
AcDbLine
 10
2223.079116984355
 20
188.1825607825903
 30
0.0
 11
2223.079116984355
 21
185.714023048662
 31
0.0
  0
LINE
  5
2CDA
330
1F
100
AcDbEntity
  8
SPOJOVACÍ
  6
DASHED
100
AcDbLine
 10
2224.108282084341
 20
188.3256776305078
 30
0.0
 11
2223.738183740814
 21
187.9555792848422
 31
0.0
  0
LINE
  5
2CDB
330
1F
100
AcDbEntity
  8
SPOJOVACÍ
  6
DASHED
100
AcDbLine
 10
2224.108282084341
 20
188.3256776305078
 30
0.0
 11
2223.738183740814
 21
188.5398971162939
 31
0.0
  0
LINE
  5
2CDC
330
1F
100
AcDbEntity
  8
SPOJOVACÍ
  6
DASHED
100
AcDbLine
 10
2223.079116984355
 20
190.9755572539451
 30
0.0
 11
2223.079116984355
 21
188.7615060394636
 31
0.0
  0
LINE
  5
2CDD
330
1F
100
AcDbEntity
  8
SPOJOVACÍ
  6
DASHED
100
AcDbLine
 10
2223.079116984355
 20
190.9755572539433
 30
0.0
 11
2223.301540617421
 21
192.4687126483039
 31
0.0
  0
LINE
  5
2CDE
330
1F
100
AcDbEntity
  8
SPOJOVACÍ
  6
DASHED
100
AcDbLine
 10
2223.301540617421
 20
192.4687126483039
 30
0.0
 11
2223.902266749585
 21
193.8543025138132
 31
0.0
  0
LINE
  5
2CDF
330
1F
100
AcDbEntity
  8
SPOJOVACÍ
  6
DASHED
100
AcDbLine
 10
2223.902266749585
 20
193.8543025138132
 30
0.0
 11
2224.84118619817
 21
195.0375233330541
 31
0.0
  0
LINE
  5
2CE0
330
1F
100
AcDbEntity
  8
SPOJOVACÍ
  6
DASHED
100
AcDbLine
 10
2220.433734224874
 20
189.0777247613495
 30
0.0
 11
2220.433734224874
 21
186.6091870274212
 31
0.0
  0
LINE
  5
2CE1
330
1F
100
AcDbEntity
  8
SPOJOVACÍ
  6
DASHED
100
AcDbLine
 10
2219.774667468414
 20
186.8299679858427
 30
0.0
 11
2223.738183740814
 21
185.4972493128424
 31
0.0
  0
LINE
  5
2CE2
330
1F
100
AcDbEntity
  8
SPOJOVACÍ
  6
DASHED
100
AcDbLine
 10
2219.404569120609
 20
186.4589580679893
 30
0.0
 11
2219.774667468414
 21
186.8299679858427
 31
0.0
  0
LINE
  5
2CE3
330
1F
100
AcDbEntity
  8
SPOJOVACÍ
  6
DASHED
100
AcDbLine
 10
2219.404569120609
 20
186.4589580679893
 30
0.0
 11
2219.774667468414
 21
186.2456501546621
 31
0.0
  0
LINE
  5
2CE4
330
1F
100
AcDbEntity
  8
SPOJOVACÍ
  6
DASHED
100
AcDbLine
 10
2219.774667468414
 20
186.2456501546621
 30
0.0
 11
2223.738183740814
 21
184.9129314813907
 31
0.0
  0
LINE
  5
2CE5
330
1F
100
AcDbEntity
  8
SPOJOVACÍ
  6
DASHED
100
AcDbLine
 10
2220.433734224874
 20
186.035076957898
 30
0.0
 11
2220.433734224874
 21
183.5665392239697
 31
0.0
  0
LINE
  5
2CE6
330
1F
100
AcDbEntity
  8
SPOJOVACÍ
  6
DASHED
100
AcDbLine
 10
2219.774667468414
 20
183.7716429870724
 30
0.0
 11
2223.738183740814
 21
182.4398358859888
 31
0.0
  0
LINE
  5
2CE7
330
1F
100
AcDbEntity
  8
SPOJOVACÍ
  6
DASHED
100
AcDbLine
 10
2219.404569120609
 20
183.4015446414068
 30
0.0
 11
2219.774667468414
 21
183.7716429870724
 31
0.0
  0
LINE
  5
2CE8
330
1F
100
AcDbEntity
  8
SPOJOVACÍ
  6
DASHED
100
AcDbLine
 10
2219.404569120609
 20
183.4015446414068
 30
0.0
 11
2219.774667468414
 21
183.1873251556207
 31
0.0
  0
LINE
  5
2CE9
330
1F
100
AcDbEntity
  8
SPOJOVACÍ
  6
DASHED
100
AcDbLine
 10
2219.774667468414
 20
183.1873251556207
 30
0.0
 11
2223.738183740814
 21
181.8555180548082
 31
0.0
  0
LINE
  5
2CEA
330
1F
100
AcDbEntity
  8
SPOJOVACÍ
  6
DASHED
100
AcDbLine
 10
2220.433734224874
 20
182.9749288144811
 30
0.0
 11
2220.433734224874
 21
180.5045679359063
 31
0.0
  0
LINE
  5
2CEB
330
1F
100
AcDbEntity
  8
SPOJOVACÍ
  6
DASHED
100
AcDbLine
 10
2219.774667468414
 20
180.7299067558087
 30
0.0
 11
2223.738183740814
 21
179.3971880828084
 31
0.0
  0
LINE
  5
2CEC
330
1F
100
AcDbEntity
  8
SPOJOVACÍ
  6
DASHED
100
AcDbLine
 10
2219.404569120609
 20
180.3588968379553
 30
0.0
 11
2219.774667468414
 21
180.7299067558087
 31
0.0
  0
LINE
  5
2CED
330
1F
100
AcDbEntity
  8
SPOJOVACÍ
  6
DASHED
100
AcDbLine
 10
2219.404569120609
 20
180.3588968379553
 30
0.0
 11
2219.774667468414
 21
180.145588924628
 31
0.0
  0
LINE
  5
2CEE
330
1F
100
AcDbEntity
  8
SPOJOVACÍ
  6
DASHED
100
AcDbLine
 10
2219.774667468414
 20
180.145588924628
 30
0.0
 11
2223.738183740814
 21
178.8128702513567
 31
0.0
  0
LINE
  5
2CEF
330
1F
100
AcDbEntity
  8
SPOJOVACÍ
  6
DASHED
100
AcDbLine
 10
2220.433734224874
 20
179.935015727864
 30
0.0
 11
2220.433734224874
 21
177.4664779939357
 31
0.0
  0
LINE
  5
2CF0
330
1F
100
AcDbEntity
  8
SPOJOVACÍ
  6
DASHED
100
AcDbLine
 10
2219.774667468414
 20
177.6715817570383
 30
0.0
 11
2223.738183740814
 21
176.3397746559548
 31
0.0
  0
LINE
  5
2CF1
330
1F
100
AcDbEntity
  8
SPOJOVACÍ
  6
DASHED
100
AcDbLine
 10
2219.404569120609
 20
177.3014834113727
 30
0.0
 11
2219.774667468414
 21
177.6715817570383
 31
0.0
  0
LINE
  5
2CF2
330
1F
100
AcDbEntity
  8
SPOJOVACÍ
  6
DASHED
100
AcDbLine
 10
2219.404569120609
 20
177.3014834113727
 30
0.0
 11
2219.774667468414
 21
177.0872639255866
 31
0.0
  0
LINE
  5
2CF3
330
1F
100
AcDbEntity
  8
SPOJOVACÍ
  6
DASHED
100
AcDbLine
 10
2219.774667468414
 20
177.0872639255866
 30
0.0
 11
2223.738183740814
 21
175.7554568247741
 31
0.0
  0
LINE
  5
2CF4
330
1F
100
AcDbEntity
  8
SPOJOVACÍ
  6
DASHED
100
AcDbLine
 10
2220.433734224874
 20
176.8748675844471
 30
0.0
 11
2220.433734224874
 21
174.4045067058722
 31
0.0
  0
LINE
  5
2CF5
330
1F
100
AcDbEntity
  8
SPOJOVACÍ
  6
DASHED
100
AcDbLine
 10
2219.774667468414
 20
174.6141683301847
 30
0.0
 11
2223.738183740814
 21
173.2814496571772
 31
0.0
  0
LINE
  5
2CF6
330
1F
100
AcDbEntity
  8
SPOJOVACÍ
  6
DASHED
100
AcDbLine
 10
2219.404569120609
 20
174.2440699845191
 30
0.0
 11
2219.774667468414
 21
174.6141683301847
 31
0.0
  0
LINE
  5
2CF7
330
1F
100
AcDbEntity
  8
SPOJOVACÍ
  6
DASHED
100
AcDbLine
 10
2219.404569120609
 20
174.2440699845191
 30
0.0
 11
2219.774667468414
 21
174.0298504987331
 31
0.0
  0
LINE
  5
2CF8
330
1F
100
AcDbEntity
  8
SPOJOVACÍ
  6
DASHED
100
AcDbLine
 10
2219.774667468414
 20
174.0298504987331
 30
0.0
 11
2223.738183740814
 21
172.6971318257328
 31
0.0
  0
LINE
  5
2CF9
330
1F
100
AcDbEntity
  8
SPOJOVACÍ
  6
DASHED
100
AcDbLine
 10
2220.433734224874
 20
173.8220120190671
 30
0.0
 11
2220.433734224874
 21
171.3443585624554
 31
0.0
  0
LINE
  5
2CFA
330
1F
100
AcDbEntity
  8
SPOJOVACÍ
  6
DASHED
100
AcDbLine
 10
2219.169383475845
 20
194.4905799650441
 30
0.0
 11
2219.949689345577
 21
193.1979704723125
 31
0.0
  0
LINE
  5
2CFB
330
1F
100
AcDbEntity
  8
SPOJOVACÍ
  6
DASHED
100
AcDbLine
 10
2219.949689345577
 20
193.1979704723125
 30
0.0
 11
2220.36901259259
 21
191.7467474026033
 31
0.0
  0
LINE
  5
2CFC
330
1F
100
AcDbEntity
  8
SPOJOVACÍ
  6
DASHED
100
AcDbLine
 10
2220.36901259259
 20
191.7467474026033
 30
0.0
 11
2220.433734224874
 21
190.9755572539433
 31
0.0
  0
LINE
  5
2CFD
330
1F
100
AcDbEntity
  8
SPOJOVACÍ
  6
DASHED
100
AcDbLine
 10
2220.401373408732
 20
191.3611523282733
 30
0.0
 11
2220.433734224874
 21
189.6510068661263
 31
0.0
  0
LINE
  5
2CFE
330
1F
100
AcDbEntity
  8
SPOJOVACÍ
  6
DASHED
100
AcDbLine
 10
2219.774667468414
 20
189.8726157892942
 30
0.0
 11
2223.738183740814
 21
188.5398971162939
 31
0.0
  0
LINE
  5
2CFF
330
1F
100
AcDbEntity
  8
SPOJOVACÍ
  6
DASHED
100
AcDbLine
 10
2219.404569120609
 20
189.5016058714408
 30
0.0
 11
2219.774667468414
 21
189.8726157892942
 31
0.0
  0
LINE
  5
2D00
330
1F
100
AcDbEntity
  8
SPOJOVACÍ
  6
DASHED
100
AcDbLine
 10
2219.404569120609
 20
189.5016058714408
 30
0.0
 11
2219.774667468414
 21
189.2882979581135
 31
0.0
  0
LINE
  5
2D01
330
1F
100
AcDbEntity
  8
SPOJOVACÍ
  6
DASHED
100
AcDbLine
 10
2219.774667468414
 20
189.2882979581135
 30
0.0
 11
2223.738183740814
 21
187.9555792848422
 31
0.0
  0
LINE
  5
2D02
330
1F
100
AcDbEntity
  8
SPOJOVACÍ
  6
DASHED
100
AcDbLine
 10
2224.84118619817
 20
195.0375233330541
 30
0.0
 11
2226.053577330892
 21
195.9372451732869
 31
0.0
  0
LINE
  5
2D03
330
1F
100
AcDbEntity
  8
SPOJOVACÍ
  6
DASHED
100
AcDbLine
 10
2226.053577330892
 20
195.9372451732869
 30
0.0
 11
2226.754576413336
 21
196.2672343384128
 31
0.0
  0
LINE
  5
2D04
330
1F
100
AcDbEntity
  8
SPOJOVACÍ
  6
DASHED
100
AcDbLine
 10
2216.758274791613
 20
196.2672343384128
 30
0.0
 11
2218.080966173493
 21
195.537976514668
 31
0.0
  0
LINE
  5
2D05
330
1F
100
AcDbEntity
  8
SPOJOVACÍ
  6
DASHED
100
AcDbLine
 10
2218.080966173493
 20
195.537976514668
 30
0.0
 11
2219.169383475845
 21
194.4905799650441
 31
0.0
  0
LWPOLYLINE
  5
2D06
330
1F
100
AcDbEntity
  8
STAVBA OBRYS
100
AcDbPolyline
 90
        2
 70
     0
 43
0.0
 10
2244.736047613426
 20
139.4401925304854
 10
2247.521900621549
 20
138.0462464626734
  0
LINE
  5
2D07
330
1F
100
AcDbEntity
  8
SPOJOVACÍ
  6
DASHED
100
AcDbLine
 10
2220.760077103387
 20
159.2049505112553
 30
0.0
 11
2222.871278502015
 21
158.9004853697969
 31
0.0
  0
LINE
  5
2D08
330
1F
100
AcDbEntity
  8
SPOJOVACÍ
  6
DASHED
100
AcDbLine
 10
2221.130175446913
 20
159.5750488569209
 30
0.0
 11
2222.501180158488
 21
159.113793283388
 31
0.0
  0
LINE
  5
2D09
330
1F
100
AcDbEntity
  8
SPOJOVACÍ
  6
DASHED
100
AcDbLine
 10
2221.130175446913
 20
158.9907310254765
 30
0.0
 11
2222.501180158488
 21
158.5294754519436
 31
0.0
  0
LINE
  5
2D0A
330
1F
100
AcDbEntity
  8
SPOJOVACÍ
  6
DASHED
100
AcDbLine
 10
2222.871278502015
 20
158.9004853697969
 30
0.0
 11
2222.501180158488
 21
159.113793283388
 31
0.0
  0
LINE
  5
2D0B
330
1F
100
AcDbEntity
  8
SPOJOVACÍ
  6
DASHED
100
AcDbLine
 10
2222.871278502015
 20
158.9004853697969
 30
0.0
 11
2222.501180158488
 21
158.5294754519436
 31
0.0
  0
LINE
  5
2D0C
330
1F
100
AcDbEntity
  8
SPOJOVACÍ
  6
DASHED
100
AcDbLine
 10
2220.760077103387
 20
159.2049505112553
 30
0.0
 11
2221.130175446913
 21
159.5750488569209
 31
0.0
  0
LINE
  5
2D0D
330
1F
100
AcDbEntity
  8
SPOJOVACÍ
  6
DASHED
100
AcDbLine
 10
2220.760077103387
 20
159.2049505112553
 30
0.0
 11
2221.130175446913
 21
158.9907310254765
 31
0.0
  0
LINE
  5
2D0E
330
1F
100
AcDbEntity
  8
SPOJOVACÍ
  6
DASHED
100
AcDbLine
 10
2221.378123107654
 20
158.9205399600668
 30
0.0
 11
2221.756425602475
 21
155.893208418618
 31
0.0
  0
LINE
  5
2D0F
330
1F
100
AcDbEntity
  8
SPOJOVACÍ
  6
DASHED
100
AcDbLine
 10
2221.756425602475
 20
155.893208418618
 30
0.0
 11
2222.103734643981
 21
158.6725922998611
 31
0.0
  0
LWPOLYLINE
  5
2D10
330
1F
100
AcDbEntity
  8
STAVBA OBRYS
100
AcDbPolyline
 90
        3
 70
     0
 43
0.0
 10
2204.230298079254
 20
164.9258318840911
 10
2220.985515698982
 20
156.5420910161228
 10
2229.152620348107
 20
148.3607893150255
  0
LWPOLYLINE
  5
2D11
330
1F
100
AcDbEntity
  8
STAVBA OBRYS
100
AcDbPolyline
 90
        4
 70
     1
 43
0.0
 10
2197.521900621549
 20
130.4431625796095
 10
2247.521900621549
 20
130.4431625796095
 10
2247.521900621549
 20
170.4431625796095
 10
2197.521900621549
 20
170.4431625796095
  0
POLYLINE
  5
2D12
330
1F
100
AcDbEntity
  8
STAVBA OBRYS
100
AcDb2dPolyline
 66
     1
 10
0.0
 20
0.0
 30
0.0
  0
VERTEX
  5
2D13
330
2D12
100
AcDbEntity
  8
STAVBA OBRYS
100
AcDbVertex
100
AcDb2dVertex
 10
2214.614406456489
 20
170.4431625796077
 30
0.0
 42
-0.0072417954699014
  0
VERTEX
  5
2D14
330
2D12
100
AcDbEntity
  8
STAVBA OBRYS
100
AcDbVertex
100
AcDb2dVertex
 10
2214.558836088646
 20
170.0317573683332
 30
0.0
 42
-0.0707158694326265
  0
VERTEX
  5
2D15
330
2D12
100
AcDbEntity
  8
STAVBA OBRYS
100
AcDbVertex
100
AcDb2dVertex
 10
2214.027709572226
 20
168.0956539157395
 30
0.0
 42
-0.033952657250207
  0
VERTEX
  5
2D16
330
2D12
100
AcDbEntity
  8
STAVBA OBRYS
100
AcDbVertex
100
AcDb2dVertex
 10
2211.779053732817
 20
163.7426161905659
 30
0.0
 42
-0.0571374688189033
  0
VERTEX
  5
2D17
330
2D12
100
AcDbEntity
  8
STAVBA OBRYS
100
AcDbVertex
100
AcDb2dVertex
 10
2209.992896972965
 20
161.4356919068795
 30
0.0
 42
-0.0274923553235744
  0
VERTEX
  5
2D18
330
2D12
100
AcDbEntity
  8
STAVBA OBRYS
100
AcDbVertex
100
AcDb2dVertex
 10
2207.395591242412
 20
159.050616583745
 30
0.0
 42
-0.0255412025538677
  0
VERTEX
  5
2D19
330
2D12
100
AcDbEntity
  8
STAVBA OBRYS
100
AcDbVertex
100
AcDb2dVertex
 10
2204.344161204701
 20
156.7939029067255
 30
0.0
 42
-0.0272796991712396
  0
VERTEX
  5
2D1A
330
2D12
100
AcDbEntity
  8
STAVBA OBRYS
100
AcDbVertex
100
AcDb2dVertex
 10
2200.231162051516
 20
154.3775670250633
 30
0.0
 42
-0.056967459841729
  0
VERTEX
  5
2D1B
330
2D12
100
AcDbEntity
  8
STAVBA OBRYS
100
AcDbVertex
100
AcDb2dVertex
 10
2198.090214770784
 20
153.5648311898639
 30
0.0
 42
-0.0373408083348504
  0
VERTEX
  5
2D1C
330
2D12
100
AcDbEntity
  8
STAVBA OBRYS
100
AcDbVertex
100
AcDb2dVertex
 10
2197.867860395311
 20
153.5256656489127
 30
0.0
 42
-0.0052305969362967
  0
VERTEX
  5
2D1D
330
2D12
100
AcDbEntity
  8
STAVBA OBRYS
100
AcDbVertex
100
AcDb2dVertex
 10
2197.521900621551
 20
153.4947086820083
 30
0.0
  0
SEQEND
  5
2D1E
330
2D12
100
AcDbEntity
  8
STAVBA OBRYS
  0
LWPOLYLINE
  5
2D1F
330
1F
100
AcDbEntity
  8
STAVBA OBRYS
100
AcDbPolyline
 90
        8
 70
     0
 43
0.0
 10
2230.431243703685
 20
170.4431625796095
 42
-0.0120721047703132
 10
2230.362261013647
 20
168.7092744408654
 42
-0.044358077361292
 10
2229.966633278973
 20
166.0134744224487
 42
-0.0188067511131767
 10
2227.94680983059
 20
158.7712452471422
 42
-0.0457786284636091
 10
2226.738786940975
 20
155.9226348642622
 42
-0.0295006114745606
 10
2224.322726486675
 20
151.9957356508602
 42
-0.0258674098621065
 10
2221.090051172711
 20
147.8499555721063
 42
-0.2409478365688615
 10
2197.521900621551
 20
133.4254081271328
 42
-0.0884720560394402
  0
LWPOLYLINE
  5
2D20
330
1F
100
AcDbEntity
  8
STAVBA OBRYS
100
AcDbPolyline
 90
       10
 70
     0
 43
0.0
 10
2221.564184480175
 20
170.4431625796095
 42
-0.0168162630274194
 10
2221.429158901111
 20
168.7521244274902
 42
-0.0575155827655532
 10
2220.749126620768
 20
165.6524997667728
 42
-0.0310289133982999
 10
2217.746325275939
 20
158.4074722421282
 42
-0.0882970623535771
 10
2216.109103355847
 20
156.1671031913282
 42
-0.0171636441953577
 10
2213.295739293989
 20
153.653185836083
 42
-0.0157521173632038
 10
2210.056884456952
 20
151.1216897835765
 42
-0.0073640874174249
 10
2205.423235100631
 20
147.8332883578404
 42
-0.0194185739168057
 10
2203.601191780954
 20
146.6817193585592
 42
-0.0567960585128809
 10
2197.521900621551
 20
144.0298551531831
 42
-0.0229547400386702
  0
LWPOLYLINE
  5
2D21
330
1F
100
AcDbEntity
  8
STAVBA OBRYS
100
AcDbPolyline
 90
        4
 70
     0
 43
0.0
 10
2247.521900621549
 20
160.2433324087041
 42
-0.0067884601454759
 10
2245.526057330505
 20
150.1144693971436
 42
-0.0219777111230329
 10
2244.619944828521
 20
146.5963561413081
 42
-0.0757738131361498
 10
2231.338846972301
 20
130.4431625796095
  0
LWPOLYLINE
  5
2D22
330
1F
100
AcDbEntity
  8
STAVBA OBRYS
100
AcDbPolyline
 90
        3
 70
     0
 43
0.0
 10
2223.522875704499
 20
163.9439930103544
 10
2243.519128136492
 20
154.7279639598345
 10
2247.519065770207
 20
154.0825664844923
  0
LWPOLYLINE
  5
2D23
330
1F
100
AcDbEntity
  8
STAVBA OBRYS
100
AcDbPolyline
 90
        6
 70
     0
 43
0.0
 10
2239.055459083726
 20
170.4431625796095
 42
-0.0128837512779301
 10
2238.770667123501
 20
167.1099977578632
 42
-0.0351641677647434
 10
2238.142907401978
 20
163.5062883035242
 42
-0.0187319685742942
 10
2234.758891520987
 20
151.7480509613814
 42
-0.0582629403736403
 10
2233.099391652907
 20
148.1682167624494
 42
-0.1129599987265478
 10
2215.723849801197
 20
130.4431625796095
 42
-0.1129599987265478
  0
LINE
  5
2D24
330
1F
100
AcDbEntity
  8
SPOJOVACÍ
  6
DASHED
100
AcDbLine
 10
2222.17392571046
 20
159.2304745351865
 30
0.0
 11
2222.436458526205
 21
161.3325602124713
 31
0.0
  0
LINE
  5
2D25
330
1F
100
AcDbEntity
  8
SPOJOVACÍ
  6
DASHED
100
AcDbLine
 10
2221.018052058728
 20
161.8029315089515
 30
0.0
 11
2221.302462606979
 21
159.5285586708031
 31
0.0
  0
HATCH
  5
2D26
330
1F
100
AcDbEntity
  8
nášlap_vrstvy
100
AcDbHatch
 10
0.0
 20
0.0
 30
0.0
210
0.0
220
0.0
230
1.0
  2
SOLID
 70
     1
 71
     0
 91
        1
 92
        7
 72
     0
 73
     1
 93
        4
 10
2270.449049379029
 20
198.9431625796098
 10
2258.628183024114
 20
198.9431625796098
 10
2258.62818302411
 20
197.4431625796098
 10
2270.449049379029
 20
197.4431625796098
 97
        0
 75
     0
 76
     1
 47
0.1901250437635136
 98
        1
 10
2263.307080403284
 20
198.5347568040699
  0
HATCH
  5
2D27
330
1F
100
AcDbEntity
  8
nášlap_vrstvy
100
AcDbHatch
 10
0.0
 20
0.0
 30
0.0
210
0.0
220
0.0
230
1.0
  2
SOLID
 70
     1
 71
     0
 91
        1
 92
        7
 72
     0
 73
     1
 93
        4
 10
2246.807316669194
 20
198.9431625796098
 10
2234.986450314275
 20
198.9431625796098
 10
2234.986450314275
 20
197.4431625796098
 10
2246.807316669194
 20
197.4431625796098
 97
        0
 75
     0
 76
     1
 47
0.1901250437635136
 98
        1
 10
2239.665347693445
 20
198.5347568040699
  0
LWPOLYLINE
  5
2D28
330
1F
100
AcDbEntity
  8
nášlap_vrstvy
100
AcDbPolyline
 90
        4
 70
     1
 43
0.0
 10
2246.807316669191
 20
198.9431625796098
 10
2234.986450314275
 20
198.9431625796098
 10
2234.986450314275
 20
197.4431625796098
 10
2246.807316669191
 20
197.4431625796098
  0
HATCH
  5
2D29
330
1F
100
AcDbEntity
  8
nášlap_vrstvy
100
AcDbHatch
 10
0.0
 20
0.0
 30
0.0
210
0.0
220
0.0
230
1.0
  2
SOLID
 70
     1
 71
     0
 91
        1
 92
        7
 72
     0
 73
     1
 93
        4
 10
2294.090782088864
 20
198.9431625796098
 10
2282.269915733945
 20
198.9431625796098
 10
2282.269915733945
 20
197.4431625796098
 10
2294.090782088864
 20
197.4431625796098
 97
        0
 75
     0
 76
     1
 47
0.1901250437635136
 98
        1
 10
2286.948813113115
 20
198.5347568040699
  0
HATCH
  5
2D2A
330
1F
100
AcDbEntity
  8
nášlap_vrstvy
100
AcDbHatch
 10
0.0
 20
0.0
 30
0.0
210
0.0
220
0.0
230
1.0
  2
SOLID
 70
     1
 71
     0
 91
        1
 92
        7
 72
     0
 73
     1
 93
        4
 10
2175.882118539689
 20
198.9431625796098
 10
2164.061252184773
 20
198.9431625796098
 10
2164.061252184769
 20
197.4431625796098
 10
2175.882118539689
 20
197.4431625796098
 97
        0
 75
     0
 76
     1
 47
0.1901250437635136
 98
        1
 10
2168.740149563943
 20
198.5347568040699
  0
LWPOLYLINE
  5
2D2B
330
1F
100
AcDbEntity
  8
nášlap_vrstvy
100
AcDbPolyline
 90
        4
 70
     1
 43
0.0
 10
2175.882118539689
 20
198.9431625796098
 10
2164.061252184769
 20
198.9431625796098
 10
2164.061252184769
 20
197.4431625796098
 10
2175.882118539689
 20
197.4431625796098
  0
HATCH
  5
2D2C
330
1F
100
AcDbEntity
  8
nášlap_vrstvy
100
AcDbHatch
 10
0.0
 20
0.0
 30
0.0
210
0.0
220
0.0
230
1.0
  2
SOLID
 70
     1
 71
     0
 91
        1
 92
        7
 72
     0
 73
     1
 93
        4
 10
2199.523851249524
 20
198.9431625796098
 10
2187.702984894604
 20
198.9431625796098
 10
2187.702984894604
 20
197.4431625796098
 10
2199.523851249524
 20
197.4431625796098
 97
        0
 75
     0
 76
     1
 47
0.1901250437635136
 98
        1
 10
2192.381882273775
 20
198.5347568040699
  0
HATCH
  5
2D2D
330
1F
100
AcDbEntity
  8
nášlap_vrstvy
100
AcDbHatch
 10
0.0
 20
0.0
 30
0.0
210
0.0
220
0.0
230
1.0
  2
SOLID
 70
     1
 71
     0
 91
        1
 92
        7
 72
     0
 73
     1
 93
        4
 10
2223.165583959359
 20
198.9431625796098
 10
2211.344717604443
 20
198.9431625796098
 10
2211.34471760444
 20
197.4431625796098
 10
2223.165583959359
 20
197.4431625796098
 97
        0
 75
     0
 76
     1
 47
0.1901250437635136
 98
        1
 10
2216.023614983613
 20
198.5347568040699
  0
LWPOLYLINE
  5
2D2E
330
1F
100
AcDbEntity
  8
nášlap_vrstvy
100
AcDbPolyline
 90
        4
 70
     1
 43
0.0
 10
2223.165583959359
 20
198.9431625796098
 10
2211.34471760444
 20
198.9431625796098
 10
2211.34471760444
 20
197.4431625796098
 10
2223.165583959359
 20
197.4431625796098
  0
TEXT
  5
2D2F
330
1F
100
AcDbEntity
  8
POPIS
100
AcDbText
 10
2411.255475481693
 20
210.7291601009967
 30
0.0
 40
25.0
  1
Nivelační stěrka 
 41
0.7
  7
SIMPLEX7
100
AcDbText
  0
TEXT
  5
2D30
330
1F
100
AcDbEntity
  8
POPIS
100
AcDbText
 10
2411.255475481693
 20
175.3249988828339
 30
0.0
 40
25.0
  1
Penetrace 
 41
0.7
  7
SIMPLEX7
100
AcDbText
  0
TEXT
  5
2D31
330
1F
100
AcDbEntity
  8
POPIS
100
AcDbText
 10
2411.255475481693
 20
282.2291301076294
 30
0.0
 40
25.0
  1
PVC, koberec
 41
0.7
  7
SIMPLEX7
100
AcDbText
  0
TEXT
  5
2D32
330
1F
100
AcDbEntity
  8
POPIS
100
AcDbText
 10
2411.255475481693
 20
319.23891703108
 30
0.0
 40
25.0
  1
Rohová lišta
 41
0.7
  7
SIMPLEX7
100
AcDbText
  0
TEXT
  5
2D33
330
1F
100
AcDbEntity
  8
POPIS
100
AcDbText
 10
2356.91177232195
 20
244.7598203778654
 30
0.0
 40
25.0
  1
03
 41
0.85
  7
SIMPLEX7
100
AcDbText
  0
TEXT
  5
2D34
330
1F
100
AcDbEntity
  8
POPIS
100
AcDbText
 10
2356.91177232195
 20
282.6439054154527
 30
0.0
 40
25.0
  1
02
 41
0.85
  7
SIMPLEX7
100
AcDbText
  0
TEXT
  5
2D35
330
1F
100
AcDbEntity
  8
POPIS
100
AcDbText
 10
2356.91177232195
 20
137.6800774712412
 30
0.0
 40
25.0
  1
06
 41
0.85
  7
SIMPLEX7
100
AcDbText
  0
TEXT
  5
2D36
330
1F
100
AcDbEntity
  8
POPIS
100
AcDbText
 10
2356.91177232195
 20
174.5156174741334
 30
0.0
 40
25.0
  1
05
 41
0.85
  7
SIMPLEX7
100
AcDbText
  0
TEXT
  5
2D37
330
1F
100
AcDbEntity
  8
POPIS
100
AcDbText
 10
2356.91177232195
 20
209.3556591597027
 30
0.0
 40
25.0
  1
04
 41
0.85
  7
SIMPLEX7
100
AcDbText
  0
TEXT
  5
2D38
330
1F
100
AcDbEntity
  8
POPIS
100
AcDbText
 10
2356.91177232195
 20
319.23891703108
 30
0.0
 40
25.0
  1
01
 41
0.85
  7
SIMPLEX7
100
AcDbText
  0
TEXT
  5
2D3A
330
1F
100
AcDbEntity
  8
POPIS
100
AcDbText
 10
2701.169618109545
 20
155.2874227632953
 30
0.0
 40
8.399999999999998
  1
R
 41
0.85
  7
SIMPLEX7
100
AcDbText
  0
CIRCLE
  5
2D3B
330
1F
100
AcDbEntity
  8
POPIS
100
AcDbCircle
 10
2704.500938448173
 20
159.169164784788
 30
0.0
 40
7.795592338044182
  0
HATCH
  5
2D8F
330
1F
100
AcDbEntity
  8
izolace
100
AcDbHatch
 10
0.0
 20
0.0
 30
0.0
210
0.0
220
0.0
230
1.0
  2
SOLID
 70
     1
 71
     0
 91
       10
 92
        7
 72
     0
 73
     1
 93
        4
 10
1666.414717904795
 20
130.4431625796086
 10
1662.490296897375
 20
130.4431625796086
 10
1662.490296897375
 20
127.4431625796095
 10
1666.414717904795
 20
127.4431625796095
 97
        0
 92
        7
 72
     0
 73
     1
 93
        9
 10
1650.048351995605
 20
130.4431625796086
 10
1644.651492738222
 20
130.4431625796086
 10
1644.95917972791
 20
130.3397746559539
 10
1645.329278071434
 20
130.1255551701687
 10
1644.959179727907
 20
129.755456824775
 10
1644.300112971447
 20
129.9769141686683
 10
1644.300112971447
 20
127.5030585803469
 10
1644.478244169267
 20
127.4431625796095
 10
1650.048351995605
 20
127.4431625796095
 97
        0
 92
        7
 72
     0
 73
     1
 93
        9
 10
1641.654730211966
 20
130.4431625796086
 10
1636.232434181801
 20
130.4431625796086
 10
1636.232434181801
 20
127.4431625796095
 10
1641.654730211966
 20
127.4431625796095
 10
1641.654730211966
 20
127.8082415755633
 10
1640.995663455511
 20
128.0298504987321
 10
1640.625565107701
 20
128.24406998452
 10
1640.995663455506
 20
128.6141683301856
 10
1641.654730211966
 20
128.3925594070159
 97
        0
 92
        7
 72
     0
 73
     1
 93
        5
 10
1644.300112971447
 20
129.9769141686674
 10
1642.912537276272
 20
130.4431625796086
 10
1641.654730211967
 20
130.4431625796086
 10
1641.654730211967
 20
128.392559407015
 10
1644.300112971447
 20
127.503058580346
 97
        0
 92
        7
 72
     0
 73
     1
 93
        4
 10
1644.058848433967
 20
130.4431625796086
 10
1642.912537276273
 20
130.4431625796095
 10
1644.959179727907
 20
129.7554568247732
 10
1645.329278071433
 20
130.1255551701687
 97
        0
 92
       23
 72
     0
 73
     1
 93
        4
 10
1644.651492738224
 20
130.4431625796086
 10
1644.058848433961
 20
130.4431625796086
 10
1645.329278071433
 20
130.1255551701669
 10
1644.959179727905
 20
130.3397746559557
 97
        0
 92
        7
 72
     0
 73
     1
 93
        4
 10
1640.995663455507
 20
128.6141683301838
 10
1640.625565107702
 20
128.2440699845191
 10
1643.829194727339
 20
127.4431625796095
 10
1644.478244169264
 20
127.4431625796095
 97
        0
 92
        7
 72
     0
 73
     1
 93
        4
 10
1640.625565107698
 20
128.244069984521
 10
1640.99566345551
 20
128.029850498733
 10
1642.740478142493
 20
127.4431625796095
 10
1643.82919472734
 20
127.4431625796095
 97
        0
 92
       23
 72
     0
 73
     1
 93
        3
 10
1641.654730211966
 20
127.8082415755642
 10
1641.654730211966
 20
127.4431625796095
 10
1642.740478142486
 20
127.4431625796095
 97
        0
 92
        7
 72
     0
 73
     1
 93
        4
 10
1622.746242686969
 20
130.4431625796086
 10
1616.414717904795
 20
130.4431625796086
 10
1616.414717904795
 20
127.4431625796095
 10
1622.74624268697
 20
127.4431625796104
 97
        0
 75
     0
 76
     1
 47
0.0980096762587744
 98
       10
 10
1664.12346991676
 20
129.5616091667433
 10
1648.320672153902
 20
128.8095562777816
 10
1639.194704944437
 20
128.8461591374288
 10
1642.738625844204
 20
128.7908187002248
 10
1644.10617183932
 20
130.1457451789537
 10
1644.667550291374
 20
130.3617892804213
 10
1642.358220312543
 20
127.9623057588905
 10
1642.596469236995
 20
127.650913053283
 10
1641.936676850134
 20
127.6142766438096
 10
1618.891083471516
 20
128.6852038494725
  0
HATCH
  5
2D90
330
1F
100
AcDbEntity
  8
izolace
100
AcDbHatch
 10
0.0
 20
0.0
 30
0.0
210
0.0
220
0.0
230
1.0
  2
SOLID
 70
     1
 71
     0
 91
       10
 92
        7
 72
     0
 73
     1
 93
        4
 10
1919.468309263172
 20
130.4431625796086
 10
1915.543888255752
 20
130.4431625796086
 10
1915.543888255752
 20
127.4431625796095
 10
1919.468309263172
 20
127.4431625796095
 97
        0
 92
        7
 72
     0
 73
     1
 93
        9
 10
1903.101943353983
 20
130.4431625796086
 10
1897.705084096599
 20
130.4431625796086
 10
1898.012771086288
 20
130.3397746559539
 10
1898.382869429811
 20
130.1255551701687
 10
1898.012771086284
 20
129.755456824775
 10
1897.353704329824
 20
129.9769141686683
 10
1897.353704329824
 20
127.5030585803469
 10
1897.531835527644
 20
127.4431625796095
 10
1903.101943353982
 20
127.4431625796095
 97
        0
 92
        7
 72
     0
 73
     1
 93
        9
 10
1894.708321570343
 20
130.4431625796086
 10
1889.286025540178
 20
130.4431625796086
 10
1889.286025540178
 20
127.4431625796095
 10
1894.708321570343
 20
127.4431625796095
 10
1894.708321570343
 20
127.8082415755633
 10
1894.049254813888
 20
128.0298504987321
 10
1893.679156466079
 20
128.24406998452
 10
1894.049254813883
 20
128.6141683301856
 10
1894.708321570343
 20
128.3925594070159
 97
        0
 92
        7
 72
     0
 73
     1
 93
        5
 10
1897.353704329824
 20
129.9769141686674
 10
1895.966128634649
 20
130.4431625796086
 10
1894.708321570344
 20
130.4431625796086
 10
1894.708321570344
 20
128.392559407015
 10
1897.353704329824
 20
127.503058580346
 97
        0
 92
        7
 72
     0
 73
     1
 93
        4
 10
1897.112439792343
 20
130.4431625796086
 10
1895.96612863465
 20
130.4431625796095
 10
1898.012771086284
 20
129.7554568247732
 10
1898.38286942981
 20
130.1255551701687
 97
        0
 92
       23
 72
     0
 73
     1
 93
        4
 10
1897.705084096602
 20
130.4431625796086
 10
1897.112439792338
 20
130.4431625796086
 10
1898.38286942981
 20
130.1255551701669
 10
1898.012771086282
 20
130.3397746559557
 97
        0
 92
        7
 72
     0
 73
     1
 93
        4
 10
1894.049254813884
 20
128.6141683301838
 10
1893.679156466079
 20
128.2440699845191
 10
1896.882786085716
 20
127.4431625796095
 10
1897.531835527641
 20
127.4431625796095
 97
        0
 92
        7
 72
     0
 73
     1
 93
        4
 10
1893.679156466075
 20
128.244069984521
 10
1894.049254813887
 20
128.029850498733
 10
1895.79406950087
 20
127.4431625796095
 10
1896.882786085717
 20
127.4431625796095
 97
        0
 92
       23
 72
     0
 73
     1
 93
        3
 10
1894.708321570343
 20
127.8082415755642
 10
1894.708321570343
 20
127.4431625796095
 10
1895.794069500863
 20
127.4431625796095
 97
        0
 92
        7
 72
     0
 73
     1
 93
        4
 10
1875.799834045347
 20
130.4431625796086
 10
1869.468309263172
 20
130.4431625796086
 10
1869.468309263172
 20
127.4431625796095
 10
1875.799834045348
 20
127.4431625796104
 97
        0
 75
     0
 76
     1
 47
0.0980096762587744
 98
       10
 10
1917.177061275138
 20
129.5616091667433
 10
1901.374263512279
 20
128.8095562777816
 10
1892.248296302815
 20
128.8461591374288
 10
1895.792217202582
 20
128.7908187002248
 10
1897.159763197697
 20
130.1457451789537
 10
1897.721141649751
 20
130.3617892804213
 10
1895.41181167092
 20
127.9623057588905
 10
1895.650060595372
 20
127.650913053283
 10
1894.990268208511
 20
127.6142766438096
 10
1871.944674829893
 20
128.6852038494725
  0
HATCH
  5
2D91
330
1F
100
AcDbEntity
  8
izolace
100
AcDbHatch
 10
0.0
 20
0.0
 30
0.0
210
0.0
220
0.0
230
1.0
  2
SOLID
 70
     1
 71
     0
 91
       10
 92
        7
 72
     0
 73
     1
 93
        4
 10
1969.468309263172
 20
130.4431625796086
 10
1965.543888255752
 20
130.4431625796086
 10
1965.543888255752
 20
127.4431625796095
 10
1969.468309263172
 20
127.4431625796095
 97
        0
 92
        7
 72
     0
 73
     1
 93
        9
 10
1953.101943353983
 20
130.4431625796086
 10
1947.705084096599
 20
130.4431625796086
 10
1948.012771086288
 20
130.3397746559539
 10
1948.382869429812
 20
130.1255551701687
 10
1948.012771086284
 20
129.755456824775
 10
1947.353704329824
 20
129.9769141686683
 10
1947.353704329824
 20
127.5030585803469
 10
1947.531835527644
 20
127.4431625796095
 10
1953.101943353982
 20
127.4431625796095
 97
        0
 92
        7
 72
     0
 73
     1
 93
        9
 10
1944.708321570343
 20
130.4431625796086
 10
1939.286025540178
 20
130.4431625796086
 10
1939.286025540178
 20
127.4431625796095
 10
1944.708321570343
 20
127.4431625796095
 10
1944.708321570343
 20
127.8082415755633
 10
1944.049254813888
 20
128.0298504987321
 10
1943.679156466079
 20
128.24406998452
 10
1944.049254813883
 20
128.6141683301856
 10
1944.708321570343
 20
128.3925594070159
 97
        0
 92
        7
 72
     0
 73
     1
 93
        5
 10
1947.353704329824
 20
129.9769141686674
 10
1945.966128634649
 20
130.4431625796086
 10
1944.708321570344
 20
130.4431625796086
 10
1944.708321570344
 20
128.392559407015
 10
1947.353704329824
 20
127.503058580346
 97
        0
 92
        7
 72
     0
 73
     1
 93
        4
 10
1947.112439792343
 20
130.4431625796086
 10
1945.96612863465
 20
130.4431625796095
 10
1948.012771086284
 20
129.7554568247732
 10
1948.38286942981
 20
130.1255551701687
 97
        0
 92
       23
 72
     0
 73
     1
 93
        4
 10
1947.705084096602
 20
130.4431625796086
 10
1947.112439792338
 20
130.4431625796086
 10
1948.38286942981
 20
130.1255551701669
 10
1948.012771086282
 20
130.3397746559557
 97
        0
 92
        7
 72
     0
 73
     1
 93
        4
 10
1944.049254813884
 20
128.6141683301838
 10
1943.679156466079
 20
128.2440699845191
 10
1946.882786085716
 20
127.4431625796095
 10
1947.531835527641
 20
127.4431625796095
 97
        0
 92
        7
 72
     0
 73
     1
 93
        4
 10
1943.679156466075
 20
128.244069984521
 10
1944.049254813887
 20
128.029850498733
 10
1945.79406950087
 20
127.4431625796095
 10
1946.882786085717
 20
127.4431625796095
 97
        0
 92
       23
 72
     0
 73
     1
 93
        3
 10
1944.708321570343
 20
127.8082415755642
 10
1944.708321570343
 20
127.4431625796095
 10
1945.794069500863
 20
127.4431625796095
 97
        0
 92
        7
 72
     0
 73
     1
 93
        4
 10
1925.799834045347
 20
130.4431625796086
 10
1919.468309263172
 20
130.4431625796086
 10
1919.468309263172
 20
127.4431625796095
 10
1925.799834045347
 20
127.4431625796104
 97
        0
 75
     0
 76
     1
 47
0.0980096762587744
 98
       10
 10
1967.177061275138
 20
129.5616091667433
 10
1951.374263512279
 20
128.8095562777816
 10
1942.248296302815
 20
128.8461591374288
 10
1945.792217202582
 20
128.7908187002248
 10
1947.159763197697
 20
130.1457451789537
 10
1947.721141649751
 20
130.3617892804213
 10
1945.41181167092
 20
127.9623057588905
 10
1945.650060595372
 20
127.650913053283
 10
1944.990268208511
 20
127.6142766438096
 10
1921.944674829893
 20
128.6852038494725
  0
HATCH
  5
2D92
330
1F
100
AcDbEntity
  8
izolace
100
AcDbHatch
 10
0.0
 20
0.0
 30
0.0
210
0.0
220
0.0
230
1.0
  2
SOLID
 70
     1
 71
     0
 91
       10
 92
        7
 72
     0
 73
     1
 93
        4
 10
2247.521900621549
 20
130.4431625796086
 10
2243.59747961413
 20
130.4431625796086
 10
2243.59747961413
 20
127.4431625796095
 10
2247.521900621549
 20
127.4431625796095
 97
        0
 92
        7
 72
     0
 73
     1
 93
        9
 10
2231.15553471236
 20
130.4431625796086
 10
2225.758675454976
 20
130.4431625796086
 10
2226.066362444665
 20
130.3397746559539
 10
2226.436460788189
 20
130.1255551701687
 10
2226.066362444661
 20
129.755456824775
 10
2225.407295688202
 20
129.9769141686683
 10
2225.407295688202
 20
127.5030585803469
 10
2225.585426886021
 20
127.4431625796095
 10
2231.155534712359
 20
127.4431625796095
 97
        0
 92
        7
 72
     0
 73
     1
 93
        9
 10
2222.76191292872
 20
130.4431625796086
 10
2217.339616898555
 20
130.4431625796086
 10
2217.339616898555
 20
127.4431625796095
 10
2222.76191292872
 20
127.4431625796095
 10
2222.76191292872
 20
127.8082415755633
 10
2222.102846172265
 20
128.0298504987321
 10
2221.732747824455
 20
128.24406998452
 10
2222.10284617226
 20
128.6141683301856
 10
2222.76191292872
 20
128.3925594070159
 97
        0
 92
        7
 72
     0
 73
     1
 93
        5
 10
2225.407295688202
 20
129.9769141686674
 10
2224.019719993026
 20
130.4431625796086
 10
2222.761912928721
 20
130.4431625796086
 10
2222.761912928721
 20
128.392559407015
 10
2225.407295688202
 20
127.503058580346
 97
        0
 92
        7
 72
     0
 73
     1
 93
        4
 10
2225.166031150721
 20
130.4431625796086
 10
2224.019719993028
 20
130.4431625796095
 10
2226.066362444661
 20
129.7554568247732
 10
2226.436460788188
 20
130.1255551701687
 97
        0
 92
       23
 72
     0
 73
     1
 93
        4
 10
2225.758675454979
 20
130.4431625796086
 10
2225.166031150715
 20
130.4431625796086
 10
2226.436460788188
 20
130.1255551701669
 10
2226.066362444659
 20
130.3397746559557
 97
        0
 92
        7
 72
     0
 73
     1
 93
        4
 10
2222.102846172262
 20
128.6141683301838
 10
2221.732747824457
 20
128.2440699845191
 10
2224.936377444093
 20
127.4431625796095
 10
2225.585426886018
 20
127.4431625796095
 97
        0
 92
        7
 72
     0
 73
     1
 93
        4
 10
2221.732747824452
 20
128.244069984521
 10
2222.102846172264
 20
128.029850498733
 10
2223.847660859247
 20
127.4431625796095
 10
2224.936377444094
 20
127.4431625796095
 97
        0
 92
       23
 72
     0
 73
     1
 93
        3
 10
2222.76191292872
 20
127.8082415755642
 10
2222.76191292872
 20
127.4431625796095
 10
2223.847660859241
 20
127.4431625796095
 97
        0
 92
        7
 72
     0
 73
     1
 93
        4
 10
2203.853425403724
 20
130.4431625796086
 10
2197.521900621549
 20
130.4431625796086
 10
2197.521900621549
 20
127.4431625796095
 10
2203.853425403724
 20
127.4431625796104
 97
        0
 75
     0
 76
     1
 47
0.0980096762587744
 98
       10
 10
2245.230652633515
 20
129.5616091667433
 10
2229.427854870656
 20
128.8095562777816
 10
2220.301887661192
 20
128.8461591374288
 10
2223.845808560958
 20
128.7908187002248
 10
2225.213354556074
 20
130.1457451789537
 10
2225.774733008128
 20
130.3617892804213
 10
2223.465403029297
 20
127.9623057588905
 10
2223.703651953749
 20
127.650913053283
 10
2223.043859566888
 20
127.6142766438096
 10
2199.99826618827
 20
128.6852038494725
  0
ENDSEC
  0
SECTION
  2
OBJECTS
  0
DICTIONARY
  5
C
330
0
100
AcDbDictionary
281
     1
  3
ACAD_GROUP
350
D
  3
ACAD_LAYOUT
350
1A
  3
ACAD_MLINESTYLE
350
17
  3
ACAD_PLOTSETTINGS
350
19
  3
ACAD_PLOTSTYLENAME
350
E
  3
AcDbVariableDictionary
350
2D99
  0
DICTIONARY
  5
D
102
{ACAD_REACTORS
330
C
102
}
330
C
100
AcDbDictionary
281
     1
  0
DICTIONARY
  5
1A
102
{ACAD_REACTORS
330
C
102
}
330
C
100
AcDbDictionary
281
     1
  3
Model
350
22
  3
Rozvržení1
350
1E
  3
Rozvržení2
350
26
  0
DICTIONARY
  5
17
102
{ACAD_REACTORS
330
C
102
}
330
C
100
AcDbDictionary
281
     1
  3
Standard
350
18
  0
DICTIONARY
  5
19
102
{ACAD_REACTORS
330
C
102
}
330
C
100
AcDbDictionary
281
     1
  0
ACDBDICTIONARYWDFLT
  5
E
102
{ACAD_REACTORS
330
C
102
}
330
C
100
AcDbDictionary
281
     1
  3
Normal
350
F
100
AcDbDictionaryWithDefault
340
F
  0
DICTIONARY
  5
2D99
102
{ACAD_REACTORS
330
C
102
}
330
C
100
AcDbDictionary
281
     1
  3
DIMASSOC
350
2D9A
  0
LAYOUT
  5
22
102
{ACAD_REACTORS
330
1A
102
}
330
1A
100
AcDbPlotSettings
  1

  2
HP DeskJet 690C
  4

  6

 40
0.0
 41
0.0
 42
0.0
 43
0.0
 44
0.0
 45
0.0
 46
0.0
 47
0.0
 48
0.0
 49
0.0
140
0.0
141
0.0
142
1.0
143
1.0
 70
  1712
 72
     0
 73
     0
 74
     0
  7
monochrome.ctb
 75
     0
147
1.0
148
0.0
149
0.0
100
AcDbLayout
  1
Model
 70
     1
 71
     0
 10
0.0
 20
0.0
 11
12.0
 21
9.0
 12
0.0
 22
0.0
 32
0.0
 14
0.0
 24
0.0
 34
0.0
 15
0.0
 25
0.0
 35
0.0
146
0.0
 13
0.0
 23
0.0
 33
0.0
 16
1.0
 26
0.0
 36
0.0
 17
0.0
 27
1.0
 37
0.0
 76
     0
330
1F
  0
LAYOUT
  5
1E
102
{ACAD_REACTORS
330
1A
102
}
330
1A
100
AcDbPlotSettings
  1

  2
HP DeskJet 690C
  4

  6

 40
0.0
 41
0.0
 42
0.0
 43
0.0
 44
0.0
 45
0.0
 46
0.0
 47
0.0
 48
0.0
 49
0.0
140
0.0
141
0.0
142
1.0
143
1.0
 70
   688
 72
     0
 73
     0
 74
     5
  7
monochrome.ctb
 75
    16
147
1.0
148
0.0
149
0.0
100
AcDbLayout
  1
Rozvržení1
 70
     1
 71
     1
 10
0.0
 20
0.0
 11
420.0
 21
297.0
 12
0.0
 22
0.0
 32
0.0
 14
1.000000000000000E+20
 24
1.000000000000000E+20
 34
1.000000000000000E+20
 15
-1.000000000000000E+20
 25
-1.000000000000000E+20
 35
-1.000000000000000E+20
146
0.0
 13
0.0
 23
0.0
 33
0.0
 16
1.0
 26
0.0
 36
0.0
 17
0.0
 27
1.0
 37
0.0
 76
     0
330
1B
  0
LAYOUT
  5
26
102
{ACAD_REACTORS
330
1A
102
}
330
1A
100
AcDbPlotSettings
  1

  2
HP DeskJet 690C
  4

  6

 40
0.0
 41
0.0
 42
0.0
 43
0.0
 44
0.0
 45
0.0
 46
0.0
 47
0.0
 48
0.0
 49
0.0
140
0.0
141
0.0
142
1.0
143
1.0
 70
   688
 72
     0
 73
     0
 74
     5
  7
monochrome.ctb
 75
    16
147
1.0
148
0.0
149
0.0
100
AcDbLayout
  1
Rozvržení2
 70
     1
 71
     2
 10
0.0
 20
0.0
 11
12.0
 21
9.0
 12
0.0
 22
0.0
 32
0.0
 14
0.0
 24
0.0
 34
0.0
 15
0.0
 25
0.0
 35
0.0
146
0.0
 13
0.0
 23
0.0
 33
0.0
 16
1.0
 26
0.0
 36
0.0
 17
0.0
 27
1.0
 37
0.0
 76
     0
330
23
  0
MLINESTYLE
  5
18
102
{ACAD_REACTORS
330
17
102
}
330
17
100
AcDbMlineStyle
  2
STANDARD
 70
     0
  3

 62
   256
 51
90.0
 52
90.0
 71
     2
 49
0.5
 62
   256
  6
BYLAYER
 49
-0.5
 62
   256
  6
BYLAYER
  0
ACDBPLACEHOLDER
  5
F
102
{ACAD_REACTORS
330
E
102
}
330
E
  0
DICTIONARYVAR
  5
2D9A
102
{ACAD_REACTORS
330
2D99
102
}
330
2D99
100
DictionaryVariables
280
     0
  1
1
  0
ENDSEC
  0
EOF
