  0
SECTION
  2
HEADER
  9
$ACADVER
  1
AC1015
  9
$ACADMAINTVER
 70
    14
  9
$DWGCODEPAGE
  3
ANSI_1250
  9
$INSBASE
 10
0.0
 20
0.0
 30
0.0
  9
$EXTMIN
 10
-384.8784919992964
 20
-590.1001668636097
 30
0.0
  9
$EXTMAX
 10
2756.43818923738
 20
657.2903976345887
 30
0.0
  9
$LIMMIN
 10
0.0
 20
0.0
  9
$LIMMAX
 10
420.0
 20
297.0
  9
$ORTHOMODE
 70
     1
  9
$REGENMODE
 70
     1
  9
$FILLMODE
 70
     1
  9
$QTEXTMODE
 70
     0
  9
$MIRRTEXT
 70
     1
  9
$LTSCALE
 40
1.0
  9
$ATTMODE
 70
     1
  9
$TEXTSIZE
 40
2.5
  9
$TRACEWID
 40
1.0
  9
$TEXTSTYLE
  7
Standard
  9
$CLAYER
  8
0
  9
$CELTYPE
  6
ByLayer
  9
$CECOLOR
 62
   256
  9
$CELTSCALE
 40
1.0
  9
$DISPSILH
 70
     0
  9
$DIMSCALE
 40
1.0
  9
$DIMASZ
 40
2.5
  9
$DIMEXO
 40
0.625
  9
$DIMDLI
 40
3.75
  9
$DIMRND
 40
0.0
  9
$DIMDLE
 40
0.0
  9
$DIMEXE
 40
1.25
  9
$DIMTP
 40
0.0
  9
$DIMTM
 40
0.0
  9
$DIMTXT
 40
2.5
  9
$DIMCEN
 40
2.5
  9
$DIMTSZ
 40
0.0
  9
$DIMTOL
 70
     0
  9
$DIMLIM
 70
     0
  9
$DIMTIH
 70
     0
  9
$DIMTOH
 70
     0
  9
$DIMSE1
 70
     0
  9
$DIMSE2
 70
     0
  9
$DIMTAD
 70
     1
  9
$DIMZIN
 70
     8
  9
$DIMBLK
  1

  9
$DIMASO
 70
     1
  9
$DIMSHO
 70
     1
  9
$DIMPOST
  1

  9
$DIMAPOST
  1

  9
$DIMALT
 70
     0
  9
$DIMALTD
 70
     3
  9
$DIMALTF
 40
0.03937007874016
  9
$DIMLFAC
 40
1.0
  9
$DIMTOFL
 70
     1
  9
$DIMTVP
 40
0.0
  9
$DIMTIX
 70
     0
  9
$DIMSOXD
 70
     0
  9
$DIMSAH
 70
     0
  9
$DIMBLK1
  1

  9
$DIMBLK2
  1

  9
$DIMSTYLE
  2
ISO-25
  9
$DIMCLRD
 70
     0
  9
$DIMCLRE
 70
     0
  9
$DIMCLRT
 70
     0
  9
$DIMTFAC
 40
1.0
  9
$DIMGAP
 40
0.625
  9
$DIMJUST
 70
     0
  9
$DIMSD1
 70
     0
  9
$DIMSD2
 70
     0
  9
$DIMTOLJ
 70
     0
  9
$DIMTZIN
 70
     8
  9
$DIMALTZ
 70
     0
  9
$DIMALTTZ
 70
     0
  9
$DIMUPT
 70
     0
  9
$DIMDEC
 70
     2
  9
$DIMTDEC
 70
     2
  9
$DIMALTU
 70
     2
  9
$DIMALTTD
 70
     3
  9
$DIMTXSTY
  7
Standard
  9
$DIMAUNIT
 70
     0
  9
$DIMADEC
 70
     0
  9
$DIMALTRND
 40
0.0
  9
$DIMAZIN
 70
     0
  9
$DIMDSEP
 70
    44
  9
$DIMATFIT
 70
     3
  9
$DIMFRAC
 70
     0
  9
$DIMLDRBLK
  1

  9
$DIMLUNIT
 70
     2
  9
$DIMLWD
 70
    -2
  9
$DIMLWE
 70
    -2
  9
$DIMTMOVE
 70
     0
  9
$LUNITS
 70
     2
  9
$LUPREC
 70
     4
  9
$SKETCHINC
 40
1.0
  9
$FILLETRAD
 40
10.0
  9
$AUNITS
 70
     0
  9
$AUPREC
 70
     0
  9
$MENU
  1
.
  9
$ELEVATION
 40
0.0
  9
$PELEVATION
 40
0.0
  9
$THICKNESS
 40
0.0
  9
$LIMCHECK
 70
     0
  9
$CHAMFERA
 40
10.0
  9
$CHAMFERB
 40
10.0
  9
$CHAMFERC
 40
20.0
  9
$CHAMFERD
 40
0.0
  9
$SKPOLY
 70
     0
  9
$TDCREATE
 40
2452332.468649768
  9
$TDUCREATE
 40
2452332.426983101
  9
$TDUPDATE
 40
2455595.603312094
  9
$TDUUPDATE
 40
2455595.561645428
  9
$TDINDWG
 40
0.0460640856
  9
$TDUSRTIMER
 40
0.0460615394
  9
$USRTIMER
 70
     1
  9
$ANGBASE
 50
0.0
  9
$ANGDIR
 70
     0
  9
$PDMODE
 70
     0
  9
$PDSIZE
 40
0.0
  9
$PLINEWID
 40
0.0
  9
$SPLFRAME
 70
     0
  9
$SPLINETYPE
 70
     6
  9
$SPLINESEGS
 70
     8
  9
$HANDSEED
  5
2850
  9
$SURFTAB1
 70
     6
  9
$SURFTAB2
 70
     6
  9
$SURFTYPE
 70
     6
  9
$SURFU
 70
     6
  9
$SURFV
 70
     6
  9
$UCSBASE
  2

  9
$UCSNAME
  2

  9
$UCSORG
 10
0.0
 20
0.0
 30
0.0
  9
$UCSXDIR
 10
1.0
 20
0.0
 30
0.0
  9
$UCSYDIR
 10
0.0
 20
1.0
 30
0.0
  9
$UCSORTHOREF
  2

  9
$UCSORTHOVIEW
 70
     0
  9
$UCSORGTOP
 10
0.0
 20
0.0
 30
0.0
  9
$UCSORGBOTTOM
 10
0.0
 20
0.0
 30
0.0
  9
$UCSORGLEFT
 10
0.0
 20
0.0
 30
0.0
  9
$UCSORGRIGHT
 10
0.0
 20
0.0
 30
0.0
  9
$UCSORGFRONT
 10
0.0
 20
0.0
 30
0.0
  9
$UCSORGBACK
 10
0.0
 20
0.0
 30
0.0
  9
$PUCSBASE
  2

  9
$PUCSNAME
  2

  9
$PUCSORG
 10
0.0
 20
0.0
 30
0.0
  9
$PUCSXDIR
 10
1.0
 20
0.0
 30
0.0
  9
$PUCSYDIR
 10
0.0
 20
1.0
 30
0.0
  9
$PUCSORTHOREF
  2

  9
$PUCSORTHOVIEW
 70
     0
  9
$PUCSORGTOP
 10
0.0
 20
0.0
 30
0.0
  9
$PUCSORGBOTTOM
 10
0.0
 20
0.0
 30
0.0
  9
$PUCSORGLEFT
 10
0.0
 20
0.0
 30
0.0
  9
$PUCSORGRIGHT
 10
0.0
 20
0.0
 30
0.0
  9
$PUCSORGFRONT
 10
0.0
 20
0.0
 30
0.0
  9
$PUCSORGBACK
 10
0.0
 20
0.0
 30
0.0
  9
$USERI1
 70
     0
  9
$USERI2
 70
     0
  9
$USERI3
 70
     0
  9
$USERI4
 70
     0
  9
$USERI5
 70
     0
  9
$USERR1
 40
0.0
  9
$USERR2
 40
0.0
  9
$USERR3
 40
0.0
  9
$USERR4
 40
0.0
  9
$USERR5
 40
0.0
  9
$WORLDVIEW
 70
     1
  9
$SHADEDGE
 70
     3
  9
$SHADEDIF
 70
    70
  9
$TILEMODE
 70
     1
  9
$MAXACTVP
 70
    64
  9
$PINSBASE
 10
0.0
 20
0.0
 30
0.0
  9
$PLIMCHECK
 70
     0
  9
$PEXTMIN
 10
1.000000000000000E+20
 20
1.000000000000000E+20
 30
1.000000000000000E+20
  9
$PEXTMAX
 10
-1.000000000000000E+20
 20
-1.000000000000000E+20
 30
-1.000000000000000E+20
  9
$PLIMMIN
 10
0.0
 20
0.0
  9
$PLIMMAX
 10
420.0
 20
297.0
  9
$UNITMODE
 70
     0
  9
$VISRETAIN
 70
     1
  9
$PLINEGEN
 70
     0
  9
$PSLTSCALE
 70
     1
  9
$TREEDEPTH
 70
  3020
  9
$CMLSTYLE
  2
Standard
  9
$CMLJUST
 70
     0
  9
$CMLSCALE
 40
20.0
  9
$PROXYGRAPHICS
 70
     1
  9
$MEASUREMENT
 70
     1
  9
$CELWEIGHT
370
    -1
  9
$ENDCAPS
280
     0
  9
$JOINSTYLE
280
     0
  9
$LWDISPLAY
290
     0
  9
$INSUNITS
 70
     4
  9
$HYPERLINKBASE
  1

  9
$STYLESHEET
  1

  9
$XEDIT
290
     1
  9
$CEPSNTYPE
380
     0
  9
$PSTYLEMODE
290
     1
  9
$FINGERPRINTGUID
  2
{A3477950-F6EC-44A0-8776-592C40033ABE}
  9
$VERSIONGUID
  2
{A911D1F2-A691-43A9-A405-34E9EAE9FCF4}
  9
$EXTNAMES
290
     1
  9
$PSVPSCALE
 40
0.0
  9
$OLESTARTUP
290
     0
  0
ENDSEC
  0
SECTION
  2
CLASSES
  0
CLASS
  1
ACDBDICTIONARYWDFLT
  2
AcDbDictionaryWithDefault
  3
AutoCAD 2000
 90
        0
280
     0
281
     0
  0
CLASS
  1
ACDBPLACEHOLDER
  2
AcDbPlaceHolder
  3
AutoCAD 2000
 90
        0
280
     0
281
     0
  0
CLASS
  1
LAYOUT
  2
AcDbLayout
  3
AutoCAD 2000
 90
        0
280
     0
281
     0
  0
CLASS
  1
DICTIONARYVAR
  2
AcDbDictionaryVar
  3
AutoCAD 2000
 90
        0
280
     0
281
     0
  0
ENDSEC
  0
SECTION
  2
TABLES
  0
TABLE
  2
VPORT
  5
8
330
0
100
AcDbSymbolTable
 70
     2
  0
VPORT
  5
284F
330
8
100
AcDbSymbolTableRecord
100
AcDbViewportTableRecord
  2
*Active
 70
     0
 10
0.0
 20
0.0
 11
1.0
 21
1.0
 12
1861.173419502381
 22
237.1865567475241
 13
0.0
 23
0.0
 14
10.0
 24
10.0
 15
10.0
 25
10.0
 16
0.0
 26
0.0
 36
1.0
 17
0.0
 27
0.0
 37
0.0
 40
898.4622490691979
 41
2.031862745098039
 42
50.0
 43
0.0
 44
0.0
 50
0.0
 51
0.0
 71
     0
 72
   100
 73
     1
 74
     3
 75
     0
 76
     0
 77
     0
 78
     0
281
     0
 65
     1
110
0.0
120
0.0
130
0.0
111
1.0
121
0.0
131
0.0
112
0.0
122
1.0
132
0.0
 79
     0
146
0.0
  0
ENDTAB
  0
TABLE
  2
LTYPE
  5
5
330
0
100
AcDbSymbolTable
 70
     3
  0
LTYPE
  5
14
330
5
100
AcDbSymbolTableRecord
100
AcDbLinetypeTableRecord
  2
ByBlock
 70
     0
  3

 72
    65
 73
     0
 40
0.0
  0
LTYPE
  5
15
330
5
100
AcDbSymbolTableRecord
100
AcDbLinetypeTableRecord
  2
ByLayer
 70
     0
  3

 72
    65
 73
     0
 40
0.0
  0
LTYPE
  5
16
330
5
100
AcDbSymbolTableRecord
100
AcDbLinetypeTableRecord
  2
Continuous
 70
     0
  3
Solid line
 72
    65
 73
     0
 40
0.0
  0
LTYPE
  5
21D6
330
5
100
AcDbSymbolTableRecord
100
AcDbLinetypeTableRecord
  2
DASHED
 70
     0
  3
Dashed __ __ __ __ __ __ __ __ __ __ __ __ __ _
 72
    65
 73
     2
 40
19.04999999999999
 49
12.7
 74
     0
 49
-6.349999999999999
 74
     0
  0
LTYPE
  5
21D7
330
5
100
AcDbSymbolTableRecord
100
AcDbLinetypeTableRecord
  2
IZOLACE
 70
     0
  3
Izolace SSSSSSSSSSSSSSSSSSSSSSSSSSSSSSSSSSSSSSS
 72
    65
 73
     4
 40
10.16253999999999
 49
0.00254
 74
     0
 49
-2.54
 74
     4
 75
   134
340
21DF
 46
2.54
 50
0.0
 44
-2.54
 45
0.0
 49
-5.08
 74
     4
 75
   134
340
21DF
 46
2.54
 50
180.0
 44
2.54
 45
0.0
 49
-2.54
 74
     0
  0
ENDTAB
  0
TABLE
  2
LAYER
  5
2
330
0
100
AcDbSymbolTable
 70
     7
  0
LAYER
  5
10
330
2
100
AcDbSymbolTableRecord
100
AcDbLayerTableRecord
  2
0
 70
     0
 62
     7
  6
Continuous
370
    -3
390
F
  0
LAYER
  5
21D8
330
2
100
AcDbSymbolTableRecord
100
AcDbLayerTableRecord
  2
POPIS
 70
     0
 62
    30
  6
Continuous
370
    -3
390
F
  0
LAYER
  5
21D9
330
2
100
AcDbSymbolTableRecord
100
AcDbLayerTableRecord
  2
SPOJOVACÍ
 70
     0
 62
   180
  6
Continuous
370
    -3
390
F
  0
LAYER
  5
21DA
330
2
100
AcDbSymbolTableRecord
100
AcDbLayerTableRecord
  2
CETRIS
 70
     0
 62
     1
  6
Continuous
370
    -3
390
F
  0
LAYER
  5
21DB
330
2
100
AcDbSymbolTableRecord
100
AcDbLayerTableRecord
  2
izolace
 70
     0
 62
    33
  6
Continuous
370
    -3
390
F
  0
LAYER
  5
21DC
330
2
100
AcDbSymbolTableRecord
100
AcDbLayerTableRecord
  2
nášlap_vrstvy
 70
     0
 62
    73
  6
Continuous
370
    -3
390
F
  0
LAYER
  5
21DD
330
2
100
AcDbSymbolTableRecord
100
AcDbLayerTableRecord
  2
STAVBA OBRYS
 70
     0
 62
     6
  6
Continuous
370
    -3
390
F
  0
ENDTAB
  0
TABLE
  2
STYLE
  5
3
330
0
100
AcDbSymbolTable
 70
     3
  0
STYLE
  5
11
330
3
100
AcDbSymbolTableRecord
100
AcDbTextStyleTableRecord
  2
Standard
 70
     0
 40
0.0
 41
1.0
 50
0.0
 71
     0
 42
2.5
  3
txt
  4

  0
STYLE
  5
21DE
330
3
100
AcDbSymbolTableRecord
100
AcDbTextStyleTableRecord
  2
SIMPLEX7
 70
     0
 40
0.0
 41
0.85
 50
0.0
 71
     0
 42
102.0
  3
ARIAL.TTF
  4

1001
ACAD
1000
Arial CE
1071
    60962
  0
STYLE
  5
21DF
330
3
100
AcDbSymbolTableRecord
100
AcDbTextStyleTableRecord
  2

 70
     1
 40
0.0
 41
1.0
 50
0.0
 71
     0
 42
2.5
  3
ltypeshp.shx
  4

  0
ENDTAB
  0
TABLE
  2
VIEW
  5
6
330
0
100
AcDbSymbolTable
 70
     0
  0
ENDTAB
  0
TABLE
  2
UCS
  5
7
330
0
100
AcDbSymbolTable
 70
     0
  0
ENDTAB
  0
TABLE
  2
APPID
  5
9
330
0
100
AcDbSymbolTable
 70
     1
  0
APPID
  5
12
330
9
100
AcDbSymbolTableRecord
100
AcDbRegAppTableRecord
  2
ACAD
 70
     0
  0
ENDTAB
  0
TABLE
  2
DIMSTYLE
  5
A
330
0
100
AcDbSymbolTable
 70
     1
100
AcDbDimStyleTable
 71
     0
  0
DIMSTYLE
105
27
330
A
100
AcDbSymbolTableRecord
100
AcDbDimStyleTableRecord
  2
ISO-25
 70
     0
 41
2.5
 42
0.625
 43
3.75
 44
1.25
 73
     0
 74
     0
 77
     1
 78
     8
140
2.5
141
2.5
143
0.03937007874016
147
0.625
171
     3
172
     1
271
     2
272
     2
274
     3
278
    44
283
     0
284
     8
340
11
  0
ENDTAB
  0
TABLE
  2
BLOCK_RECORD
  5
1
330
0
100
AcDbSymbolTable
 70
     3
  0
BLOCK_RECORD
  5
1F
330
1
100
AcDbSymbolTableRecord
100
AcDbBlockTableRecord
  2
*Model_Space
340
22
  0
BLOCK_RECORD
  5
1B
330
1
100
AcDbSymbolTableRecord
100
AcDbBlockTableRecord
  2
*Paper_Space
340
1E
  0
BLOCK_RECORD
  5
23
330
1
100
AcDbSymbolTableRecord
100
AcDbBlockTableRecord
  2
*Paper_Space0
340
26
  0
BLOCK_RECORD
  5
21D2
330
1
100
AcDbSymbolTableRecord
100
AcDbBlockTableRecord
  2
E_PUNKT
340
0
102
{BLKREFS
331
250D
331
25AB
331
25B3
331
25C3
331
26B9
331
26C1
331
26CB
331
26DC
331
26E0
102
}
  0
BLOCK_RECORD
  5
281E
330
1
100
AcDbSymbolTableRecord
100
AcDbBlockTableRecord
  2
A$C3DB5189F
340
0
  0
ENDTAB
  0
ENDSEC
  0
SECTION
  2
BLOCKS
  0
BLOCK
  5
20
330
1F
100
AcDbEntity
  8
0
100
AcDbBlockBegin
  2
*Model_Space
 70
     0
 10
0.0
 20
0.0
 30
0.0
  3
*Model_Space
  1

  0
ENDBLK
  5
21
330
1F
100
AcDbEntity
  8
0
100
AcDbBlockEnd
  0
BLOCK
  5
1C
330
1B
100
AcDbEntity
 67
     1
  8
0
100
AcDbBlockBegin
  2
*Paper_Space
 70
     0
 10
0.0
 20
0.0
 30
0.0
  3
*Paper_Space
  1

  0
ENDBLK
  5
1D
330
1B
100
AcDbEntity
 67
     1
  8
0
100
AcDbBlockEnd
  0
BLOCK
  5
24
330
23
100
AcDbEntity
  8
0
100
AcDbBlockBegin
  2
*Paper_Space0
 70
     0
 10
0.0
 20
0.0
 30
0.0
  3
*Paper_Space0
  1

  0
ENDBLK
  5
25
330
23
100
AcDbEntity
  8
0
100
AcDbBlockEnd
  0
BLOCK
  5
21D4
330
21D2
100
AcDbEntity
  8
0
100
AcDbBlockBegin
  2
E_PUNKT
 70
     0
 10
0.0
 20
0.0
 30
0.0
  3
E_PUNKT
  1

  0
LWPOLYLINE
  5
21D3
330
21D2
100
AcDbEntity
  8
POPIS
100
AcDbPolyline
 90
        2
 70
     1
 43
2.5
 10
1.27761037562675
 20
0.0290683308725193
 42
-1.0
 10
-1.222389624373249
 20
0.0290683308725193
 42
-1.0
  0
ENDBLK
  5
21D5
330
21D2
100
AcDbEntity
  8
0
100
AcDbBlockEnd
  0
BLOCK
  5
283B
330
281E
100
AcDbEntity
  8
0
100
AcDbBlockBegin
  2
A$C3DB5189F
 70
     0
 10
0.0
 20
0.0
 30
0.0
  3
A$C3DB5189F
  1

  0
TEXT
  5
281F
330
281E
100
AcDbEntity
  8
POPIS
100
AcDbText
 10
24.621998141728
 20
50.49620800855035
 30
0.0
 40
25.0
  1
Poznámka : při užití produktů od firmy MBT Stavbení hmoty se doporučuje spoje desek překrýt armovací tkaninou
 41
0.7
  7
SIMPLEX7
100
AcDbText
  0
TEXT
  5
2820
330
281E
100
AcDbEntity
  8
POPIS
100
AcDbText
 10
610.6871436106921
 20
222.1292098586646
 30
0.0
 40
25.0
  1
systém SCHŐNOX
 41
0.7
 51
10.0
  7
SIMPLEX7
100
AcDbText
  0
TEXT
  5
2821
330
281E
100
AcDbEntity
  8
POPIS
100
AcDbText
 10
589.0946657915418
 20
136.9366471912172
 30
0.0
 40
25.0
  1
SCHŐNOX SuperPlan
 41
0.7
  7
SIMPLEX7
100
AcDbText
  0
TEXT
  5
2822
330
281E
100
AcDbEntity
  8
POPIS
100
AcDbText
 10
620.8575751699572
 20
181.2231430441016
 30
0.0
 40
25.0
  1
SCHŐNOX Unitech
 41
0.63
  7
SIMPLEX7
100
AcDbText
  0
TEXT
  5
2823
330
281E
100
AcDbEntity
  8
POPIS
100
AcDbText
 10
640.9635322545626
 20
95.32629728489968
 30
0.0
 40
25.0
  1
SCHŐNOX KH
 41
0.7
  7
SIMPLEX7
100
AcDbText
  0
LINE
  5
2824
330
281E
100
AcDbEntity
  8
POPIS
100
AcDbLine
 10
25.17271375846309
 20
257.7590890178121
 30
0.0
 11
1272.731989889987
 21
257.7590890178121
 31
0.0
  0
LINE
  5
2825
330
281E
100
AcDbEntity
  8
POPIS
100
AcDbLine
 10
25.17271375846309
 20
170.7653786365386
 30
0.0
 11
1272.731989889987
 21
170.7653786365386
 31
0.0
  0
LINE
  5
2826
330
281E
100
AcDbEntity
  8
POPIS
100
AcDbLine
 10
25.17271375846309
 20
130.8932714550479
 30
0.0
 11
1272.731989889987
 21
130.8932714550479
 31
0.0
  0
LINE
  5
2827
330
281E
100
AcDbEntity
  8
POPIS
100
AcDbLine
 10
25.17271375846309
 20
86.4902375066099
 30
0.0
 11
1272.731989889987
 21
86.4902375066099
 31
0.0
  0
LINE
  5
2828
330
281E
100
AcDbEntity
  8
POPIS
100
AcDbLine
 10
25.17271375846309
 20
212.4498653189271
 30
0.0
 11
1272.731989889987
 21
212.4498653189271
 31
0.0
  0
TEXT
  5
2829
330
281E
100
AcDbEntity
  8
POPIS
100
AcDbText
 10
24.621998141728
 20
11.28814640768933
 30
0.0
 40
25.0
  1
šíře 300 mm a přikotvit k podkladu.
 41
0.7
  7
SIMPLEX7
100
AcDbText
  0
TEXT
  5
282A
330
281E
100
AcDbEntity
  8
POPIS
100
AcDbText
 10
33.52819278541676
 20
269.6370946323996
 30
0.0
 40
25.0
  1
DOPORUČENÉ PRODUKTY
 41
0.7
  7
SIMPLEX7
100
AcDbText
  0
TEXT
  5
282B
330
281E
100
AcDbEntity
  8
POPIS
100
AcDbText
 10
74.7065892717884
 20
181.2231430441016
 30
0.0
 40
25.0
  1
Lepidlo
 41
0.7
  7
SIMPLEX7
100
AcDbText
  0
LINE
  5
282C
330
281E
100
AcDbEntity
  8
POPIS
100
AcDbLine
 10
217.3887071837845
 20
257.7590890178121
 30
0.0
 11
217.3887071837845
 21
86.4902375066099
 31
0.0
  0
LINE
  5
282D
330
281E
100
AcDbEntity
  8
POPIS
100
AcDbLine
 10
25.17271375846309
 20
257.7590890178121
 30
0.0
 11
25.17271375846309
 21
86.4902375066099
 31
0.0
  0
TEXT
  5
282E
330
281E
100
AcDbEntity
  8
POPIS
100
AcDbText
 10
33.52819278541676
 20
141.6325296012683
 30
0.0
 40
25.0
  1
Nivelační stěrka
 41
0.7
  7
SIMPLEX7
100
AcDbText
  0
TEXT
  5
282F
330
281E
100
AcDbEntity
  8
POPIS
100
AcDbText
 10
63.87014981616909
 20
100.0221796949509
 30
0.0
 40
25.0
  1
Penetrace 
 41
0.7
  7
SIMPLEX7
100
AcDbText
  0
TEXT
  5
2830
330
281E
100
AcDbEntity
  8
POPIS
100
AcDbText
 10
71.81689656528499
 20
222.1292098586646
 30
0.0
 40
25.0
  1
Produkt
 41
0.7
 51
10.0
  7
SIMPLEX7
100
AcDbText
  0
TEXT
  5
2831
330
281E
100
AcDbEntity
  8
POPIS
100
AcDbText
 10
308.8626244778426
 20
181.2231430441016
 30
0.0
 40
25.0
  1
ROLLCOLL
 41
0.6
  7
SIMPLEX7
100
AcDbText
  0
LINE
  5
2832
330
281E
100
AcDbEntity
  8
POPIS
100
AcDbLine
 10
542.2269289566147
 20
257.7590890178121
 30
0.0
 11
542.2269289566147
 21
86.4902375066099
 31
0.0
  0
TEXT
  5
2833
330
281E
100
AcDbEntity
  8
POPIS
100
AcDbText
 10
293.3892887601397
 20
141.6325296012683
 30
0.0
 40
25.0
  1
FIBERPLAN
 41
0.7
  7
SIMPLEX7
100
AcDbText
  0
TEXT
  5
2834
330
281E
100
AcDbEntity
  8
POPIS
100
AcDbText
 10
296.5178069877767
 20
97.61952762727657
 30
0.0
 40
25.0
  1
MAPEPRIM SP
 41
0.7
  7
SIMPLEX7
100
AcDbText
  0
TEXT
  5
2835
330
281E
100
AcDbEntity
  8
POPIS
100
AcDbText
 10
291.0424465366196
 20
222.1292098586646
 30
0.0
 40
25.0
  1
systém MAPEI
 41
0.7
 51
10.0
  7
SIMPLEX7
100
AcDbText
  0
TEXT
  5
2836
330
281E
100
AcDbEntity
  8
POPIS
100
AcDbText
 10
917.0674558770324
 20
222.1292098586646
 30
0.0
 40
25.0
  1
systém MBT Stavební hmoty
 41
0.7
 51
10.0
  7
SIMPLEX7
100
AcDbText
  0
TEXT
  5
2837
330
281E
100
AcDbEntity
  8
POPIS
100
AcDbText
 10
988.4311174491903
 20
136.9366471912172
 30
0.0
 40
25.0
  1
Mastertop 515
 41
0.7
  7
SIMPLEX7
100
AcDbText
  0
TEXT
  5
2838
330
281E
100
AcDbEntity
  8
POPIS
100
AcDbText
 10
976.2635305727281
 20
95.32629728489968
 30
0.0
 40
25.0
  1
Penetrace PGM
 41
0.7
  7
SIMPLEX7
100
AcDbText
  0
LINE
  5
2839
330
281E
100
AcDbEntity
  8
POPIS
100
AcDbLine
 10
891.9867679728641
 20
257.7590890178121
 30
0.0
 11
891.9867679728641
 21
86.4902375066099
 31
0.0
  0
LINE
  5
283A
330
281E
100
AcDbEntity
  8
POPIS
100
AcDbLine
 10
1272.731989889986
 20
257.7590890178121
 30
0.0
 11
1272.731989889986
 21
86.4902375066099
 31
0.0
  0
ENDBLK
  5
283C
330
281E
100
AcDbEntity
  8
0
100
AcDbBlockEnd
  0
ENDSEC
  0
SECTION
  2
ENTITIES
  0
TEXT
  5
24BF
330
1F
100
AcDbEntity
  8
POPIS
100
AcDbText
 10
2257.347531253173
 20
223.0835716310867
 30
0.0
 40
25.0
  1
nutno přidat hydroizolaci
 41
0.7
  7
SIMPLEX7
100
AcDbText
  0
TEXT
  5
24C0
330
1F
100
AcDbEntity
  8
POPIS
100
AcDbText
 10
2257.347531253173
 20
258.8412083242802
 30
0.0
 40
25.0
  1
Lepící tmel (do prostor namáhaných vodou
 41
0.7
  7
SIMPLEX7
100
AcDbText
  0
TEXT
  5
24CC
330
1F
100
AcDbEntity
  8
POPIS
100
AcDbText
 10
2257.879185144611
 20
369.2651761749349
 30
0.0
 40
25.0
  1
Keramický soklík (profil Schlűter DILEX-HKW)
 41
0.7
  7
SIMPLEX7
100
AcDbText
  0
TEXT
  5
24CD
330
1F
100
AcDbEntity
  8
POPIS
100
AcDbText
 10
2257.879185144611
 20
49.39518471581322
 30
0.0
 40
25.0
  1
Stropní konstrukce
 41
0.7
  7
SIMPLEX7
100
AcDbText
  0
TEXT
  5
24CE
330
1F
100
AcDbEntity
  8
POPIS
100
AcDbText
 10
2257.879185144611
 20
82.3301804522107
 30
0.0
 40
25.0
  1
Dilatační spára tl. 15 mm
 41
0.7
  7
SIMPLEX7
100
AcDbText
  0
TEXT
  5
24CF
330
1F
100
AcDbEntity
  8
POPIS
100
AcDbText
 10
2257.879185144611
 20
149.6616879704033
 30
0.0
 40
25.0
  1
Podlahová deska CETRIS    PD
 41
0.7
  7
SIMPLEX7
100
AcDbText
  0
TEXT
  5
24D0
330
1F
100
AcDbEntity
  8
POPIS
100
AcDbText
 10
2257.879185144611
 20
294.9515963514678
 30
0.0
 40
25.0
  1
Keramická dlažba
 41
0.7
  7
SIMPLEX7
100
AcDbText
  0
LINE
  5
24D1
330
1F
100
AcDbEntity
  8
STAVBA OBRYS
100
AcDbLine
 10
1198.957831739222
 20
177.4694217234655
 30
0.0
 11
2147.780307350618
 21
177.4694217234646
 31
0.0
  0
LINE
  5
24D2
330
1F
100
AcDbEntity
  8
STAVBA OBRYS
100
AcDbLine
 10
1438.03842756772
 20
-36.14226836104353
 30
0.0
 11
1198.957831739225
 21
-36.14226836104444
 31
0.0
  0
TEXT
  5
24D3
330
1F
100
AcDbEntity
  8
POPIS
100
AcDbText
 10
1179.695578134378
 20
539.4323667506705
 30
0.0
 40
35.0
  1
SVISLÝ ŘEZ
 41
0.85
  7
SIMPLEX7
100
AcDbText
  0
TEXT
  5
24D4
330
1F
100
AcDbEntity
  8
POPIS
100
AcDbText
 10
1179.695578134378
 20
594.0571097764713
 30
0.0
 40
50.0
  1
Podlahová krytina - keramická dlažba
 41
0.85
  7
SIMPLEX7
100
AcDbText
  0
HATCH
  5
24D5
330
1F
100
AcDbEntity
  8
STAVBA OBRYS
100
AcDbHatch
 10
0.0
 20
0.0
 30
0.0
210
0.0
220
0.0
230
1.0
  2
AR-CONC
 70
     0
 71
     0
 91
        2
 92
        7
 72
     0
 73
     1
 93
        4
 10
1448.03842756772
 20
452.8903017252142
 10
1438.03842756772
 20
452.8903017252142
 10
1438.03842756772
 20
204.9008504414105
 10
1448.03842756772
 20
200.0187911472176
 97
        0
 92
        7
 72
     0
 73
     1
 93
        4
 10
1198.957831739225
 20
452.8903017252114
 10
1188.957831739221
 20
452.8903017252106
 10
1188.957831739225
 20
-142.8849172658627
 10
1198.957831739225
 20
-142.3986653311647
 97
        0
 75
     0
 76
     1
 52
90.0
 41
0.1
 77
     0
 78
    13
 53
140.0
 43
-26249.35303955847
 44
3104.188651718258
 45
1.593908553890309
 46
18.2184668996004
 79
     2
 49
1.905
 49
-20.955
 53
85.00000000000001
 43
-26249.35303955847
 44
3104.188651718258
 45
-19.10566428821799
 46
-3.524282597566697
 79
     2
 49
1.524
 49
-16.764
 53
190.4509999999999
 43
-26249.22021455847
 44
3105.706851718258
 45
-17.51166878202918
 46
14.69425016659592
 79
     2
 49
1.619
 49
-17.809
 53
136.1841999999999
 43
-26254.43303955846
 44
3104.188651718258
 45
4.204232793272717
 46
27.10790408921299
 79
     2
 49
2.857499999999999
 49
-31.4325
 53
186.6355999999999
 43
-26254.08268955847
 44
3106.447641718258
 45
-24.74255558900492
 46
23.74042344662371
 79
     2
 49
2.4285
 49
-26.7135
 53
81.18400000000004
 43
-26254.43303955846
 44
3104.188651718258
 45
-24.74251178605976
 46
23.74046058139339
 79
     2
 49
2.286
 49
-25.146
 53
111.0
 43
-26253.16303955847
 44
3106.728651718258
 45
10.22655185167625
 46
15.16148798353833
 79
     2
 49
1.905
 49
-20.955
 53
56.00000000000004
 43
-26253.16303955847
 44
3106.728651718258
 45
-18.41879661223192
 46
6.180202834764708
 79
     2
 49
1.524
 49
-16.764
 53
161.4514
 43
-26252.31082955847
 44
3107.992101718257
 45
-8.192285771605742
 46
21.34164907701245
 79
     2
 49
1.618999999999997
 49
-17.80899999999995
 53
127.5
 43
-26249.35303955847
 44
3104.188651718258
 45
-8.455503887315311
 46
0.3088603250591822
 79
     6
 49
0.0
 49
-16.5608
 49
0.0
 49
-17.018
 49
0.0
 49
-16.8275
 53
97.49999999999985
 43
-26249.35303955847
 44
3104.188651718258
 45
-10.01805748181195
 46
6.681966251030575
 79
     6
 49
0.0
 49
-9.702799999999998
 49
0.0
 49
-16.17979999999999
 49
0.0
 49
-6.413499999999999
 53
57.5
 43
-26249.35303955847
 44
3098.524451718258
 45
0.5728743992673473
 46
13.55905951668713
 79
     6
 49
0.0
 49
-6.35
 49
0.0
 49
-19.812
 49
0.0
 49
-26.289
 53
47.5
 43
-26249.35303955847
 44
3095.984451718257
 45
-2.5426491033333
 46
14.8129181386018
 79
     6
 49
0.0
 49
-8.255
 49
0.0
 49
-13.1572
 49
0.0
 49
-18.669
 47
1.255134839913078
 98
        2
 10
1441.921049343418
 20
301.4582460325219
 10
1194.507634009463
 20
249.9977063651568
  0
HATCH
  5
24D6
330
1F
100
AcDbEntity
  8
STAVBA OBRYS
100
AcDbHatch
 10
0.0
 20
0.0
 30
0.0
210
0.0
220
0.0
230
1.0
  2
BRICK
 70
     0
 71
     0
 91
        3
 92
        7
 72
     0
 73
     1
 93
        4
 10
1438.03842756772
 20
452.8903017252142
 10
1198.957831739225
 20
452.8903017252114
 10
1198.957831739225
 20
177.4694217234664
 10
1438.038427567727
 20
177.4694217234664
 97
        0
 92
        7
 72
     0
 73
     1
 93
        4
 10
1438.03842756772
 20
-36.14226836104347
 10
1198.957831739225
 20
-36.14226836104165
 10
1198.957831739225
 20
-142.3986653311638
 10
1438.038427567724
 20
-130.7733251041381
 97
        0
 92
       24
 93
        4
 72
     1
 10
1336.902223063254
 20
214.2786987221125
 11
1377.733652121921
 21
214.2786987221125
 72
     1
 10
1377.733652121921
 20
214.2786987221125
 11
1377.733652121921
 21
252.5716728012394
 72
     1
 10
1377.733652121921
 20
252.5716728012394
 11
1336.902223063254
 21
252.5716728012394
 72
     1
 10
1336.902223063254
 20
252.5716728012394
 11
1336.902223063254
 21
214.2786987221134
 97
        0
 75
     0
 76
     1
 52
0.0
 41
10.0
 77
     0
 78
     3
 53
0.0
 43
-26249.35303955847
 44
3104.188651718258
 45
0.0
 46
63.5
 79
     0
 53
90.0
 43
-26249.35303955847
 44
3104.188651718258
 45
-127.0
 46
0.0000000000000078
 79
     2
 49
63.5
 49
-63.5
 53
90.0
 43
-26185.85303955847
 44
3104.188651718258
 45
-127.0
 46
0.0000000000000078
 79
     2
 49
-63.5
 49
63.5
 47
3.017070218097292
 98
        2
 10
1362.146499874313
 20
309.5894725110411
 10
1331.957262488332
 20
-85.64672834564765
  0
LINE
  5
24D7
330
1F
100
AcDbEntity
  8
STAVBA OBRYS
100
AcDbLine
 10
1198.957831739225
 20
-142.8849172658629
 30
0.0
 11
1198.957831739222
 21
452.8903017252114
 31
0.0
  0
LINE
  5
24D8
330
1F
100
AcDbEntity
  8
STAVBA OBRYS
100
AcDbLine
 10
1188.957831739225
 20
-142.8849172658629
 30
0.0
 11
1188.957831739221
 21
452.8903017252114
 31
0.0
  0
LINE
  5
24D9
330
1F
100
AcDbEntity
  8
izolace
  6
IZOLACE
 48
2.1
100
AcDbLine
 10
1221.338545843991
 20
-36.14226836104353
 30
0.0
 11
1221.338545843991
 21
177.4694217234646
 31
0.0
  0
LINE
  5
24DA
330
1F
100
AcDbEntity
  8
STAVBA OBRYS
100
AcDbLine
 10
1242.659043771348
 20
-36.14226836104353
 30
0.0
 11
1242.659043771348
 21
177.4694217234646
 31
0.0
  0
HATCH
  5
24E0
330
1F
100
AcDbEntity
  8
STAVBA OBRYS
100
AcDbHatch
 10
0.0
 20
0.0
 30
0.0
210
0.0
220
0.0
230
1.0
  2
AR-CONC
 70
     0
 71
     0
 91
        1
 92
        7
 72
     0
 73
     1
 93
        6
 10
2147.780307350618
 20
57.46942172346468
 10
1438.038427567724
 20
57.46942172346559
 10
1438.038427567716
 20
-130.7733251041371
 10
1448.038427567713
 20
-130.2870731694401
 10
1448.03842756772
 20
47.46942172346467
 10
2147.780307350618
 20
47.46942172346467
 97
        0
 75
     0
 76
     1
 52
90.0
 41
0.1
 77
     0
 78
    13
 53
140.0
 43
-26249.35303955847
 44
3104.188651718258
 45
1.593908553890309
 46
18.2184668996004
 79
     2
 49
1.905
 49
-20.955
 53
85.00000000000001
 43
-26249.35303955847
 44
3104.188651718258
 45
-19.10566428821799
 46
-3.524282597566697
 79
     2
 49
1.524
 49
-16.764
 53
190.4509999999999
 43
-26249.22021455847
 44
3105.706851718258
 45
-17.51166878202918
 46
14.69425016659592
 79
     2
 49
1.619
 49
-17.809
 53
136.1841999999999
 43
-26254.43303955846
 44
3104.188651718258
 45
4.204232793272717
 46
27.10790408921299
 79
     2
 49
2.857499999999999
 49
-31.4325
 53
186.6355999999999
 43
-26254.08268955847
 44
3106.447641718258
 45
-24.74255558900492
 46
23.74042344662371
 79
     2
 49
2.4285
 49
-26.7135
 53
81.18400000000004
 43
-26254.43303955846
 44
3104.188651718258
 45
-24.74251178605976
 46
23.74046058139339
 79
     2
 49
2.286
 49
-25.146
 53
111.0
 43
-26253.16303955847
 44
3106.728651718258
 45
10.22655185167625
 46
15.16148798353833
 79
     2
 49
1.905
 49
-20.955
 53
56.00000000000004
 43
-26253.16303955847
 44
3106.728651718258
 45
-18.41879661223192
 46
6.180202834764708
 79
     2
 49
1.524
 49
-16.764
 53
161.4514
 43
-26252.31082955847
 44
3107.992101718257
 45
-8.192285771605742
 46
21.34164907701245
 79
     2
 49
1.618999999999997
 49
-17.80899999999995
 53
127.5
 43
-26249.35303955847
 44
3104.188651718258
 45
-8.455503887315311
 46
0.3088603250591822
 79
     6
 49
0.0
 49
-16.5608
 49
0.0
 49
-17.018
 49
0.0
 49
-16.8275
 53
97.49999999999985
 43
-26249.35303955847
 44
3104.188651718258
 45
-10.01805748181195
 46
6.681966251030575
 79
     6
 49
0.0
 49
-9.702799999999998
 49
0.0
 49
-16.17979999999999
 49
0.0
 49
-6.413499999999999
 53
57.5
 43
-26249.35303955847
 44
3098.524451718258
 45
0.5728743992673473
 46
13.55905951668713
 79
     6
 49
0.0
 49
-6.35
 49
0.0
 49
-19.812
 49
0.0
 49
-26.289
 53
47.5
 43
-26249.35303955847
 44
3095.984451718257
 45
-2.5426491033333
 46
14.8129181386018
 79
     6
 49
0.0
 49
-8.255
 49
0.0
 49
-13.1572
 49
0.0
 49
-18.669
 47
1.255134839913078
 98
        1
 10
1621.636775979571
 20
53.79724814283696
  0
LINE
  5
24E1
330
1F
100
AcDbEntity
  8
STAVBA OBRYS
100
AcDbLine
 10
1438.03842756772
 20
57.46942172346462
 30
0.0
 11
1438.03842756772
 21
-130.2870731694401
 31
0.0
  0
LINE
  5
24E2
330
1F
100
AcDbEntity
  8
STAVBA OBRYS
100
AcDbLine
 10
1448.038427567716
 20
47.46942172346462
 30
0.0
 11
1448.038427567716
 21
-130.2870731694401
 31
0.0
  0
HATCH
  5
24EC
330
1F
100
AcDbEntity
  8
nášlap_vrstvy
100
AcDbHatch
 10
0.0
 20
0.0
 30
0.0
210
0.0
220
0.0
230
1.0
  2
AR-CONC
 70
     0
 71
     0
 91
        5
 92
        7
 72
     0
 73
     1
 93
        7
 10
1991.274622221979
 20
252.830293899644
 10
1991.274622221981
 20
248.9694217234646
 10
1998.864095492768
 20
248.9694217234646
 10
2147.780307350621
 20
248.9694217234646
 10
2147.780307350618
 20
252.830293899644
 10
2101.336077522409
 20
252.830293899644
 10
2096.694154276115
 20
252.830293899644
 97
        0
 92
        7
 72
     0
 73
     1
 93
        7
 10
1942.186106757692
 20
252.830293899644
 10
1942.186106757693
 20
248.9694217234646
 10
1951.580630073097
 20
248.9694217234646
 10
1991.274622221979
 20
248.9694217234646
 10
1991.274622221979
 20
252.830293899644
 10
1971.694154276115
 20
252.830293899644
 10
1967.052231029821
 20
252.830293899644
 97
        0
 92
        7
 72
     0
 73
     1
 93
        4
 10
1867.082136579461
 20
252.830293899644
 10
1867.08213657946
 20
248.9694217234646
 10
1942.186106757692
 20
248.9694217234646
 10
1942.186106757692
 20
252.830293899644
 97
        0
 92
        7
 72
     1
 73
     1
 93
        8
 10
1802.799093798421
 20
252.830293899644
 42
0.0
 10
1802.799093798421
 20
249.5141584852246
 42
-0.2477181387930647
 10
1803.831132443426
 20
248.9694217234646
 42
0.0
 10
1809.730233814086
 20
248.9694217234646
 42
0.0
 10
1867.082136579462
 20
248.9694217234646
 42
0.0
 10
1867.082136579462
 20
252.830293899644
 42
0.0
 10
1842.052231029821
 20
252.830293899644
 42
0.0
 10
1837.410307783527
 20
252.830293899644
 42
0.0
 97
        0
 92
        7
 72
     1
 73
     1
 93
       14
 10
1712.410307783527
 20
252.830293899644
 42
0.0
 10
1453.126461290939
 20
252.830293899644
 42
0.0
 10
1453.126461290939
 20
259.0802938996208
 42
0.0
 10
1453.201902671552
 20
261.9262027548876
 42
0.0
 10
1453.201902671552
 20
269.0330994041315
 42
-1.007553482924964
 10
1453.201902671553
 20
271.5330286219225
 42
0.0
 10
1453.201902671553
 20
301.9232330690939
 42
0.0
 10
1448.038427567718
 20
301.9232330690948
 42
0.0
 10
1448.03842756772
 20
248.9694217234646
 42
0.0
 10
1459.859293922636
 20
248.9694217234646
 42
0.0
 10
1797.909367459171
 20
248.9694217234646
 42
0.0
 10
1801.767055153412
 20
248.9694217234646
 42
-0.2477181387936438
 10
1802.799093798421
 20
249.5141584852246
 42
0.0
 10
1802.799093798421
 20
252.830293899644
 42
0.0
 97
        0
 75
     0
 76
     1
 52
90.0
 41
0.1
 77
     0
 78
    13
 53
140.0
 43
-5232.962341003046
 44
640.8966554228887
 45
1.593908553890309
 46
18.2184668996004
 79
     2
 49
1.905
 49
-20.955
 53
85.00000000000001
 43
-5232.962341003046
 44
640.8966554228887
 45
-19.10566428821799
 46
-3.524282597566697
 79
     2
 49
1.524
 49
-16.764
 53
190.4509999999999
 43
-5232.829516003047
 44
642.4148554228886
 45
-17.51166878202918
 46
14.69425016659592
 79
     2
 49
1.619
 49
-17.809
 53
136.1841999999999
 43
-5238.042341003046
 44
640.8966554228887
 45
4.204232793272717
 46
27.10790408921299
 79
     2
 49
2.857499999999999
 49
-31.4325
 53
186.6355999999999
 43
-5237.691991003046
 44
643.1556454228886
 45
-24.74255558900492
 46
23.74042344662371
 79
     2
 49
2.4285
 49
-26.7135
 53
81.18400000000004
 43
-5238.042341003046
 44
640.8966554228887
 45
-24.74251178605976
 46
23.74046058139339
 79
     2
 49
2.286
 49
-25.146
 53
111.0
 43
-5236.772341003046
 44
643.4366554228886
 45
10.22655185167625
 46
15.16148798353833
 79
     2
 49
1.905
 49
-20.955
 53
56.00000000000004
 43
-5236.772341003046
 44
643.4366554228886
 45
-18.41879661223192
 46
6.180202834764708
 79
     2
 49
1.524
 49
-16.764
 53
161.4514
 43
-5235.920131003047
 44
644.7001054228888
 45
-8.192285771605742
 46
21.34164907701245
 79
     2
 49
1.618999999999999
 49
-17.80899999999999
 53
127.5
 43
-5232.962341003046
 44
640.8966554228887
 45
-8.455503887315311
 46
0.3088603250591822
 79
     6
 49
0.0
 49
-16.5608
 49
0.0
 49
-17.018
 49
0.0
 49
-16.8275
 53
97.49999999999998
 43
-5232.962341003046
 44
640.8966554228887
 45
-10.01805748181195
 46
6.681966251030575
 79
     6
 49
0.0
 49
-9.702799999999999
 49
0.0
 49
-16.1798
 49
0.0
 49
-6.4135
 53
57.5
 43
-5232.962341003046
 44
635.2324554228887
 45
0.5728743992673473
 46
13.55905951668713
 79
     6
 49
0.0
 49
-6.35
 49
0.0
 49
-19.812
 49
0.0
 49
-26.289
 53
47.5
 43
-5232.962341003046
 44
632.6924554228887
 45
-2.5426491033333
 46
14.8129181386018
 79
     6
 49
0.0
 49
-8.255
 49
0.0
 49
-13.1572
 49
0.0
 49
-18.669
 47
0.7604686790100845
 98
        5
 10
2049.335952782219
 20
251.0821229297039
 10
1954.225452347347
 20
251.0821229297039
 10
1926.833638115674
 20
251.0821229297039
 10
1823.353429157448
 20
251.0821229297039
 10
1766.287140139219
 20
251.0821229297039
  0
LINE
  5
24ED
330
1F
100
AcDbEntity
  8
CETRIS
100
AcDbLine
 10
1463.038427567713
 20
247.4694217234651
 30
0.0
 11
2147.780307350614
 21
247.4694217234651
 31
0.0
  0
LINE
  5
24EE
330
1F
100
AcDbEntity
  8
izolace
100
AcDbLine
 10
1816.09201892609
 20
185.1275589972615
 30
0.0
 11
2044.145610284467
 21
185.1275589972615
 31
0.0
  0
LINE
  5
24EF
330
1F
100
AcDbEntity
  8
izolace
100
AcDbLine
 10
1816.09201892609
 20
215.7670210322908
 30
0.0
 11
2044.145610284467
 21
215.7670210322908
 31
0.0
  0
LINE
  5
24F0
330
1F
100
AcDbEntity
  8
izolace
  6
IZOLACE
 48
1.5
100
AcDbLine
 10
1816.09201892609
 20
200.4694217234651
 30
0.0
 11
2044.145610284467
 21
200.4694217234651
 31
0.0
  0
HATCH
  5
24F1
330
1F
100
AcDbEntity
  8
CETRIS
100
AcDbHatch
 10
0.0
 20
0.0
 30
0.0
210
0.0
220
0.0
230
1.0
  2
ANSI31
 70
     0
 71
     0
 91
        6
 92
        7
 72
     0
 73
     1
 93
       37
 10
1895.303791943523
 20
247.4694217234651
 10
1794.01450549134
 20
247.4694217234651
 10
1794.014505491339
 20
246.2934934822683
 10
1793.313506408896
 20
245.9635043171416
 10
1792.101115276176
 20
245.0637824769096
 10
1791.162195827589
 20
243.8805616576678
 10
1790.561469695425
 20
242.4949717921613
 10
1790.339046062359
 20
241.0018163978034
 10
1790.339046062359
 20
238.7877651833183
 10
1790.998112818819
 20
238.5661562601494
 10
1791.368211162346
 20
238.3519367743634
 10
1790.998112818819
 20
237.9818384286996
 10
1790.339046062359
 20
238.203447351913
 10
1790.339046062359
 20
235.7451173798668
 10
1790.998112818823
 20
235.523508456698
 10
1791.368211162346
 20
235.3092889709119
 10
1790.998112818819
 20
234.9391906252463
 10
1790.339046062359
 20
235.1607995484605
 10
1790.339046062359
 20
232.6875523737831
 10
1790.998112818812
 20
232.4660950298462
 10
1791.368211162346
 20
232.2518755440583
 10
1790.998112818819
 20
231.8817771986646
 10
1790.33904606236
 20
232.1032345425579
 10
1790.33904606236
 20
229.6450561498336
 10
1790.998112818817
 20
229.4234472266631
 10
1791.368211162345
 20
229.2092277408788
 10
1790.998112818819
 20
228.8391293952132
 10
1790.339046062359
 20
229.0607383184274
 10
1790.339046062359
 20
226.587491143749
 10
1790.99811281882
 20
226.3660337998095
 10
1791.368211162345
 20
226.1518143140234
 10
1790.998112818819
 20
225.7817159686288
 10
1790.33904606236
 20
226.0031733125229
 10
1790.339046062359
 20
223.5293177242033
 10
1790.517177260182
 20
223.4694217234642
 10
1816.09201892609
 20
223.4694217234642
 10
1895.303791943522
 20
223.4694217234651
 97
        0
 92
        7
 72
     0
 73
     1
 93
       44
 10
1787.693663302877
 20
236.0503003753042
 10
1787.034596546414
 20
236.2719092985176
 10
1786.664498198614
 20
236.4852172118449
 10
1787.034596546418
 20
236.8562271296983
 10
1787.693663302877
 20
236.6346182065304
 10
1787.693663302877
 20
239.0929481787557
 10
1787.034596546414
 20
239.3145571019691
 10
1786.664498198612
 20
239.5278650152964
 10
1787.034596546418
 20
239.8988749331507
 10
1787.693663302877
 20
239.6772660099828
 10
1787.661302486735
 20
241.3874114721134
 10
1787.628941670594
 20
241.7730065464543
 10
1787.209618423582
 20
243.2242296161653
 10
1786.429312553847
 20
244.5168391089014
 10
1785.340895251496
 20
245.5642356585263
 10
1784.018203869618
 20
246.2934934822693
 10
1784.018203869618
 20
247.4694217234651
 10
1766.09201892609
 20
247.4694217234651
 10
1766.09201892609
 20
239.4694217234651
 10
1756.09201892609
 20
239.4694217234651
 10
1756.09201892609
 20
231.4694217234651
 10
1766.09201892609
 20
231.4694217234651
 10
1766.092018926089
 20
223.4694217234642
 10
1787.693663302877
 20
223.4694217234642
 10
1787.693663302877
 20
223.8345007194198
 10
1787.034596546421
 20
224.0561096425877
 10
1786.664498198612
 20
224.2703291283756
 10
1787.034596546418
 20
224.6404274740394
 10
1787.693663302877
 20
224.4188185508724
 10
1787.693663302877
 20
226.8920657255508
 10
1787.034596546425
 20
227.1135230694395
 10
1786.664498198613
 20
227.3277425552292
 10
1787.034596546417
 20
227.6978409008939
 10
1787.693663302877
 20
227.4763835569561
 10
1787.693663302877
 20
229.9502391452693
 10
1787.034596546417
 20
230.1718480684836
 10
1786.664498198613
 20
230.3851559818099
 10
1787.034596546418
 20
230.7561658996642
 10
1787.693663302877
 20
230.5345569764972
 10
1787.693663302877
 20
232.9921269555839
 10
1787.03459654642
 20
233.2135842994753
 10
1786.664498198613
 20
233.4278037852623
 10
1787.034596546418
 20
233.7979021309279
 10
1787.693663302877
 20
233.5764447869901
 97
        0
 92
        7
 72
     0
 73
     1
 93
        4
 10
1942.18610675769
 20
247.469421723466
 10
1895.303791943522
 20
247.469421723466
 10
1895.303791943521
 20
223.4694217234651
 10
1942.18610675769
 20
223.469421723466
 97
        0
 92
        7
 72
     0
 73
     1
 93
        4
 10
1991.274622221978
 20
247.469421723466
 10
1942.18610675769
 20
247.469421723466
 10
1942.18610675769
 20
223.4694217234642
 10
1991.274622221978
 20
223.4694217234642
 97
        0
 92
        7
 72
     0
 73
     1
 93
       40
 10
2067.05744388779
 20
239.0929481787557
 10
2066.398377131331
 20
239.31455710197
 10
2066.028278783528
 20
239.5278650152973
 10
2066.398377131331
 20
239.8988749331507
 10
2067.057443887792
 20
239.6772660099828
 10
2067.025083071649
 20
241.3874114721234
 10
2066.992722255509
 20
241.7730065464625
 10
2066.573399008493
 20
243.224229616168
 10
2065.793093138761
 20
244.5168391089032
 10
2064.704675836417
 20
245.5642356585217
 10
2063.381984454531
 20
246.2934934822683
 10
2063.381984454531
 20
247.4694217234651
 10
1991.274622221979
 20
247.4694217234642
 10
1991.274622221978
 20
223.4694217234651
 10
2067.057443887792
 20
223.4694217234651
 10
2067.057443887792
 20
223.8345007194198
 10
2066.398377131325
 20
224.0561096425895
 10
2066.028278783527
 20
224.2703291283747
 10
2066.398377131331
 20
224.6404274740412
 10
2067.057443887792
 20
224.4188185508724
 10
2067.057443887792
 20
226.8920657255498
 10
2066.398377131333
 20
227.1135230694404
 10
2066.028278783527
 20
227.3277425552292
 10
2066.398377131331
 20
227.6978409008948
 10
2067.057443887792
 20
227.476383556957
 10
2067.057443887792
 20
229.9502391452711
 10
2066.398377131333
 20
230.1718480684808
 10
2066.028278783526
 20
230.3851559818109
 10
2066.398377131331
 20
230.7561658996651
 10
2067.057443887792
 20
230.5345569764972
 10
2067.057443887792
 20
232.992126955583
 10
2066.398377131343
 20
233.2135842994744
 10
2066.028278783527
 20
233.4278037852614
 10
2066.398377131333
 20
233.7979021309288
 10
2067.057443887792
 20
233.5764447869929
 10
2067.057443887792
 20
236.0503003753042
 10
2066.398377131331
 20
236.2719092985158
 10
2066.028278783527
 20
236.4852172118458
 10
2066.398377131333
 20
236.8562271296983
 10
2067.057443887792
 20
236.6346182065313
 97
        0
 92
        7
 72
     0
 73
     1
 93
       37
 10
2147.780307350614
 20
247.4694217234651
 10
2073.378286076254
 20
247.4694217234651
 10
2073.378286076254
 20
246.2934934822683
 10
2072.677286993812
 20
245.9635043171452
 10
2071.464895861089
 20
245.0637824769096
 10
2070.525976412502
 20
243.880561657666
 10
2069.925250280339
 20
242.4949717921559
 10
2069.702826647273
 20
241.0018163978071
 10
2069.702826647273
 20
238.7877651833183
 10
2070.36189340373
 20
238.5661562601494
 10
2070.731991747258
 20
238.3519367743634
 10
2070.361893403733
 20
237.9818384286978
 10
2069.702826647273
 20
238.2034473519111
 10
2069.702826647272
 20
235.7451173798659
 10
2070.361893403733
 20
235.5235084566962
 10
2070.731991747258
 20
235.3092889709128
 10
2070.361893403732
 20
234.9391906252463
 10
2069.702826647273
 20
235.1607995484605
 10
2069.702826647273
 20
232.6875523737831
 10
2070.361893403731
 20
232.4660950298462
 10
2070.731991747259
 20
232.2518755440592
 10
2070.361893403732
 20
231.8817771986637
 10
2069.702826647273
 20
232.103234542557
 10
2069.702826647273
 20
229.6450561498318
 10
2070.361893403732
 20
229.4234472266649
 10
2070.731991747258
 20
229.2092277408779
 10
2070.361893403732
 20
228.8391293952132
 10
2069.702826647273
 20
229.0607383184274
 10
2069.702826647273
 20
226.587491143749
 10
2070.361893403738
 20
226.3660337998095
 10
2070.731991747259
 20
226.1518143140234
 10
2070.361893403732
 20
225.7817159686297
 10
2069.702826647272
 20
226.0031733125211
 10
2069.702826647273
 20
223.5293177242025
 10
2069.880957845093
 20
223.4694217234642
 10
2094.145610284467
 20
223.4694217234642
 10
2147.780307350614
 20
223.469421723466
 97
        0
 75
     0
 76
     1
 52
90.0
 41
1.0
 77
     0
 78
     1
 53
135.0
 43
-3743.124263586668
 44
-4911.098481787975
 45
-2.245064030267288
 46
-2.245064030267287
 79
     0
 47
0.7293997082383822
 98
        6
 10
1852.265673662137
 20
233.865541511263
 10
1774.90184531282
 20
234.5949482679976
 10
1904.084857199131
 20
236.7831517632844
 10
1985.097956923307
 20
236.7831517632844
 10
2006.993386985586
 20
238.9713384836582
 10
2084.357243647316
 20
238.9713384836582
  0
LWPOLYLINE
  5
24F2
330
1F
100
AcDbEntity
  8
CETRIS
100
AcDbPolyline
 90
        4
 70
     0
 43
0.0
 10
2147.780307350614
 20
223.4694217234651
 10
1463.038427567713
 20
223.4694217234651
 10
1463.038427567713
 20
223.4694217234642
 10
1463.038427567713
 20
247.4694217234651
  0
LWPOLYLINE
  5
24F3
330
1F
100
AcDbEntity
  8
nášlap_vrstvy
100
AcDbPolyline
 90
        4
 70
     1
 43
0.0
 10
1842.052231029821
 20
252.830293899644
 10
1967.052231029821
 20
252.830293899644
 10
1967.052231029821
 20
259.080293899644
 10
1842.052231029821
 20
259.080293899644
  0
LINE
  5
24F4
330
1F
100
AcDbEntity
  8
STAVBA OBRYS
100
AcDbLine
 10
1448.038427567716
 20
47.46942172346462
 30
0.0
 11
2147.780307350618
 21
47.46942172346462
 31
0.0
  0
LINE
  5
24F5
330
1F
100
AcDbEntity
  8
STAVBA OBRYS
100
AcDbLine
 10
1438.03842756772
 20
57.46942172346462
 30
0.0
 11
2147.780307350618
 21
57.46942172346462
 31
0.0
  0
LINE
  5
24F6
330
1F
100
AcDbEntity
  8
CETRIS
100
AcDbLine
 10
1463.038427567716
 20
247.4694217234646
 30
0.0
 11
2147.780307350618
 21
247.4694217234646
 31
0.0
  0
LWPOLYLINE
  5
24F7
330
1F
100
AcDbEntity
  8
nášlap_vrstvy
100
AcDbPolyline
 90
        4
 70
     1
 43
0.0
 10
2147.780307350621
 20
247.4694217234646
 10
1797.909367459171
 20
247.4694217234646
 10
1797.909367459171
 20
248.9694217234646
 10
2147.780307350621
 20
248.9694217234646
  0
LINE
  5
24F8
330
1F
100
AcDbEntity
  8
STAVBA OBRYS
100
AcDbLine
 10
1438.03842756772
 20
177.4694217234646
 30
0.0
 11
1438.038427567716
 21
452.8903017252142
 31
0.0
  0
LINE
  5
24F9
330
1F
100
AcDbEntity
  8
STAVBA OBRYS
100
AcDbLine
 10
1448.03842756772
 20
177.4694217234646
 30
0.0
 11
1448.038427567716
 21
452.8903017252142
 31
0.0
  0
LINE
  5
24FA
330
1F
100
AcDbEntity
  8
nášlap_vrstvy
100
AcDbLine
 10
1578.126461290939
 20
259.080293899644
 30
0.0
 11
1464.94051337809
 21
259.0802938996485
 31
0.0
  0
LINE
  5
24FB
330
1F
100
AcDbEntity
  8
nášlap_vrstvy
100
AcDbLine
 10
1713.824516393276
 20
252.830293899644
 30
0.0
 11
1453.126461290939
 21
252.830293899644
 31
0.0
  0
LINE
  5
24FC
330
1F
100
AcDbEntity
  8
izolace
100
AcDbLine
 10
1513.178451105462
 20
185.1275589972615
 30
0.0
 11
1716.09201892609
 21
185.1275589972615
 31
0.0
  0
LINE
  5
24FD
330
1F
100
AcDbEntity
  8
izolace
100
AcDbLine
 10
1513.178451105462
 20
215.7670210322908
 30
0.0
 11
1716.09201892609
 21
215.7670210322908
 31
0.0
  0
LINE
  5
24FE
330
1F
100
AcDbEntity
  8
izolace
  6
IZOLACE
 48
1.5
100
AcDbLine
 10
1513.038427567713
 20
200.4694217234651
 30
0.0
 11
1716.09201892609
 21
200.4694217234651
 31
0.0
  0
HATCH
  5
24FF
330
1F
100
AcDbEntity
  8
CETRIS
100
AcDbHatch
 10
0.0
 20
0.0
 30
0.0
210
0.0
220
0.0
230
1.0
  2
ANSI31
 70
     0
 71
     0
 91
        3
 92
        7
 72
     1
 73
     1
 93
       42
 10
1766.09201892609
 20
231.4694217234651
 42
0.0
 10
1756.09201892609
 20
231.4694217234651
 42
0.0
 10
1756.09201892609
 20
239.4694217234651
 42
0.0
 10
1766.09201892609
 20
239.4694217234651
 42
0.0
 10
1766.09201892609
 20
247.4694217234651
 42
0.0
 10
1744.494433030702
 20
247.4694217234651
 42
0.0
 10
1744.494433030703
 20
246.2934934822683
 42
0.0
 10
1743.79343394826
 20
245.9635043171443
 42
0.0
 10
1742.581042815537
 20
245.0637824769115
 42
0.0
 10
1741.642123366951
 20
243.8805616576688
 42
0.0
 10
1741.041397234786
 20
242.4949717921613
 42
0.0
 10
1740.81897360172
 20
241.0018163978016
 42
0.0
 10
1740.81897360172
 20
240.7111793437621
 42
-0.1200842046796913
 10
1740.81897360172
 20
240.119293443026
 42
0.0
 10
1740.81897360172
 20
238.7877651833192
 42
0.0
 10
1741.478040358185
 20
238.5661562601486
 42
0.0
 10
1741.848138701707
 20
238.3519367743634
 42
0.0
 10
1741.478040358181
 20
237.9818384286987
 42
0.0
 10
1740.81897360172
 20
238.2034473519111
 42
0.0
 10
1740.81897360172
 20
235.7451173798659
 42
0.0
 10
1741.478040358178
 20
235.5235084566998
 42
0.0
 10
1741.848138701706
 20
235.3092889709119
 42
0.0
 10
1741.478040358179
 20
234.9391906252463
 42
0.0
 10
1740.81897360172
 20
235.1607995484605
 42
0.0
 10
1740.81897360172
 20
232.6875523737822
 42
0.0
 10
1741.478040358183
 20
232.4660950298417
 42
0.0
 10
1741.848138701706
 20
232.2518755440574
 42
0.0
 10
1741.47804035818
 20
231.8817771986637
 42
0.0
 10
1740.81897360172
 20
232.103234542557
 42
0.0
 10
1740.81897360172
 20
229.6450561498327
 42
0.0
 10
1741.478040358184
 20
229.4234472266612
 42
0.0
 10
1741.848138701707
 20
229.2092277408779
 42
0.0
 10
1741.478040358181
 20
228.8391293952122
 42
0.0
 10
1740.81897360172
 20
229.0607383184256
 42
0.0
 10
1740.81897360172
 20
226.587491143749
 42
0.0
 10
1741.478040358185
 20
226.3660337998113
 42
0.0
 10
1741.848138701706
 20
226.1518143140234
 42
0.0
 10
1741.47804035818
 20
225.7817159686306
 42
0.0
 10
1740.81897360172
 20
226.0031733125229
 42
0.0
 10
1740.81897360172
 20
223.5293177242015
 42
0.0
 10
1740.997104799539
 20
223.4694217234642
 42
0.0
 10
1766.09201892609
 20
223.4694217234642
 42
0.0
 97
        0
 92
        7
 72
     1
 73
     1
 93
       83
 10
1738.173590842239
 20
232.992126955583
 42
0.0
 10
1737.514524085778
 20
233.2135842994762
 42
0.0
 10
1737.144425737975
 20
233.4278037852623
 42
0.0
 10
1737.514524085778
 20
233.7979021309279
 42
0.0
 10
1738.17359084224
 20
233.5764447869892
 42
0.0
 10
1738.173590842238
 20
236.0503003753033
 42
0.0
 10
1737.514524085779
 20
236.2719092985185
 42
0.0
 10
1737.144425737975
 20
236.4852172118449
 42
0.0
 10
1737.514524085778
 20
236.8562271296974
 42
0.0
 10
1738.17359084224
 20
236.6346182065286
 42
0.0
 10
1738.173590842239
 20
239.0929481787557
 42
0.0
 10
1737.514524085771
 20
239.3145571019709
 42
0.0
 10
1737.144425737974
 20
239.5278650152964
 42
0.0
 10
1737.51452408578
 20
239.8988749331507
 42
0.0
 10
1738.17359084224
 20
239.6772660099819
 42
0.0
 10
1738.141230026096
 20
241.3874114721243
 42
0.0
 10
1738.108869209957
 20
241.7730065464516
 42
0.0
 10
1737.689545962942
 20
243.224229616168
 42
0.0
 10
1736.909240093209
 20
244.5168391088996
 42
0.0
 10
1735.820822790862
 20
245.5642356585209
 42
0.0
 10
1734.49813140898
 20
246.2934934822675
 42
0.0
 10
1734.498131408979
 20
247.4694217234651
 42
0.0
 10
1690.515996211262
 20
247.4694217234651
 42
0.0
 10
1690.515996211262
 20
227.0241242877732
 42
-1.0
 10
1690.51599621126
 20
224.5241242877733
 42
-1.0
 10
1690.515996211262
 20
227.0241242877732
 42
0.0
 10
1690.515996211262
 20
247.469421723466
 42
0.0
 10
1643.633681397095
 20
247.4694217234669
 42
0.0
 10
1643.633681397095
 20
238.665236393394
 42
-1.0
 10
1643.633681397093
 20
236.1652363933941
 42
-1.0
 10
1643.633681397095
 20
238.665236393394
 42
0.0
 10
1643.633681397095
 20
247.4694217234651
 42
0.0
 10
1494.599282063346
 20
247.4694217234651
 42
0.0
 10
1494.599282063346
 20
246.2934934822683
 42
0.0
 10
1493.898282980905
 20
245.9635043171443
 42
0.0
 10
1492.685891848182
 20
245.0637824769106
 42
0.0
 10
1491.746972399594
 20
243.8805616576678
 42
0.0
 10
1491.146246267432
 20
242.4949717921595
 42
0.0
 10
1490.923822634365
 20
241.0018163977961
 42
0.0
 10
1490.923822634364
 20
238.7877651833183
 42
0.0
 10
1491.582889390827
 20
238.5661562601486
 42
0.0
 10
1491.952987734351
 20
238.3519367743643
 42
0.0
 10
1491.582889390825
 20
237.9818384286978
 42
0.0
 10
1490.923822634365
 20
238.203447351912
 42
0.0
 10
1490.923822634365
 20
235.745117379865
 42
0.0
 10
1491.582889390826
 20
235.5235084566971
 42
0.0
 10
1491.952987734352
 20
235.3092889709128
 42
0.0
 10
1491.582889390824
 20
234.9391906252463
 42
0.0
 10
1490.923822634366
 20
235.1607995484596
 42
0.0
 10
1490.923822634365
 20
232.6875523737822
 42
0.0
 10
1491.582889390824
 20
232.4660950298462
 42
0.0
 10
1491.952987734352
 20
232.2518755440583
 42
0.0
 10
1491.582889390825
 20
231.8817771986646
 42
0.0
 10
1490.923822634365
 20
232.1032345425579
 42
0.0
 10
1490.923822634365
 20
229.6450561498309
 42
0.0
 10
1491.582889390819
 20
229.4234472266667
 42
0.0
 10
1491.952987734351
 20
229.2092277408769
 42
0.0
 10
1491.582889390824
 20
228.8391293952114
 42
0.0
 10
1490.923822634366
 20
229.0607383184256
 42
0.0
 10
1490.923822634365
 20
226.5874911437482
 42
0.0
 10
1491.582889390832
 20
226.3660337998095
 42
0.0
 10
1491.952987734352
 20
226.1518143140252
 42
0.0
 10
1491.582889390824
 20
225.7817159686297
 42
0.0
 10
1490.923822634365
 20
226.0031733125211
 42
0.0
 10
1490.923822634365
 20
223.5293177242033
 42
0.0
 10
1491.101953832185
 20
223.4694217234642
 42
0.0
 10
1513.038427567713
 20
223.4694217234642
 42
0.0
 10
1738.173590842238
 20
223.4694217234642
 42
0.0
 10
1738.173590842238
 20
223.8345007194198
 42
0.0
 10
1737.514524085777
 20
224.0561096425849
 42
0.0
 10
1737.144425737975
 20
224.2703291283756
 42
0.0
 10
1737.514524085779
 20
224.6404274740394
 42
0.0
 10
1738.173590842239
 20
224.4188185508706
 42
0.0
 10
1738.173590842239
 20
226.8920657255498
 42
0.0
 10
1737.514524085775
 20
227.113523069444
 42
0.0
 10
1737.144425737974
 20
227.3277425552274
 42
0.0
 10
1737.514524085779
 20
227.6978409008939
 42
0.0
 10
1738.173590842239
 20
227.4763835569561
 42
0.0
 10
1738.173590842239
 20
229.9502391452693
 42
0.0
 10
1737.514524085778
 20
230.1718480684836
 42
0.0
 10
1737.144425737975
 20
230.3851559818109
 42
0.0
 10
1737.514524085779
 20
230.7561658996642
 42
0.0
 10
1738.173590842239
 20
230.5345569764972
 42
0.0
 97
        0
 92
        7
 72
     0
 73
     1
 93
       40
 10
1488.278439874883
 20
229.9502391452702
 10
1487.619373118426
 20
230.1718480684844
 10
1487.249274770619
 20
230.3851559818109
 10
1487.619373118423
 20
230.7561658996642
 10
1488.278439874884
 20
230.5345569764954
 10
1488.278439874884
 20
232.9921269555839
 10
1487.619373118431
 20
233.2135842994735
 10
1487.249274770619
 20
233.4278037852623
 10
1487.619373118424
 20
233.7979021309279
 10
1488.278439874884
 20
233.5764447869892
 10
1488.278439874884
 20
236.0503003753042
 10
1487.61937311842
 20
236.2719092985176
 10
1487.24927477062
 20
236.4852172118449
 10
1487.619373118423
 20
236.8562271296974
 10
1488.278439874884
 20
236.6346182065286
 10
1488.278439874884
 20
239.0929481787548
 10
1487.619373118427
 20
239.3145571019664
 10
1487.249274770619
 20
239.5278650152955
 10
1487.619373118424
 20
239.8988749331507
 10
1488.278439874884
 20
239.6772660099828
 10
1488.246079058743
 20
241.3874114721134
 10
1488.213718242601
 20
241.7730065464589
 10
1487.794394995586
 20
243.224229616168
 10
1487.014089125857
 20
244.5168391088969
 10
1485.925671823506
 20
245.5642356585209
 10
1484.602980441624
 20
246.2934934822683
 10
1484.602980441624
 20
247.4694217234651
 10
1463.038427567711
 20
247.4694217234651
 10
1463.038427567713
 20
223.4694217234642
 10
1488.278439874884
 20
223.4694217234642
 10
1488.278439874883
 20
223.8345007194189
 10
1487.619373118424
 20
224.0561096425859
 10
1487.249274770619
 20
224.2703291283738
 10
1487.619373118424
 20
224.6404274740403
 10
1488.278439874884
 20
224.4188185508706
 10
1488.278439874884
 20
226.8920657255498
 10
1487.619373118423
 20
227.1135230694422
 10
1487.249274770619
 20
227.3277425552274
 10
1487.619373118424
 20
227.6978409008939
 10
1488.278439874884
 20
227.4763835569561
 97
        0
 75
     0
 76
     1
 52
0.0
 41
1.0
 77
     0
 78
     1
 53
45.0
 43
-3743.124263586668
 44
-4911.098481787975
 45
-2.245064030267287
 46
2.245064030267288
 79
     0
 47
0.7293997082383822
 98
        3
 10
1748.627306588152
 20
230.2185412774238
 10
1712.864769876008
 20
230.9479480341547
 10
1480.043390915712
 20
228.0303545570464
  0
TEXT
  5
2500
330
1F
100
AcDbEntity
  8
POPIS
100
AcDbText
 10
1513.416819124238
 20
328.6122415493756
 30
0.0
 40
25.0
  1
01
 41
0.85
  7
SIMPLEX7
100
AcDbText
  0
HATCH
  5
2501
330
1F
100
AcDbEntity
  8
nášlap_vrstvy
100
AcDbHatch
 10
0.0
 20
0.0
 30
0.0
210
0.0
220
0.0
230
1.0
  2
SOLID
 70
     1
 71
     0
 91
        1
 92
        7
 72
     0
 73
     1
 93
        4
 10
1554.42622476198
 20
248.9694217234646
 10
1542.605358407061
 20
248.9694217234646
 10
1542.605358407061
 20
247.4694217234646
 10
1554.42622476198
 20
247.4694217234646
 97
        0
 75
     0
 76
     1
 47
0.1901250437635136
 98
        1
 10
1547.28425578623
 20
248.5610159479247
  0
LWPOLYLINE
  5
2502
330
1F
100
AcDbEntity
  8
nášlap_vrstvy
100
AcDbPolyline
 90
        4
 70
     1
 43
0.0
 10
1554.426224761976
 20
248.9694217234646
 10
1542.605358407061
 20
248.9694217234646
 10
1542.605358407061
 20
247.4694217234646
 10
1554.426224761976
 20
247.4694217234646
  0
LWPOLYLINE
  5
2503
330
1F
100
AcDbEntity
  8
nášlap_vrstvy
100
AcDbPolyline
 90
        4
 70
     1
 43
0.0
 10
1797.909367459171
 20
247.4694217234646
 10
1448.03842756772
 20
247.4694217234646
 10
1448.03842756772
 20
248.9694217234646
 10
1797.909367459171
 20
248.9694217234646
  0
LINE
  5
2505
330
1F
100
AcDbEntity
  8
POPIS
100
AcDbLine
 10
1452.612470804287
 20
200.7857161177071
 30
0.0
 11
1381.4927813452
 21
235.5067702100787
 31
0.0
  0
TEXT
  5
2506
330
1F
100
AcDbEntity
  8
POPIS
100
AcDbText
 10
1343.284385409776
 20
224.0871912187013
 30
0.0
 40
25.0
  1
08
 41
0.85
  7
SIMPLEX7
100
AcDbText
  0
LINE
  5
2507
330
1F
100
AcDbEntity
  8
nášlap_vrstvy
100
AcDbLine
 10
1453.201902671553
 20
264.512498949739
 30
0.0
 11
1453.126461290939
 21
259.080293899644
 31
0.0
  0
LINE
  5
2508
330
1F
100
AcDbEntity
  8
nášlap_vrstvy
100
AcDbLine
 10
1453.126461290939
 20
259.080293899644
 30
0.0
 11
1453.126461290939
 21
252.830293899644
 31
0.0
  0
HATCH
  5
2509
330
1F
100
AcDbEntity
  8
nášlap_vrstvy
100
AcDbHatch
 10
0.0
 20
0.0
 30
0.0
210
0.0
220
0.0
230
1.0
  2
SOLID
 70
     1
 71
     0
 91
        3
 92
        7
 72
     0
 73
     1
 93
        6
 10
1452.472370964041
 20
275.8061342637229
 10
1450.807393772726
 20
275.8061342637229
 10
1450.807393772726
 20
262.3262000378732
 10
1453.171539788188
 20
262.3262000378732
 10
1453.201902671553
 20
264.512498949739
 10
1452.472370964041
 20
264.512498949739
 97
        0
 92
        7
 72
     1
 73
     1
 93
        8
 10
1459.508308328
 20
264.512498949739
 42
0.0
 10
1453.201902671553
 20
264.512498949739
 42
0.0
 10
1453.171539788189
 20
262.3262000378732
 42
0.0
 10
1457.837150162362
 20
262.3262000378732
 42
0.2569302424632091
 10
1462.984972368556
 20
257.3421759956024
 42
0.0
 10
1462.984972368556
 20
252.830293899644
 42
0.0
 10
1464.94051337809
 20
252.830293899644
 42
0.0
 10
1464.94051337809
 20
259.0802938996485
 42
-0.4142135623730951
 97
        0
 92
        7
 72
     0
 73
     1
 93
        6
 10
1476.102301655018
 20
252.1762035727466
 10
1464.94051337809
 20
252.1762035727466
 10
1464.94051337809
 20
252.830293899644
 10
1462.984972368556
 20
252.830293899644
 10
1462.984972368556
 20
250.5112263814303
 10
1476.102301655018
 20
250.5112263814303
 97
        0
 75
     0
 76
     1
 47
0.0418313123855871
 98
        3
 10
1451.567968758355
 20
269.7472536948176
 10
1456.171917073222
 20
263.0123946193294
 10
1464.877600821038
 20
251.1323007515443
  0
LINE
  5
250A
330
1F
100
AcDbEntity
  8
nášlap_vrstvy
100
AcDbLine
 10
1453.201902671553
 20
301.9232330690939
 30
0.0
 11
1448.038427567716
 21
301.9232330690948
 31
0.0
  0
LWPOLYLINE
  5
250B
330
1F
100
AcDbEntity
  8
nášlap_vrstvy
100
AcDbPolyline
 90
        4
 70
     1
 43
0.0
 10
1453.201902671553
 20
264.512498949739
 10
1459.508308328
 20
264.512498949739
 10
1459.508308328
 20
301.9232330690939
 10
1453.201902671553
 20
301.9232330690939
  0
LINE
  5
250C
330
1F
100
AcDbEntity
  8
POPIS
100
AcDbLine
 10
1456.481348938914
 20
279.0485430533119
 30
0.0
 11
1528.261303045928
 21
319.7628804766519
 31
0.0
  0
INSERT
  5
250D
330
1F
100
AcDbEntity
  8
POPIS
100
AcDbBlockReference
  2
E_PUNKT
 10
1456.452280608042
 20
279.0761534289386
 30
0.0
 50
270.0
  0
LINE
  5
250E
330
1F
100
AcDbEntity
  8
SPOJOVACÍ
  6
DASHED
100
AcDbLine
 10
1494.599282063346
 20
247.4694217234651
 30
0.0
 11
1494.599282063346
 21
246.2934934822683
 31
0.0
  0
LINE
  5
250F
330
1F
100
AcDbEntity
  8
SPOJOVACÍ
  6
DASHED
100
AcDbLine
 10
1493.898282980902
 20
245.9635043171425
 30
0.0
 11
1494.599282063346
 21
246.2934934822683
 31
0.0
  0
LINE
  5
2510
330
1F
100
AcDbEntity
  8
SPOJOVACÍ
  6
DASHED
100
AcDbLine
 10
1492.68589184818
 20
245.0637824769096
 30
0.0
 11
1493.898282980902
 21
245.9635043171425
 31
0.0
  0
LINE
  5
2511
330
1F
100
AcDbEntity
  8
SPOJOVACÍ
  6
DASHED
100
AcDbLine
 10
1491.746972399596
 20
243.8805616576688
 30
0.0
 11
1492.68589184818
 21
245.0637824769096
 31
0.0
  0
LINE
  5
2512
330
1F
100
AcDbEntity
  8
SPOJOVACÍ
  6
DASHED
100
AcDbLine
 10
1491.146246267431
 20
242.4949717921595
 30
0.0
 11
1491.746972399596
 21
243.8805616576688
 31
0.0
  0
LINE
  5
2513
330
1F
100
AcDbEntity
  8
SPOJOVACÍ
  6
DASHED
100
AcDbLine
 10
1490.923822634365
 20
241.0018163977988
 30
0.0
 11
1491.146246267431
 21
242.4949717921595
 31
0.0
  0
LINE
  5
2514
330
1F
100
AcDbEntity
  8
SPOJOVACÍ
  6
DASHED
100
AcDbLine
 10
1490.923822634365
 20
241.0018163978007
 30
0.0
 11
1490.923822634365
 21
238.7877651833192
 31
0.0
  0
LINE
  5
2515
330
1F
100
AcDbEntity
  8
SPOJOVACÍ
  6
DASHED
100
AcDbLine
 10
1487.619373118424
 20
239.8988749331497
 30
0.0
 11
1491.582889390825
 21
238.5661562601494
 31
0.0
  0
LINE
  5
2516
330
1F
100
AcDbEntity
  8
SPOJOVACÍ
  6
DASHED
100
AcDbLine
 10
1491.952987734351
 20
238.3519367743634
 30
0.0
 11
1491.582889390825
 21
238.5661562601494
 31
0.0
  0
LINE
  5
2517
330
1F
100
AcDbEntity
  8
SPOJOVACÍ
  6
DASHED
100
AcDbLine
 10
1491.952987734351
 20
238.3519367743634
 30
0.0
 11
1491.582889390825
 21
237.9818384286978
 31
0.0
  0
LINE
  5
2518
330
1F
100
AcDbEntity
  8
SPOJOVACÍ
  6
DASHED
100
AcDbLine
 10
1487.619373118424
 20
239.3145571019691
 30
0.0
 11
1491.582889390825
 21
237.9818384286978
 31
0.0
  0
LINE
  5
2519
330
1F
100
AcDbEntity
  8
SPOJOVACÍ
  6
DASHED
100
AcDbLine
 10
1490.923822634365
 20
238.2088199264458
 30
0.0
 11
1490.923822634365
 21
235.7402821925175
 31
0.0
  0
LINE
  5
251A
330
1F
100
AcDbEntity
  8
SPOJOVACÍ
  6
DASHED
100
AcDbLine
 10
1487.619373118424
 20
236.8562271296983
 30
0.0
 11
1491.582889390825
 21
235.523508456698
 31
0.0
  0
LINE
  5
251B
330
1F
100
AcDbEntity
  8
SPOJOVACÍ
  6
DASHED
100
AcDbLine
 10
1491.952987734351
 20
235.3092889709119
 30
0.0
 11
1491.582889390825
 21
235.523508456698
 31
0.0
  0
LINE
  5
251C
330
1F
100
AcDbEntity
  8
SPOJOVACÍ
  6
DASHED
100
AcDbLine
 10
1491.952987734351
 20
235.3092889709119
 30
0.0
 11
1491.582889390825
 21
234.9391906252463
 31
0.0
  0
LINE
  5
251D
330
1F
100
AcDbEntity
  8
SPOJOVACÍ
  6
DASHED
100
AcDbLine
 10
1487.619373118424
 20
236.2719092985176
 30
0.0
 11
1491.582889390825
 21
234.9391906252463
 31
0.0
  0
LINE
  5
251E
330
1F
100
AcDbEntity
  8
SPOJOVACÍ
  6
DASHED
100
AcDbLine
 10
1490.923822634365
 20
235.1661721229944
 30
0.0
 11
1490.923822634365
 21
232.697634389066
 31
0.0
  0
LINE
  5
251F
330
1F
100
AcDbEntity
  8
SPOJOVACÍ
  6
DASHED
100
AcDbLine
 10
1487.619373118424
 20
233.7979021309279
 30
0.0
 11
1491.582889390825
 21
232.4660950298444
 31
0.0
  0
LINE
  5
2520
330
1F
100
AcDbEntity
  8
SPOJOVACÍ
  6
DASHED
100
AcDbLine
 10
1491.952987734351
 20
232.2518755440583
 30
0.0
 11
1491.582889390825
 21
232.4660950298444
 31
0.0
  0
LINE
  5
2521
330
1F
100
AcDbEntity
  8
SPOJOVACÍ
  6
DASHED
100
AcDbLine
 10
1491.952987734351
 20
232.2518755440583
 30
0.0
 11
1491.582889390825
 21
231.8817771986637
 31
0.0
  0
LINE
  5
2522
330
1F
100
AcDbEntity
  8
SPOJOVACÍ
  6
DASHED
100
AcDbLine
 10
1487.619373118424
 20
233.2135842994762
 30
0.0
 11
1491.582889390825
 21
231.8817771986637
 31
0.0
  0
LINE
  5
2523
330
1F
100
AcDbEntity
  8
SPOJOVACÍ
  6
DASHED
100
AcDbLine
 10
1490.923822634365
 20
232.1133165576144
 30
0.0
 11
1490.923822634365
 21
229.6356631010026
 31
0.0
  0
LINE
  5
2524
330
1F
100
AcDbEntity
  8
SPOJOVACÍ
  6
DASHED
100
AcDbLine
 10
1487.619373118424
 20
230.7561658996642
 30
0.0
 11
1491.582889390825
 21
229.4234472266639
 31
0.0
  0
LINE
  5
2525
330
1F
100
AcDbEntity
  8
SPOJOVACÍ
  6
DASHED
100
AcDbLine
 10
1491.952987734351
 20
229.2092277408779
 30
0.0
 11
1491.582889390825
 21
229.4234472266639
 31
0.0
  0
LINE
  5
2526
330
1F
100
AcDbEntity
  8
SPOJOVACÍ
  6
DASHED
100
AcDbLine
 10
1491.952987734351
 20
229.2092277408779
 30
0.0
 11
1491.582889390825
 21
228.8391293952122
 31
0.0
  0
LINE
  5
2527
330
1F
100
AcDbEntity
  8
SPOJOVACÍ
  6
DASHED
100
AcDbLine
 10
1487.619373118424
 20
230.1718480684836
 30
0.0
 11
1491.582889390825
 21
228.8391293952122
 31
0.0
  0
LINE
  5
2528
330
1F
100
AcDbEntity
  8
SPOJOVACÍ
  6
DASHED
100
AcDbLine
 10
1490.923822634365
 20
229.0661108929603
 30
0.0
 11
1490.923822634365
 21
226.597573159032
 31
0.0
  0
LINE
  5
2529
330
1F
100
AcDbEntity
  8
SPOJOVACÍ
  6
DASHED
100
AcDbLine
 10
1487.619373118424
 20
227.6978409008939
 30
0.0
 11
1491.582889390825
 21
226.3660337998103
 31
0.0
  0
LINE
  5
252A
330
1F
100
AcDbEntity
  8
SPOJOVACÍ
  6
DASHED
100
AcDbLine
 10
1491.952987734351
 20
226.1518143140242
 30
0.0
 11
1491.582889390825
 21
226.3660337998103
 31
0.0
  0
LINE
  5
252B
330
1F
100
AcDbEntity
  8
SPOJOVACÍ
  6
DASHED
100
AcDbLine
 10
1491.952987734351
 20
226.1518143140242
 30
0.0
 11
1491.582889390825
 21
225.7817159686297
 31
0.0
  0
LINE
  5
252C
330
1F
100
AcDbEntity
  8
SPOJOVACÍ
  6
DASHED
100
AcDbLine
 10
1487.619373118424
 20
227.1135230694422
 30
0.0
 11
1491.582889390825
 21
225.7817159686297
 31
0.0
  0
LINE
  5
252D
330
1F
100
AcDbEntity
  8
SPOJOVACÍ
  6
DASHED
100
AcDbLine
 10
1490.923822634365
 20
226.0132553275803
 30
0.0
 11
1490.923822634365
 21
223.5356018709686
 31
0.0
  0
LINE
  5
252E
330
1F
100
AcDbEntity
  8
SPOJOVACÍ
  6
DASHED
100
AcDbLine
 10
1487.619373118424
 20
224.6404274740403
 30
0.0
 11
1491.582889390825
 21
223.3077088010328
 31
0.0
  0
LINE
  5
252F
330
1F
100
AcDbEntity
  8
SPOJOVACÍ
  6
DASHED
100
AcDbLine
 10
1487.249274770619
 20
230.3851559818109
 30
0.0
 11
1487.619373118424
 21
230.1718480684836
 31
0.0
  0
LINE
  5
2530
330
1F
100
AcDbEntity
  8
SPOJOVACÍ
  6
DASHED
100
AcDbLine
 10
1487.249274770619
 20
230.3851559818109
 30
0.0
 11
1487.619373118424
 21
230.7561658996642
 31
0.0
  0
LINE
  5
2531
330
1F
100
AcDbEntity
  8
SPOJOVACÍ
  6
DASHED
100
AcDbLine
 10
1488.278439874884
 20
233.0011879583367
 30
0.0
 11
1488.278439874884
 21
230.5308270797618
 31
0.0
  0
LINE
  5
2532
330
1F
100
AcDbEntity
  8
SPOJOVACÍ
  6
DASHED
100
AcDbLine
 10
1487.249274770619
 20
233.4278037852623
 30
0.0
 11
1487.619373118424
 21
233.2135842994762
 31
0.0
  0
LINE
  5
2533
330
1F
100
AcDbEntity
  8
SPOJOVACÍ
  6
DASHED
100
AcDbLine
 10
1487.249274770619
 20
233.4278037852623
 30
0.0
 11
1487.619373118424
 21
233.7979021309279
 31
0.0
  0
LINE
  5
2534
330
1F
100
AcDbEntity
  8
SPOJOVACÍ
  6
DASHED
100
AcDbLine
 10
1488.278439874884
 20
236.0613361017536
 30
0.0
 11
1488.278439874884
 21
233.5927983678252
 31
0.0
  0
LINE
  5
2535
330
1F
100
AcDbEntity
  8
SPOJOVACÍ
  6
DASHED
100
AcDbLine
 10
1487.249274770619
 20
236.4852172118449
 30
0.0
 11
1487.619373118424
 21
236.2719092985176
 31
0.0
  0
LINE
  5
2536
330
1F
100
AcDbEntity
  8
SPOJOVACÍ
  6
DASHED
100
AcDbLine
 10
1487.249274770619
 20
236.4852172118449
 30
0.0
 11
1487.619373118424
 21
236.8562271296983
 31
0.0
  0
LINE
  5
2537
330
1F
100
AcDbEntity
  8
SPOJOVACÍ
  6
DASHED
100
AcDbLine
 10
1488.278439874884
 20
239.1039839052051
 30
0.0
 11
1488.278439874884
 21
236.6354461712767
 31
0.0
  0
LINE
  5
2538
330
1F
100
AcDbEntity
  8
SPOJOVACÍ
  6
DASHED
100
AcDbLine
 10
1487.249274770619
 20
239.5278650152964
 30
0.0
 11
1487.619373118424
 21
239.3145571019691
 31
0.0
  0
LINE
  5
2539
330
1F
100
AcDbEntity
  8
SPOJOVACÍ
  6
DASHED
100
AcDbLine
 10
1487.249274770619
 20
239.5278650152964
 30
0.0
 11
1487.619373118424
 21
239.8988749331497
 31
0.0
  0
LINE
  5
253A
330
1F
100
AcDbEntity
  8
SPOJOVACÍ
  6
DASHED
100
AcDbLine
 10
1488.246079058742
 20
241.3874114721289
 30
0.0
 11
1488.278439874884
 21
239.6772660099819
 31
0.0
  0
LINE
  5
253B
330
1F
100
AcDbEntity
  8
SPOJOVACÍ
  6
DASHED
100
AcDbLine
 10
1488.2137182426
 20
241.7730065464589
 30
0.0
 11
1488.278439874884
 21
241.0018163977988
 31
0.0
  0
LINE
  5
253C
330
1F
100
AcDbEntity
  8
SPOJOVACÍ
  6
DASHED
100
AcDbLine
 10
1487.794394995587
 20
243.224229616168
 30
0.0
 11
1488.2137182426
 21
241.7730065464589
 31
0.0
  0
LINE
  5
253D
330
1F
100
AcDbEntity
  8
SPOJOVACÍ
  6
DASHED
100
AcDbLine
 10
1487.014089125855
 20
244.5168391088996
 30
0.0
 11
1487.794394995587
 21
243.224229616168
 31
0.0
  0
LINE
  5
253E
330
1F
100
AcDbEntity
  8
SPOJOVACÍ
  6
DASHED
100
AcDbLine
 10
1485.925671823504
 20
245.5642356585236
 30
0.0
 11
1487.014089125855
 21
244.5168391088996
 31
0.0
  0
LINE
  5
253F
330
1F
100
AcDbEntity
  8
SPOJOVACÍ
  6
DASHED
100
AcDbLine
 10
1484.602980441624
 20
246.2934934822683
 30
0.0
 11
1485.925671823504
 21
245.5642356585236
 31
0.0
  0
LINE
  5
2540
330
1F
100
AcDbEntity
  8
SPOJOVACÍ
  6
DASHED
100
AcDbLine
 10
1484.602980441624
 20
247.4694217234651
 30
0.0
 11
1484.602980441624
 21
246.2934934822683
 31
0.0
  0
LINE
  5
2541
330
1F
100
AcDbEntity
  8
SPOJOVACÍ
  6
DASHED
100
AcDbLine
 10
1488.278439874884
 20
223.8482711629226
 30
0.0
 11
1488.278439874884
 21
221.3706177063109
 31
0.0
  0
LINE
  5
2542
330
1F
100
AcDbEntity
  8
SPOJOVACÍ
  6
DASHED
100
AcDbLine
 10
1487.619373118424
 20
224.0561096425886
 30
0.0
 11
1491.582889390825
 21
222.7233909695883
 31
0.0
  0
LINE
  5
2543
330
1F
100
AcDbEntity
  8
SPOJOVACÍ
  6
DASHED
100
AcDbLine
 10
1487.249274770619
 20
224.2703291283747
 30
0.0
 11
1487.619373118424
 21
224.0561096425886
 31
0.0
  0
LINE
  5
2544
330
1F
100
AcDbEntity
  8
SPOJOVACÍ
  6
DASHED
100
AcDbLine
 10
1487.249274770619
 20
224.2703291283747
 30
0.0
 11
1487.619373118424
 21
224.6404274740403
 31
0.0
  0
LINE
  5
2545
330
1F
100
AcDbEntity
  8
SPOJOVACÍ
  6
DASHED
100
AcDbLine
 10
1488.278439874884
 20
226.9011267283027
 30
0.0
 11
1488.278439874884
 21
224.4307658497278
 31
0.0
  0
LINE
  5
2546
330
1F
100
AcDbEntity
  8
SPOJOVACÍ
  6
DASHED
100
AcDbLine
 10
1487.249274770619
 20
227.3277425552283
 30
0.0
 11
1487.619373118424
 21
227.1135230694422
 31
0.0
  0
LINE
  5
2547
330
1F
100
AcDbEntity
  8
SPOJOVACÍ
  6
DASHED
100
AcDbLine
 10
1487.249274770619
 20
227.3277425552283
 30
0.0
 11
1487.619373118424
 21
227.6978409008939
 31
0.0
  0
LINE
  5
2548
330
1F
100
AcDbEntity
  8
SPOJOVACÍ
  6
DASHED
100
AcDbLine
 10
1488.278439874884
 20
229.9612748717196
 30
0.0
 11
1488.278439874884
 21
227.4927371377912
 31
0.0
  0
LINE
  5
2549
330
1F
100
AcDbEntity
  8
SPOJOVACÍ
  6
DASHED
100
AcDbLine
 10
1484.602980441624
 20
246.2934934822683
 30
0.0
 11
1494.599282063346
 21
246.2934934822683
 31
0.0
  0
LINE
  5
254A
330
1F
100
AcDbEntity
  8
SPOJOVACÍ
  6
DASHED
100
AcDbLine
 10
1487.249274770619
 20
239.5278650152964
 30
0.0
 11
1491.952987734351
 21
238.3519367743634
 31
0.0
  0
LINE
  5
254B
330
1F
100
AcDbEntity
  8
SPOJOVACÍ
  6
DASHED
100
AcDbLine
 10
1487.249274770619
 20
236.4852172118449
 30
0.0
 11
1491.952987734351
 21
235.3092889709119
 31
0.0
  0
LINE
  5
254C
330
1F
100
AcDbEntity
  8
SPOJOVACÍ
  6
DASHED
100
AcDbLine
 10
1487.249274770619
 20
233.4278037852623
 30
0.0
 11
1491.952987734351
 21
232.2518755440583
 31
0.0
  0
LINE
  5
254D
330
1F
100
AcDbEntity
  8
SPOJOVACÍ
  6
DASHED
100
AcDbLine
 10
1487.619373118424
 20
218.5256006208679
 30
0.0
 11
1491.582889390825
 21
217.1928819475966
 31
0.0
  0
LINE
  5
254E
330
1F
100
AcDbEntity
  8
SPOJOVACÍ
  6
DASHED
100
AcDbLine
 10
1487.619373118424
 20
217.9412827894162
 30
0.0
 11
1491.582889390825
 21
216.6085641161449
 31
0.0
  0
LINE
  5
254F
330
1F
100
AcDbEntity
  8
SPOJOVACÍ
  6
DASHED
100
AcDbLine
 10
1491.952987734351
 20
216.9786624618105
 30
0.0
 11
1491.582889390825
 21
217.1928819475966
 31
0.0
  0
LINE
  5
2550
330
1F
100
AcDbEntity
  8
SPOJOVACÍ
  6
DASHED
100
AcDbLine
 10
1491.952987734351
 20
216.9786624618105
 30
0.0
 11
1491.582889390825
 21
216.6085641161449
 31
0.0
  0
LINE
  5
2551
330
1F
100
AcDbEntity
  8
SPOJOVACÍ
  6
DASHED
100
AcDbLine
 10
1487.249274770619
 20
218.1545907027435
 30
0.0
 11
1487.619373118424
 21
218.5256006208679
 31
0.0
  0
LINE
  5
2552
330
1F
100
AcDbEntity
  8
SPOJOVACÍ
  6
DASHED
100
AcDbLine
 10
1487.249274770619
 20
218.1545907027435
 30
0.0
 11
1487.619373118424
 21
217.9412827894162
 31
0.0
  0
LINE
  5
2553
330
1F
100
AcDbEntity
  8
SPOJOVACÍ
  6
DASHED
100
AcDbLine
 10
1487.249274770619
 20
218.1545907027435
 30
0.0
 11
1491.952987734351
 21
216.9786624618105
 31
0.0
  0
LINE
  5
2554
330
1F
100
AcDbEntity
  8
SPOJOVACÍ
  6
DASHED
100
AcDbLine
 10
1487.619373118424
 20
221.5830140474504
 30
0.0
 11
1491.582889390825
 21
220.2502953741791
 31
0.0
  0
LINE
  5
2555
330
1F
100
AcDbEntity
  8
SPOJOVACÍ
  6
DASHED
100
AcDbLine
 10
1487.619373118424
 20
220.998696216006
 30
0.0
 11
1491.582889390825
 21
219.6659775429985
 31
0.0
  0
LINE
  5
2556
330
1F
100
AcDbEntity
  8
SPOJOVACÍ
  6
DASHED
100
AcDbLine
 10
1491.952987734351
 20
220.0369874608518
 30
0.0
 11
1491.582889390825
 21
220.2502953741791
 31
0.0
  0
LINE
  5
2557
330
1F
100
AcDbEntity
  8
SPOJOVACÍ
  6
DASHED
100
AcDbLine
 10
1491.952987734351
 20
220.0369874608518
 30
0.0
 11
1491.582889390825
 21
219.6659775429985
 31
0.0
  0
LINE
  5
2558
330
1F
100
AcDbEntity
  8
SPOJOVACÍ
  6
DASHED
100
AcDbLine
 10
1487.249274770619
 20
221.2129157017848
 30
0.0
 11
1487.619373118424
 21
221.5830140474504
 31
0.0
  0
LINE
  5
2559
330
1F
100
AcDbEntity
  8
SPOJOVACÍ
  6
DASHED
100
AcDbLine
 10
1487.249274770619
 20
221.2129157017848
 30
0.0
 11
1487.619373118424
 21
220.998696216006
 31
0.0
  0
LINE
  5
255A
330
1F
100
AcDbEntity
  8
SPOJOVACÍ
  6
DASHED
100
AcDbLine
 10
1487.249274770619
 20
221.2129157017848
 30
0.0
 11
1491.952987734351
 21
220.0369874608518
 31
0.0
  0
LINE
  5
255B
330
1F
100
AcDbEntity
  8
SPOJOVACÍ
  6
DASHED
100
AcDbLine
 10
1491.952987734351
 20
223.0944008874417
 30
0.0
 11
1491.582889390825
 21
223.3077088010328
 31
0.0
  0
LINE
  5
255C
330
1F
100
AcDbEntity
  8
SPOJOVACÍ
  6
DASHED
100
AcDbLine
 10
1491.952987734351
 20
223.0944008874417
 30
0.0
 11
1491.582889390825
 21
222.7233909695883
 31
0.0
  0
LINE
  5
255D
330
1F
100
AcDbEntity
  8
SPOJOVACÍ
  6
DASHED
100
AcDbLine
 10
1488.604782753398
 20
209.2312096551109
 30
0.0
 11
1490.715984152025
 21
208.9267445136525
 31
0.0
  0
LINE
  5
255E
330
1F
100
AcDbEntity
  8
SPOJOVACÍ
  6
DASHED
100
AcDbLine
 10
1488.974881096924
 20
209.6013080007765
 30
0.0
 11
1490.345885808499
 21
209.1400524272435
 31
0.0
  0
LINE
  5
255F
330
1F
100
AcDbEntity
  8
SPOJOVACÍ
  6
DASHED
100
AcDbLine
 10
1488.974881096924
 20
209.0169901693321
 30
0.0
 11
1490.345885808499
 21
208.5557345957991
 31
0.0
  0
LINE
  5
2560
330
1F
100
AcDbEntity
  8
SPOJOVACÍ
  6
DASHED
100
AcDbLine
 10
1490.715984152025
 20
208.9267445136525
 30
0.0
 11
1490.345885808499
 21
209.1400524272435
 31
0.0
  0
LINE
  5
2561
330
1F
100
AcDbEntity
  8
SPOJOVACÍ
  6
DASHED
100
AcDbLine
 10
1490.715984152025
 20
208.9267445136525
 30
0.0
 11
1490.345885808499
 21
208.5557345957991
 31
0.0
  0
LINE
  5
2562
330
1F
100
AcDbEntity
  8
SPOJOVACÍ
  6
DASHED
100
AcDbLine
 10
1488.604782753398
 20
209.2312096551109
 30
0.0
 11
1488.974881096924
 21
209.6013080007765
 31
0.0
  0
LINE
  5
2563
330
1F
100
AcDbEntity
  8
SPOJOVACÍ
  6
DASHED
100
AcDbLine
 10
1488.604782753398
 20
209.2312096551109
 30
0.0
 11
1488.974881096924
 21
209.0169901693321
 31
0.0
  0
LINE
  5
2564
330
1F
100
AcDbEntity
  8
SPOJOVACÍ
  6
DASHED
100
AcDbLine
 10
1488.051458377135
 20
212.1847038418641
 30
0.0
 11
1491.105225515238
 21
211.5639231194295
 31
0.0
  0
LINE
  5
2565
330
1F
100
AcDbEntity
  8
SPOJOVACÍ
  6
DASHED
100
AcDbLine
 10
1488.42155672494
 20
212.5557137599885
 30
0.0
 11
1490.735127171712
 21
211.7772310327568
 31
0.0
  0
LINE
  5
2566
330
1F
100
AcDbEntity
  8
SPOJOVACÍ
  6
DASHED
100
AcDbLine
 10
1488.42155672494
 20
211.9713959285368
 30
0.0
 11
1490.735127171712
 21
211.1929132015762
 31
0.0
  0
LINE
  5
2567
330
1F
100
AcDbEntity
  8
SPOJOVACÍ
  6
DASHED
100
AcDbLine
 10
1491.105225515238
 20
211.5639231194295
 30
0.0
 11
1490.735127171712
 21
211.7772310327568
 31
0.0
  0
LINE
  5
2568
330
1F
100
AcDbEntity
  8
SPOJOVACÍ
  6
DASHED
100
AcDbLine
 10
1491.105225515238
 20
211.5639231194295
 30
0.0
 11
1490.735127171712
 21
211.1929132015762
 31
0.0
  0
LINE
  5
2569
330
1F
100
AcDbEntity
  8
SPOJOVACÍ
  6
DASHED
100
AcDbLine
 10
1488.051458377135
 20
212.1847038418641
 30
0.0
 11
1488.42155672494
 21
212.5557137599885
 31
0.0
  0
LINE
  5
256A
330
1F
100
AcDbEntity
  8
SPOJOVACÍ
  6
DASHED
100
AcDbLine
 10
1488.051458377135
 20
212.1847038418641
 30
0.0
 11
1488.42155672494
 21
211.9713959285368
 31
0.0
  0
LINE
  5
256B
330
1F
100
AcDbEntity
  8
SPOJOVACÍ
  6
DASHED
100
AcDbLine
 10
1487.498134005152
 20
215.1391096010761
 30
0.0
 11
1491.54095706484
 21
214.1856049964177
 31
0.0
  0
LINE
  5
256C
330
1F
100
AcDbEntity
  8
SPOJOVACÍ
  6
DASHED
100
AcDbLine
 10
1487.86914392247
 20
215.5092079467418
 30
0.0
 11
1491.170858721313
 21
214.3989129097449
 31
0.0
  0
LINE
  5
256D
330
1F
100
AcDbEntity
  8
SPOJOVACÍ
  6
DASHED
100
AcDbLine
 10
1487.86914392247
 20
214.9248901152901
 30
0.0
 11
1491.170858721313
 21
213.8145950782933
 31
0.0
  0
LINE
  5
256E
330
1F
100
AcDbEntity
  8
SPOJOVACÍ
  6
DASHED
100
AcDbLine
 10
1491.54095706484
 20
214.1856049964177
 30
0.0
 11
1491.170858721313
 21
214.3989129097449
 31
0.0
  0
LINE
  5
256F
330
1F
100
AcDbEntity
  8
SPOJOVACÍ
  6
DASHED
100
AcDbLine
 10
1491.54095706484
 20
214.1856049964177
 30
0.0
 11
1491.170858721313
 21
213.8145950782933
 31
0.0
  0
LINE
  5
2570
330
1F
100
AcDbEntity
  8
SPOJOVACÍ
  6
DASHED
100
AcDbLine
 10
1487.498134005152
 20
215.1391096010761
 30
0.0
 11
1487.86914392247
 21
215.5092079467418
 31
0.0
  0
LINE
  5
2571
330
1F
100
AcDbEntity
  8
SPOJOVACÍ
  6
DASHED
100
AcDbLine
 10
1487.498134005152
 20
215.1391096010761
 30
0.0
 11
1487.86914392247
 21
214.9248901152901
 31
0.0
  0
LINE
  5
2572
330
1F
100
AcDbEntity
  8
SPOJOVACÍ
  6
DASHED
100
AcDbLine
 10
1487.249274770619
 20
230.3851559818109
 30
0.0
 11
1491.952987734351
 21
229.2092277408779
 31
0.0
  0
LINE
  5
2573
330
1F
100
AcDbEntity
  8
SPOJOVACÍ
  6
DASHED
100
AcDbLine
 10
1490.683167551127
 20
214.5721116430673
 30
0.0
 11
1490.923822634365
 21
216.5037333041278
 31
0.0
  0
LINE
  5
2574
330
1F
100
AcDbEntity
  8
SPOJOVACÍ
  6
DASHED
100
AcDbLine
 10
1490.351355238417
 20
211.9194363084866
 30
0.0
 11
1490.612976484647
 21
214.013317835283
 31
0.0
  0
LINE
  5
2575
330
1F
100
AcDbEntity
  8
SPOJOVACÍ
  6
DASHED
100
AcDbLine
 10
1490.018631360471
 20
209.2567336790421
 30
0.0
 11
1490.281164176216
 21
211.3588193563269
 31
0.0
  0
LINE
  5
2576
330
1F
100
AcDbEntity
  8
SPOJOVACÍ
  6
DASHED
100
AcDbLine
 10
1489.222828757664
 20
208.9467991039223
 30
0.0
 11
1489.601131252485
 21
205.9194675624735
 31
0.0
  0
LINE
  5
2577
330
1F
100
AcDbEntity
  8
SPOJOVACÍ
  6
DASHED
100
AcDbLine
 10
1488.862757708738
 20
211.829190652807
 30
0.0
 11
1489.147168256989
 21
209.5548178146587
 31
0.0
  0
LINE
  5
2578
330
1F
100
AcDbEntity
  8
SPOJOVACÍ
  6
DASHED
100
AcDbLine
 10
1488.500863512228
 20
214.7225210690217
 30
0.0
 11
1488.785274064757
 21
212.4472366586783
 31
0.0
  0
LINE
  5
2579
330
1F
100
AcDbEntity
  8
SPOJOVACÍ
  6
DASHED
100
AcDbLine
 10
1489.601131252485
 20
205.9194675624735
 30
0.0
 11
1489.948440293992
 21
208.6988514437166
 31
0.0
  0
LINE
  5
257A
330
1F
100
AcDbEntity
  8
SPOJOVACÍ
  6
DASHED
100
AcDbLine
 10
1488.278439874884
 20
216.5037333041278
 30
0.0
 11
1488.425203011552
 21
215.3305397797581
 31
0.0
  0
LINE
  5
257B
330
1F
100
AcDbEntity
  8
SPOJOVACÍ
  6
DASHED
100
AcDbLine
 10
1490.923822634365
 20
216.8337224692537
 30
0.0
 11
1490.923822634365
 21
216.5037333041278
 31
0.0
  0
LINE
  5
257C
330
1F
100
AcDbEntity
  8
SPOJOVACÍ
  6
DASHED
100
AcDbLine
 10
1490.923822634365
 20
219.8938706129343
 30
0.0
 11
1490.923822634365
 21
217.425332879006
 31
0.0
  0
LINE
  5
257D
330
1F
100
AcDbEntity
  8
SPOJOVACÍ
  6
DASHED
100
AcDbLine
 10
1488.278439874884
 20
217.7261517311786
 30
0.0
 11
1488.278439874884
 21
216.5037333041278
 31
0.0
  0
LINE
  5
257E
330
1F
100
AcDbEntity
  8
SPOJOVACÍ
  6
DASHED
100
AcDbLine
 10
1488.278439874884
 20
220.7780957243708
 30
0.0
 11
1488.278439874884
 21
218.3104695626303
 31
0.0
  0
LINE
  5
257F
330
1F
100
AcDbEntity
  8
SPOJOVACÍ
  6
DASHED
100
AcDbLine
 10
1490.923822634365
 20
222.9531071841634
 30
0.0
 11
1490.923822634365
 21
220.4827463055885
 31
0.0
  0
LINE
  5
2580
330
1F
100
AcDbEntity
  8
SPOJOVACÍ
  6
DASHED
100
AcDbLine
 10
1487.249274770619
 20
224.2703291283747
 30
0.0
 11
1491.952987734351
 21
223.0944008874417
 31
0.0
  0
LINE
  5
2581
330
1F
100
AcDbEntity
  8
SPOJOVACÍ
  6
DASHED
100
AcDbLine
 10
1487.249274770619
 20
227.3277425552283
 30
0.0
 11
1491.952987734351
 21
226.1518143140242
 31
0.0
  0
LINE
  5
2582
330
1F
100
AcDbEntity
  8
SPOJOVACÍ
  6
DASHED
100
AcDbLine
 10
1484.602980441624
 20
247.4694217234651
 30
0.0
 11
1494.599282063346
 21
247.4694217234651
 31
0.0
  0
LWPOLYLINE
  5
2583
330
1F
100
AcDbEntity
  8
STAVBA OBRYS
100
AcDbPolyline
 90
        2
 70
     0
 43
0.0
 10
1510.25257455959
 20
189.466451674341
 10
1513.038427567713
 20
188.0725056065289
  0
LWPOLYLINE
  5
2584
330
1F
100
AcDbEntity
  8
STAVBA OBRYS
100
AcDbPolyline
 90
        2
 70
     0
 43
0.0
 10
1513.038427567713
 20
182.189990286422
 42
-0.0063891037323949
 10
1511.778359399571
 20
180.4694217234651
  0
LWPOLYLINE
  5
2585
330
1F
100
AcDbEntity
  8
STAVBA OBRYS
100
AcDbPolyline
 90
        4
 70
     0
 43
0.0
 10
1513.038427567713
 20
210.2695915525596
 42
-0.0067884601454759
 10
1511.042584276668
 20
200.1407285409992
 42
-0.0219777111230329
 10
1510.136471774685
 20
196.6226152851637
 42
-0.0757738131361498
 10
1496.855373918465
 20
180.4694217234651
  0
LWPOLYLINE
  5
2586
330
1F
100
AcDbEntity
  8
STAVBA OBRYS
100
AcDbPolyline
 90
        3
 70
     0
 43
0.0
 10
1489.039402650663
 20
213.9702521542099
 10
1509.035655082656
 20
204.7542231036901
 10
1513.03559271637
 20
204.1088256283479
  0
LWPOLYLINE
  5
2587
330
1F
100
AcDbEntity
  8
STAVBA OBRYS
100
AcDbPolyline
 90
        6
 70
     0
 43
0.0
 10
1504.57198602989
 20
220.4694217234651
 42
-0.0128837512779301
 10
1504.287194069665
 20
217.1362569017188
 42
-0.0351641677647434
 10
1503.659434348142
 20
213.5325474473798
 42
-0.0187319685742942
 10
1500.275418467151
 20
201.774310105237
 42
-0.0582629403736403
 10
1498.61591859907
 20
198.1944759063049
 42
-0.1129599987265478
 10
1481.240376747361
 20
180.4694217234651
 42
-0.1129599987265478
  0
POLYLINE
  5
2588
330
1F
100
AcDbEntity
  8
STAVBA OBRYS
100
AcDb2dPolyline
 66
     1
 10
0.0
 20
0.0
 30
0.0
  0
VERTEX
  5
2589
330
2588
100
AcDbEntity
  8
STAVBA OBRYS
100
AcDbVertex
100
AcDb2dVertex
 10
1480.130933402653
 20
220.4694217234633
 30
0.0
 42
-0.0072417954699014
  0
VERTEX
  5
258A
330
2588
100
AcDbEntity
  8
STAVBA OBRYS
100
AcDbVertex
100
AcDb2dVertex
 10
1480.075363034809
 20
220.0580165121887
 30
0.0
 42
-0.0707158694326265
  0
VERTEX
  5
258B
330
2588
100
AcDbEntity
  8
STAVBA OBRYS
100
AcDbVertex
100
AcDb2dVertex
 10
1479.544236518389
 20
218.121913059595
 30
0.0
 42
-0.033952657250207
  0
VERTEX
  5
258C
330
2588
100
AcDbEntity
  8
STAVBA OBRYS
100
AcDbVertex
100
AcDb2dVertex
 10
1477.295580678981
 20
213.7688753344214
 30
0.0
 42
-0.0571374688189033
  0
VERTEX
  5
258D
330
2588
100
AcDbEntity
  8
STAVBA OBRYS
100
AcDbVertex
100
AcDb2dVertex
 10
1475.509423919129
 20
211.461951050735
 30
0.0
 42
-0.0274923553235744
  0
VERTEX
  5
258E
330
2588
100
AcDbEntity
  8
STAVBA OBRYS
100
AcDbVertex
100
AcDb2dVertex
 10
1472.912118188576
 20
209.0768757276005
 30
0.0
 42
-0.0255412025538677
  0
VERTEX
  5
258F
330
2588
100
AcDbEntity
  8
STAVBA OBRYS
100
AcDbVertex
100
AcDb2dVertex
 10
1469.860688150865
 20
206.8201620505811
 30
0.0
 42
-0.0272796991712396
  0
VERTEX
  5
2590
330
2588
100
AcDbEntity
  8
STAVBA OBRYS
100
AcDbVertex
100
AcDb2dVertex
 10
1465.74768899768
 20
204.4038261689189
 30
0.0
 42
-0.056967459841729
  0
VERTEX
  5
2591
330
2588
100
AcDbEntity
  8
STAVBA OBRYS
100
AcDbVertex
100
AcDb2dVertex
 10
1463.606741716948
 20
203.5910903337194
 30
0.0
 42
-0.0373408083348504
  0
VERTEX
  5
2592
330
2588
100
AcDbEntity
  8
STAVBA OBRYS
100
AcDbVertex
100
AcDb2dVertex
 10
1463.384387341474
 20
203.5519247927682
 30
0.0
 42
-0.0052305969362967
  0
VERTEX
  5
2593
330
2588
100
AcDbEntity
  8
STAVBA OBRYS
100
AcDbVertex
100
AcDb2dVertex
 10
1463.038427567714
 20
203.5209678258639
 30
0.0
  0
SEQEND
  5
2594
330
2588
100
AcDbEntity
  8
STAVBA OBRYS
  0
POLYLINE
  5
2595
330
1F
100
AcDbEntity
  8
STAVBA OBRYS
100
AcDb2dPolyline
 66
     1
 10
0.0
 20
0.0
 30
0.0
  0
VERTEX
  5
2596
330
2595
100
AcDbEntity
  8
STAVBA OBRYS
100
AcDbVertex
100
AcDb2dVertex
 10
1472.902882381915
 20
220.4694217234633
 30
0.0
 42
-0.0064239028828688
  0
VERTEX
  5
2597
330
2595
100
AcDbEntity
  8
STAVBA OBRYS
100
AcDbVertex
100
AcDb2dVertex
 10
1472.864013941734
 20
220.2503080641132
 30
0.0
 42
-0.0832048017309575
  0
VERTEX
  5
2598
330
2595
100
AcDbEntity
  8
STAVBA OBRYS
100
AcDbVertex
100
AcDb2dVertex
 10
1472.079831339052
 20
217.9200944844584
 30
0.0
 42
-0.0336767237692336
  0
VERTEX
  5
2599
330
2595
100
AcDbEntity
  8
STAVBA OBRYS
100
AcDbVertex
100
AcDb2dVertex
 10
1470.377014780131
 20
215.1918199649977
 30
0.0
 42
-0.0844635135812105
  0
VERTEX
  5
259A
330
2595
100
AcDbEntity
  8
STAVBA OBRYS
100
AcDbVertex
100
AcDb2dVertex
 10
1469.457205020238
 20
214.2873983600025
 30
0.0
 42
-0.0495829410719565
  0
VERTEX
  5
259B
330
2595
100
AcDbEntity
  8
STAVBA OBRYS
100
AcDbVertex
100
AcDb2dVertex
 10
1467.708526582884
 20
213.3107488526898
 30
0.0
 42
-0.0322692699774654
  0
VERTEX
  5
259C
330
2595
100
AcDbEntity
  8
STAVBA OBRYS
100
AcDbVertex
100
AcDb2dVertex
 10
1464.817172401793
 20
212.2692253512892
 30
0.0
 42
-0.0276160659512937
  0
VERTEX
  5
259D
330
2595
100
AcDbEntity
  8
STAVBA OBRYS
100
AcDbVertex
100
AcDb2dVertex
 10
1463.961595963506
 20
212.0724899223446
 30
0.0
 42
-0.0126891984598699
  0
VERTEX
  5
259E
330
2595
100
AcDbEntity
  8
STAVBA OBRYS
100
AcDbVertex
100
AcDb2dVertex
 10
1463.038427567714
 20
211.9372875328031
 30
0.0
  0
SEQEND
  5
259F
330
2595
100
AcDbEntity
  8
STAVBA OBRYS
  0
LWPOLYLINE
  5
25A0
330
1F
100
AcDbEntity
  8
STAVBA OBRYS
100
AcDbPolyline
 90
        7
 70
     0
 43
0.0
 10
1467.553196047397
 20
220.4694217234651
 42
-0.0203924744732807
 10
1466.651112062988
 20
219.456291694311
 42
-0.0273961979096945
 10
1465.801247712793
 20
218.6681153202849
 42
-0.0243529190212958
 10
1464.638127220374
 20
217.7943559756172
 42
-0.0398020282482987
 10
1463.863168682813
 20
217.3547272321707
 42
-0.104168275620852
 10
1463.476757546473
 20
217.2647107719936
 42
-0.007272956268647
 10
1463.038427567714
 20
217.2462574206988
 42
-0.007272956268647
  0
LWPOLYLINE
  5
25A1
330
1F
100
AcDbEntity
  8
izolace
100
AcDbPolyline
 90
        4
 70
     1
 43
0.0
 10
1513.038427567713
 20
220.4694217234651
 10
1463.038427567713
 20
220.4694217234651
 10
1463.038427567713
 20
223.4694217234642
 10
1513.038427567713
 20
223.4694217234642
  0
HATCH
  5
25A2
330
1F
100
AcDbEntity
  8
izolace
100
AcDbHatch
 10
0.0
 20
0.0
 30
0.0
210
0.0
220
0.0
230
1.0
  2
SOLID
 70
     1
 71
     0
 91
       10
 92
        7
 72
     0
 73
     1
 93
        4
 10
1513.038427567713
 20
223.4694217234642
 10
1509.114006560293
 20
223.4694217234642
 10
1509.114006560293
 20
220.4694217234651
 10
1513.038427567713
 20
220.4694217234651
 97
        0
 92
        7
 72
     0
 73
     1
 93
        9
 10
1496.672061658524
 20
223.4694217234642
 10
1491.27520240114
 20
223.4694217234642
 10
1491.582889390828
 20
223.3660337998094
 10
1491.952987734352
 20
223.1518143140243
 10
1491.582889390825
 20
222.7817159686306
 10
1490.923822634365
 20
223.0031733125238
 10
1490.923822634365
 20
220.5293177242024
 10
1491.101953832185
 20
220.4694217234651
 10
1496.672061658523
 20
220.4694217234651
 97
        0
 92
        7
 72
     0
 73
     1
 93
        9
 10
1488.278439874884
 20
223.4694217234642
 10
1482.856143844719
 20
223.4694217234642
 10
1482.856143844719
 20
220.4694217234651
 10
1488.278439874884
 20
220.4694217234651
 10
1488.278439874884
 20
220.8345007194189
 10
1487.619373118429
 20
221.0561096425877
 10
1487.249274770619
 20
221.2703291283756
 10
1487.619373118424
 20
221.6404274740412
 10
1488.278439874884
 20
221.4188185508715
 97
        0
 92
        7
 72
     0
 73
     1
 93
        5
 10
1490.923822634365
 20
223.0031733125229
 10
1489.53624693919
 20
223.4694217234642
 10
1488.278439874885
 20
223.4694217234642
 10
1488.278439874885
 20
221.4188185508706
 10
1490.923822634365
 20
220.5293177242015
 97
        0
 92
        7
 72
     0
 73
     1
 93
        4
 10
1490.682558096884
 20
223.4694217234642
 10
1489.536246939191
 20
223.4694217234651
 10
1491.582889390825
 20
222.7817159686288
 10
1491.952987734351
 20
223.1518143140243
 97
        0
 92
       23
 72
     0
 73
     1
 93
        4
 10
1491.275202401142
 20
223.4694217234642
 10
1490.682558096879
 20
223.4694217234642
 10
1491.952987734351
 20
223.1518143140224
 10
1491.582889390823
 20
223.3660337998113
 97
        0
 92
        7
 72
     0
 73
     1
 93
        4
 10
1487.619373118425
 20
221.6404274740394
 10
1487.24927477062
 20
221.2703291283747
 10
1490.452904390257
 20
220.4694217234651
 10
1491.101953832182
 20
220.4694217234651
 97
        0
 92
        7
 72
     0
 73
     1
 93
        4
 10
1487.249274770616
 20
221.2703291283765
 10
1487.619373118428
 20
221.0561096425886
 10
1489.364187805411
 20
220.4694217234651
 10
1490.452904390258
 20
220.4694217234651
 97
        0
 92
       23
 72
     0
 73
     1
 93
        3
 10
1488.278439874884
 20
220.8345007194198
 10
1488.278439874884
 20
220.4694217234651
 10
1489.364187805404
 20
220.4694217234651
 97
        0
 92
        7
 72
     0
 73
     1
 93
        4
 10
1469.369952349887
 20
223.4694217234642
 10
1463.038427567713
 20
223.4694217234642
 10
1463.038427567713
 20
220.4694217234651
 10
1469.369952349888
 20
220.469421723466
 97
        0
 75
     0
 76
     1
 47
0.0980096762587744
 98
       10
 10
1510.747179579678
 20
222.5878683105989
 10
1494.944381816819
 20
221.8358154216371
 10
1485.818414607355
 20
221.8724182812844
 10
1489.362335507122
 20
221.8170778440804
 10
1490.729881502238
 20
223.1720043228093
 10
1491.291259954292
 20
223.3880484242768
 10
1488.981929975461
 20
220.988564902746
 10
1489.220178899913
 20
220.6771721971386
 10
1488.560386513052
 20
220.6405357876652
 10
1465.514793134434
 20
221.7114629933281
  0
LWPOLYLINE
  5
25A3
330
1F
100
AcDbEntity
  8
STAVBA OBRYS
100
AcDbPolyline
 90
        8
 70
     0
 43
0.0
 10
1495.947770649848
 20
220.4694217234651
 42
-0.0120721047703132
 10
1495.87878795981
 20
218.735533584721
 42
-0.044358077361292
 10
1495.483160225137
 20
216.0397335663042
 42
-0.0188067511131767
 10
1493.463336776754
 20
208.7975043909978
 42
-0.0457786284636091
 10
1492.255313887138
 20
205.9488940081178
 42
-0.0295006114745606
 10
1489.839253432839
 20
202.0219947947158
 42
-0.0258674098621065
 10
1486.606578118875
 20
197.8762147159619
 42
-0.2409478365688615
 10
1463.038427567714
 20
183.4516672709883
 42
-0.0884720560394402
  0
LWPOLYLINE
  5
25A4
330
1F
100
AcDbEntity
  8
STAVBA OBRYS
100
AcDbPolyline
 90
       10
 70
     0
 43
0.0
 10
1487.080711426338
 20
220.4694217234651
 42
-0.0168162630274194
 10
1486.945685847274
 20
218.7783835713458
 42
-0.0575155827655532
 10
1486.265653566931
 20
215.6787589106284
 42
-0.0310289133982999
 10
1483.262852222103
 20
208.4337313859837
 42
-0.0882970623535771
 10
1481.62563030201
 20
206.1933623351838
 42
-0.0171636441953577
 10
1478.812266240152
 20
203.6794449799386
 42
-0.0157521173632038
 10
1475.573411403116
 20
201.1479489274321
 42
-0.0073640874174249
 10
1470.939762046794
 20
197.859547501696
 42
-0.0194185739168057
 10
1469.117718727118
 20
196.7079785024148
 42
-0.0567960585128809
 10
1463.038427567714
 20
194.0561142970387
 42
-0.0229547400386702
  0
LWPOLYLINE
  5
25A5
330
1F
100
AcDbEntity
  8
STAVBA OBRYS
100
AcDbPolyline
 90
        3
 70
     0
 43
0.0
 10
1469.746825025418
 20
214.9520910279466
 10
1486.502042645146
 20
206.5683501599783
 10
1494.66914729427
 20
198.3870484588811
  0
LWPOLYLINE
  5
25A6
330
1F
100
AcDbEntity
  8
STAVBA OBRYS
100
AcDbPolyline
 90
        4
 70
     1
 43
0.0
 10
1463.038427567713
 20
180.4694217234651
 10
1513.038427567713
 20
180.4694217234651
 10
1513.038427567713
 20
220.4694217234651
 10
1463.038427567713
 20
220.4694217234651
  0
HATCH
  5
25A7
330
1F
100
AcDbEntity
  8
nášlap_vrstvy
100
AcDbHatch
 10
0.0
 20
0.0
 30
0.0
210
0.0
220
0.0
230
1.0
  2
SOLID
 70
     1
 71
     0
 91
        1
 92
        7
 72
     0
 73
     1
 93
        4
 10
1530.784492052145
 20
248.9694217234646
 10
1518.963625697229
 20
248.9694217234646
 10
1518.963625697225
 20
247.4694217234646
 10
1530.784492052145
 20
247.4694217234646
 97
        0
 75
     0
 76
     1
 47
0.1901250437635136
 98
        1
 10
1523.642523076399
 20
248.5610159479247
  0
LWPOLYLINE
  5
25A8
330
1F
100
AcDbEntity
  8
nášlap_vrstvy
100
AcDbPolyline
 90
        4
 70
     1
 43
0.0
 10
1530.784492052145
 20
248.9694217234646
 10
1518.963625697225
 20
248.9694217234646
 10
1518.963625697225
 20
247.4694217234646
 10
1530.784492052145
 20
247.4694217234646
  0
LWPOLYLINE
  5
25A9
330
1F
100
AcDbEntity
  8
izolace
100
AcDbPolyline
 90
        4
 70
     1
 43
0.0
 10
1448.038427567716
 20
247.4694217234646
 10
1463.038427567716
 20
247.4694217234646
 10
1463.038427567716
 20
177.4694217234653
 10
1448.03842756772
 20
177.4694217234653
  0
LINE
  5
25AA
330
1F
100
AcDbEntity
  8
izolace
  6
IZOLACE
 48
0.7
100
AcDbLine
 10
1455.538427567716
 20
247.4694217234646
 30
0.0
 11
1455.538427567718
 21
177.4694217234653
 31
0.0
  0
INSERT
  5
25AB
330
1F
100
AcDbEntity
  8
POPIS
100
AcDbBlockReference
  2
E_PUNKT
 10
1452.480447693571
 20
200.867152989812
 30
0.0
 50
270.0
  0
LWPOLYLINE
  5
25AC
330
1F
100
AcDbEntity
  8
nášlap_vrstvy
100
AcDbPolyline
 90
        4
 70
     1
 43
0.0
 10
1483.501026632474
 20
248.9694217234646
 10
1471.680160277555
 20
248.9694217234646
 10
1471.680160277555
 20
247.4694217234646
 10
1483.501026632474
 20
247.4694217234646
  0
HATCH
  5
25AD
330
1F
100
AcDbEntity
  8
nášlap_vrstvy
100
AcDbHatch
 10
0.0
 20
0.0
 30
0.0
210
0.0
220
0.0
230
1.0
  2
SOLID
 70
     1
 71
     0
 91
        1
 92
        7
 72
     0
 73
     1
 93
        4
 10
1483.501026632474
 20
248.9694217234646
 10
1471.680160277559
 20
248.9694217234646
 10
1471.680160277555
 20
247.4694217234646
 10
1483.501026632474
 20
247.4694217234646
 97
        0
 75
     0
 76
     1
 47
0.1901250437635136
 98
        1
 10
1476.359057656729
 20
248.5610159479247
  0
LWPOLYLINE
  5
25AE
330
1F
100
AcDbEntity
  8
nášlap_vrstvy
100
AcDbPolyline
 90
        4
 70
     1
 43
0.0
 10
1459.859293922636
 20
248.9694217234646
 10
1448.03842756772
 20
248.9694217234646
 10
1448.03842756772
 20
247.4694217234646
 10
1459.859293922636
 20
247.4694217234646
  0
HATCH
  5
25AF
330
1F
100
AcDbEntity
  8
nášlap_vrstvy
100
AcDbHatch
 10
0.0
 20
0.0
 30
0.0
210
0.0
220
0.0
230
1.0
  2
SOLID
 70
     1
 71
     0
 91
        1
 92
        7
 72
     0
 73
     1
 93
        4
 10
1459.859293922636
 20
248.9694217234646
 10
1448.03842756772
 20
248.9694217234646
 10
1448.03842756772
 20
247.4694217234646
 10
1459.859293922639
 20
247.4694217234646
 97
        0
 75
     0
 76
     1
 47
0.1901250437635136
 98
        3
 10
1473.981039054731
 20
248.0856992587705
 10
1455.812943641059
 20
247.9906359209399
 10
1453.815407546447
 20
248.2758259344318
  0
HATCH
  5
25B0
330
1F
100
AcDbEntity
  8
STAVBA OBRYS
100
AcDbHatch
 10
0.0
 20
0.0
 30
0.0
210
0.0
220
0.0
230
1.0
  2
AR-CONC
 70
     0
 71
     0
 91
        1
 92
        7
 72
     0
 73
     1
 93
        5
 10
1438.03842756772
 20
180.4694217234646
 10
1448.038427567713
 20
180.4694217234646
 10
1448.038427567716
 20
183.4694217234646
 10
1448.03842756772
 20
203.0187911472167
 10
1438.038427567713
 20
207.9008504414096
 97
        0
 75
     0
 76
     1
 52
90.0
 41
0.1
 77
     0
 78
    13
 53
140.0
 43
-26249.35303955847
 44
3107.188651718258
 45
1.593908553890309
 46
18.2184668996004
 79
     2
 49
1.905
 49
-20.955
 53
85.00000000000001
 43
-26249.35303955847
 44
3107.188651718258
 45
-19.10566428821799
 46
-3.524282597566697
 79
     2
 49
1.524
 49
-16.764
 53
190.4509999999999
 43
-26249.22021455847
 44
3108.706851718258
 45
-17.51166878202918
 46
14.69425016659592
 79
     2
 49
1.619
 49
-17.809
 53
136.1841999999999
 43
-26254.43303955846
 44
3107.188651718258
 45
4.204232793272717
 46
27.10790408921299
 79
     2
 49
2.857499999999999
 49
-31.4325
 53
186.6355999999999
 43
-26254.08268955847
 44
3109.447641718258
 45
-24.74255558900492
 46
23.74042344662371
 79
     2
 49
2.4285
 49
-26.7135
 53
81.18400000000004
 43
-26254.43303955846
 44
3107.188651718258
 45
-24.74251178605976
 46
23.74046058139339
 79
     2
 49
2.286
 49
-25.146
 53
111.0
 43
-26253.16303955847
 44
3109.728651718258
 45
10.22655185167625
 46
15.16148798353833
 79
     2
 49
1.905
 49
-20.955
 53
56.00000000000004
 43
-26253.16303955847
 44
3109.728651718258
 45
-18.41879661223192
 46
6.180202834764708
 79
     2
 49
1.524
 49
-16.764
 53
161.4514
 43
-26252.31082955847
 44
3110.992101718257
 45
-8.192285771605742
 46
21.34164907701245
 79
     2
 49
1.618999999999997
 49
-17.80899999999996
 53
127.5
 43
-26249.35303955847
 44
3107.188651718258
 45
-8.455503887315311
 46
0.3088603250591822
 79
     6
 49
0.0
 49
-16.5608
 49
0.0
 49
-17.018
 49
0.0
 49
-16.8275
 53
97.49999999999987
 43
-26249.35303955847
 44
3107.188651718258
 45
-10.01805748181195
 46
6.681966251030575
 79
     6
 49
0.0
 49
-9.702799999999998
 49
0.0
 49
-16.17979999999999
 49
0.0
 49
-6.413499999999999
 53
57.5
 43
-26249.35303955847
 44
3101.524451718257
 45
0.5728743992673473
 46
13.55905951668713
 79
     6
 49
0.0
 49
-6.35
 49
0.0
 49
-19.812
 49
0.0
 49
-26.289
 53
47.5
 43
-26249.35303955847
 44
3098.984451718258
 45
-2.5426491033333
 46
14.8129181386018
 79
     6
 49
0.0
 49
-8.255
 49
0.0
 49
-13.1572
 49
0.0
 49
-18.669
 47
0.415434097446913
 98
        1
 10
1440.623910951314
 20
188.3695311232332
  0
HATCH
  5
25B1
330
1F
100
AcDbEntity
  8
nášlap_vrstvy
100
AcDbHatch
 10
0.0
 20
0.0
 30
0.0
210
0.0
220
0.0
230
1.0
  2
SOLID
 70
     1
 71
     0
 91
        1
 92
        7
 72
     0
 73
     1
 93
        4
 10
1507.14275934231
 20
248.9694217234646
 10
1495.32189298739
 20
248.9694217234646
 10
1495.32189298739
 20
247.4694217234646
 10
1507.14275934231
 20
247.4694217234646
 97
        0
 75
     0
 76
     1
 47
0.1901250437635136
 98
        1
 10
1500.00079036656
 20
248.5610159479247
  0
LWPOLYLINE
  5
25B2
330
1F
100
AcDbEntity
  8
nášlap_vrstvy
100
AcDbPolyline
 90
        4
 70
     1
 43
0.0
 10
1507.142759342306
 20
248.9694217234646
 10
1495.32189298739
 20
248.9694217234646
 10
1495.32189298739
 20
247.4694217234646
 10
1507.142759342306
 20
247.4694217234646
  0
INSERT
  5
25B3
330
1F
100
AcDbEntity
  8
POPIS
100
AcDbBlockReference
  2
E_PUNKT
 10
1692.825114769609
 20
256.2092071657144
 30
0.0
 50
270.0
  0
LWPOLYLINE
  5
25B4
330
1F
100
AcDbEntity
  8
nášlap_vrstvy
100
AcDbPolyline
 90
        4
 70
     1
 43
0.0
 10
1582.768384537233
 20
252.830293899644
 10
1707.768384537233
 20
252.830293899644
 10
1707.768384537233
 20
259.080293899644
 10
1582.768384537233
 20
259.080293899644
  0
HATCH
  5
25B5
330
1F
100
AcDbEntity
  8
nášlap_vrstvy
100
AcDbHatch
 10
0.0
 20
0.0
 30
0.0
210
0.0
220
0.0
230
1.0
  2
SOLID
 70
     1
 71
     0
 91
        1
 92
        7
 72
     0
 73
     1
 93
        4
 10
1696.276621020991
 20
248.9694217234646
 10
1684.455754666072
 20
248.9694217234646
 10
1684.455754666072
 20
247.4694217234646
 10
1696.276621020991
 20
247.4694217234646
 97
        0
 75
     0
 76
     1
 47
0.1901250437635136
 98
        1
 10
1689.134652045242
 20
248.5610159479247
  0
TEXT
  5
25B6
330
1F
100
AcDbEntity
  8
POPIS
100
AcDbText
 10
1674.058589688771
 20
328.6122415493756
 30
0.0
 40
25.0
  1
03
 41
0.85
  7
SIMPLEX7
100
AcDbText
  0
LINE
  5
25B7
330
1F
100
AcDbEntity
  8
nášlap_vrstvy
100
AcDbLine
 10
1577.779260398628
 20
259.080293899644
 30
0.0
 11
1577.779260398628
 21
252.830293899644
 31
0.0
  0
LINE
  5
25B8
330
1F
100
AcDbEntity
  8
POPIS
100
AcDbLine
 10
1692.854183100483
 20
319.7628804766519
 30
0.0
 11
1692.854183100483
 21
254.3508246752717
 31
0.0
  0
TEXT
  5
25B9
330
1F
100
AcDbEntity
  8
POPIS
100
AcDbText
 10
1561.657869639158
 20
328.6122415493756
 30
0.0
 40
25.0
  1
02
 41
0.85
  7
SIMPLEX7
100
AcDbText
  0
HATCH
  5
25BA
330
1F
100
AcDbEntity
  8
nášlap_vrstvy
100
AcDbHatch
 10
0.0
 20
0.0
 30
0.0
210
0.0
220
0.0
230
1.0
  2
SOLID
 70
     1
 71
     0
 91
        1
 92
        7
 72
     0
 73
     1
 93
        4
 10
1672.634888311156
 20
248.9694217234646
 10
1660.81402195624
 20
248.9694217234646
 10
1660.814021956237
 20
247.4694217234646
 10
1672.634888311156
 20
247.4694217234646
 97
        0
 75
     0
 76
     1
 47
0.1901250437635136
 98
        1
 10
1665.49291933541
 20
248.5610159479247
  0
LWPOLYLINE
  5
25BB
330
1F
100
AcDbEntity
  8
nášlap_vrstvy
100
AcDbPolyline
 90
        4
 70
     1
 43
0.0
 10
1672.634888311156
 20
248.9694217234646
 10
1660.814021956237
 20
248.9694217234646
 10
1660.814021956237
 20
247.4694217234646
 10
1672.634888311156
 20
247.4694217234646
  0
HATCH
  5
25BC
330
1F
100
AcDbEntity
  8
nášlap_vrstvy
100
AcDbHatch
 10
0.0
 20
0.0
 30
0.0
210
0.0
220
0.0
230
1.0
  2
SOLID
 70
     1
 71
     0
 91
        1
 92
        7
 72
     0
 73
     1
 93
        4
 10
1648.993155601321
 20
248.9694217234646
 10
1637.172289246401
 20
248.9694217234646
 10
1637.172289246401
 20
247.4694217234646
 10
1648.993155601321
 20
247.4694217234646
 97
        0
 75
     0
 76
     1
 47
0.1901250437635136
 98
        1
 10
1641.851186625571
 20
248.5610159479247
  0
LWPOLYLINE
  5
25BD
330
1F
100
AcDbEntity
  8
nášlap_vrstvy
100
AcDbPolyline
 90
        4
 70
     1
 43
0.0
 10
1648.993155601317
 20
248.9694217234646
 10
1637.172289246401
 20
248.9694217234646
 10
1637.172289246401
 20
247.4694217234646
 10
1648.993155601317
 20
247.4694217234646
  0
LINE
  5
25BE
330
1F
100
AcDbEntity
  8
nášlap_vrstvy
100
AcDbLine
 10
1582.768384537237
 20
259.080293899644
 30
0.0
 11
1578.126461290939
 21
259.080293899644
 31
0.0
  0
HATCH
  5
25BF
330
1F
100
AcDbEntity
  8
nášlap_vrstvy
100
AcDbHatch
 10
0.0
 20
0.0
 30
0.0
210
0.0
220
0.0
230
1.0
  2
SOLID
 70
     1
 71
     0
 91
        1
 92
        7
 72
     0
 73
     1
 93
        4
 10
1578.067957471815
 20
248.9694217234646
 10
1566.247091116899
 20
248.9694217234646
 10
1566.247091116896
 20
247.4694217234646
 10
1578.067957471815
 20
247.4694217234646
 97
        0
 75
     0
 76
     1
 47
0.1901250437635136
 98
        1
 10
1570.925988496069
 20
248.5610159479247
  0
LWPOLYLINE
  5
25C0
330
1F
100
AcDbEntity
  8
nášlap_vrstvy
100
AcDbPolyline
 90
        4
 70
     1
 43
0.0
 10
1578.067957471815
 20
248.9694217234646
 10
1566.247091116896
 20
248.9694217234646
 10
1566.247091116896
 20
247.4694217234646
 10
1578.067957471815
 20
247.4694217234646
  0
HATCH
  5
25C1
330
1F
100
AcDbEntity
  8
nášlap_vrstvy
100
AcDbHatch
 10
0.0
 20
0.0
 30
0.0
210
0.0
220
0.0
230
1.0
  2
SOLID
 70
     1
 71
     0
 91
        1
 92
        7
 72
     0
 73
     1
 93
        4
 10
1601.70969018165
 20
248.9694217234646
 10
1589.888823826731
 20
248.9694217234646
 10
1589.888823826731
 20
247.4694217234646
 10
1601.70969018165
 20
247.4694217234646
 97
        0
 75
     0
 76
     1
 47
0.1901250437635136
 98
        1
 10
1594.567721205901
 20
248.5610159479247
  0
LWPOLYLINE
  5
25C2
330
1F
100
AcDbEntity
  8
nášlap_vrstvy
100
AcDbPolyline
 90
        4
 70
     1
 43
0.0
 10
1601.709690181647
 20
248.9694217234646
 10
1589.888823826731
 20
248.9694217234646
 10
1589.888823826731
 20
247.4694217234646
 10
1601.709690181647
 20
247.4694217234646
  0
INSERT
  5
25C3
330
1F
100
AcDbEntity
  8
POPIS
100
AcDbBlockReference
  2
E_PUNKT
 10
1580.411326427874
 20
256.2092071657144
 30
0.0
 50
270.0
  0
HATCH
  5
25C4
330
1F
100
AcDbEntity
  8
nášlap_vrstvy
100
AcDbHatch
 10
0.0
 20
0.0
 30
0.0
210
0.0
220
0.0
230
1.0
  2
SOLID
 70
     1
 71
     0
 91
        1
 92
        7
 72
     0
 73
     1
 93
        4
 10
1625.351422891486
 20
248.9694217234646
 10
1613.53055653657
 20
248.9694217234646
 10
1613.530556536566
 20
247.4694217234646
 10
1625.351422891486
 20
247.4694217234646
 97
        0
 75
     0
 76
     1
 47
0.1901250437635136
 98
        1
 10
1618.20945391574
 20
248.5610159479247
  0
LWPOLYLINE
  5
25C5
330
1F
100
AcDbEntity
  8
nášlap_vrstvy
100
AcDbPolyline
 90
        4
 70
     1
 43
0.0
 10
1625.351422891486
 20
248.9694217234646
 10
1613.530556536566
 20
248.9694217234646
 10
1613.530556536566
 20
247.4694217234646
 10
1625.351422891486
 20
247.4694217234646
  0
LINE
  5
25C6
330
1F
100
AcDbEntity
  8
POPIS
100
AcDbLine
 10
1580.453463050871
 20
319.7628804766519
 30
0.0
 11
1580.453463050871
 21
254.3508246752717
 31
0.0
  0
LINE
  5
25C7
330
1F
100
AcDbEntity
  8
SPOJOVACÍ
  6
DASHED
100
AcDbLine
 10
1741.848138701706
 20
238.3519367743634
 30
0.0
 11
1741.47804035818
 21
237.9818384286978
 31
0.0
  0
LINE
  5
25C8
330
1F
100
AcDbEntity
  8
SPOJOVACÍ
  6
DASHED
100
AcDbLine
 10
1737.514524085779
 20
239.3145571019691
 30
0.0
 11
1741.47804035818
 21
237.9818384286978
 31
0.0
  0
LINE
  5
25C9
330
1F
100
AcDbEntity
  8
SPOJOVACÍ
  6
DASHED
100
AcDbLine
 10
1740.81897360172
 20
238.2088199264458
 30
0.0
 11
1740.81897360172
 21
235.7402821925175
 31
0.0
  0
LINE
  5
25CA
330
1F
100
AcDbEntity
  8
SPOJOVACÍ
  6
DASHED
100
AcDbLine
 10
1737.514524085779
 20
236.8562271296983
 30
0.0
 11
1741.47804035818
 21
235.523508456698
 31
0.0
  0
LINE
  5
25CB
330
1F
100
AcDbEntity
  8
SPOJOVACÍ
  6
DASHED
100
AcDbLine
 10
1741.848138701706
 20
235.3092889709119
 30
0.0
 11
1741.47804035818
 21
235.523508456698
 31
0.0
  0
LINE
  5
25CC
330
1F
100
AcDbEntity
  8
SPOJOVACÍ
  6
DASHED
100
AcDbLine
 10
1741.848138701706
 20
235.3092889709119
 30
0.0
 11
1741.47804035818
 21
234.9391906252463
 31
0.0
  0
LINE
  5
25CD
330
1F
100
AcDbEntity
  8
SPOJOVACÍ
  6
DASHED
100
AcDbLine
 10
1737.514524085779
 20
236.2719092985176
 30
0.0
 11
1741.47804035818
 21
234.9391906252463
 31
0.0
  0
LINE
  5
25CE
330
1F
100
AcDbEntity
  8
SPOJOVACÍ
  6
DASHED
100
AcDbLine
 10
1740.81897360172
 20
235.1661721229944
 30
0.0
 11
1740.81897360172
 21
232.697634389066
 31
0.0
  0
LINE
  5
25CF
330
1F
100
AcDbEntity
  8
SPOJOVACÍ
  6
DASHED
100
AcDbLine
 10
1737.514524085779
 20
233.7979021309279
 30
0.0
 11
1741.47804035818
 21
232.4660950298444
 31
0.0
  0
LINE
  5
25D0
330
1F
100
AcDbEntity
  8
SPOJOVACÍ
  6
DASHED
100
AcDbLine
 10
1741.848138701706
 20
232.2518755440583
 30
0.0
 11
1741.47804035818
 21
232.4660950298444
 31
0.0
  0
LINE
  5
25D1
330
1F
100
AcDbEntity
  8
SPOJOVACÍ
  6
DASHED
100
AcDbLine
 10
1741.848138701706
 20
232.2518755440583
 30
0.0
 11
1741.47804035818
 21
231.8817771986637
 31
0.0
  0
LINE
  5
25D2
330
1F
100
AcDbEntity
  8
SPOJOVACÍ
  6
DASHED
100
AcDbLine
 10
1737.514524085779
 20
233.2135842994762
 30
0.0
 11
1741.47804035818
 21
231.8817771986637
 31
0.0
  0
LINE
  5
25D3
330
1F
100
AcDbEntity
  8
SPOJOVACÍ
  6
DASHED
100
AcDbLine
 10
1740.81897360172
 20
232.1133165576144
 30
0.0
 11
1740.81897360172
 21
229.6356631010026
 31
0.0
  0
LINE
  5
25D4
330
1F
100
AcDbEntity
  8
SPOJOVACÍ
  6
DASHED
100
AcDbLine
 10
1737.514524085779
 20
230.7561658996642
 30
0.0
 11
1741.47804035818
 21
229.4234472266639
 31
0.0
  0
LINE
  5
25D5
330
1F
100
AcDbEntity
  8
SPOJOVACÍ
  6
DASHED
100
AcDbLine
 10
1741.848138701706
 20
229.2092277408779
 30
0.0
 11
1741.47804035818
 21
229.4234472266639
 31
0.0
  0
LINE
  5
25D6
330
1F
100
AcDbEntity
  8
SPOJOVACÍ
  6
DASHED
100
AcDbLine
 10
1741.848138701706
 20
229.2092277408779
 30
0.0
 11
1741.47804035818
 21
228.8391293952122
 31
0.0
  0
LINE
  5
25D7
330
1F
100
AcDbEntity
  8
SPOJOVACÍ
  6
DASHED
100
AcDbLine
 10
1737.514524085779
 20
230.1718480684836
 30
0.0
 11
1741.47804035818
 21
228.8391293952122
 31
0.0
  0
LINE
  5
25D8
330
1F
100
AcDbEntity
  8
SPOJOVACÍ
  6
DASHED
100
AcDbLine
 10
1740.81897360172
 20
229.0661108929603
 30
0.0
 11
1740.81897360172
 21
226.597573159032
 31
0.0
  0
LINE
  5
25D9
330
1F
100
AcDbEntity
  8
SPOJOVACÍ
  6
DASHED
100
AcDbLine
 10
1737.514524085779
 20
227.6978409008939
 30
0.0
 11
1741.47804035818
 21
226.3660337998103
 31
0.0
  0
LINE
  5
25DA
330
1F
100
AcDbEntity
  8
SPOJOVACÍ
  6
DASHED
100
AcDbLine
 10
1741.848138701706
 20
226.1518143140242
 30
0.0
 11
1741.47804035818
 21
226.3660337998103
 31
0.0
  0
LINE
  5
25DB
330
1F
100
AcDbEntity
  8
SPOJOVACÍ
  6
DASHED
100
AcDbLine
 10
1741.848138701706
 20
226.1518143140242
 30
0.0
 11
1741.47804035818
 21
225.7817159686297
 31
0.0
  0
LINE
  5
25DC
330
1F
100
AcDbEntity
  8
SPOJOVACÍ
  6
DASHED
100
AcDbLine
 10
1737.514524085779
 20
227.1135230694422
 30
0.0
 11
1741.47804035818
 21
225.7817159686297
 31
0.0
  0
LINE
  5
25DD
330
1F
100
AcDbEntity
  8
SPOJOVACÍ
  6
DASHED
100
AcDbLine
 10
1740.81897360172
 20
226.0132553275803
 30
0.0
 11
1740.81897360172
 21
223.5356018709686
 31
0.0
  0
LINE
  5
25DE
330
1F
100
AcDbEntity
  8
SPOJOVACÍ
  6
DASHED
100
AcDbLine
 10
1737.514524085779
 20
224.6404274740403
 30
0.0
 11
1741.47804035818
 21
223.3077088010328
 31
0.0
  0
LINE
  5
25DF
330
1F
100
AcDbEntity
  8
SPOJOVACÍ
  6
DASHED
100
AcDbLine
 10
1738.173590842239
 20
236.0613361017536
 30
0.0
 11
1738.173590842239
 21
233.5927983678252
 31
0.0
  0
LINE
  5
25E0
330
1F
100
AcDbEntity
  8
SPOJOVACÍ
  6
DASHED
100
AcDbLine
 10
1738.173590842239
 20
239.1039839052051
 30
0.0
 11
1738.173590842239
 21
236.6354461712767
 31
0.0
  0
LINE
  5
25E1
330
1F
100
AcDbEntity
  8
SPOJOVACÍ
  6
DASHED
100
AcDbLine
 10
1738.173590842239
 20
223.8482711629226
 30
0.0
 11
1738.173590842239
 21
221.3706177063109
 31
0.0
  0
LINE
  5
25E2
330
1F
100
AcDbEntity
  8
SPOJOVACÍ
  6
DASHED
100
AcDbLine
 10
1737.514524085779
 20
224.0561096425886
 30
0.0
 11
1741.47804035818
 21
222.7233909695883
 31
0.0
  0
LINE
  5
25E3
330
1F
100
AcDbEntity
  8
SPOJOVACÍ
  6
DASHED
100
AcDbLine
 10
1738.173590842239
 20
226.9011267283027
 30
0.0
 11
1738.173590842239
 21
224.4307658497278
 31
0.0
  0
LINE
  5
25E4
330
1F
100
AcDbEntity
  8
SPOJOVACÍ
  6
DASHED
100
AcDbLine
 10
1738.173590842239
 20
229.9612748717196
 30
0.0
 11
1738.173590842239
 21
227.4927371377912
 31
0.0
  0
LINE
  5
25E5
330
1F
100
AcDbEntity
  8
SPOJOVACÍ
  6
DASHED
100
AcDbLine
 10
1738.173590842239
 20
233.0011879583367
 30
0.0
 11
1738.173590842239
 21
230.5308270797618
 31
0.0
  0
LINE
  5
25E6
330
1F
100
AcDbEntity
  8
SPOJOVACÍ
  6
DASHED
100
AcDbLine
 10
1740.81897360172
 20
222.9531071841634
 30
0.0
 11
1740.81897360172
 21
220.4827463055885
 31
0.0
  0
LINE
  5
25E7
330
1F
100
AcDbEntity
  8
SPOJOVACÍ
  6
DASHED
100
AcDbLine
 10
1738.173590842239
 20
220.7780957243708
 30
0.0
 11
1738.173590842239
 21
218.3104695626303
 31
0.0
  0
LINE
  5
25E8
330
1F
100
AcDbEntity
  8
SPOJOVACÍ
  6
DASHED
100
AcDbLine
 10
1738.173590842239
 20
217.7261517311786
 30
0.0
 11
1738.173590842239
 21
216.5037333041278
 31
0.0
  0
LINE
  5
25E9
330
1F
100
AcDbEntity
  8
SPOJOVACÍ
  6
DASHED
100
AcDbLine
 10
1740.81897360172
 20
219.8938706129343
 30
0.0
 11
1740.81897360172
 21
217.425332879006
 31
0.0
  0
LINE
  5
25EA
330
1F
100
AcDbEntity
  8
SPOJOVACÍ
  6
DASHED
100
AcDbLine
 10
1740.81897360172
 20
216.8337224692537
 30
0.0
 11
1740.81897360172
 21
216.5037333041278
 31
0.0
  0
LINE
  5
25EB
330
1F
100
AcDbEntity
  8
SPOJOVACÍ
  6
DASHED
100
AcDbLine
 10
1738.173590842239
 20
216.5037333041278
 30
0.0
 11
1738.320353978908
 21
215.3305397797581
 31
0.0
  0
LINE
  5
25EC
330
1F
100
AcDbEntity
  8
SPOJOVACÍ
  6
DASHED
100
AcDbLine
 10
1739.496282219841
 20
205.9194675624735
 30
0.0
 11
1739.843591261347
 21
208.6988514437166
 31
0.0
  0
LINE
  5
25ED
330
1F
100
AcDbEntity
  8
SPOJOVACÍ
  6
DASHED
100
AcDbLine
 10
1738.396014479583
 20
214.7225210690217
 30
0.0
 11
1738.680425032112
 21
212.4472366586783
 31
0.0
  0
LINE
  5
25EE
330
1F
100
AcDbEntity
  8
SPOJOVACÍ
  6
DASHED
100
AcDbLine
 10
1738.757908676094
 20
211.829190652807
 30
0.0
 11
1739.042319224344
 21
209.5548178146587
 31
0.0
  0
LINE
  5
25EF
330
1F
100
AcDbEntity
  8
SPOJOVACÍ
  6
DASHED
100
AcDbLine
 10
1739.11797972502
 20
208.9467991039223
 30
0.0
 11
1739.496282219841
 21
205.9194675624735
 31
0.0
  0
LINE
  5
25F0
330
1F
100
AcDbEntity
  8
SPOJOVACÍ
  6
DASHED
100
AcDbLine
 10
1739.913782327826
 20
209.2567336790421
 30
0.0
 11
1740.176315143571
 21
211.3588193563269
 31
0.0
  0
LINE
  5
25F1
330
1F
100
AcDbEntity
  8
SPOJOVACÍ
  6
DASHED
100
AcDbLine
 10
1740.246506205772
 20
211.9194363084866
 30
0.0
 11
1740.508127452002
 21
214.013317835283
 31
0.0
  0
LINE
  5
25F2
330
1F
100
AcDbEntity
  8
SPOJOVACÍ
  6
DASHED
100
AcDbLine
 10
1740.578318518482
 20
214.5721116430673
 30
0.0
 11
1740.81897360172
 21
216.5037333041278
 31
0.0
  0
LINE
  5
25F3
330
1F
100
AcDbEntity
  8
SPOJOVACÍ
  6
DASHED
100
AcDbLine
 10
1737.393284972507
 20
215.1391096010761
 30
0.0
 11
1737.764294889825
 21
214.9248901152901
 31
0.0
  0
LINE
  5
25F4
330
1F
100
AcDbEntity
  8
SPOJOVACÍ
  6
DASHED
100
AcDbLine
 10
1737.393284972507
 20
215.1391096010761
 30
0.0
 11
1737.764294889825
 21
215.5092079467418
 31
0.0
  0
LINE
  5
25F5
330
1F
100
AcDbEntity
  8
SPOJOVACÍ
  6
DASHED
100
AcDbLine
 10
1741.436108032195
 20
214.1856049964177
 30
0.0
 11
1741.066009688669
 21
213.8145950782933
 31
0.0
  0
LINE
  5
25F6
330
1F
100
AcDbEntity
  8
SPOJOVACÍ
  6
DASHED
100
AcDbLine
 10
1741.436108032195
 20
214.1856049964177
 30
0.0
 11
1741.066009688669
 21
214.3989129097449
 31
0.0
  0
LINE
  5
25F7
330
1F
100
AcDbEntity
  8
SPOJOVACÍ
  6
DASHED
100
AcDbLine
 10
1737.764294889825
 20
214.9248901152901
 30
0.0
 11
1741.066009688669
 21
213.8145950782933
 31
0.0
  0
LINE
  5
25F8
330
1F
100
AcDbEntity
  8
SPOJOVACÍ
  6
DASHED
100
AcDbLine
 10
1737.764294889825
 20
215.5092079467418
 30
0.0
 11
1741.066009688669
 21
214.3989129097449
 31
0.0
  0
LINE
  5
25F9
330
1F
100
AcDbEntity
  8
SPOJOVACÍ
  6
DASHED
100
AcDbLine
 10
1737.393284972507
 20
215.1391096010761
 30
0.0
 11
1741.436108032195
 21
214.1856049964177
 31
0.0
  0
LINE
  5
25FA
330
1F
100
AcDbEntity
  8
SPOJOVACÍ
  6
DASHED
100
AcDbLine
 10
1737.946609344491
 20
212.1847038418641
 30
0.0
 11
1738.316707692296
 21
211.9713959285368
 31
0.0
  0
LINE
  5
25FB
330
1F
100
AcDbEntity
  8
SPOJOVACÍ
  6
DASHED
100
AcDbLine
 10
1737.946609344491
 20
212.1847038418641
 30
0.0
 11
1738.316707692296
 21
212.5557137599885
 31
0.0
  0
LINE
  5
25FC
330
1F
100
AcDbEntity
  8
SPOJOVACÍ
  6
DASHED
100
AcDbLine
 10
1741.000376482593
 20
211.5639231194295
 30
0.0
 11
1740.630278139067
 21
211.1929132015762
 31
0.0
  0
LINE
  5
25FD
330
1F
100
AcDbEntity
  8
SPOJOVACÍ
  6
DASHED
100
AcDbLine
 10
1741.000376482593
 20
211.5639231194295
 30
0.0
 11
1740.630278139067
 21
211.7772310327568
 31
0.0
  0
LINE
  5
25FE
330
1F
100
AcDbEntity
  8
SPOJOVACÍ
  6
DASHED
100
AcDbLine
 10
1738.316707692296
 20
211.9713959285368
 30
0.0
 11
1740.630278139067
 21
211.1929132015762
 31
0.0
  0
LINE
  5
25FF
330
1F
100
AcDbEntity
  8
SPOJOVACÍ
  6
DASHED
100
AcDbLine
 10
1738.316707692296
 20
212.5557137599885
 30
0.0
 11
1740.630278139067
 21
211.7772310327568
 31
0.0
  0
LINE
  5
2600
330
1F
100
AcDbEntity
  8
SPOJOVACÍ
  6
DASHED
100
AcDbLine
 10
1737.946609344491
 20
212.1847038418641
 30
0.0
 11
1741.000376482593
 21
211.5639231194295
 31
0.0
  0
LINE
  5
2601
330
1F
100
AcDbEntity
  8
SPOJOVACÍ
  6
DASHED
100
AcDbLine
 10
1738.499933720753
 20
209.2312096551109
 30
0.0
 11
1738.870032064279
 21
209.0169901693321
 31
0.0
  0
LINE
  5
2602
330
1F
100
AcDbEntity
  8
SPOJOVACÍ
  6
DASHED
100
AcDbLine
 10
1738.499933720753
 20
209.2312096551109
 30
0.0
 11
1738.870032064279
 21
209.6013080007765
 31
0.0
  0
LINE
  5
2603
330
1F
100
AcDbEntity
  8
SPOJOVACÍ
  6
DASHED
100
AcDbLine
 10
1740.61113511938
 20
208.9267445136525
 30
0.0
 11
1740.241036775854
 21
208.5557345957991
 31
0.0
  0
LINE
  5
2604
330
1F
100
AcDbEntity
  8
SPOJOVACÍ
  6
DASHED
100
AcDbLine
 10
1740.61113511938
 20
208.9267445136525
 30
0.0
 11
1740.241036775854
 21
209.1400524272435
 31
0.0
  0
LINE
  5
2605
330
1F
100
AcDbEntity
  8
SPOJOVACÍ
  6
DASHED
100
AcDbLine
 10
1738.870032064279
 20
209.0169901693321
 30
0.0
 11
1740.241036775854
 21
208.5557345957991
 31
0.0
  0
LINE
  5
2606
330
1F
100
AcDbEntity
  8
SPOJOVACÍ
  6
DASHED
100
AcDbLine
 10
1738.870032064279
 20
209.6013080007765
 30
0.0
 11
1740.241036775854
 21
209.1400524272435
 31
0.0
  0
LINE
  5
2607
330
1F
100
AcDbEntity
  8
SPOJOVACÍ
  6
DASHED
100
AcDbLine
 10
1738.499933720753
 20
209.2312096551109
 30
0.0
 11
1740.61113511938
 21
208.9267445136525
 31
0.0
  0
LINE
  5
2608
330
1F
100
AcDbEntity
  8
SPOJOVACÍ
  6
DASHED
100
AcDbLine
 10
1741.848138701706
 20
223.0944008874417
 30
0.0
 11
1741.47804035818
 21
222.7233909695883
 31
0.0
  0
LINE
  5
2609
330
1F
100
AcDbEntity
  8
SPOJOVACÍ
  6
DASHED
100
AcDbLine
 10
1741.848138701706
 20
223.0944008874417
 30
0.0
 11
1741.47804035818
 21
223.3077088010328
 31
0.0
  0
LINE
  5
260A
330
1F
100
AcDbEntity
  8
SPOJOVACÍ
  6
DASHED
100
AcDbLine
 10
1741.848138701706
 20
220.0369874608518
 30
0.0
 11
1741.47804035818
 21
219.6659775429985
 31
0.0
  0
LINE
  5
260B
330
1F
100
AcDbEntity
  8
SPOJOVACÍ
  6
DASHED
100
AcDbLine
 10
1741.848138701706
 20
220.0369874608518
 30
0.0
 11
1741.47804035818
 21
220.2502953741791
 31
0.0
  0
LINE
  5
260C
330
1F
100
AcDbEntity
  8
SPOJOVACÍ
  6
DASHED
100
AcDbLine
 10
1737.514524085779
 20
220.998696216006
 30
0.0
 11
1741.47804035818
 21
219.6659775429985
 31
0.0
  0
LINE
  5
260D
330
1F
100
AcDbEntity
  8
SPOJOVACÍ
  6
DASHED
100
AcDbLine
 10
1737.514524085779
 20
221.5830140474504
 30
0.0
 11
1741.47804035818
 21
220.2502953741791
 31
0.0
  0
LINE
  5
260E
330
1F
100
AcDbEntity
  8
SPOJOVACÍ
  6
DASHED
100
AcDbLine
 10
1741.848138701706
 20
216.9786624618105
 30
0.0
 11
1741.47804035818
 21
216.6085641161449
 31
0.0
  0
LINE
  5
260F
330
1F
100
AcDbEntity
  8
SPOJOVACÍ
  6
DASHED
100
AcDbLine
 10
1741.848138701706
 20
216.9786624618105
 30
0.0
 11
1741.47804035818
 21
217.1928819475966
 31
0.0
  0
LINE
  5
2610
330
1F
100
AcDbEntity
  8
SPOJOVACÍ
  6
DASHED
100
AcDbLine
 10
1737.514524085779
 20
217.9412827894162
 30
0.0
 11
1741.47804035818
 21
216.6085641161449
 31
0.0
  0
LINE
  5
2611
330
1F
100
AcDbEntity
  8
SPOJOVACÍ
  6
DASHED
100
AcDbLine
 10
1737.514524085779
 20
218.5256006208679
 30
0.0
 11
1741.47804035818
 21
217.1928819475966
 31
0.0
  0
LINE
  5
2612
330
1F
100
AcDbEntity
  8
SPOJOVACÍ
  6
DASHED
100
AcDbLine
 10
1741.642123366951
 20
243.8805616576688
 30
0.0
 11
1742.581042815535
 21
245.0637824769096
 31
0.0
  0
LINE
  5
2613
330
1F
100
AcDbEntity
  8
SPOJOVACÍ
  6
DASHED
100
AcDbLine
 10
1741.041397234786
 20
242.4949717921595
 30
0.0
 11
1741.642123366951
 21
243.8805616576688
 31
0.0
  0
LINE
  5
2614
330
1F
100
AcDbEntity
  8
SPOJOVACÍ
  6
DASHED
100
AcDbLine
 10
1740.81897360172
 20
241.0018163977988
 30
0.0
 11
1741.041397234786
 21
242.4949717921595
 31
0.0
  0
LINE
  5
2615
330
1F
100
AcDbEntity
  8
SPOJOVACÍ
  6
DASHED
100
AcDbLine
 10
1740.81897360172
 20
241.0018163978007
 30
0.0
 11
1740.81897360172
 21
238.7877651833192
 31
0.0
  0
LINE
  5
2616
330
1F
100
AcDbEntity
  8
SPOJOVACÍ
  6
DASHED
100
AcDbLine
 10
1737.514524085779
 20
239.8988749331497
 30
0.0
 11
1741.47804035818
 21
238.5661562601494
 31
0.0
  0
LINE
  5
2617
330
1F
100
AcDbEntity
  8
SPOJOVACÍ
  6
DASHED
100
AcDbLine
 10
1741.848138701706
 20
238.3519367743634
 30
0.0
 11
1741.47804035818
 21
238.5661562601494
 31
0.0
  0
LINE
  5
2618
330
1F
100
AcDbEntity
  8
SPOJOVACÍ
  6
DASHED
100
AcDbLine
 10
1737.144425737975
 20
239.5278650152964
 30
0.0
 11
1737.514524085779
 21
239.3145571019691
 31
0.0
  0
LINE
  5
2619
330
1F
100
AcDbEntity
  8
SPOJOVACÍ
  6
DASHED
100
AcDbLine
 10
1737.144425737975
 20
239.5278650152964
 30
0.0
 11
1737.514524085779
 21
239.8988749331497
 31
0.0
  0
LINE
  5
261A
330
1F
100
AcDbEntity
  8
SPOJOVACÍ
  6
DASHED
100
AcDbLine
 10
1738.141230026097
 20
241.3874114721289
 30
0.0
 11
1738.173590842239
 21
239.6772660099819
 31
0.0
  0
LINE
  5
261B
330
1F
100
AcDbEntity
  8
SPOJOVACÍ
  6
DASHED
100
AcDbLine
 10
1738.108869209955
 20
241.7730065464589
 30
0.0
 11
1738.173590842239
 21
241.0018163977988
 31
0.0
  0
LINE
  5
261C
330
1F
100
AcDbEntity
  8
SPOJOVACÍ
  6
DASHED
100
AcDbLine
 10
1737.689545962942
 20
243.224229616168
 30
0.0
 11
1738.108869209955
 21
241.7730065464589
 31
0.0
  0
LINE
  5
261D
330
1F
100
AcDbEntity
  8
SPOJOVACÍ
  6
DASHED
100
AcDbLine
 10
1736.909240093211
 20
244.5168391088996
 30
0.0
 11
1737.689545962942
 21
243.224229616168
 31
0.0
  0
LINE
  5
261E
330
1F
100
AcDbEntity
  8
SPOJOVACÍ
  6
DASHED
100
AcDbLine
 10
1735.820822790859
 20
245.5642356585236
 30
0.0
 11
1736.909240093211
 21
244.5168391088996
 31
0.0
  0
LINE
  5
261F
330
1F
100
AcDbEntity
  8
SPOJOVACÍ
  6
DASHED
100
AcDbLine
 10
1737.144425737975
 20
239.5278650152964
 30
0.0
 11
1741.848138701706
 21
238.3519367743634
 31
0.0
  0
LINE
  5
2620
330
1F
100
AcDbEntity
  8
SPOJOVACÍ
  6
DASHED
100
AcDbLine
 10
1734.498131408979
 20
247.4694217234651
 30
0.0
 11
1734.498131408979
 21
246.2934934822683
 31
0.0
  0
LINE
  5
2621
330
1F
100
AcDbEntity
  8
SPOJOVACÍ
  6
DASHED
100
AcDbLine
 10
1734.498131408979
 20
246.2934934822683
 30
0.0
 11
1735.820822790859
 21
245.5642356585236
 31
0.0
  0
LWPOLYLINE
  5
2622
330
1F
100
AcDbEntity
  8
STAVBA OBRYS
100
AcDbPolyline
 90
        3
 70
     0
 43
0.0
 10
1808.668839707724
 20
220.4694217234651
 42
-0.0146172580335466
 10
1802.580422227061
 20
186.8001811008721
 42
-0.0212216680259171
 10
1800.960093717523
 20
180.4694217234651
 42
-0.0212216680259171
  0
LINE
  5
2623
330
1F
100
AcDbEntity
  8
SPOJOVACÍ
  6
DASHED
100
AcDbLine
 10
1794.01450549134
 20
247.4694217234651
 30
0.0
 11
1794.01450549134
 21
246.2934934822683
 31
0.0
  0
LINE
  5
2624
330
1F
100
AcDbEntity
  8
SPOJOVACÍ
  6
DASHED
100
AcDbLine
 10
1793.313506408896
 20
245.9635043171425
 30
0.0
 11
1794.01450549134
 21
246.2934934822683
 31
0.0
  0
LINE
  5
2625
330
1F
100
AcDbEntity
  8
SPOJOVACÍ
  6
DASHED
100
AcDbLine
 10
1792.101115276174
 20
245.0637824769096
 30
0.0
 11
1793.313506408896
 21
245.9635043171425
 31
0.0
  0
LINE
  5
2626
330
1F
100
AcDbEntity
  8
SPOJOVACÍ
  6
DASHED
100
AcDbLine
 10
1791.162195827589
 20
243.8805616576688
 30
0.0
 11
1792.101115276174
 21
245.0637824769096
 31
0.0
  0
LINE
  5
2627
330
1F
100
AcDbEntity
  8
SPOJOVACÍ
  6
DASHED
100
AcDbLine
 10
1790.561469695425
 20
242.4949717921595
 30
0.0
 11
1791.162195827589
 21
243.8805616576688
 31
0.0
  0
LINE
  5
2628
330
1F
100
AcDbEntity
  8
SPOJOVACÍ
  6
DASHED
100
AcDbLine
 10
1790.339046062359
 20
241.0018163977988
 30
0.0
 11
1790.561469695425
 21
242.4949717921595
 31
0.0
  0
LINE
  5
2629
330
1F
100
AcDbEntity
  8
SPOJOVACÍ
  6
DASHED
100
AcDbLine
 10
1790.339046062359
 20
241.0018163978007
 30
0.0
 11
1790.339046062359
 21
238.7877651833192
 31
0.0
  0
LINE
  5
262A
330
1F
100
AcDbEntity
  8
SPOJOVACÍ
  6
DASHED
100
AcDbLine
 10
1787.034596546418
 20
239.8988749331497
 30
0.0
 11
1790.998112818819
 21
238.5661562601494
 31
0.0
  0
LINE
  5
262B
330
1F
100
AcDbEntity
  8
SPOJOVACÍ
  6
DASHED
100
AcDbLine
 10
1791.368211162345
 20
238.3519367743634
 30
0.0
 11
1790.998112818819
 21
238.5661562601494
 31
0.0
  0
LINE
  5
262C
330
1F
100
AcDbEntity
  8
SPOJOVACÍ
  6
DASHED
100
AcDbLine
 10
1791.368211162345
 20
238.3519367743634
 30
0.0
 11
1790.998112818819
 21
237.9818384286978
 31
0.0
  0
LINE
  5
262D
330
1F
100
AcDbEntity
  8
SPOJOVACÍ
  6
DASHED
100
AcDbLine
 10
1787.034596546418
 20
239.3145571019691
 30
0.0
 11
1790.998112818819
 21
237.9818384286978
 31
0.0
  0
LINE
  5
262E
330
1F
100
AcDbEntity
  8
SPOJOVACÍ
  6
DASHED
100
AcDbLine
 10
1790.339046062359
 20
238.2088199264458
 30
0.0
 11
1790.339046062359
 21
235.7402821925175
 31
0.0
  0
LINE
  5
262F
330
1F
100
AcDbEntity
  8
SPOJOVACÍ
  6
DASHED
100
AcDbLine
 10
1787.034596546418
 20
236.8562271296983
 30
0.0
 11
1790.998112818819
 21
235.523508456698
 31
0.0
  0
LINE
  5
2630
330
1F
100
AcDbEntity
  8
SPOJOVACÍ
  6
DASHED
100
AcDbLine
 10
1791.368211162345
 20
235.3092889709119
 30
0.0
 11
1790.998112818819
 21
235.523508456698
 31
0.0
  0
LINE
  5
2631
330
1F
100
AcDbEntity
  8
SPOJOVACÍ
  6
DASHED
100
AcDbLine
 10
1791.368211162345
 20
235.3092889709119
 30
0.0
 11
1790.998112818819
 21
234.9391906252463
 31
0.0
  0
LINE
  5
2632
330
1F
100
AcDbEntity
  8
SPOJOVACÍ
  6
DASHED
100
AcDbLine
 10
1787.034596546418
 20
236.2719092985176
 30
0.0
 11
1790.998112818819
 21
234.9391906252463
 31
0.0
  0
LINE
  5
2633
330
1F
100
AcDbEntity
  8
SPOJOVACÍ
  6
DASHED
100
AcDbLine
 10
1790.339046062359
 20
235.1661721229944
 30
0.0
 11
1790.339046062359
 21
232.697634389066
 31
0.0
  0
LINE
  5
2634
330
1F
100
AcDbEntity
  8
SPOJOVACÍ
  6
DASHED
100
AcDbLine
 10
1787.034596546418
 20
233.7979021309279
 30
0.0
 11
1790.998112818819
 21
232.4660950298444
 31
0.0
  0
LINE
  5
2635
330
1F
100
AcDbEntity
  8
SPOJOVACÍ
  6
DASHED
100
AcDbLine
 10
1791.368211162345
 20
232.2518755440583
 30
0.0
 11
1790.998112818819
 21
232.4660950298444
 31
0.0
  0
LINE
  5
2636
330
1F
100
AcDbEntity
  8
SPOJOVACÍ
  6
DASHED
100
AcDbLine
 10
1791.368211162345
 20
232.2518755440583
 30
0.0
 11
1790.998112818819
 21
231.8817771986637
 31
0.0
  0
LINE
  5
2637
330
1F
100
AcDbEntity
  8
SPOJOVACÍ
  6
DASHED
100
AcDbLine
 10
1787.034596546418
 20
233.2135842994762
 30
0.0
 11
1790.998112818819
 21
231.8817771986637
 31
0.0
  0
LINE
  5
2638
330
1F
100
AcDbEntity
  8
SPOJOVACÍ
  6
DASHED
100
AcDbLine
 10
1790.339046062359
 20
232.1133165576144
 30
0.0
 11
1790.339046062359
 21
229.6356631010026
 31
0.0
  0
LINE
  5
2639
330
1F
100
AcDbEntity
  8
SPOJOVACÍ
  6
DASHED
100
AcDbLine
 10
1787.034596546418
 20
230.7561658996642
 30
0.0
 11
1790.998112818819
 21
229.4234472266639
 31
0.0
  0
LINE
  5
263A
330
1F
100
AcDbEntity
  8
SPOJOVACÍ
  6
DASHED
100
AcDbLine
 10
1791.368211162345
 20
229.2092277408779
 30
0.0
 11
1790.998112818819
 21
229.4234472266639
 31
0.0
  0
LINE
  5
263B
330
1F
100
AcDbEntity
  8
SPOJOVACÍ
  6
DASHED
100
AcDbLine
 10
1791.368211162345
 20
229.2092277408779
 30
0.0
 11
1790.998112818819
 21
228.8391293952122
 31
0.0
  0
LINE
  5
263C
330
1F
100
AcDbEntity
  8
SPOJOVACÍ
  6
DASHED
100
AcDbLine
 10
1787.034596546418
 20
230.1718480684836
 30
0.0
 11
1790.998112818819
 21
228.8391293952122
 31
0.0
  0
LINE
  5
263D
330
1F
100
AcDbEntity
  8
SPOJOVACÍ
  6
DASHED
100
AcDbLine
 10
1790.339046062359
 20
229.0661108929603
 30
0.0
 11
1790.339046062359
 21
226.597573159032
 31
0.0
  0
LINE
  5
263E
330
1F
100
AcDbEntity
  8
SPOJOVACÍ
  6
DASHED
100
AcDbLine
 10
1787.034596546418
 20
227.6978409008939
 30
0.0
 11
1790.998112818819
 21
226.3660337998103
 31
0.0
  0
LINE
  5
263F
330
1F
100
AcDbEntity
  8
SPOJOVACÍ
  6
DASHED
100
AcDbLine
 10
1791.368211162345
 20
226.1518143140242
 30
0.0
 11
1790.998112818819
 21
226.3660337998103
 31
0.0
  0
LINE
  5
2640
330
1F
100
AcDbEntity
  8
SPOJOVACÍ
  6
DASHED
100
AcDbLine
 10
1791.368211162345
 20
226.1518143140242
 30
0.0
 11
1790.998112818819
 21
225.7817159686297
 31
0.0
  0
LINE
  5
2641
330
1F
100
AcDbEntity
  8
SPOJOVACÍ
  6
DASHED
100
AcDbLine
 10
1787.034596546418
 20
227.1135230694422
 30
0.0
 11
1790.998112818819
 21
225.7817159686297
 31
0.0
  0
LINE
  5
2642
330
1F
100
AcDbEntity
  8
SPOJOVACÍ
  6
DASHED
100
AcDbLine
 10
1790.339046062359
 20
226.0132553275803
 30
0.0
 11
1790.339046062359
 21
223.5356018709686
 31
0.0
  0
LINE
  5
2643
330
1F
100
AcDbEntity
  8
SPOJOVACÍ
  6
DASHED
100
AcDbLine
 10
1787.034596546418
 20
224.6404274740403
 30
0.0
 11
1790.998112818819
 21
223.3077088010328
 31
0.0
  0
LINE
  5
2644
330
1F
100
AcDbEntity
  8
SPOJOVACÍ
  6
DASHED
100
AcDbLine
 10
1786.664498198613
 20
236.4852172118449
 30
0.0
 11
1787.034596546418
 21
236.2719092985176
 31
0.0
  0
LINE
  5
2645
330
1F
100
AcDbEntity
  8
SPOJOVACÍ
  6
DASHED
100
AcDbLine
 10
1786.664498198613
 20
236.4852172118449
 30
0.0
 11
1787.034596546418
 21
236.8562271296983
 31
0.0
  0
LINE
  5
2646
330
1F
100
AcDbEntity
  8
SPOJOVACÍ
  6
DASHED
100
AcDbLine
 10
1787.693663302877
 20
239.1039839052051
 30
0.0
 11
1787.693663302877
 21
236.6354461712767
 31
0.0
  0
LINE
  5
2647
330
1F
100
AcDbEntity
  8
SPOJOVACÍ
  6
DASHED
100
AcDbLine
 10
1786.664498198613
 20
239.5278650152964
 30
0.0
 11
1787.034596546418
 21
239.3145571019691
 31
0.0
  0
LINE
  5
2648
330
1F
100
AcDbEntity
  8
SPOJOVACÍ
  6
DASHED
100
AcDbLine
 10
1786.664498198613
 20
239.5278650152964
 30
0.0
 11
1787.034596546418
 21
239.8988749331497
 31
0.0
  0
LINE
  5
2649
330
1F
100
AcDbEntity
  8
SPOJOVACÍ
  6
DASHED
100
AcDbLine
 10
1787.661302486736
 20
241.3874114721289
 30
0.0
 11
1787.693663302877
 21
239.6772660099819
 31
0.0
  0
LINE
  5
264A
330
1F
100
AcDbEntity
  8
SPOJOVACÍ
  6
DASHED
100
AcDbLine
 10
1787.628941670594
 20
241.7730065464589
 30
0.0
 11
1787.693663302877
 21
241.0018163977988
 31
0.0
  0
LINE
  5
264B
330
1F
100
AcDbEntity
  8
SPOJOVACÍ
  6
DASHED
100
AcDbLine
 10
1787.209618423581
 20
243.224229616168
 30
0.0
 11
1787.628941670594
 21
241.7730065464589
 31
0.0
  0
LINE
  5
264C
330
1F
100
AcDbEntity
  8
SPOJOVACÍ
  6
DASHED
100
AcDbLine
 10
1786.429312553849
 20
244.5168391088996
 30
0.0
 11
1787.209618423581
 21
243.224229616168
 31
0.0
  0
LINE
  5
264D
330
1F
100
AcDbEntity
  8
SPOJOVACÍ
  6
DASHED
100
AcDbLine
 10
1785.340895251497
 20
245.5642356585236
 30
0.0
 11
1786.429312553849
 21
244.5168391088996
 31
0.0
  0
LINE
  5
264E
330
1F
100
AcDbEntity
  8
SPOJOVACÍ
  6
DASHED
100
AcDbLine
 10
1784.018203869618
 20
246.2934934822683
 30
0.0
 11
1785.340895251497
 21
245.5642356585236
 31
0.0
  0
LINE
  5
264F
330
1F
100
AcDbEntity
  8
SPOJOVACÍ
  6
DASHED
100
AcDbLine
 10
1784.018203869618
 20
247.4694217234651
 30
0.0
 11
1784.018203869618
 21
246.2934934822683
 31
0.0
  0
LINE
  5
2650
330
1F
100
AcDbEntity
  8
CETRIS
100
AcDbLine
 10
1766.09201892609
 20
247.4694217234651
 30
0.0
 11
1766.09201892609
 21
239.4694217234651
 31
0.0
  0
LINE
  5
2651
330
1F
100
AcDbEntity
  8
CETRIS
100
AcDbLine
 10
1766.09201892609
 20
239.4694217234651
 30
0.0
 11
1756.09201892609
 21
239.4694217234651
 31
0.0
  0
LINE
  5
2652
330
1F
100
AcDbEntity
  8
CETRIS
100
AcDbLine
 10
1756.09201892609
 20
239.4694217234651
 30
0.0
 11
1756.09201892609
 21
231.4694217234651
 31
0.0
  0
LINE
  5
2653
330
1F
100
AcDbEntity
  8
CETRIS
100
AcDbLine
 10
1756.09201892609
 20
231.4694217234651
 30
0.0
 11
1766.09201892609
 21
231.4694217234651
 31
0.0
  0
LINE
  5
2654
330
1F
100
AcDbEntity
  8
CETRIS
100
AcDbLine
 10
1766.09201892609
 20
231.4694217234651
 30
0.0
 11
1766.09201892609
 21
223.4694217234651
 31
0.0
  0
LINE
  5
2655
330
1F
100
AcDbEntity
  8
SPOJOVACÍ
  6
DASHED
100
AcDbLine
 10
1787.693663302877
 20
223.8482711629226
 30
0.0
 11
1787.693663302877
 21
221.3706177063109
 31
0.0
  0
LINE
  5
2656
330
1F
100
AcDbEntity
  8
SPOJOVACÍ
  6
DASHED
100
AcDbLine
 10
1787.034596546418
 20
224.0561096425886
 30
0.0
 11
1790.998112818819
 21
222.7233909695883
 31
0.0
  0
LINE
  5
2657
330
1F
100
AcDbEntity
  8
SPOJOVACÍ
  6
DASHED
100
AcDbLine
 10
1786.664498198613
 20
224.2703291283747
 30
0.0
 11
1787.034596546418
 21
224.0561096425886
 31
0.0
  0
LINE
  5
2658
330
1F
100
AcDbEntity
  8
SPOJOVACÍ
  6
DASHED
100
AcDbLine
 10
1786.664498198613
 20
224.2703291283747
 30
0.0
 11
1787.034596546418
 21
224.6404274740403
 31
0.0
  0
LINE
  5
2659
330
1F
100
AcDbEntity
  8
SPOJOVACÍ
  6
DASHED
100
AcDbLine
 10
1787.693663302877
 20
226.9011267283027
 30
0.0
 11
1787.693663302877
 21
224.4307658497278
 31
0.0
  0
LINE
  5
265A
330
1F
100
AcDbEntity
  8
SPOJOVACÍ
  6
DASHED
100
AcDbLine
 10
1786.664498198613
 20
227.3277425552283
 30
0.0
 11
1787.034596546418
 21
227.1135230694422
 31
0.0
  0
LINE
  5
265B
330
1F
100
AcDbEntity
  8
SPOJOVACÍ
  6
DASHED
100
AcDbLine
 10
1786.664498198613
 20
227.3277425552283
 30
0.0
 11
1787.034596546418
 21
227.6978409008939
 31
0.0
  0
LINE
  5
265C
330
1F
100
AcDbEntity
  8
SPOJOVACÍ
  6
DASHED
100
AcDbLine
 10
1787.693663302877
 20
229.9612748717196
 30
0.0
 11
1787.693663302877
 21
227.4927371377912
 31
0.0
  0
LINE
  5
265D
330
1F
100
AcDbEntity
  8
SPOJOVACÍ
  6
DASHED
100
AcDbLine
 10
1786.664498198613
 20
230.3851559818109
 30
0.0
 11
1787.034596546418
 21
230.1718480684836
 31
0.0
  0
LINE
  5
265E
330
1F
100
AcDbEntity
  8
SPOJOVACÍ
  6
DASHED
100
AcDbLine
 10
1786.664498198613
 20
230.3851559818109
 30
0.0
 11
1787.034596546418
 21
230.7561658996642
 31
0.0
  0
LINE
  5
265F
330
1F
100
AcDbEntity
  8
SPOJOVACÍ
  6
DASHED
100
AcDbLine
 10
1787.693663302877
 20
233.0011879583367
 30
0.0
 11
1787.693663302877
 21
230.5308270797618
 31
0.0
  0
LINE
  5
2660
330
1F
100
AcDbEntity
  8
SPOJOVACÍ
  6
DASHED
100
AcDbLine
 10
1786.664498198613
 20
233.4278037852623
 30
0.0
 11
1787.034596546418
 21
233.2135842994762
 31
0.0
  0
LINE
  5
2661
330
1F
100
AcDbEntity
  8
SPOJOVACÍ
  6
DASHED
100
AcDbLine
 10
1786.664498198613
 20
233.4278037852623
 30
0.0
 11
1787.034596546418
 21
233.7979021309279
 31
0.0
  0
LINE
  5
2662
330
1F
100
AcDbEntity
  8
SPOJOVACÍ
  6
DASHED
100
AcDbLine
 10
1787.693663302877
 20
236.0613361017536
 30
0.0
 11
1787.693663302877
 21
233.5927983678252
 31
0.0
  0
LINE
  5
2663
330
1F
100
AcDbEntity
  8
SPOJOVACÍ
  6
DASHED
100
AcDbLine
 10
1744.494433030702
 20
247.4694217234651
 30
0.0
 11
1744.494433030702
 21
246.2934934822683
 31
0.0
  0
LINE
  5
2664
330
1F
100
AcDbEntity
  8
SPOJOVACÍ
  6
DASHED
100
AcDbLine
 10
1743.793433948257
 20
245.9635043171425
 30
0.0
 11
1744.494433030702
 21
246.2934934822683
 31
0.0
  0
LINE
  5
2665
330
1F
100
AcDbEntity
  8
SPOJOVACÍ
  6
DASHED
100
AcDbLine
 10
1742.581042815535
 20
245.0637824769096
 30
0.0
 11
1743.793433948257
 21
245.9635043171425
 31
0.0
  0
LINE
  5
2666
330
1F
100
AcDbEntity
  8
SPOJOVACÍ
  6
DASHED
100
AcDbLine
 10
1784.018203869618
 20
247.4694217234651
 30
0.0
 11
1794.01450549134
 21
247.4694217234651
 31
0.0
  0
LINE
  5
2667
330
1F
100
AcDbEntity
  8
SPOJOVACÍ
  6
DASHED
100
AcDbLine
 10
1784.018203869618
 20
246.2934934822683
 30
0.0
 11
1794.01450549134
 21
246.2934934822683
 31
0.0
  0
LINE
  5
2668
330
1F
100
AcDbEntity
  8
SPOJOVACÍ
  6
DASHED
100
AcDbLine
 10
1786.664498198613
 20
227.3277425552283
 30
0.0
 11
1791.368211162345
 21
226.1518143140242
 31
0.0
  0
LINE
  5
2669
330
1F
100
AcDbEntity
  8
SPOJOVACÍ
  6
DASHED
100
AcDbLine
 10
1786.664498198613
 20
224.2703291283747
 30
0.0
 11
1791.368211162345
 21
223.0944008874417
 31
0.0
  0
LINE
  5
266A
330
1F
100
AcDbEntity
  8
SPOJOVACÍ
  6
DASHED
100
AcDbLine
 10
1790.339046062359
 20
222.9531071841634
 30
0.0
 11
1790.339046062359
 21
220.4827463055885
 31
0.0
  0
LINE
  5
266B
330
1F
100
AcDbEntity
  8
SPOJOVACÍ
  6
DASHED
100
AcDbLine
 10
1787.693663302877
 20
220.7780957243708
 30
0.0
 11
1787.693663302877
 21
218.3104695626303
 31
0.0
  0
LINE
  5
266C
330
1F
100
AcDbEntity
  8
SPOJOVACÍ
  6
DASHED
100
AcDbLine
 10
1787.693663302877
 20
217.7261517311786
 30
0.0
 11
1787.693663302877
 21
216.5037333041278
 31
0.0
  0
LINE
  5
266D
330
1F
100
AcDbEntity
  8
SPOJOVACÍ
  6
DASHED
100
AcDbLine
 10
1790.339046062359
 20
219.8938706129343
 30
0.0
 11
1790.339046062359
 21
217.425332879006
 31
0.0
  0
LINE
  5
266E
330
1F
100
AcDbEntity
  8
SPOJOVACÍ
  6
DASHED
100
AcDbLine
 10
1790.339046062359
 20
216.8337224692537
 30
0.0
 11
1790.339046062359
 21
216.5037333041278
 31
0.0
  0
LINE
  5
266F
330
1F
100
AcDbEntity
  8
SPOJOVACÍ
  6
DASHED
100
AcDbLine
 10
1787.693663302877
 20
216.5037333041278
 30
0.0
 11
1787.840426439546
 21
215.3305397797581
 31
0.0
  0
LINE
  5
2670
330
1F
100
AcDbEntity
  8
SPOJOVACÍ
  6
DASHED
100
AcDbLine
 10
1789.016354680479
 20
205.9194675624735
 30
0.0
 11
1789.363663721985
 21
208.6988514437166
 31
0.0
  0
LINE
  5
2671
330
1F
100
AcDbEntity
  8
SPOJOVACÍ
  6
DASHED
100
AcDbLine
 10
1787.916086940221
 20
214.7225210690217
 30
0.0
 11
1788.20049749275
 21
212.4472366586783
 31
0.0
  0
LINE
  5
2672
330
1F
100
AcDbEntity
  8
SPOJOVACÍ
  6
DASHED
100
AcDbLine
 10
1788.277981136732
 20
211.829190652807
 30
0.0
 11
1788.562391684983
 21
209.5548178146587
 31
0.0
  0
LINE
  5
2673
330
1F
100
AcDbEntity
  8
SPOJOVACÍ
  6
DASHED
100
AcDbLine
 10
1788.638052185658
 20
208.9467991039223
 30
0.0
 11
1789.016354680479
 21
205.9194675624735
 31
0.0
  0
LINE
  5
2674
330
1F
100
AcDbEntity
  8
SPOJOVACÍ
  6
DASHED
100
AcDbLine
 10
1789.433854788465
 20
209.2567336790421
 30
0.0
 11
1789.696387604209
 21
211.3588193563269
 31
0.0
  0
LINE
  5
2675
330
1F
100
AcDbEntity
  8
SPOJOVACÍ
  6
DASHED
100
AcDbLine
 10
1789.76657866641
 20
211.9194363084866
 30
0.0
 11
1790.028199912641
 21
214.013317835283
 31
0.0
  0
LINE
  5
2676
330
1F
100
AcDbEntity
  8
SPOJOVACÍ
  6
DASHED
100
AcDbLine
 10
1790.09839097912
 20
214.5721116430673
 30
0.0
 11
1790.339046062359
 21
216.5037333041278
 31
0.0
  0
LINE
  5
2677
330
1F
100
AcDbEntity
  8
SPOJOVACÍ
  6
DASHED
100
AcDbLine
 10
1786.664498198613
 20
230.3851559818109
 30
0.0
 11
1791.368211162345
 21
229.2092277408779
 31
0.0
  0
LINE
  5
2678
330
1F
100
AcDbEntity
  8
SPOJOVACÍ
  6
DASHED
100
AcDbLine
 10
1786.913357433146
 20
215.1391096010761
 30
0.0
 11
1787.284367350464
 21
214.9248901152901
 31
0.0
  0
LINE
  5
2679
330
1F
100
AcDbEntity
  8
SPOJOVACÍ
  6
DASHED
100
AcDbLine
 10
1786.913357433146
 20
215.1391096010761
 30
0.0
 11
1787.284367350464
 21
215.5092079467418
 31
0.0
  0
LINE
  5
267A
330
1F
100
AcDbEntity
  8
SPOJOVACÍ
  6
DASHED
100
AcDbLine
 10
1790.956180492834
 20
214.1856049964177
 30
0.0
 11
1790.586082149307
 21
213.8145950782933
 31
0.0
  0
LINE
  5
267B
330
1F
100
AcDbEntity
  8
SPOJOVACÍ
  6
DASHED
100
AcDbLine
 10
1790.956180492834
 20
214.1856049964177
 30
0.0
 11
1790.586082149307
 21
214.3989129097449
 31
0.0
  0
LINE
  5
267C
330
1F
100
AcDbEntity
  8
SPOJOVACÍ
  6
DASHED
100
AcDbLine
 10
1787.284367350464
 20
214.9248901152901
 30
0.0
 11
1790.586082149307
 21
213.8145950782933
 31
0.0
  0
LINE
  5
267D
330
1F
100
AcDbEntity
  8
SPOJOVACÍ
  6
DASHED
100
AcDbLine
 10
1787.284367350464
 20
215.5092079467418
 30
0.0
 11
1790.586082149307
 21
214.3989129097449
 31
0.0
  0
LINE
  5
267E
330
1F
100
AcDbEntity
  8
SPOJOVACÍ
  6
DASHED
100
AcDbLine
 10
1786.913357433146
 20
215.1391096010761
 30
0.0
 11
1790.956180492834
 21
214.1856049964177
 31
0.0
  0
LINE
  5
267F
330
1F
100
AcDbEntity
  8
SPOJOVACÍ
  6
DASHED
100
AcDbLine
 10
1787.466681805129
 20
212.1847038418641
 30
0.0
 11
1787.836780152934
 21
211.9713959285368
 31
0.0
  0
LINE
  5
2680
330
1F
100
AcDbEntity
  8
SPOJOVACÍ
  6
DASHED
100
AcDbLine
 10
1787.466681805129
 20
212.1847038418641
 30
0.0
 11
1787.836780152934
 21
212.5557137599885
 31
0.0
  0
LINE
  5
2681
330
1F
100
AcDbEntity
  8
SPOJOVACÍ
  6
DASHED
100
AcDbLine
 10
1790.520448943232
 20
211.5639231194295
 30
0.0
 11
1790.150350599705
 21
211.1929132015762
 31
0.0
  0
LINE
  5
2682
330
1F
100
AcDbEntity
  8
SPOJOVACÍ
  6
DASHED
100
AcDbLine
 10
1790.520448943232
 20
211.5639231194295
 30
0.0
 11
1790.150350599705
 21
211.7772310327568
 31
0.0
  0
LINE
  5
2683
330
1F
100
AcDbEntity
  8
SPOJOVACÍ
  6
DASHED
100
AcDbLine
 10
1787.836780152934
 20
211.9713959285368
 30
0.0
 11
1790.150350599705
 21
211.1929132015762
 31
0.0
  0
LINE
  5
2684
330
1F
100
AcDbEntity
  8
SPOJOVACÍ
  6
DASHED
100
AcDbLine
 10
1787.836780152934
 20
212.5557137599885
 30
0.0
 11
1790.150350599705
 21
211.7772310327568
 31
0.0
  0
LINE
  5
2685
330
1F
100
AcDbEntity
  8
SPOJOVACÍ
  6
DASHED
100
AcDbLine
 10
1787.466681805129
 20
212.1847038418641
 30
0.0
 11
1790.520448943232
 21
211.5639231194295
 31
0.0
  0
LINE
  5
2686
330
1F
100
AcDbEntity
  8
SPOJOVACÍ
  6
DASHED
100
AcDbLine
 10
1788.020006181391
 20
209.2312096551109
 30
0.0
 11
1788.390104524918
 21
209.0169901693321
 31
0.0
  0
LINE
  5
2687
330
1F
100
AcDbEntity
  8
SPOJOVACÍ
  6
DASHED
100
AcDbLine
 10
1788.020006181391
 20
209.2312096551109
 30
0.0
 11
1788.390104524918
 21
209.6013080007765
 31
0.0
  0
LINE
  5
2688
330
1F
100
AcDbEntity
  8
SPOJOVACÍ
  6
DASHED
100
AcDbLine
 10
1790.131207580019
 20
208.9267445136525
 30
0.0
 11
1789.761109236493
 21
208.5557345957991
 31
0.0
  0
LINE
  5
2689
330
1F
100
AcDbEntity
  8
SPOJOVACÍ
  6
DASHED
100
AcDbLine
 10
1790.131207580019
 20
208.9267445136525
 30
0.0
 11
1789.761109236493
 21
209.1400524272435
 31
0.0
  0
LINE
  5
268A
330
1F
100
AcDbEntity
  8
SPOJOVACÍ
  6
DASHED
100
AcDbLine
 10
1788.390104524918
 20
209.0169901693321
 30
0.0
 11
1789.761109236493
 21
208.5557345957991
 31
0.0
  0
LINE
  5
268B
330
1F
100
AcDbEntity
  8
SPOJOVACÍ
  6
DASHED
100
AcDbLine
 10
1788.390104524918
 20
209.6013080007765
 30
0.0
 11
1789.761109236493
 21
209.1400524272435
 31
0.0
  0
LINE
  5
268C
330
1F
100
AcDbEntity
  8
SPOJOVACÍ
  6
DASHED
100
AcDbLine
 10
1788.020006181391
 20
209.2312096551109
 30
0.0
 11
1790.131207580019
 21
208.9267445136525
 31
0.0
  0
LINE
  5
268D
330
1F
100
AcDbEntity
  8
SPOJOVACÍ
  6
DASHED
100
AcDbLine
 10
1791.368211162345
 20
223.0944008874417
 30
0.0
 11
1790.998112818819
 21
222.7233909695883
 31
0.0
  0
LINE
  5
268E
330
1F
100
AcDbEntity
  8
SPOJOVACÍ
  6
DASHED
100
AcDbLine
 10
1791.368211162345
 20
223.0944008874417
 30
0.0
 11
1790.998112818819
 21
223.3077088010328
 31
0.0
  0
LINE
  5
268F
330
1F
100
AcDbEntity
  8
SPOJOVACÍ
  6
DASHED
100
AcDbLine
 10
1786.664498198613
 20
221.2129157017848
 30
0.0
 11
1791.368211162345
 21
220.0369874608518
 31
0.0
  0
LINE
  5
2690
330
1F
100
AcDbEntity
  8
SPOJOVACÍ
  6
DASHED
100
AcDbLine
 10
1786.664498198613
 20
221.2129157017848
 30
0.0
 11
1787.034596546418
 21
220.998696216006
 31
0.0
  0
LINE
  5
2691
330
1F
100
AcDbEntity
  8
SPOJOVACÍ
  6
DASHED
100
AcDbLine
 10
1786.664498198613
 20
221.2129157017848
 30
0.0
 11
1787.034596546418
 21
221.5830140474504
 31
0.0
  0
LINE
  5
2692
330
1F
100
AcDbEntity
  8
SPOJOVACÍ
  6
DASHED
100
AcDbLine
 10
1791.368211162345
 20
220.0369874608518
 30
0.0
 11
1790.998112818819
 21
219.6659775429985
 31
0.0
  0
LINE
  5
2693
330
1F
100
AcDbEntity
  8
SPOJOVACÍ
  6
DASHED
100
AcDbLine
 10
1791.368211162345
 20
220.0369874608518
 30
0.0
 11
1790.998112818819
 21
220.2502953741791
 31
0.0
  0
LINE
  5
2694
330
1F
100
AcDbEntity
  8
SPOJOVACÍ
  6
DASHED
100
AcDbLine
 10
1787.034596546418
 20
220.998696216006
 30
0.0
 11
1790.998112818819
 21
219.6659775429985
 31
0.0
  0
LINE
  5
2695
330
1F
100
AcDbEntity
  8
SPOJOVACÍ
  6
DASHED
100
AcDbLine
 10
1787.034596546418
 20
221.5830140474504
 30
0.0
 11
1790.998112818819
 21
220.2502953741791
 31
0.0
  0
LINE
  5
2696
330
1F
100
AcDbEntity
  8
SPOJOVACÍ
  6
DASHED
100
AcDbLine
 10
1786.664498198613
 20
218.1545907027435
 30
0.0
 11
1791.368211162345
 21
216.9786624618105
 31
0.0
  0
LINE
  5
2697
330
1F
100
AcDbEntity
  8
SPOJOVACÍ
  6
DASHED
100
AcDbLine
 10
1786.664498198613
 20
218.1545907027435
 30
0.0
 11
1787.034596546418
 21
217.9412827894162
 31
0.0
  0
LINE
  5
2698
330
1F
100
AcDbEntity
  8
SPOJOVACÍ
  6
DASHED
100
AcDbLine
 10
1786.664498198613
 20
218.1545907027435
 30
0.0
 11
1787.034596546418
 21
218.5256006208679
 31
0.0
  0
LINE
  5
2699
330
1F
100
AcDbEntity
  8
SPOJOVACÍ
  6
DASHED
100
AcDbLine
 10
1791.368211162345
 20
216.9786624618105
 30
0.0
 11
1790.998112818819
 21
216.6085641161449
 31
0.0
  0
LINE
  5
269A
330
1F
100
AcDbEntity
  8
SPOJOVACÍ
  6
DASHED
100
AcDbLine
 10
1791.368211162345
 20
216.9786624618105
 30
0.0
 11
1790.998112818819
 21
217.1928819475966
 31
0.0
  0
LINE
  5
269B
330
1F
100
AcDbEntity
  8
SPOJOVACÍ
  6
DASHED
100
AcDbLine
 10
1787.034596546418
 20
217.9412827894162
 30
0.0
 11
1790.998112818819
 21
216.6085641161449
 31
0.0
  0
LINE
  5
269C
330
1F
100
AcDbEntity
  8
SPOJOVACÍ
  6
DASHED
100
AcDbLine
 10
1787.034596546418
 20
218.5256006208679
 30
0.0
 11
1790.998112818819
 21
217.1928819475966
 31
0.0
  0
LINE
  5
269D
330
1F
100
AcDbEntity
  8
SPOJOVACÍ
  6
DASHED
100
AcDbLine
 10
1786.664498198613
 20
233.4278037852623
 30
0.0
 11
1791.368211162345
 21
232.2518755440583
 31
0.0
  0
LINE
  5
269E
330
1F
100
AcDbEntity
  8
SPOJOVACÍ
  6
DASHED
100
AcDbLine
 10
1786.664498198613
 20
236.4852172118449
 30
0.0
 11
1791.368211162345
 21
235.3092889709119
 31
0.0
  0
LINE
  5
269F
330
1F
100
AcDbEntity
  8
SPOJOVACÍ
  6
DASHED
100
AcDbLine
 10
1786.664498198613
 20
239.5278650152964
 30
0.0
 11
1791.368211162345
 21
238.3519367743634
 31
0.0
  0
LWPOLYLINE
  5
26A0
330
1F
100
AcDbEntity
  8
STAVBA OBRYS
100
AcDbPolyline
 90
        4
 70
     0
 43
0.0
 10
1793.482832216171
 20
220.3926722005385
 42
-0.0135911980674875
 10
1787.904135180333
 20
189.8996324268396
 42
-0.0219777111230329
 10
1786.544966427356
 20
184.6224625430864
 42
-0.0117780509051499
 10
1783.938754124783
 20
180.4694217234651
 42
-0.0117780509051499
  0
LWPOLYLINE
  5
26A1
330
1F
100
AcDbEntity
  8
STAVBA OBRYS
100
AcDbPolyline
 90
        3
 70
     0
 43
0.0
 10
1763.306165917967
 20
189.466451674341
 10
1780.061383537695
 20
181.0827108063727
 10
1780.673608377123
 20
180.4694217234651
  0
LWPOLYLINE
  5
26A2
330
1F
100
AcDbEntity
  8
STAVBA OBRYS
100
AcDbPolyline
 90
        6
 70
     0
 43
0.0
 10
1778.198237810168
 20
220.3926722005385
 42
-0.0128837512779301
 10
1777.77104986983
 20
215.392924967919
 42
-0.0351641677647434
 10
1776.829410287545
 20
209.9873607864106
 42
-0.0187319685742942
 10
1771.753386466059
 20
192.3500047731964
 42
-0.0582629403736403
 10
1769.264136663937
 20
186.9802534747982
 42
-0.0236084222362755
 10
1764.831950757948
 20
180.4694217234651
 42
-0.0236084222362755
  0
LWPOLYLINE
  5
26A3
330
1F
100
AcDbEntity
  8
STAVBA OBRYS
100
AcDbPolyline
 90
        4
 70
     0
 43
0.0
 10
1767.815306992271
 20
220.4694217234651
 42
-0.0135911980674876
 10
1764.096175635045
 20
200.1407285409992
 42
-0.0219777111230329
 10
1763.190063133062
 20
196.6226152851637
 42
-0.0757738131361498
 10
1749.908965276842
 20
180.4694217234651
 42
-0.0757738131361498
  0
LWPOLYLINE
  5
26A4
330
1F
100
AcDbEntity
  8
STAVBA OBRYS
100
AcDbPolyline
 90
        3
 70
     0
 43
0.0
 10
1742.09299400904
 20
213.9702521542099
 10
1762.089246441033
 20
204.7542231036901
 10
1766.089184074747
 20
204.1088256283479
  0
LWPOLYLINE
  5
26A5
330
1F
100
AcDbEntity
  8
izolace
100
AcDbPolyline
 90
        4
 70
     1
 43
0.0
 10
1766.09201892609
 20
220.4694217234651
 10
1716.09201892609
 20
220.4694217234651
 10
1716.09201892609
 20
223.4694217234642
 10
1766.09201892609
 20
223.4694217234642
  0
LWPOLYLINE
  5
26A6
330
1F
100
AcDbEntity
  8
STAVBA OBRYS
100
AcDbPolyline
 90
        3
 70
     0
 43
0.0
 10
1722.800416383795
 20
214.9520910279466
 10
1739.555634003523
 20
206.5683501599783
 10
1747.722738652647
 20
198.3870484588811
  0
LWPOLYLINE
  5
26A7
330
1F
100
AcDbEntity
  8
STAVBA OBRYS
100
AcDbPolyline
 90
        8
 70
     0
 43
0.0
 10
1749.001362008225
 20
220.4694217234651
 42
-0.0120721047703132
 10
1748.932379318187
 20
218.735533584721
 42
-0.044358077361292
 10
1748.536751583514
 20
216.0397335663042
 42
-0.0188067511131767
 10
1746.516928135131
 20
208.7975043909978
 42
-0.0457786284636091
 10
1745.308905245515
 20
205.9488940081178
 42
-0.0295006114745606
 10
1742.892844791216
 20
202.0219947947158
 42
-0.0258674098621065
 10
1739.660169477252
 20
197.8762147159619
 42
-0.2409478365688615
 10
1716.092018926092
 20
183.4516672709883
 42
-0.0884720560394402
  0
HATCH
  5
26A8
330
1F
100
AcDbEntity
  8
izolace
100
AcDbHatch
 10
0.0
 20
0.0
 30
0.0
210
0.0
220
0.0
230
1.0
  2
SOLID
 70
     1
 71
     0
 91
       10
 92
        7
 72
     0
 73
     1
 93
        4
 10
1766.09201892609
 20
223.4694217234642
 10
1762.16759791867
 20
223.4694217234642
 10
1762.16759791867
 20
220.4694217234651
 10
1766.09201892609
 20
220.4694217234651
 97
        0
 92
        7
 72
     0
 73
     1
 93
        9
 10
1749.725653016901
 20
223.4694217234642
 10
1744.328793759517
 20
223.4694217234642
 10
1744.636480749206
 20
223.3660337998094
 10
1745.006579092729
 20
223.1518143140243
 10
1744.636480749202
 20
222.7817159686306
 10
1743.977413992742
 20
223.0031733125238
 10
1743.977413992742
 20
220.5293177242024
 10
1744.155545190562
 20
220.4694217234651
 10
1749.7256530169
 20
220.4694217234651
 97
        0
 92
        7
 72
     0
 73
     1
 93
        9
 10
1741.332031233261
 20
223.4694217234642
 10
1735.909735203096
 20
223.4694217234642
 10
1735.909735203096
 20
220.4694217234651
 10
1741.332031233261
 20
220.4694217234651
 10
1741.332031233261
 20
220.8345007194189
 10
1740.672964476805
 20
221.0561096425877
 10
1740.302866128996
 20
221.2703291283756
 10
1740.672964476801
 20
221.6404274740412
 10
1741.332031233261
 20
221.4188185508715
 97
        0
 92
        7
 72
     0
 73
     1
 93
        5
 10
1743.977413992742
 20
223.0031733125229
 10
1742.589838297567
 20
223.4694217234642
 10
1741.332031233262
 20
223.4694217234642
 10
1741.332031233262
 20
221.4188185508706
 10
1743.977413992742
 20
220.5293177242015
 97
        0
 92
        7
 72
     0
 73
     1
 93
        4
 10
1743.736149455261
 20
223.4694217234642
 10
1742.589838297568
 20
223.4694217234651
 10
1744.636480749202
 20
222.7817159686288
 10
1745.006579092728
 20
223.1518143140243
 97
        0
 92
       23
 72
     0
 73
     1
 93
        4
 10
1744.32879375952
 20
223.4694217234642
 10
1743.736149455256
 20
223.4694217234642
 10
1745.006579092728
 20
223.1518143140224
 10
1744.6364807492
 20
223.3660337998113
 97
        0
 92
        7
 72
     0
 73
     1
 93
        4
 10
1740.672964476802
 20
221.6404274740394
 10
1740.302866128997
 20
221.2703291283747
 10
1743.506495748634
 20
220.4694217234651
 10
1744.155545190559
 20
220.4694217234651
 97
        0
 92
        7
 72
     0
 73
     1
 93
        4
 10
1740.302866128993
 20
221.2703291283765
 10
1740.672964476805
 20
221.0561096425886
 10
1742.417779163788
 20
220.4694217234651
 10
1743.506495748635
 20
220.4694217234651
 97
        0
 92
       23
 72
     0
 73
     1
 93
        3
 10
1741.332031233261
 20
220.8345007194198
 10
1741.332031233261
 20
220.4694217234651
 10
1742.417779163781
 20
220.4694217234651
 97
        0
 92
        7
 72
     0
 73
     1
 93
        4
 10
1722.423543708264
 20
223.4694217234642
 10
1716.09201892609
 20
223.4694217234642
 10
1716.09201892609
 20
220.4694217234651
 10
1722.423543708266
 20
220.469421723466
 97
        0
 75
     0
 76
     1
 47
0.0980096762587744
 98
       10
 10
1763.800770938056
 20
222.5878683105989
 10
1747.997973175196
 20
221.8358154216371
 10
1738.872005965733
 20
221.8724182812844
 10
1742.4159268655
 20
221.8170778440804
 10
1743.783472860615
 20
223.1720043228093
 10
1744.344851312669
 20
223.3880484242768
 10
1742.035521333838
 20
220.988564902746
 10
1742.27377025829
 20
220.6771721971386
 10
1741.613977871429
 20
220.6405357876652
 10
1718.568384492811
 20
221.7114629933281
  0
LINE
  5
26A9
330
1F
100
AcDbEntity
  8
SPOJOVACÍ
  6
DASHED
100
AcDbLine
 10
1734.498131408979
 20
247.4694217234651
 30
0.0
 11
1744.494433030702
 21
247.4694217234651
 31
0.0
  0
LINE
  5
26AA
330
1F
100
AcDbEntity
  8
SPOJOVACÍ
  6
DASHED
100
AcDbLine
 10
1734.498131408979
 20
246.2934934822683
 30
0.0
 11
1744.494433030702
 21
246.2934934822683
 31
0.0
  0
LWPOLYLINE
  5
26AB
330
1F
100
AcDbEntity
  8
STAVBA OBRYS
100
AcDbPolyline
 90
        6
 70
     0
 43
0.0
 10
1757.625577388267
 20
220.4694217234651
 42
-0.0128837512779301
 10
1757.340785428042
 20
217.1362569017188
 42
-0.0351641677647434
 10
1756.713025706519
 20
213.5325474473798
 42
-0.0187319685742942
 10
1753.329009825528
 20
201.774310105237
 42
-0.0582629403736403
 10
1751.669509957447
 20
198.1944759063049
 42
-0.1129599987265478
 10
1734.293968105738
 20
180.4694217234651
 42
-0.1129599987265478
  0
LWPOLYLINE
  5
26AC
330
1F
100
AcDbEntity
  8
izolace
100
AcDbPolyline
 90
        4
 70
     1
 43
0.0
 10
1816.09201892609
 20
220.4694217234651
 10
1766.09201892609
 20
220.4694217234651
 10
1766.09201892609
 20
223.4694217234642
 10
1816.09201892609
 20
223.4694217234642
  0
LWPOLYLINE
  5
26AD
330
1F
100
AcDbEntity
  8
STAVBA OBRYS
100
AcDbPolyline
 90
        3
 70
     0
 43
0.0
 10
1794.149794468879
 20
203.1310045657142
 10
1814.146046900872
 20
193.9149755151943
 10
1816.09201892609
 20
193.6009892616144
  0
HATCH
  5
26AE
330
1F
100
AcDbEntity
  8
izolace
100
AcDbHatch
 10
0.0
 20
0.0
 30
0.0
210
0.0
220
0.0
230
1.0
  2
SOLID
 70
     1
 71
     0
 91
       10
 92
        7
 72
     0
 73
     1
 93
        4
 10
1816.09201892609
 20
223.4694217234642
 10
1812.16759791867
 20
223.4694217234642
 10
1812.16759791867
 20
220.4694217234651
 10
1816.09201892609
 20
220.4694217234651
 97
        0
 92
        7
 72
     0
 73
     1
 93
        9
 10
1799.725653016901
 20
223.4694217234642
 10
1794.328793759517
 20
223.4694217234642
 10
1794.636480749206
 20
223.3660337998094
 10
1795.006579092729
 20
223.1518143140243
 10
1794.636480749202
 20
222.7817159686306
 10
1793.977413992742
 20
223.0031733125238
 10
1793.977413992742
 20
220.5293177242024
 10
1794.155545190562
 20
220.4694217234651
 10
1799.7256530169
 20
220.4694217234651
 97
        0
 92
        7
 72
     0
 73
     1
 93
        9
 10
1791.332031233261
 20
223.4694217234642
 10
1785.909735203096
 20
223.4694217234642
 10
1785.909735203096
 20
220.4694217234651
 10
1791.332031233261
 20
220.4694217234651
 10
1791.332031233261
 20
220.8345007194189
 10
1790.672964476805
 20
221.0561096425877
 10
1790.302866128997
 20
221.2703291283756
 10
1790.672964476801
 20
221.6404274740412
 10
1791.332031233261
 20
221.4188185508715
 97
        0
 92
        7
 72
     0
 73
     1
 93
        5
 10
1793.977413992742
 20
223.0031733125229
 10
1792.589838297567
 20
223.4694217234642
 10
1791.332031233262
 20
223.4694217234642
 10
1791.332031233262
 20
221.4188185508706
 10
1793.977413992742
 20
220.5293177242015
 97
        0
 92
        7
 72
     0
 73
     1
 93
        4
 10
1793.736149455261
 20
223.4694217234642
 10
1792.589838297568
 20
223.4694217234651
 10
1794.636480749202
 20
222.7817159686288
 10
1795.006579092728
 20
223.1518143140243
 97
        0
 92
       23
 72
     0
 73
     1
 93
        4
 10
1794.32879375952
 20
223.4694217234642
 10
1793.736149455256
 20
223.4694217234642
 10
1795.006579092728
 20
223.1518143140224
 10
1794.6364807492
 20
223.3660337998113
 97
        0
 92
        7
 72
     0
 73
     1
 93
        4
 10
1790.672964476802
 20
221.6404274740394
 10
1790.302866128997
 20
221.2703291283747
 10
1793.506495748634
 20
220.4694217234651
 10
1794.155545190559
 20
220.4694217234651
 97
        0
 92
        7
 72
     0
 73
     1
 93
        4
 10
1790.302866128993
 20
221.2703291283765
 10
1790.672964476805
 20
221.0561096425886
 10
1792.417779163788
 20
220.4694217234651
 10
1793.506495748635
 20
220.4694217234651
 97
        0
 92
       23
 72
     0
 73
     1
 93
        3
 10
1791.332031233261
 20
220.8345007194198
 10
1791.332031233261
 20
220.4694217234651
 10
1792.417779163781
 20
220.4694217234651
 97
        0
 92
        7
 72
     0
 73
     1
 93
        4
 10
1772.423543708264
 20
223.4694217234642
 10
1766.09201892609
 20
223.4694217234642
 10
1766.09201892609
 20
220.4694217234651
 10
1772.423543708265
 20
220.469421723466
 97
        0
 75
     0
 76
     1
 47
0.0980096762587744
 98
       10
 10
1813.800770938056
 20
222.5878683105989
 10
1797.997973175196
 20
221.8358154216371
 10
1788.872005965733
 20
221.8724182812844
 10
1792.415926865499
 20
221.8170778440804
 10
1793.783472860615
 20
223.1720043228093
 10
1794.344851312669
 20
223.3880484242768
 10
1792.035521333838
 20
220.988564902746
 10
1792.27377025829
 20
220.6771721971386
 10
1791.613977871429
 20
220.6405357876652
 10
1768.568384492811
 20
221.7114629933281
  0
LWPOLYLINE
  5
26AF
330
1F
100
AcDbEntity
  8
STAVBA OBRYS
100
AcDbPolyline
 90
        4
 70
     1
 43
0.0
 10
1716.09201892609
 20
180.4694217234651
 10
1816.09201892609
 20
180.4694217234651
 10
1816.09201892609
 20
220.4694217234651
 10
1716.09201892609
 20
220.4694217234651
  0
LINE
  5
26B0
330
1F
100
AcDbEntity
  8
nášlap_vrstvy
100
AcDbLine
 10
1842.052231029825
 20
259.080293899644
 30
0.0
 11
1837.410307783527
 21
259.080293899644
 31
0.0
  0
LINE
  5
26B1
330
1F
100
AcDbEntity
  8
nášlap_vrstvy
100
AcDbLine
 10
1842.052231029821
 20
252.830293899644
 30
0.0
 11
1837.410307783527
 21
252.830293899644
 31
0.0
  0
HATCH
  5
26B2
330
1F
100
AcDbEntity
  8
nášlap_vrstvy
100
AcDbHatch
 10
0.0
 20
0.0
 30
0.0
210
0.0
220
0.0
230
1.0
  2
SOLID
 70
     1
 71
     0
 91
        1
 92
        7
 72
     0
 73
     1
 93
        4
 10
1833.371966523925
 20
248.9694217234646
 10
1821.551100169009
 20
248.9694217234646
 10
1821.551100169006
 20
247.4694217234646
 10
1833.371966523925
 20
247.4694217234646
 97
        0
 75
     0
 76
     1
 47
0.1901250437635136
 98
        1
 10
1826.229997548179
 20
248.5610159479247
  0
LWPOLYLINE
  5
26B3
330
1F
100
AcDbEntity
  8
nášlap_vrstvy
100
AcDbPolyline
 90
        4
 70
     1
 43
0.0
 10
1833.371966523925
 20
248.9694217234646
 10
1821.551100169006
 20
248.9694217234646
 10
1821.551100169006
 20
247.4694217234646
 10
1833.371966523925
 20
247.4694217234646
  0
TEXT
  5
26B4
330
1F
100
AcDbEntity
  8
POPIS
100
AcDbText
 10
1731.84887387586
 20
328.6122415493756
 30
0.0
 40
25.0
  1
04
 41
0.85
  7
SIMPLEX7
100
AcDbText
  0
HATCH
  5
26B5
330
1F
100
AcDbEntity
  8
nášlap_vrstvy
100
AcDbHatch
 10
0.0
 20
0.0
 30
0.0
210
0.0
220
0.0
230
1.0
  2
SOLID
 70
     1
 71
     0
 91
        1
 92
        7
 72
     0
 73
     1
 93
        4
 10
1767.201819150497
 20
248.9694217234646
 10
1755.380952795581
 20
248.9694217234646
 10
1755.380952795577
 20
247.4694217234646
 10
1767.201819150497
 20
247.4694217234646
 97
        0
 75
     0
 76
     1
 47
0.1901250437635136
 98
        1
 10
1760.059850174751
 20
248.5610159479247
  0
LWPOLYLINE
  5
26B6
330
1F
100
AcDbEntity
  8
nášlap_vrstvy
100
AcDbPolyline
 90
        4
 70
     1
 43
0.0
 10
1767.201819150497
 20
248.9694217234646
 10
1755.380952795577
 20
248.9694217234646
 10
1755.380952795577
 20
247.4694217234646
 10
1767.201819150497
 20
247.4694217234646
  0
HATCH
  5
26B7
330
1F
100
AcDbEntity
  8
nášlap_vrstvy
100
AcDbHatch
 10
0.0
 20
0.0
 30
0.0
210
0.0
220
0.0
230
1.0
  2
SOLID
 70
     1
 71
     0
 91
        1
 92
        7
 72
     0
 73
     1
 93
        4
 10
1790.843551860332
 20
248.9694217234646
 10
1779.022685505412
 20
248.9694217234646
 10
1779.022685505412
 20
247.4694217234646
 10
1790.843551860332
 20
247.4694217234646
 97
        0
 75
     0
 76
     1
 47
0.1901250437635136
 98
        1
 10
1783.701582884583
 20
248.5610159479247
  0
LWPOLYLINE
  5
26B8
330
1F
100
AcDbEntity
  8
nášlap_vrstvy
100
AcDbPolyline
 90
        4
 70
     1
 43
0.0
 10
1790.843551860328
 20
248.9694217234646
 10
1779.022685505412
 20
248.9694217234646
 10
1779.022685505412
 20
247.4694217234646
 10
1790.843551860328
 20
247.4694217234646
  0
INSERT
  5
26B9
330
1F
100
AcDbEntity
  8
POPIS
100
AcDbBlockReference
  2
E_PUNKT
 10
1802.770025467546
 20
248.2917688608513
 30
0.0
 50
270.0
  0
HATCH
  5
26BA
330
1F
100
AcDbEntity
  8
nášlap_vrstvy
100
AcDbHatch
 10
0.0
 20
0.0
 30
0.0
210
0.0
220
0.0
230
1.0
  2
SOLID
 70
     1
 71
     0
 91
        1
 92
        7
 72
     0
 73
     1
 93
        4
 10
1809.730233814086
 20
248.9694217234646
 10
1797.909367459171
 20
248.9694217234646
 10
1797.909367459171
 20
247.4694217234646
 10
1809.73023381409
 20
247.4694217234646
 97
        0
 75
     0
 76
     1
 47
0.1901250437635136
 98
        3
 10
1823.851978946182
 20
248.0856992587705
 10
1805.68388353251
 20
247.9906359209399
 10
1803.686347437898
 20
248.2758259344318
  0
LWPOLYLINE
  5
26BB
330
1F
100
AcDbEntity
  8
nášlap_vrstvy
100
AcDbPolyline
 90
        4
 70
     1
 43
0.0
 10
1809.730233814086
 20
248.9694217234646
 10
1797.909367459171
 20
248.9694217234646
 10
1797.909367459171
 20
247.4694217234646
 10
1809.730233814086
 20
247.4694217234646
  0
HATCH
  5
26BC
330
1F
100
AcDbEntity
  8
nášlap_vrstvy
100
AcDbHatch
 10
0.0
 20
0.0
 30
0.0
210
0.0
220
0.0
230
1.0
  2
SOLID
 70
     1
 71
     0
 91
        1
 92
        7
 72
     0
 73
     1
 93
        4
 10
1743.560086440662
 20
248.9694217234646
 10
1731.739220085742
 20
248.9694217234646
 10
1731.739220085742
 20
247.4694217234646
 10
1743.560086440662
 20
247.4694217234646
 97
        0
 75
     0
 76
     1
 47
0.1901250437635136
 98
        1
 10
1736.418117464912
 20
248.5610159479247
  0
LWPOLYLINE
  5
26BD
330
1F
100
AcDbEntity
  8
nášlap_vrstvy
100
AcDbPolyline
 90
        4
 70
     1
 43
0.0
 10
1743.560086440658
 20
248.9694217234646
 10
1731.739220085742
 20
248.9694217234646
 10
1731.739220085742
 20
247.4694217234646
 10
1743.560086440658
 20
247.4694217234646
  0
LINE
  5
26BE
330
1F
100
AcDbEntity
  8
nášlap_vrstvy
100
AcDbLine
 10
1712.410307783531
 20
259.080293899644
 30
0.0
 11
1707.768384537233
 21
259.080293899644
 31
0.0
  0
HATCH
  5
26BF
330
1F
100
AcDbEntity
  8
nášlap_vrstvy
100
AcDbHatch
 10
0.0
 20
0.0
 30
0.0
210
0.0
220
0.0
230
1.0
  2
SOLID
 70
     1
 71
     0
 91
        1
 92
        7
 72
     0
 73
     1
 93
        4
 10
1719.918353730826
 20
248.9694217234646
 10
1708.097487375911
 20
248.9694217234646
 10
1708.097487375907
 20
247.4694217234646
 10
1719.918353730826
 20
247.4694217234646
 97
        0
 75
     0
 76
     1
 47
0.1901250437635136
 98
        1
 10
1712.77638475508
 20
248.5610159479247
  0
LWPOLYLINE
  5
26C0
330
1F
100
AcDbEntity
  8
nášlap_vrstvy
100
AcDbPolyline
 90
        4
 70
     1
 43
0.0
 10
1719.918353730826
 20
248.9694217234646
 10
1708.097487375907
 20
248.9694217234646
 10
1708.097487375907
 20
247.4694217234646
 10
1719.918353730826
 20
247.4694217234646
  0
INSERT
  5
26C1
330
1F
100
AcDbEntity
  8
POPIS
100
AcDbBlockReference
  2
E_PUNKT
 10
1750.615398956699
 20
251.1080600113064
 30
0.0
 50
270.0
  0
LINE
  5
26C2
330
1F
100
AcDbEntity
  8
POPIS
100
AcDbLine
 10
1802.799093798421
 20
319.7628804766519
 30
0.0
 11
1802.799093798421
 21
247.4694217234646
 31
0.0
  0
LINE
  5
26C3
330
1F
100
AcDbEntity
  8
POPIS
100
AcDbLine
 10
1750.644467287572
 20
319.7628804766519
 30
0.0
 11
1750.644467287572
 21
254.3508246752717
 31
0.0
  0
LWPOLYLINE
  5
26C4
330
1F
100
AcDbEntity
  8
nášlap_vrstvy
100
AcDbPolyline
 90
        4
 70
     1
 43
0.0
 10
1712.410307783527
 20
252.830293899644
 10
1837.410307783527
 20
252.830293899644
 10
1837.410307783527
 20
259.080293899644
 10
1712.410307783527
 20
259.080293899644
  0
TEXT
  5
26C5
330
1F
100
AcDbEntity
  8
POPIS
100
AcDbText
 10
1785.901422866616
 20
328.6122415493756
 30
0.0
 40
25.0
  1
05
 41
0.85
  7
SIMPLEX7
100
AcDbText
  0
LINE
  5
26C6
330
1F
100
AcDbEntity
  8
izolace
100
AcDbLine
 10
2094.145610284467
 20
185.1275589972615
 30
0.0
 11
2147.780307350614
 21
185.1275589972615
 31
0.0
  0
LINE
  5
26C7
330
1F
100
AcDbEntity
  8
izolace
100
AcDbLine
 10
2094.145610284467
 20
215.7670210322908
 30
0.0
 11
2147.780307350614
 21
215.7670210322908
 31
0.0
  0
LINE
  5
26C8
330
1F
100
AcDbEntity
  8
izolace
  6
IZOLACE
 48
1.5
100
AcDbLine
 10
2094.145610284467
 20
200.4694217234651
 30
0.0
 11
2148.462144211434
 21
200.4694217234651
 31
0.0
  0
LWPOLYLINE
  5
26C9
330
1F
100
AcDbEntity
  8
nášlap_vrstvy
100
AcDbPolyline
 90
        4
 70
     0
 43
0.0
 10
2147.780307350618
 20
259.080293899644
 10
2101.336077522409
 20
259.080293899644
 10
2101.336077522409
 20
252.830293899644
 10
2147.780307350618
 20
252.830293899644
  0
LINE
  5
26CA
330
1F
100
AcDbEntity
  8
POPIS
100
AcDbLine
 10
1991.274622221979
 20
319.7628804766519
 30
0.0
 11
1991.274622221979
 21
125.0171379381008
 31
0.0
  0
INSERT
  5
26CB
330
1F
100
AcDbEntity
  8
POPIS
100
AcDbBlockReference
  2
E_PUNKT
 10
1991.245553891105
 20
125.0447483137277
 30
0.0
 50
270.0
  0
TEXT
  5
26CC
330
1F
100
AcDbEntity
  8
POPIS
100
AcDbText
 10
1974.376951290174
 20
328.6122415493756
 30
0.0
 40
25.0
  1
09
 41
0.85
  7
SIMPLEX7
100
AcDbText
  0
LWPOLYLINE
  5
26CD
330
1F
100
AcDbEntity
  8
nášlap_vrstvy
100
AcDbPolyline
 90
        4
 70
     1
 43
0.0
 10
1998.864095492768
 20
248.9694217234646
 10
1987.043229137852
 20
248.9694217234646
 10
1987.043229137852
 20
247.4694217234646
 10
1998.864095492768
 20
247.4694217234646
  0
HATCH
  5
26CE
330
1F
100
AcDbEntity
  8
nášlap_vrstvy
100
AcDbHatch
 10
0.0
 20
0.0
 30
0.0
210
0.0
220
0.0
230
1.0
  2
SOLID
 70
     1
 71
     0
 91
        1
 92
        7
 72
     0
 73
     1
 93
        4
 10
1998.864095492771
 20
248.9694217234646
 10
1987.043229137852
 20
248.9694217234646
 10
1987.043229137852
 20
247.4694217234646
 10
1998.864095492771
 20
247.4694217234646
 97
        0
 75
     0
 76
     1
 47
0.1901250437635136
 98
        1
 10
1991.722126517022
 20
248.5610159479247
  0
LWPOLYLINE
  5
26CF
330
1F
100
AcDbEntity
  8
nášlap_vrstvy
100
AcDbPolyline
 90
        4
 70
     1
 43
0.0
 10
1971.694154276115
 20
252.830293899644
 10
2096.694154276115
 20
252.830293899644
 10
2096.694154276115
 20
259.080293899644
 10
1971.694154276115
 20
259.080293899644
  0
LINE
  5
26D0
330
1F
100
AcDbEntity
  8
nášlap_vrstvy
100
AcDbLine
 10
1971.694154276119
 20
259.080293899644
 30
0.0
 11
1967.052231029821
 21
259.080293899644
 31
0.0
  0
LINE
  5
26D1
330
1F
100
AcDbEntity
  8
nášlap_vrstvy
100
AcDbLine
 10
1971.694154276115
 20
252.830293899644
 30
0.0
 11
1967.052231029821
 21
252.830293899644
 31
0.0
  0
LWPOLYLINE
  5
26D2
330
1F
100
AcDbEntity
  8
nášlap_vrstvy
100
AcDbPolyline
 90
        4
 70
     1
 43
0.0
 10
1975.222362782936
 20
248.9694217234646
 10
1963.401496428017
 20
248.9694217234646
 10
1963.401496428017
 20
247.4694217234646
 10
1975.222362782936
 20
247.4694217234646
  0
HATCH
  5
26D3
330
1F
100
AcDbEntity
  8
nášlap_vrstvy
100
AcDbHatch
 10
0.0
 20
0.0
 30
0.0
210
0.0
220
0.0
230
1.0
  2
SOLID
 70
     1
 71
     0
 91
        1
 92
        7
 72
     0
 73
     1
 93
        4
 10
1975.222362782936
 20
248.9694217234646
 10
1963.40149642802
 20
248.9694217234646
 10
1963.401496428017
 20
247.4694217234646
 10
1975.222362782936
 20
247.4694217234646
 97
        0
 75
     0
 76
     1
 47
0.1901250437635136
 98
        1
 10
1968.08039380719
 20
248.5610159479247
  0
LINE
  5
26D4
330
1F
100
AcDbEntity
  8
POPIS
100
AcDbLine
 10
1942.186106757693
 20
319.7628804766519
 30
0.0
 11
1942.186106757693
 21
197.8399353142669
 31
0.0
  0
TEXT
  5
26D5
330
1F
100
AcDbEntity
  8
POPIS
100
AcDbText
 10
1850.184465647656
 20
328.6122415493756
 30
0.0
 40
25.0
  1
06
 41
0.85
  7
SIMPLEX7
100
AcDbText
  0
LWPOLYLINE
  5
26D6
330
1F
100
AcDbEntity
  8
nášlap_vrstvy
100
AcDbPolyline
 90
        4
 70
     1
 43
0.0
 10
1927.938897363266
 20
248.9694217234646
 10
1916.118031008346
 20
248.9694217234646
 10
1916.118031008346
 20
247.4694217234646
 10
1927.938897363266
 20
247.4694217234646
  0
HATCH
  5
26D7
330
1F
100
AcDbEntity
  8
nášlap_vrstvy
100
AcDbHatch
 10
0.0
 20
0.0
 30
0.0
210
0.0
220
0.0
230
1.0
  2
SOLID
 70
     1
 71
     0
 91
        1
 92
        7
 72
     0
 73
     1
 93
        4
 10
1927.938897363266
 20
248.9694217234646
 10
1916.11803100835
 20
248.9694217234646
 10
1916.118031008346
 20
247.4694217234646
 10
1927.938897363266
 20
247.4694217234646
 97
        0
 75
     0
 76
     1
 47
0.1901250437635136
 98
        1
 10
1920.79692838752
 20
248.5610159479247
  0
LWPOLYLINE
  5
26D8
330
1F
100
AcDbEntity
  8
nášlap_vrstvy
100
AcDbPolyline
 90
        4
 70
     1
 43
0.0
 10
1904.297164653427
 20
248.9694217234646
 10
1892.476298298511
 20
248.9694217234646
 10
1892.476298298511
 20
247.4694217234646
 10
1904.297164653427
 20
247.4694217234646
  0
HATCH
  5
26D9
330
1F
100
AcDbEntity
  8
nášlap_vrstvy
100
AcDbHatch
 10
0.0
 20
0.0
 30
0.0
210
0.0
220
0.0
230
1.0
  2
SOLID
 70
     1
 71
     0
 91
        1
 92
        7
 72
     0
 73
     1
 93
        4
 10
1904.297164653431
 20
248.9694217234646
 10
1892.476298298511
 20
248.9694217234646
 10
1892.476298298511
 20
247.4694217234646
 10
1904.297164653431
 20
247.4694217234646
 97
        0
 75
     0
 76
     1
 47
0.1901250437635136
 98
        1
 10
1897.155195677681
 20
248.5610159479247
  0
LWPOLYLINE
  5
26DA
330
1F
100
AcDbEntity
  8
nášlap_vrstvy
100
AcDbPolyline
 90
        4
 70
     1
 43
0.0
 10
1857.013699233757
 20
248.9694217234646
 10
1845.192832878841
 20
248.9694217234646
 10
1845.192832878841
 20
247.4694217234646
 10
1857.013699233757
 20
247.4694217234646
  0
HATCH
  5
26DB
330
1F
100
AcDbEntity
  8
nášlap_vrstvy
100
AcDbHatch
 10
0.0
 20
0.0
 30
0.0
210
0.0
220
0.0
230
1.0
  2
SOLID
 70
     1
 71
     0
 91
        1
 92
        7
 72
     0
 73
     1
 93
        4
 10
1857.01369923376
 20
248.9694217234646
 10
1845.192832878841
 20
248.9694217234646
 10
1845.192832878841
 20
247.4694217234646
 10
1857.01369923376
 20
247.4694217234646
 97
        0
 75
     0
 76
     1
 47
0.1901250437635136
 98
        1
 10
1849.871730258011
 20
248.5610159479247
  0
INSERT
  5
26DC
330
1F
100
AcDbEntity
  8
POPIS
100
AcDbBlockReference
  2
E_PUNKT
 10
1867.053068248587
 20
235.2785284809515
 30
0.0
 50
270.0
  0
LWPOLYLINE
  5
26DD
330
1F
100
AcDbEntity
  8
nášlap_vrstvy
100
AcDbPolyline
 90
        4
 70
     1
 43
0.0
 10
1880.655431943596
 20
248.9694217234646
 10
1868.834565588676
 20
248.9694217234646
 10
1868.834565588676
 20
247.4694217234646
 10
1880.655431943596
 20
247.4694217234646
  0
HATCH
  5
26DE
330
1F
100
AcDbEntity
  8
nášlap_vrstvy
100
AcDbHatch
 10
0.0
 20
0.0
 30
0.0
210
0.0
220
0.0
230
1.0
  2
SOLID
 70
     1
 71
     0
 91
        1
 92
        7
 72
     0
 73
     1
 93
        4
 10
1880.655431943596
 20
248.9694217234646
 10
1868.83456558868
 20
248.9694217234646
 10
1868.834565588676
 20
247.4694217234646
 10
1880.655431943596
 20
247.4694217234646
 97
        0
 75
     0
 76
     1
 47
0.1901250437635136
 98
        1
 10
1873.51346296785
 20
248.5610159479247
  0
LINE
  5
26DF
330
1F
100
AcDbEntity
  8
POPIS
100
AcDbLine
 10
1867.082136579461
 20
319.7628804766519
 30
0.0
 11
1867.082136579461
 21
234.0009181053248
 31
0.0
  0
INSERT
  5
26E0
330
1F
100
AcDbEntity
  8
POPIS
100
AcDbBlockReference
  2
E_PUNKT
 10
1942.157038426819
 20
199.1175456898936
 30
0.0
 50
270.0
  0
LWPOLYLINE
  5
26E1
330
1F
100
AcDbEntity
  8
nášlap_vrstvy
100
AcDbPolyline
 90
        4
 70
     1
 43
0.0
 10
1951.580630073097
 20
248.9694217234646
 10
1939.759763718182
 20
248.9694217234646
 10
1939.759763718182
 20
247.4694217234646
 10
1951.580630073097
 20
247.4694217234646
  0
HATCH
  5
26E2
330
1F
100
AcDbEntity
  8
nášlap_vrstvy
100
AcDbHatch
 10
0.0
 20
0.0
 30
0.0
210
0.0
220
0.0
230
1.0
  2
SOLID
 70
     1
 71
     0
 91
        1
 92
        7
 72
     0
 73
     1
 93
        4
 10
1951.580630073101
 20
248.9694217234646
 10
1939.759763718182
 20
248.9694217234646
 10
1939.759763718182
 20
247.4694217234646
 10
1951.580630073101
 20
247.4694217234646
 97
        0
 75
     0
 76
     1
 47
0.1901250437635136
 98
        1
 10
1944.438661097352
 20
248.5610159479247
  0
TEXT
  5
26E3
330
1F
100
AcDbEntity
  8
POPIS
100
AcDbText
 10
1925.288435825888
 20
328.6122415493756
 30
0.0
 40
25.0
  1
07
 41
0.85
  7
SIMPLEX7
100
AcDbText
  0
LINE
  5
26E4
330
1F
100
AcDbEntity
  8
SPOJOVACÍ
  6
DASHED
100
AcDbLine
 10
2064.704675836412
 20
245.5642356585236
 30
0.0
 11
2065.793093138763
 21
244.5168391088996
 31
0.0
  0
LINE
  5
26E5
330
1F
100
AcDbEntity
  8
SPOJOVACÍ
  6
DASHED
100
AcDbLine
 10
2063.381984454531
 20
246.2934934822683
 30
0.0
 11
2064.704675836412
 21
245.5642356585236
 31
0.0
  0
LINE
  5
26E6
330
1F
100
AcDbEntity
  8
SPOJOVACÍ
  6
DASHED
100
AcDbLine
 10
2063.381984454531
 20
247.4694217234651
 30
0.0
 11
2063.381984454531
 21
246.2934934822683
 31
0.0
  0
LINE
  5
26E7
330
1F
100
AcDbEntity
  8
SPOJOVACÍ
  6
DASHED
100
AcDbLine
 10
2073.378286076254
 20
247.4694217234651
 30
0.0
 11
2073.378286076254
 21
246.2934934822683
 31
0.0
  0
LINE
  5
26E8
330
1F
100
AcDbEntity
  8
SPOJOVACÍ
  6
DASHED
100
AcDbLine
 10
2072.67728699381
 20
245.9635043171425
 30
0.0
 11
2073.378286076254
 21
246.2934934822683
 31
0.0
  0
LINE
  5
26E9
330
1F
100
AcDbEntity
  8
SPOJOVACÍ
  6
DASHED
100
AcDbLine
 10
2071.464895861088
 20
245.0637824769096
 30
0.0
 11
2072.67728699381
 21
245.9635043171425
 31
0.0
  0
LINE
  5
26EA
330
1F
100
AcDbEntity
  8
SPOJOVACÍ
  6
DASHED
100
AcDbLine
 10
2063.381984454531
 20
247.4694217234651
 30
0.0
 11
2073.378286076254
 21
247.4694217234651
 31
0.0
  0
LINE
  5
26EB
330
1F
100
AcDbEntity
  8
SPOJOVACÍ
  6
DASHED
100
AcDbLine
 10
2063.381984454531
 20
246.2934934822683
 30
0.0
 11
2073.378286076254
 21
246.2934934822683
 31
0.0
  0
LINE
  5
26EC
330
1F
100
AcDbEntity
  8
SPOJOVACÍ
  6
DASHED
100
AcDbLine
 10
2066.398377131331
 20
239.3145571019691
 30
0.0
 11
2070.361893403732
 21
237.9818384286978
 31
0.0
  0
LINE
  5
26ED
330
1F
100
AcDbEntity
  8
SPOJOVACÍ
  6
DASHED
100
AcDbLine
 10
2066.028278783527
 20
239.5278650152964
 30
0.0
 11
2066.398377131331
 21
239.3145571019691
 31
0.0
  0
LINE
  5
26EE
330
1F
100
AcDbEntity
  8
SPOJOVACÍ
  6
DASHED
100
AcDbLine
 10
2066.028278783527
 20
239.5278650152964
 30
0.0
 11
2066.398377131331
 21
239.8988749331497
 31
0.0
  0
LINE
  5
26EF
330
1F
100
AcDbEntity
  8
SPOJOVACÍ
  6
DASHED
100
AcDbLine
 10
2066.398377131331
 20
239.8988749331497
 30
0.0
 11
2070.361893403732
 21
238.5661562601494
 31
0.0
  0
LINE
  5
26F0
330
1F
100
AcDbEntity
  8
SPOJOVACÍ
  6
DASHED
100
AcDbLine
 10
2067.02508307165
 20
241.3874114721289
 30
0.0
 11
2067.057443887792
 21
239.6772660099819
 31
0.0
  0
LINE
  5
26F1
330
1F
100
AcDbEntity
  8
SPOJOVACÍ
  6
DASHED
100
AcDbLine
 10
2066.992722255508
 20
241.7730065464589
 30
0.0
 11
2067.057443887792
 21
241.0018163977988
 31
0.0
  0
LINE
  5
26F2
330
1F
100
AcDbEntity
  8
SPOJOVACÍ
  6
DASHED
100
AcDbLine
 10
2066.573399008495
 20
243.224229616168
 30
0.0
 11
2066.992722255508
 21
241.7730065464589
 31
0.0
  0
LINE
  5
26F3
330
1F
100
AcDbEntity
  8
SPOJOVACÍ
  6
DASHED
100
AcDbLine
 10
2065.793093138763
 20
244.5168391088996
 30
0.0
 11
2066.573399008495
 21
243.224229616168
 31
0.0
  0
LINE
  5
26F4
330
1F
100
AcDbEntity
  8
SPOJOVACÍ
  6
DASHED
100
AcDbLine
 10
2067.057443887792
 20
223.8482711629226
 30
0.0
 11
2067.057443887792
 21
221.3706177063109
 31
0.0
  0
LINE
  5
26F5
330
1F
100
AcDbEntity
  8
SPOJOVACÍ
  6
DASHED
100
AcDbLine
 10
2066.398377131331
 20
224.0561096425886
 30
0.0
 11
2070.361893403732
 21
222.7233909695883
 31
0.0
  0
LINE
  5
26F6
330
1F
100
AcDbEntity
  8
SPOJOVACÍ
  6
DASHED
100
AcDbLine
 10
2066.028278783527
 20
224.2703291283747
 30
0.0
 11
2066.398377131331
 21
224.0561096425886
 31
0.0
  0
LINE
  5
26F7
330
1F
100
AcDbEntity
  8
SPOJOVACÍ
  6
DASHED
100
AcDbLine
 10
2066.028278783527
 20
224.2703291283747
 30
0.0
 11
2066.398377131331
 21
224.6404274740403
 31
0.0
  0
LINE
  5
26F8
330
1F
100
AcDbEntity
  8
SPOJOVACÍ
  6
DASHED
100
AcDbLine
 10
2066.398377131331
 20
224.6404274740403
 30
0.0
 11
2070.361893403732
 21
223.3077088010328
 31
0.0
  0
LINE
  5
26F9
330
1F
100
AcDbEntity
  8
SPOJOVACÍ
  6
DASHED
100
AcDbLine
 10
2067.057443887792
 20
226.9011267283027
 30
0.0
 11
2067.057443887792
 21
224.4307658497278
 31
0.0
  0
LINE
  5
26FA
330
1F
100
AcDbEntity
  8
SPOJOVACÍ
  6
DASHED
100
AcDbLine
 10
2066.398377131331
 20
227.1135230694422
 30
0.0
 11
2070.361893403732
 21
225.7817159686297
 31
0.0
  0
LINE
  5
26FB
330
1F
100
AcDbEntity
  8
SPOJOVACÍ
  6
DASHED
100
AcDbLine
 10
2066.028278783527
 20
227.3277425552283
 30
0.0
 11
2066.398377131331
 21
227.1135230694422
 31
0.0
  0
LINE
  5
26FC
330
1F
100
AcDbEntity
  8
SPOJOVACÍ
  6
DASHED
100
AcDbLine
 10
2066.028278783527
 20
227.3277425552283
 30
0.0
 11
2066.398377131331
 21
227.6978409008939
 31
0.0
  0
LINE
  5
26FD
330
1F
100
AcDbEntity
  8
SPOJOVACÍ
  6
DASHED
100
AcDbLine
 10
2066.398377131331
 20
227.6978409008939
 30
0.0
 11
2070.361893403732
 21
226.3660337998103
 31
0.0
  0
LINE
  5
26FE
330
1F
100
AcDbEntity
  8
SPOJOVACÍ
  6
DASHED
100
AcDbLine
 10
2067.057443887792
 20
229.9612748717196
 30
0.0
 11
2067.057443887792
 21
227.4927371377912
 31
0.0
  0
LINE
  5
26FF
330
1F
100
AcDbEntity
  8
SPOJOVACÍ
  6
DASHED
100
AcDbLine
 10
2066.398377131331
 20
230.1718480684836
 30
0.0
 11
2070.361893403732
 21
228.8391293952122
 31
0.0
  0
LINE
  5
2700
330
1F
100
AcDbEntity
  8
SPOJOVACÍ
  6
DASHED
100
AcDbLine
 10
2066.028278783527
 20
230.3851559818109
 30
0.0
 11
2066.398377131331
 21
230.1718480684836
 31
0.0
  0
LINE
  5
2701
330
1F
100
AcDbEntity
  8
SPOJOVACÍ
  6
DASHED
100
AcDbLine
 10
2066.028278783527
 20
230.3851559818109
 30
0.0
 11
2066.398377131331
 21
230.7561658996642
 31
0.0
  0
LINE
  5
2702
330
1F
100
AcDbEntity
  8
SPOJOVACÍ
  6
DASHED
100
AcDbLine
 10
2066.398377131331
 20
230.7561658996642
 30
0.0
 11
2070.361893403732
 21
229.4234472266639
 31
0.0
  0
LINE
  5
2703
330
1F
100
AcDbEntity
  8
SPOJOVACÍ
  6
DASHED
100
AcDbLine
 10
2067.057443887792
 20
233.0011879583367
 30
0.0
 11
2067.057443887792
 21
230.5308270797618
 31
0.0
  0
LINE
  5
2704
330
1F
100
AcDbEntity
  8
SPOJOVACÍ
  6
DASHED
100
AcDbLine
 10
2066.398377131331
 20
233.2135842994762
 30
0.0
 11
2070.361893403732
 21
231.8817771986637
 31
0.0
  0
LINE
  5
2705
330
1F
100
AcDbEntity
  8
SPOJOVACÍ
  6
DASHED
100
AcDbLine
 10
2066.028278783527
 20
233.4278037852623
 30
0.0
 11
2066.398377131331
 21
233.2135842994762
 31
0.0
  0
LINE
  5
2706
330
1F
100
AcDbEntity
  8
SPOJOVACÍ
  6
DASHED
100
AcDbLine
 10
2066.028278783527
 20
233.4278037852623
 30
0.0
 11
2066.398377131331
 21
233.7979021309279
 31
0.0
  0
LINE
  5
2707
330
1F
100
AcDbEntity
  8
SPOJOVACÍ
  6
DASHED
100
AcDbLine
 10
2066.398377131331
 20
233.7979021309279
 30
0.0
 11
2070.361893403732
 21
232.4660950298444
 31
0.0
  0
LINE
  5
2708
330
1F
100
AcDbEntity
  8
SPOJOVACÍ
  6
DASHED
100
AcDbLine
 10
2067.057443887792
 20
236.0613361017536
 30
0.0
 11
2067.057443887792
 21
233.5927983678252
 31
0.0
  0
LINE
  5
2709
330
1F
100
AcDbEntity
  8
SPOJOVACÍ
  6
DASHED
100
AcDbLine
 10
2066.398377131331
 20
236.2719092985176
 30
0.0
 11
2070.361893403732
 21
234.9391906252463
 31
0.0
  0
LINE
  5
270A
330
1F
100
AcDbEntity
  8
SPOJOVACÍ
  6
DASHED
100
AcDbLine
 10
2066.028278783527
 20
236.4852172118449
 30
0.0
 11
2066.398377131331
 21
236.2719092985176
 31
0.0
  0
LINE
  5
270B
330
1F
100
AcDbEntity
  8
SPOJOVACÍ
  6
DASHED
100
AcDbLine
 10
2066.028278783527
 20
236.4852172118449
 30
0.0
 11
2066.398377131331
 21
236.8562271296983
 31
0.0
  0
LINE
  5
270C
330
1F
100
AcDbEntity
  8
SPOJOVACÍ
  6
DASHED
100
AcDbLine
 10
2066.398377131331
 20
236.8562271296983
 30
0.0
 11
2070.361893403732
 21
235.523508456698
 31
0.0
  0
LINE
  5
270D
330
1F
100
AcDbEntity
  8
SPOJOVACÍ
  6
DASHED
100
AcDbLine
 10
2067.057443887792
 20
239.1039839052051
 30
0.0
 11
2067.057443887792
 21
236.6354461712767
 31
0.0
  0
LINE
  5
270E
330
1F
100
AcDbEntity
  8
SPOJOVACÍ
  6
DASHED
100
AcDbLine
 10
2070.525976412503
 20
243.8805616576688
 30
0.0
 11
2071.464895861088
 21
245.0637824769096
 31
0.0
  0
LINE
  5
270F
330
1F
100
AcDbEntity
  8
SPOJOVACÍ
  6
DASHED
100
AcDbLine
 10
2069.925250280339
 20
242.4949717921595
 30
0.0
 11
2070.525976412503
 21
243.8805616576688
 31
0.0
  0
LINE
  5
2710
330
1F
100
AcDbEntity
  8
SPOJOVACÍ
  6
DASHED
100
AcDbLine
 10
2069.702826647273
 20
241.0018163977988
 30
0.0
 11
2069.925250280339
 21
242.4949717921595
 31
0.0
  0
LINE
  5
2711
330
1F
100
AcDbEntity
  8
SPOJOVACÍ
  6
DASHED
100
AcDbLine
 10
2069.702826647273
 20
241.0018163978007
 30
0.0
 11
2069.702826647273
 21
238.7877651833192
 31
0.0
  0
LINE
  5
2712
330
1F
100
AcDbEntity
  8
SPOJOVACÍ
  6
DASHED
100
AcDbLine
 10
2070.731991747259
 20
238.3519367743634
 30
0.0
 11
2070.361893403732
 21
238.5661562601494
 31
0.0
  0
LINE
  5
2713
330
1F
100
AcDbEntity
  8
SPOJOVACÍ
  6
DASHED
100
AcDbLine
 10
2070.731991747259
 20
238.3519367743634
 30
0.0
 11
2070.361893403732
 21
237.9818384286978
 31
0.0
  0
LINE
  5
2714
330
1F
100
AcDbEntity
  8
SPOJOVACÍ
  6
DASHED
100
AcDbLine
 10
2069.702826647273
 20
238.2088199264458
 30
0.0
 11
2069.702826647273
 21
235.7402821925175
 31
0.0
  0
LINE
  5
2715
330
1F
100
AcDbEntity
  8
SPOJOVACÍ
  6
DASHED
100
AcDbLine
 10
2070.731991747259
 20
235.3092889709119
 30
0.0
 11
2070.361893403732
 21
235.523508456698
 31
0.0
  0
LINE
  5
2716
330
1F
100
AcDbEntity
  8
SPOJOVACÍ
  6
DASHED
100
AcDbLine
 10
2070.731991747259
 20
235.3092889709119
 30
0.0
 11
2070.361893403732
 21
234.9391906252463
 31
0.0
  0
LINE
  5
2717
330
1F
100
AcDbEntity
  8
SPOJOVACÍ
  6
DASHED
100
AcDbLine
 10
2069.702826647273
 20
235.1661721229944
 30
0.0
 11
2069.702826647273
 21
232.697634389066
 31
0.0
  0
LINE
  5
2718
330
1F
100
AcDbEntity
  8
SPOJOVACÍ
  6
DASHED
100
AcDbLine
 10
2070.731991747259
 20
232.2518755440583
 30
0.0
 11
2070.361893403732
 21
232.4660950298444
 31
0.0
  0
LINE
  5
2719
330
1F
100
AcDbEntity
  8
SPOJOVACÍ
  6
DASHED
100
AcDbLine
 10
2070.731991747259
 20
232.2518755440583
 30
0.0
 11
2070.361893403732
 21
231.8817771986637
 31
0.0
  0
LINE
  5
271A
330
1F
100
AcDbEntity
  8
SPOJOVACÍ
  6
DASHED
100
AcDbLine
 10
2069.702826647273
 20
232.1133165576144
 30
0.0
 11
2069.702826647273
 21
229.6356631010026
 31
0.0
  0
LINE
  5
271B
330
1F
100
AcDbEntity
  8
SPOJOVACÍ
  6
DASHED
100
AcDbLine
 10
2070.731991747259
 20
229.2092277408779
 30
0.0
 11
2070.361893403732
 21
229.4234472266639
 31
0.0
  0
LINE
  5
271C
330
1F
100
AcDbEntity
  8
SPOJOVACÍ
  6
DASHED
100
AcDbLine
 10
2070.731991747259
 20
229.2092277408779
 30
0.0
 11
2070.361893403732
 21
228.8391293952122
 31
0.0
  0
LINE
  5
271D
330
1F
100
AcDbEntity
  8
SPOJOVACÍ
  6
DASHED
100
AcDbLine
 10
2069.702826647273
 20
229.0661108929603
 30
0.0
 11
2069.702826647273
 21
226.597573159032
 31
0.0
  0
LINE
  5
271E
330
1F
100
AcDbEntity
  8
SPOJOVACÍ
  6
DASHED
100
AcDbLine
 10
2070.731991747259
 20
226.1518143140242
 30
0.0
 11
2070.361893403732
 21
226.3660337998103
 31
0.0
  0
LINE
  5
271F
330
1F
100
AcDbEntity
  8
SPOJOVACÍ
  6
DASHED
100
AcDbLine
 10
2070.731991747259
 20
226.1518143140242
 30
0.0
 11
2070.361893403732
 21
225.7817159686297
 31
0.0
  0
LINE
  5
2720
330
1F
100
AcDbEntity
  8
SPOJOVACÍ
  6
DASHED
100
AcDbLine
 10
2069.702826647273
 20
226.0132553275803
 30
0.0
 11
2069.702826647273
 21
223.5356018709686
 31
0.0
  0
LINE
  5
2721
330
1F
100
AcDbEntity
  8
SPOJOVACÍ
  6
DASHED
100
AcDbLine
 10
2066.028278783527
 20
227.3277425552283
 30
0.0
 11
2070.731991747259
 21
226.1518143140242
 31
0.0
  0
LINE
  5
2722
330
1F
100
AcDbEntity
  8
SPOJOVACÍ
  6
DASHED
100
AcDbLine
 10
2066.028278783527
 20
224.2703291283747
 30
0.0
 11
2070.731991747259
 21
223.0944008874417
 31
0.0
  0
LINE
  5
2723
330
1F
100
AcDbEntity
  8
SPOJOVACÍ
  6
DASHED
100
AcDbLine
 10
2069.702826647273
 20
222.9531071841634
 30
0.0
 11
2069.702826647273
 21
220.4827463055885
 31
0.0
  0
LINE
  5
2724
330
1F
100
AcDbEntity
  8
SPOJOVACÍ
  6
DASHED
100
AcDbLine
 10
2067.057443887792
 20
220.7780957243708
 30
0.0
 11
2067.057443887792
 21
218.3104695626303
 31
0.0
  0
LINE
  5
2725
330
1F
100
AcDbEntity
  8
SPOJOVACÍ
  6
DASHED
100
AcDbLine
 10
2067.057443887792
 20
217.7261517311786
 30
0.0
 11
2067.057443887792
 21
216.5037333041278
 31
0.0
  0
LINE
  5
2726
330
1F
100
AcDbEntity
  8
SPOJOVACÍ
  6
DASHED
100
AcDbLine
 10
2069.702826647273
 20
219.8938706129343
 30
0.0
 11
2069.702826647273
 21
217.425332879006
 31
0.0
  0
LINE
  5
2727
330
1F
100
AcDbEntity
  8
SPOJOVACÍ
  6
DASHED
100
AcDbLine
 10
2069.702826647273
 20
216.8337224692537
 30
0.0
 11
2069.702826647273
 21
216.5037333041278
 31
0.0
  0
LINE
  5
2728
330
1F
100
AcDbEntity
  8
SPOJOVACÍ
  6
DASHED
100
AcDbLine
 10
2067.057443887792
 20
216.5037333041278
 30
0.0
 11
2067.20420702446
 21
215.3305397797581
 31
0.0
  0
LINE
  5
2729
330
1F
100
AcDbEntity
  8
SPOJOVACÍ
  6
DASHED
100
AcDbLine
 10
2068.380135265393
 20
205.9194675624735
 30
0.0
 11
2068.727444306899
 21
208.6988514437166
 31
0.0
  0
LINE
  5
272A
330
1F
100
AcDbEntity
  8
SPOJOVACÍ
  6
DASHED
100
AcDbLine
 10
2067.279867525135
 20
214.7225210690217
 30
0.0
 11
2067.564278077664
 21
212.4472366586783
 31
0.0
  0
LINE
  5
272B
330
1F
100
AcDbEntity
  8
SPOJOVACÍ
  6
DASHED
100
AcDbLine
 10
2067.641761721646
 20
211.829190652807
 30
0.0
 11
2067.926172269897
 21
209.5548178146587
 31
0.0
  0
LINE
  5
272C
330
1F
100
AcDbEntity
  8
SPOJOVACÍ
  6
DASHED
100
AcDbLine
 10
2068.001832770572
 20
208.9467991039223
 30
0.0
 11
2068.380135265393
 21
205.9194675624735
 31
0.0
  0
LINE
  5
272D
330
1F
100
AcDbEntity
  8
SPOJOVACÍ
  6
DASHED
100
AcDbLine
 10
2068.797635373378
 20
209.2567336790421
 30
0.0
 11
2069.060168189123
 21
211.3588193563269
 31
0.0
  0
LINE
  5
272E
330
1F
100
AcDbEntity
  8
SPOJOVACÍ
  6
DASHED
100
AcDbLine
 10
2069.130359251324
 20
211.9194363084866
 30
0.0
 11
2069.391980497555
 21
214.013317835283
 31
0.0
  0
LINE
  5
272F
330
1F
100
AcDbEntity
  8
SPOJOVACÍ
  6
DASHED
100
AcDbLine
 10
2069.462171564035
 20
214.5721116430673
 30
0.0
 11
2069.702826647273
 21
216.5037333041278
 31
0.0
  0
LINE
  5
2730
330
1F
100
AcDbEntity
  8
SPOJOVACÍ
  6
DASHED
100
AcDbLine
 10
2066.028278783527
 20
230.3851559818109
 30
0.0
 11
2070.731991747259
 21
229.2092277408779
 31
0.0
  0
LINE
  5
2731
330
1F
100
AcDbEntity
  8
SPOJOVACÍ
  6
DASHED
100
AcDbLine
 10
2066.27713801806
 20
215.1391096010761
 30
0.0
 11
2066.648147935378
 21
214.9248901152901
 31
0.0
  0
LINE
  5
2732
330
1F
100
AcDbEntity
  8
SPOJOVACÍ
  6
DASHED
100
AcDbLine
 10
2066.27713801806
 20
215.1391096010761
 30
0.0
 11
2066.648147935378
 21
215.5092079467418
 31
0.0
  0
LINE
  5
2733
330
1F
100
AcDbEntity
  8
SPOJOVACÍ
  6
DASHED
100
AcDbLine
 10
2070.319961077748
 20
214.1856049964177
 30
0.0
 11
2069.949862734221
 21
213.8145950782933
 31
0.0
  0
LINE
  5
2734
330
1F
100
AcDbEntity
  8
SPOJOVACÍ
  6
DASHED
100
AcDbLine
 10
2070.319961077748
 20
214.1856049964177
 30
0.0
 11
2069.949862734221
 21
214.3989129097449
 31
0.0
  0
LINE
  5
2735
330
1F
100
AcDbEntity
  8
SPOJOVACÍ
  6
DASHED
100
AcDbLine
 10
2066.648147935378
 20
214.9248901152901
 30
0.0
 11
2069.949862734221
 21
213.8145950782933
 31
0.0
  0
LINE
  5
2736
330
1F
100
AcDbEntity
  8
SPOJOVACÍ
  6
DASHED
100
AcDbLine
 10
2066.648147935378
 20
215.5092079467418
 30
0.0
 11
2069.949862734221
 21
214.3989129097449
 31
0.0
  0
LINE
  5
2737
330
1F
100
AcDbEntity
  8
SPOJOVACÍ
  6
DASHED
100
AcDbLine
 10
2066.27713801806
 20
215.1391096010761
 30
0.0
 11
2070.319961077748
 21
214.1856049964177
 31
0.0
  0
LINE
  5
2738
330
1F
100
AcDbEntity
  8
SPOJOVACÍ
  6
DASHED
100
AcDbLine
 10
2066.830462390043
 20
212.1847038418641
 30
0.0
 11
2067.200560737848
 21
211.9713959285368
 31
0.0
  0
LINE
  5
2739
330
1F
100
AcDbEntity
  8
SPOJOVACÍ
  6
DASHED
100
AcDbLine
 10
2066.830462390043
 20
212.1847038418641
 30
0.0
 11
2067.200560737848
 21
212.5557137599885
 31
0.0
  0
LINE
  5
273A
330
1F
100
AcDbEntity
  8
SPOJOVACÍ
  6
DASHED
100
AcDbLine
 10
2069.884229528146
 20
211.5639231194295
 30
0.0
 11
2069.514131184619
 21
211.1929132015762
 31
0.0
  0
LINE
  5
273B
330
1F
100
AcDbEntity
  8
SPOJOVACÍ
  6
DASHED
100
AcDbLine
 10
2069.884229528146
 20
211.5639231194295
 30
0.0
 11
2069.514131184619
 21
211.7772310327568
 31
0.0
  0
LINE
  5
273C
330
1F
100
AcDbEntity
  8
SPOJOVACÍ
  6
DASHED
100
AcDbLine
 10
2067.200560737848
 20
211.9713959285368
 30
0.0
 11
2069.514131184619
 21
211.1929132015762
 31
0.0
  0
LINE
  5
273D
330
1F
100
AcDbEntity
  8
SPOJOVACÍ
  6
DASHED
100
AcDbLine
 10
2067.200560737848
 20
212.5557137599885
 30
0.0
 11
2069.514131184619
 21
211.7772310327568
 31
0.0
  0
LINE
  5
273E
330
1F
100
AcDbEntity
  8
SPOJOVACÍ
  6
DASHED
100
AcDbLine
 10
2066.830462390043
 20
212.1847038418641
 30
0.0
 11
2069.884229528146
 21
211.5639231194295
 31
0.0
  0
LINE
  5
273F
330
1F
100
AcDbEntity
  8
SPOJOVACÍ
  6
DASHED
100
AcDbLine
 10
2067.383786766305
 20
209.2312096551109
 30
0.0
 11
2067.753885109831
 21
209.0169901693321
 31
0.0
  0
LINE
  5
2740
330
1F
100
AcDbEntity
  8
SPOJOVACÍ
  6
DASHED
100
AcDbLine
 10
2067.383786766305
 20
209.2312096551109
 30
0.0
 11
2067.753885109831
 21
209.6013080007765
 31
0.0
  0
LINE
  5
2741
330
1F
100
AcDbEntity
  8
SPOJOVACÍ
  6
DASHED
100
AcDbLine
 10
2069.494988164933
 20
208.9267445136525
 30
0.0
 11
2069.124889821406
 21
208.5557345957991
 31
0.0
  0
LINE
  5
2742
330
1F
100
AcDbEntity
  8
SPOJOVACÍ
  6
DASHED
100
AcDbLine
 10
2069.494988164933
 20
208.9267445136525
 30
0.0
 11
2069.124889821406
 21
209.1400524272435
 31
0.0
  0
LINE
  5
2743
330
1F
100
AcDbEntity
  8
SPOJOVACÍ
  6
DASHED
100
AcDbLine
 10
2067.753885109831
 20
209.0169901693321
 30
0.0
 11
2069.124889821406
 21
208.5557345957991
 31
0.0
  0
LINE
  5
2744
330
1F
100
AcDbEntity
  8
SPOJOVACÍ
  6
DASHED
100
AcDbLine
 10
2067.753885109831
 20
209.6013080007765
 30
0.0
 11
2069.124889821406
 21
209.1400524272435
 31
0.0
  0
LINE
  5
2745
330
1F
100
AcDbEntity
  8
SPOJOVACÍ
  6
DASHED
100
AcDbLine
 10
2067.383786766305
 20
209.2312096551109
 30
0.0
 11
2069.494988164933
 21
208.9267445136525
 31
0.0
  0
LINE
  5
2746
330
1F
100
AcDbEntity
  8
SPOJOVACÍ
  6
DASHED
100
AcDbLine
 10
2070.731991747259
 20
223.0944008874417
 30
0.0
 11
2070.361893403732
 21
222.7233909695883
 31
0.0
  0
LINE
  5
2747
330
1F
100
AcDbEntity
  8
SPOJOVACÍ
  6
DASHED
100
AcDbLine
 10
2070.731991747259
 20
223.0944008874417
 30
0.0
 11
2070.361893403732
 21
223.3077088010328
 31
0.0
  0
LINE
  5
2748
330
1F
100
AcDbEntity
  8
SPOJOVACÍ
  6
DASHED
100
AcDbLine
 10
2066.028278783527
 20
221.2129157017848
 30
0.0
 11
2070.731991747259
 21
220.0369874608518
 31
0.0
  0
LINE
  5
2749
330
1F
100
AcDbEntity
  8
SPOJOVACÍ
  6
DASHED
100
AcDbLine
 10
2066.028278783527
 20
221.2129157017848
 30
0.0
 11
2066.398377131331
 21
220.998696216006
 31
0.0
  0
LINE
  5
274A
330
1F
100
AcDbEntity
  8
SPOJOVACÍ
  6
DASHED
100
AcDbLine
 10
2066.028278783527
 20
221.2129157017848
 30
0.0
 11
2066.398377131331
 21
221.5830140474504
 31
0.0
  0
LINE
  5
274B
330
1F
100
AcDbEntity
  8
SPOJOVACÍ
  6
DASHED
100
AcDbLine
 10
2070.731991747259
 20
220.0369874608518
 30
0.0
 11
2070.361893403732
 21
219.6659775429985
 31
0.0
  0
LINE
  5
274C
330
1F
100
AcDbEntity
  8
SPOJOVACÍ
  6
DASHED
100
AcDbLine
 10
2070.731991747259
 20
220.0369874608518
 30
0.0
 11
2070.361893403732
 21
220.2502953741791
 31
0.0
  0
LINE
  5
274D
330
1F
100
AcDbEntity
  8
SPOJOVACÍ
  6
DASHED
100
AcDbLine
 10
2066.398377131331
 20
220.998696216006
 30
0.0
 11
2070.361893403732
 21
219.6659775429985
 31
0.0
  0
LINE
  5
274E
330
1F
100
AcDbEntity
  8
SPOJOVACÍ
  6
DASHED
100
AcDbLine
 10
2066.398377131331
 20
221.5830140474504
 30
0.0
 11
2070.361893403732
 21
220.2502953741791
 31
0.0
  0
LINE
  5
274F
330
1F
100
AcDbEntity
  8
SPOJOVACÍ
  6
DASHED
100
AcDbLine
 10
2066.028278783527
 20
218.1545907027435
 30
0.0
 11
2070.731991747259
 21
216.9786624618105
 31
0.0
  0
LINE
  5
2750
330
1F
100
AcDbEntity
  8
SPOJOVACÍ
  6
DASHED
100
AcDbLine
 10
2066.028278783527
 20
218.1545907027435
 30
0.0
 11
2066.398377131331
 21
217.9412827894162
 31
0.0
  0
LINE
  5
2751
330
1F
100
AcDbEntity
  8
SPOJOVACÍ
  6
DASHED
100
AcDbLine
 10
2066.028278783527
 20
218.1545907027435
 30
0.0
 11
2066.398377131331
 21
218.5256006208679
 31
0.0
  0
LINE
  5
2752
330
1F
100
AcDbEntity
  8
SPOJOVACÍ
  6
DASHED
100
AcDbLine
 10
2070.731991747259
 20
216.9786624618105
 30
0.0
 11
2070.361893403732
 21
216.6085641161449
 31
0.0
  0
LINE
  5
2753
330
1F
100
AcDbEntity
  8
SPOJOVACÍ
  6
DASHED
100
AcDbLine
 10
2070.731991747259
 20
216.9786624618105
 30
0.0
 11
2070.361893403732
 21
217.1928819475966
 31
0.0
  0
LINE
  5
2754
330
1F
100
AcDbEntity
  8
SPOJOVACÍ
  6
DASHED
100
AcDbLine
 10
2066.398377131331
 20
217.9412827894162
 30
0.0
 11
2070.361893403732
 21
216.6085641161449
 31
0.0
  0
LINE
  5
2755
330
1F
100
AcDbEntity
  8
SPOJOVACÍ
  6
DASHED
100
AcDbLine
 10
2066.398377131331
 20
218.5256006208679
 30
0.0
 11
2070.361893403732
 21
217.1928819475966
 31
0.0
  0
LINE
  5
2756
330
1F
100
AcDbEntity
  8
SPOJOVACÍ
  6
DASHED
100
AcDbLine
 10
2066.028278783527
 20
233.4278037852623
 30
0.0
 11
2070.731991747259
 21
232.2518755440583
 31
0.0
  0
LINE
  5
2757
330
1F
100
AcDbEntity
  8
SPOJOVACÍ
  6
DASHED
100
AcDbLine
 10
2066.028278783527
 20
236.4852172118449
 30
0.0
 11
2070.731991747259
 21
235.3092889709119
 31
0.0
  0
LINE
  5
2758
330
1F
100
AcDbEntity
  8
SPOJOVACÍ
  6
DASHED
100
AcDbLine
 10
2066.028278783527
 20
239.5278650152964
 30
0.0
 11
2070.731991747259
 21
238.3519367743634
 31
0.0
  0
LWPOLYLINE
  5
2759
330
1F
100
AcDbEntity
  8
STAVBA OBRYS
100
AcDbPolyline
 90
        2
 70
     0
 43
0.0
 10
2091.359757276344
 20
189.466451674341
 10
2094.145610284467
 20
188.0725056065289
  0
LWPOLYLINE
  5
275A
330
1F
100
AcDbEntity
  8
STAVBA OBRYS
100
AcDbPolyline
 90
        6
 70
     0
 43
0.0
 10
2085.679168746644
 20
220.4694217234651
 42
-0.0128837512779301
 10
2085.394376786419
 20
217.1362569017188
 42
-0.0351641677647434
 10
2084.766617064896
 20
213.5325474473798
 42
-0.0187319685742942
 10
2081.382601183906
 20
201.774310105237
 42
-0.0582629403736403
 10
2079.723101315825
 20
198.1944759063049
 42
-0.1129599987265478
 10
2062.347559464115
 20
180.4694217234651
 42
-0.1129599987265478
  0
LWPOLYLINE
  5
275B
330
1F
100
AcDbEntity
  8
STAVBA OBRYS
100
AcDbPolyline
 90
        3
 70
     0
 43
0.0
 10
2070.146585367417
 20
213.9702521542099
 10
2090.14283779941
 20
204.7542231036901
 10
2094.142775433124
 20
204.1088256283479
  0
LWPOLYLINE
  5
275C
330
1F
100
AcDbEntity
  8
STAVBA OBRYS
100
AcDbPolyline
 90
        4
 70
     0
 43
0.0
 10
2094.145610284467
 20
210.2695915525596
 42
-0.0067884601454759
 10
2092.149766993423
 20
200.1407285409992
 42
-0.0219777111230329
 10
2091.243654491439
 20
196.6226152851637
 42
-0.0757738131361498
 10
2077.962556635219
 20
180.4694217234651
  0
LWPOLYLINE
  5
275D
330
1F
100
AcDbEntity
  8
STAVBA OBRYS
100
AcDbPolyline
 90
        7
 70
     0
 43
0.0
 10
2048.660378764151
 20
220.4694217234651
 42
-0.0203924744732807
 10
2047.758294779743
 20
219.456291694311
 42
-0.0273961979096945
 10
2046.908430429547
 20
218.6681153202849
 42
-0.0243529190212958
 10
2045.745309937128
 20
217.7943559756172
 42
-0.0398020282482987
 10
2044.970351399567
 20
217.3547272321707
 42
-0.104168275620852
 10
2044.583940263227
 20
217.2647107719936
 42
-0.007272956268647
 10
2044.145610284469
 20
217.2462574206988
 42
-0.007272956268647
  0
LWPOLYLINE
  5
275E
330
1F
100
AcDbEntity
  8
izolace
100
AcDbPolyline
 90
        4
 70
     1
 43
0.0
 10
2094.145610284467
 20
220.4694217234651
 10
2044.145610284467
 20
220.4694217234651
 10
2044.145610284467
 20
223.4694217234642
 10
2094.145610284467
 20
223.4694217234642
  0
POLYLINE
  5
275F
330
1F
100
AcDbEntity
  8
STAVBA OBRYS
100
AcDb2dPolyline
 66
     1
 10
0.0
 20
0.0
 30
0.0
  0
VERTEX
  5
2760
330
275F
100
AcDbEntity
  8
STAVBA OBRYS
100
AcDbVertex
100
AcDb2dVertex
 10
2054.010065098669
 20
220.4694217234633
 30
0.0
 42
-0.0064239028828688
  0
VERTEX
  5
2761
330
275F
100
AcDbEntity
  8
STAVBA OBRYS
100
AcDbVertex
100
AcDb2dVertex
 10
2053.971196658488
 20
220.2503080641132
 30
0.0
 42
-0.0832048017309575
  0
VERTEX
  5
2762
330
275F
100
AcDbEntity
  8
STAVBA OBRYS
100
AcDbVertex
100
AcDb2dVertex
 10
2053.187014055807
 20
217.9200944844584
 30
0.0
 42
-0.0336767237692336
  0
VERTEX
  5
2763
330
275F
100
AcDbEntity
  8
STAVBA OBRYS
100
AcDbVertex
100
AcDb2dVertex
 10
2051.484197496885
 20
215.1918199649977
 30
0.0
 42
-0.0844635135812105
  0
VERTEX
  5
2764
330
275F
100
AcDbEntity
  8
STAVBA OBRYS
100
AcDbVertex
100
AcDb2dVertex
 10
2050.564387736992
 20
214.2873983600025
 30
0.0
 42
-0.0495829410719565
  0
VERTEX
  5
2765
330
275F
100
AcDbEntity
  8
STAVBA OBRYS
100
AcDbVertex
100
AcDb2dVertex
 10
2048.815709299638
 20
213.3107488526898
 30
0.0
 42
-0.0322692699774654
  0
VERTEX
  5
2766
330
275F
100
AcDbEntity
  8
STAVBA OBRYS
100
AcDbVertex
100
AcDb2dVertex
 10
2045.924355118547
 20
212.2692253512892
 30
0.0
 42
-0.0276160659512937
  0
VERTEX
  5
2767
330
275F
100
AcDbEntity
  8
STAVBA OBRYS
100
AcDbVertex
100
AcDb2dVertex
 10
2045.06877868026
 20
212.0724899223446
 30
0.0
 42
-0.0126891984598699
  0
VERTEX
  5
2768
330
275F
100
AcDbEntity
  8
STAVBA OBRYS
100
AcDbVertex
100
AcDb2dVertex
 10
2044.145610284469
 20
211.9372875328031
 30
0.0
  0
SEQEND
  5
2769
330
275F
100
AcDbEntity
  8
STAVBA OBRYS
  0
LWPOLYLINE
  5
276A
330
1F
100
AcDbEntity
  8
STAVBA OBRYS
100
AcDbPolyline
 90
       10
 70
     0
 43
0.0
 10
2068.187894143092
 20
220.4694217234651
 42
-0.0168162630274194
 10
2068.052868564028
 20
218.7783835713458
 42
-0.0575155827655532
 10
2067.372836283686
 20
215.6787589106284
 42
-0.0310289133982999
 10
2064.370034938857
 20
208.4337313859837
 42
-0.0882970623535771
 10
2062.732813018765
 20
206.1933623351838
 42
-0.0171636441953577
 10
2059.919448956907
 20
203.6794449799386
 42
-0.0157521173632038
 10
2056.68059411987
 20
201.1479489274321
 42
-0.0073640874174249
 10
2052.046944763549
 20
197.859547501696
 42
-0.0194185739168057
 10
2050.224901443872
 20
196.7079785024148
 42
-0.0567960585128809
 10
2044.145610284469
 20
194.0561142970387
 42
-0.0229547400386702
  0
LWPOLYLINE
  5
276B
330
1F
100
AcDbEntity
  8
STAVBA OBRYS
100
AcDbPolyline
 90
        8
 70
     0
 43
0.0
 10
2077.054953366603
 20
220.4694217234651
 42
-0.0120721047703132
 10
2076.985970676564
 20
218.735533584721
 42
-0.044358077361292
 10
2076.590342941892
 20
216.0397335663042
 42
-0.0188067511131767
 10
2074.570519493508
 20
208.7975043909978
 42
-0.0457786284636091
 10
2073.362496603893
 20
205.9488940081178
 42
-0.0295006114745606
 10
2070.946436149593
 20
202.0219947947158
 42
-0.0258674098621065
 10
2067.713760835629
 20
197.8762147159619
 42
-0.2409478365688615
 10
2044.145610284469
 20
183.4516672709883
 42
-0.0884720560394402
  0
POLYLINE
  5
276C
330
1F
100
AcDbEntity
  8
STAVBA OBRYS
100
AcDb2dPolyline
 66
     1
 10
0.0
 20
0.0
 30
0.0
  0
VERTEX
  5
276D
330
276C
100
AcDbEntity
  8
STAVBA OBRYS
100
AcDbVertex
100
AcDb2dVertex
 10
2061.238116119407
 20
220.4694217234633
 30
0.0
 42
-0.0072417954699014
  0
VERTEX
  5
276E
330
276C
100
AcDbEntity
  8
STAVBA OBRYS
100
AcDbVertex
100
AcDb2dVertex
 10
2061.182545751564
 20
220.0580165121887
 30
0.0
 42
-0.0707158694326265
  0
VERTEX
  5
276F
330
276C
100
AcDbEntity
  8
STAVBA OBRYS
100
AcDbVertex
100
AcDb2dVertex
 10
2060.651419235143
 20
218.121913059595
 30
0.0
 42
-0.033952657250207
  0
VERTEX
  5
2770
330
276C
100
AcDbEntity
  8
STAVBA OBRYS
100
AcDbVertex
100
AcDb2dVertex
 10
2058.402763395735
 20
213.7688753344214
 30
0.0
 42
-0.0571374688189033
  0
VERTEX
  5
2771
330
276C
100
AcDbEntity
  8
STAVBA OBRYS
100
AcDbVertex
100
AcDb2dVertex
 10
2056.616606635883
 20
211.461951050735
 30
0.0
 42
-0.0274923553235744
  0
VERTEX
  5
2772
330
276C
100
AcDbEntity
  8
STAVBA OBRYS
100
AcDbVertex
100
AcDb2dVertex
 10
2054.01930090533
 20
209.0768757276005
 30
0.0
 42
-0.0255412025538677
  0
VERTEX
  5
2773
330
276C
100
AcDbEntity
  8
STAVBA OBRYS
100
AcDbVertex
100
AcDb2dVertex
 10
2050.967870867619
 20
206.8201620505811
 30
0.0
 42
-0.0272796991712396
  0
VERTEX
  5
2774
330
276C
100
AcDbEntity
  8
STAVBA OBRYS
100
AcDbVertex
100
AcDb2dVertex
 10
2046.854871714434
 20
204.4038261689189
 30
0.0
 42
-0.056967459841729
  0
VERTEX
  5
2775
330
276C
100
AcDbEntity
  8
STAVBA OBRYS
100
AcDbVertex
100
AcDb2dVertex
 10
2044.713924433702
 20
203.5910903337194
 30
0.0
 42
-0.0373408083348504
  0
VERTEX
  5
2776
330
276C
100
AcDbEntity
  8
STAVBA OBRYS
100
AcDbVertex
100
AcDb2dVertex
 10
2044.491570058229
 20
203.5519247927682
 30
0.0
 42
-0.0052305969362967
  0
VERTEX
  5
2777
330
276C
100
AcDbEntity
  8
STAVBA OBRYS
100
AcDbVertex
100
AcDb2dVertex
 10
2044.145610284469
 20
203.5209678258639
 30
0.0
  0
SEQEND
  5
2778
330
276C
100
AcDbEntity
  8
STAVBA OBRYS
  0
HATCH
  5
2779
330
1F
100
AcDbEntity
  8
izolace
100
AcDbHatch
 10
0.0
 20
0.0
 30
0.0
210
0.0
220
0.0
230
1.0
  2
SOLID
 70
     1
 71
     0
 91
       10
 92
        7
 72
     0
 73
     1
 93
        4
 10
2094.145610284467
 20
223.4694217234642
 10
2090.221189277047
 20
223.4694217234642
 10
2090.221189277047
 20
220.4694217234651
 10
2094.145610284467
 20
220.4694217234651
 97
        0
 92
        7
 72
     0
 73
     1
 93
        9
 10
2077.779244375278
 20
223.4694217234642
 10
2072.382385117894
 20
223.4694217234642
 10
2072.690072107583
 20
223.3660337998094
 10
2073.060170451106
 20
223.1518143140243
 10
2072.690072107579
 20
222.7817159686306
 10
2072.031005351119
 20
223.0031733125238
 10
2072.031005351119
 20
220.5293177242024
 10
2072.209136548939
 20
220.4694217234651
 10
2077.779244375277
 20
220.4694217234651
 97
        0
 92
        7
 72
     0
 73
     1
 93
        9
 10
2069.385622591638
 20
223.4694217234642
 10
2063.963326561473
 20
223.4694217234642
 10
2063.963326561473
 20
220.4694217234651
 10
2069.385622591638
 20
220.4694217234651
 10
2069.385622591638
 20
220.8345007194189
 10
2068.726555835183
 20
221.0561096425877
 10
2068.356457487373
 20
221.2703291283756
 10
2068.726555835178
 20
221.6404274740412
 10
2069.385622591638
 20
221.4188185508715
 97
        0
 92
        7
 72
     0
 73
     1
 93
        5
 10
2072.031005351119
 20
223.0031733125229
 10
2070.643429655944
 20
223.4694217234642
 10
2069.385622591639
 20
223.4694217234642
 10
2069.385622591639
 20
221.4188185508706
 10
2072.031005351119
 20
220.5293177242015
 97
        0
 92
        7
 72
     0
 73
     1
 93
        4
 10
2071.789740813639
 20
223.4694217234642
 10
2070.643429655946
 20
223.4694217234651
 10
2072.690072107579
 20
222.7817159686288
 10
2073.060170451106
 20
223.1518143140243
 97
        0
 92
       23
 72
     0
 73
     1
 93
        4
 10
2072.382385117897
 20
223.4694217234642
 10
2071.789740813633
 20
223.4694217234642
 10
2073.060170451106
 20
223.1518143140224
 10
2072.690072107577
 20
223.3660337998113
 97
        0
 92
        7
 72
     0
 73
     1
 93
        4
 10
2068.726555835179
 20
221.6404274740394
 10
2068.356457487375
 20
221.2703291283747
 10
2071.560087107011
 20
220.4694217234651
 10
2072.209136548936
 20
220.4694217234651
 97
        0
 92
        7
 72
     0
 73
     1
 93
        4
 10
2068.35645748737
 20
221.2703291283765
 10
2068.726555835182
 20
221.0561096425886
 10
2070.471370522165
 20
220.4694217234651
 10
2071.560087107012
 20
220.4694217234651
 97
        0
 92
       23
 72
     0
 73
     1
 93
        3
 10
2069.385622591638
 20
220.8345007194198
 10
2069.385622591638
 20
220.4694217234651
 10
2070.471370522159
 20
220.4694217234651
 97
        0
 92
        7
 72
     0
 73
     1
 93
        4
 10
2050.477135066642
 20
223.4694217234642
 10
2044.145610284467
 20
223.4694217234642
 10
2044.145610284467
 20
220.4694217234651
 10
2050.477135066642
 20
220.469421723466
 97
        0
 75
     0
 76
     1
 47
0.0980096762587744
 98
       10
 10
2091.854362296433
 20
222.5878683105989
 10
2076.051564533574
 20
221.8358154216371
 10
2066.92559732411
 20
221.8724182812844
 10
2070.469518223876
 20
221.8170778440804
 10
2071.837064218992
 20
223.1720043228093
 10
2072.398442671046
 20
223.3880484242768
 10
2070.089112692215
 20
220.988564902746
 10
2070.327361616667
 20
220.6771721971386
 10
2069.667569229806
 20
220.6405357876652
 10
2046.621975851188
 20
221.7114629933281
  0
LWPOLYLINE
  5
277A
330
1F
100
AcDbEntity
  8
STAVBA OBRYS
100
AcDbPolyline
 90
        4
 70
     1
 43
0.0
 10
2044.145610284467
 20
180.4694217234651
 10
2094.145610284467
 20
180.4694217234651
 10
2094.145610284467
 20
220.4694217234651
 10
2044.145610284467
 20
220.4694217234651
  0
LWPOLYLINE
  5
277B
330
1F
100
AcDbEntity
  8
STAVBA OBRYS
100
AcDbPolyline
 90
        3
 70
     0
 43
0.0
 10
2050.854007742172
 20
214.9520910279466
 10
2067.6092253619
 20
206.5683501599783
 10
2075.776330011025
 20
198.3870484588811
  0
HATCH
  5
277C
330
1F
100
AcDbEntity
  8
nášlap_vrstvy
100
AcDbHatch
 10
0.0
 20
0.0
 30
0.0
210
0.0
220
0.0
230
1.0
  2
SOLID
 70
     1
 71
     0
 91
        1
 92
        7
 72
     0
 73
     1
 93
        4
 10
2117.072759041947
 20
248.9694217234646
 10
2105.251892687032
 20
248.9694217234646
 10
2105.251892687028
 20
247.4694217234646
 10
2117.072759041947
 20
247.4694217234646
 97
        0
 75
     0
 76
     1
 47
0.1901250437635136
 98
        1
 10
2109.930790066202
 20
248.5610159479247
  0
LINE
  5
277D
330
1F
100
AcDbEntity
  8
SPOJOVACÍ
  6
DASHED
100
AcDbLine
 10
2084.602980441628
 20
247.4694217234646
 30
0.0
 11
2094.59928206335
 21
247.4694217234646
 31
0.0
  0
LINE
  5
277E
330
1F
100
AcDbEntity
  8
nášlap_vrstvy
100
AcDbLine
 10
2101.336077522413
 20
259.080293899644
 30
0.0
 11
2096.694154276115
 21
259.080293899644
 31
0.0
  0
LINE
  5
277F
330
1F
100
AcDbEntity
  8
nášlap_vrstvy
100
AcDbLine
 10
2101.336077522409
 20
252.830293899644
 30
0.0
 11
2096.694154276115
 21
252.830293899644
 31
0.0
  0
LWPOLYLINE
  5
2780
330
1F
100
AcDbEntity
  8
nášlap_vrstvy
100
AcDbPolyline
 90
        4
 70
     1
 43
0.0
 10
2093.431026332109
 20
248.9694217234646
 10
2081.610159977193
 20
248.9694217234646
 10
2081.610159977193
 20
247.4694217234646
 10
2093.431026332109
 20
247.4694217234646
  0
HATCH
  5
2781
330
1F
100
AcDbEntity
  8
nášlap_vrstvy
100
AcDbHatch
 10
0.0
 20
0.0
 30
0.0
210
0.0
220
0.0
230
1.0
  2
SOLID
 70
     1
 71
     0
 91
        1
 92
        7
 72
     0
 73
     1
 93
        4
 10
2093.431026332112
 20
248.9694217234646
 10
2081.610159977193
 20
248.9694217234646
 10
2081.610159977193
 20
247.4694217234646
 10
2093.431026332112
 20
247.4694217234646
 97
        0
 75
     0
 76
     1
 47
0.1901250437635136
 98
        1
 10
2086.289057356363
 20
248.5610159479247
  0
HATCH
  5
2782
330
1F
100
AcDbEntity
  8
nášlap_vrstvy
100
AcDbHatch
 10
0.0
 20
0.0
 30
0.0
210
0.0
220
0.0
230
1.0
  2
SOLID
 70
     1
 71
     0
 91
        1
 92
        7
 72
     0
 73
     1
 93
        4
 10
2140.714491751782
 20
248.9694217234646
 10
2128.893625396863
 20
248.9694217234646
 10
2128.893625396863
 20
247.4694217234646
 10
2140.714491751782
 20
247.4694217234646
 97
        0
 75
     0
 76
     1
 47
0.1901250437635136
 98
        1
 10
2133.572522776033
 20
248.5610159479247
  0
HATCH
  5
2783
330
1F
100
AcDbEntity
  8
nášlap_vrstvy
100
AcDbHatch
 10
0.0
 20
0.0
 30
0.0
210
0.0
220
0.0
230
1.0
  2
SOLID
 70
     1
 71
     0
 91
        1
 92
        7
 72
     0
 73
     1
 93
        4
 10
2046.147560912442
 20
248.9694217234646
 10
2034.326694557523
 20
248.9694217234646
 10
2034.326694557523
 20
247.4694217234646
 10
2046.147560912442
 20
247.4694217234646
 97
        0
 75
     0
 76
     1
 47
0.1901250437635136
 98
        1
 10
2039.005591936692
 20
248.5610159479247
  0
LWPOLYLINE
  5
2784
330
1F
100
AcDbEntity
  8
nášlap_vrstvy
100
AcDbPolyline
 90
        4
 70
     1
 43
0.0
 10
2022.505828202607
 20
248.9694217234646
 10
2010.684961847687
 20
248.9694217234646
 10
2010.684961847687
 20
247.4694217234646
 10
2022.505828202607
 20
247.4694217234646
  0
HATCH
  5
2785
330
1F
100
AcDbEntity
  8
nášlap_vrstvy
100
AcDbHatch
 10
0.0
 20
0.0
 30
0.0
210
0.0
220
0.0
230
1.0
  2
SOLID
 70
     1
 71
     0
 91
        1
 92
        7
 72
     0
 73
     1
 93
        4
 10
2022.505828202607
 20
248.9694217234646
 10
2010.684961847691
 20
248.9694217234646
 10
2010.684961847687
 20
247.4694217234646
 10
2022.505828202607
 20
247.4694217234646
 97
        0
 75
     0
 76
     1
 47
0.1901250437635136
 98
        1
 10
2015.363859226861
 20
248.5610159479247
  0
LWPOLYLINE
  5
2786
330
1F
100
AcDbEntity
  8
nášlap_vrstvy
100
AcDbPolyline
 90
        4
 70
     1
 43
0.0
 10
2069.789293622277
 20
248.9694217234646
 10
2057.968427267358
 20
248.9694217234646
 10
2057.968427267358
 20
247.4694217234646
 10
2069.789293622277
 20
247.4694217234646
  0
HATCH
  5
2787
330
1F
100
AcDbEntity
  8
nášlap_vrstvy
100
AcDbHatch
 10
0.0
 20
0.0
 30
0.0
210
0.0
220
0.0
230
1.0
  2
SOLID
 70
     1
 71
     0
 91
        1
 92
        7
 72
     0
 73
     1
 93
        4
 10
2069.789293622277
 20
248.9694217234646
 10
2057.968427267361
 20
248.9694217234646
 10
2057.968427267358
 20
247.4694217234646
 10
2069.789293622277
 20
247.4694217234646
 97
        0
 75
     0
 76
     1
 47
0.1901250437635136
 98
        1
 10
2062.647324646531
 20
248.5610159479247
  0
TEXT
  5
2788
330
1F
100
AcDbEntity
  8
POPIS
100
AcDbText
 10
2203.535481984868
 20
149.3205594588271
 30
0.0
 40
25.0
  1
06
 41
0.85
  7
SIMPLEX7
100
AcDbText
  0
TEXT
  5
2789
330
1F
100
AcDbEntity
  8
POPIS
100
AcDbText
 10
2257.879185144611
 20
115.7764164311174
 30
0.0
 40
25.0
  1
Tepelná izolace
 41
0.7
  7
SIMPLEX7
100
AcDbText
  0
TEXT
  5
278A
330
1F
100
AcDbEntity
  8
POPIS
100
AcDbText
 10
2203.535481984868
 20
115.067166919629
 30
0.0
 40
25.0
  1
07
 41
0.85
  7
SIMPLEX7
100
AcDbText
  0
TEXT
  5
278B
330
1F
100
AcDbEntity
  8
POPIS
100
AcDbText
 10
2204.418252984901
 20
49.7096457249736
 30
0.0
 40
25.0
  1
09
 41
0.85
  7
SIMPLEX7
100
AcDbText
  0
TEXT
  5
278C
330
1F
100
AcDbEntity
  8
POPIS
100
AcDbText
 10
2204.418252984901
 20
82.64464146137106
 30
0.0
 40
25.0
  1
08
 41
0.85
  7
SIMPLEX7
100
AcDbText
  0
TEXT
  5
278D
330
1F
100
AcDbEntity
  8
POPIS
100
AcDbText
 10
2257.879185144611
 20
332.6701645593075
 30
0.0
 40
25.0
  1
Spárovací tmel 
 41
0.7
  7
SIMPLEX7
100
AcDbText
  0
TEXT
  5
278E
330
1F
100
AcDbEntity
  8
POPIS
100
AcDbText
 10
2257.879185144611
 20
185.0658491885661
 30
0.0
 40
25.0
  1
Penetrace 
 41
0.7
  7
SIMPLEX7
100
AcDbText
  0
LINE
  5
278F
330
1F
100
AcDbEntity
  8
nášlap_vrstvy
100
AcDbLine
 10
2147.780307350618
 20
252.830293899644
 30
0.0
 11
2147.780307350621
 21
248.9694217234646
 31
0.0
  0
TEXT
  5
2790
330
1F
100
AcDbEntity
  8
POPIS
100
AcDbText
 10
2203.535481984868
 20
294.7860795217203
 30
0.0
 40
25.0
  1
03
 41
0.85
  7
SIMPLEX7
100
AcDbText
  0
TEXT
  5
2791
330
1F
100
AcDbEntity
  8
POPIS
100
AcDbText
 10
2203.535481984868
 20
332.6701645593075
 30
0.0
 40
25.0
  1
02
 41
0.85
  7
SIMPLEX7
100
AcDbText
  0
TEXT
  5
2792
330
1F
100
AcDbEntity
  8
POPIS
100
AcDbText
 10
2203.535481984868
 20
259.3819183035575
 30
0.0
 40
25.0
  1
04
 41
0.85
  7
SIMPLEX7
100
AcDbText
  0
TEXT
  5
2793
330
1F
100
AcDbEntity
  8
POPIS
100
AcDbText
 10
2203.535481984868
 20
186.1560994617193
 30
0.0
 40
25.0
  1
05
 41
0.85
  7
SIMPLEX7
100
AcDbText
  0
TEXT
  5
2794
330
1F
100
AcDbEntity
  8
POPIS
100
AcDbText
 10
2203.535481984868
 20
369.2651761749349
 30
0.0
 40
25.0
  1
01
 41
0.85
  7
SIMPLEX7
100
AcDbText
  0
TEXT
  5
2796
330
1F
100
AcDbEntity
  8
POPIS
100
AcDbText
 10
2549.354223757627
 20
167.8051576342373
 30
0.0
 40
8.399999999999998
  1
R
 41
0.85
  7
SIMPLEX7
100
AcDbText
  0
CIRCLE
  5
2797
330
1F
100
AcDbEntity
  8
POPIS
100
AcDbCircle
 10
2552.685544096255
 20
171.68689965573
 30
0.0
 40
7.795592338044182
  0
HATCH
  5
283E
330
1F
100
AcDbEntity
  8
izolace
100
AcDbHatch
 10
0.0
 20
0.0
 30
0.0
210
0.0
220
0.0
230
1.0
  2
SOLID
 70
     1
 71
     0
 91
       10
 92
        7
 72
     0
 73
     1
 93
        4
 10
1513.038427567712
 20
180.4694217234638
 10
1509.114006560293
 20
180.4694217234638
 10
1509.114006560293
 20
177.4694217234648
 10
1513.038427567712
 20
177.4694217234648
 97
        0
 92
        7
 72
     0
 73
     1
 93
        9
 10
1496.672061658523
 20
180.4694217234638
 10
1491.27520240114
 20
180.4694217234638
 10
1491.582889390828
 20
180.3660337998091
 10
1491.952987734352
 20
180.1518143140239
 10
1491.582889390825
 20
179.7817159686303
 10
1490.923822634365
 20
180.0031733125235
 10
1490.923822634365
 20
177.5293177242021
 10
1491.101953832184
 20
177.4694217234648
 10
1496.672061658522
 20
177.4694217234648
 97
        0
 92
        7
 72
     0
 73
     1
 93
        9
 10
1488.278439874884
 20
180.4694217234638
 10
1482.856143844719
 20
180.4694217234638
 10
1482.856143844719
 20
177.4694217234648
 10
1488.278439874884
 20
177.4694217234648
 10
1488.278439874884
 20
177.8345007194185
 10
1487.619373118428
 20
178.0561096425874
 10
1487.249274770619
 20
178.2703291283753
 10
1487.619373118424
 20
178.6404274740409
 10
1488.278439874884
 20
178.4188185508712
 97
        0
 92
        7
 72
     0
 73
     1
 93
        5
 10
1490.923822634365
 20
180.0031733125226
 10
1489.536246939189
 20
180.4694217234638
 10
1488.278439874884
 20
180.4694217234638
 10
1488.278439874884
 20
178.4188185508702
 10
1490.923822634365
 20
177.5293177242012
 97
        0
 92
        7
 72
     0
 73
     1
 93
        4
 10
1490.682558096884
 20
180.4694217234638
 10
1489.536246939191
 20
180.4694217234647
 10
1491.582889390825
 20
179.7817159686284
 10
1491.952987734351
 20
180.1518143140239
 97
        0
 92
       23
 72
     0
 73
     1
 93
        4
 10
1491.275202401142
 20
180.4694217234638
 10
1490.682558096879
 20
180.4694217234638
 10
1491.952987734351
 20
180.1518143140221
 10
1491.582889390823
 20
180.3660337998109
 97
        0
 92
        7
 72
     0
 73
     1
 93
        4
 10
1487.619373118425
 20
178.640427474039
 10
1487.24927477062
 20
178.2703291283743
 10
1490.452904390257
 20
177.4694217234648
 10
1491.101953832181
 20
177.4694217234648
 97
        0
 92
        7
 72
     0
 73
     1
 93
        4
 10
1487.249274770615
 20
178.2703291283762
 10
1487.619373118428
 20
178.0561096425882
 10
1489.36418780541
 20
177.4694217234648
 10
1490.452904390257
 20
177.4694217234648
 97
        0
 92
       23
 72
     0
 73
     1
 93
        3
 10
1488.278439874884
 20
177.8345007194195
 10
1488.278439874884
 20
177.4694217234648
 10
1489.364187805404
 20
177.4694217234648
 97
        0
 92
        7
 72
     0
 73
     1
 93
        4
 10
1469.369952349887
 20
180.4694217234638
 10
1463.038427567712
 20
180.4694217234638
 10
1463.038427567712
 20
177.4694217234648
 10
1469.369952349888
 20
177.4694217234657
 97
        0
 75
     0
 76
     1
 47
0.0980096762587744
 98
       10
 10
1510.747179579678
 20
179.5878683105986
 10
1494.944381816819
 20
178.8358154216368
 10
1485.818414607355
 20
178.872418281284
 10
1489.362335507122
 20
178.81707784408
 10
1490.729881502238
 20
180.1720043228089
 10
1491.291259954291
 20
180.3880484242765
 10
1488.981929975461
 20
177.9885649027457
 10
1489.220178899913
 20
177.6771721971383
 10
1488.560386513051
 20
177.6405357876648
 10
1465.514793134433
 20
178.7114629933277
  0
LWPOLYLINE
  5
283F
330
1F
100
AcDbEntity
  8
izolace
100
AcDbPolyline
 90
        4
 70
     1
 43
0.0
 10
1513.038427567712
 20
177.4694217234648
 10
1463.038427567712
 20
177.4694217234648
 10
1463.038427567712
 20
180.4694217234638
 10
1513.038427567712
 20
180.4694217234638
  0
HATCH
  5
2840
330
1F
100
AcDbEntity
  8
izolace
100
AcDbHatch
 10
0.0
 20
0.0
 30
0.0
210
0.0
220
0.0
230
1.0
  2
SOLID
 70
     1
 71
     0
 91
       10
 92
        7
 72
     0
 73
     1
 93
        4
 10
1766.09201892609
 20
180.4694217234638
 10
1762.16759791867
 20
180.4694217234638
 10
1762.16759791867
 20
177.4694217234648
 10
1766.09201892609
 20
177.4694217234648
 97
        0
 92
        7
 72
     0
 73
     1
 93
        9
 10
1749.7256530169
 20
180.4694217234638
 10
1744.328793759517
 20
180.4694217234638
 10
1744.636480749205
 20
180.3660337998091
 10
1745.006579092729
 20
180.1518143140239
 10
1744.636480749202
 20
179.7817159686303
 10
1743.977413992742
 20
180.0031733125235
 10
1743.977413992742
 20
177.5293177242021
 10
1744.155545190561
 20
177.4694217234648
 10
1749.7256530169
 20
177.4694217234648
 97
        0
 92
        7
 72
     0
 73
     1
 93
        9
 10
1741.332031233261
 20
180.4694217234638
 10
1735.909735203096
 20
180.4694217234638
 10
1735.909735203096
 20
177.4694217234648
 10
1741.332031233261
 20
177.4694217234648
 10
1741.332031233261
 20
177.8345007194185
 10
1740.672964476805
 20
178.0561096425874
 10
1740.302866128996
 20
178.2703291283753
 10
1740.672964476801
 20
178.6404274740409
 10
1741.332031233261
 20
178.4188185508712
 97
        0
 92
        7
 72
     0
 73
     1
 93
        5
 10
1743.977413992742
 20
180.0031733125226
 10
1742.589838297566
 20
180.4694217234638
 10
1741.332031233262
 20
180.4694217234638
 10
1741.332031233262
 20
178.4188185508702
 10
1743.977413992742
 20
177.5293177242012
 97
        0
 92
        7
 72
     0
 73
     1
 93
        4
 10
1743.736149455261
 20
180.4694217234638
 10
1742.589838297568
 20
180.4694217234647
 10
1744.636480749202
 20
179.7817159686284
 10
1745.006579092728
 20
180.1518143140239
 97
        0
 92
       23
 72
     0
 73
     1
 93
        4
 10
1744.328793759519
 20
180.4694217234638
 10
1743.736149455256
 20
180.4694217234638
 10
1745.006579092728
 20
180.1518143140221
 10
1744.6364807492
 20
180.3660337998109
 97
        0
 92
        7
 72
     0
 73
     1
 93
        4
 10
1740.672964476802
 20
178.640427474039
 10
1740.302866128997
 20
178.2703291283743
 10
1743.506495748634
 20
177.4694217234648
 10
1744.155545190559
 20
177.4694217234648
 97
        0
 92
        7
 72
     0
 73
     1
 93
        4
 10
1740.302866128993
 20
178.2703291283762
 10
1740.672964476805
 20
178.0561096425882
 10
1742.417779163787
 20
177.4694217234648
 10
1743.506495748635
 20
177.4694217234648
 97
        0
 92
       23
 72
     0
 73
     1
 93
        3
 10
1741.332031233261
 20
177.8345007194195
 10
1741.332031233261
 20
177.4694217234648
 10
1742.417779163781
 20
177.4694217234648
 97
        0
 92
        7
 72
     0
 73
     1
 93
        4
 10
1722.423543708264
 20
180.4694217234638
 10
1716.092018926089
 20
180.4694217234638
 10
1716.092018926089
 20
177.4694217234648
 10
1722.423543708265
 20
177.4694217234657
 97
        0
 75
     0
 76
     1
 47
0.0980096762587744
 98
       10
 10
1763.800770938055
 20
179.5878683105986
 10
1747.997973175196
 20
178.8358154216368
 10
1738.872005965732
 20
178.872418281284
 10
1742.415926865499
 20
178.81707784408
 10
1743.783472860615
 20
180.1720043228089
 10
1744.344851312669
 20
180.3880484242765
 10
1742.035521333838
 20
177.9885649027457
 10
1742.27377025829
 20
177.6771721971383
 10
1741.613977871429
 20
177.6405357876648
 10
1718.568384492811
 20
178.7114629933277
  0
LWPOLYLINE
  5
2841
330
1F
100
AcDbEntity
  8
izolace
100
AcDbPolyline
 90
        4
 70
     1
 43
0.0
 10
1766.09201892609
 20
177.4694217234648
 10
1716.092018926089
 20
177.4694217234648
 10
1716.092018926089
 20
180.4694217234638
 10
1766.09201892609
 20
180.4694217234638
  0
HATCH
  5
2842
330
1F
100
AcDbEntity
  8
izolace
100
AcDbHatch
 10
0.0
 20
0.0
 30
0.0
210
0.0
220
0.0
230
1.0
  2
SOLID
 70
     1
 71
     0
 91
       10
 92
        7
 72
     0
 73
     1
 93
        4
 10
1816.09201892609
 20
180.4694217234638
 10
1812.16759791867
 20
180.4694217234638
 10
1812.16759791867
 20
177.4694217234648
 10
1816.09201892609
 20
177.4694217234648
 97
        0
 92
        7
 72
     0
 73
     1
 93
        9
 10
1799.7256530169
 20
180.4694217234638
 10
1794.328793759517
 20
180.4694217234638
 10
1794.636480749205
 20
180.3660337998091
 10
1795.006579092729
 20
180.1518143140239
 10
1794.636480749202
 20
179.7817159686303
 10
1793.977413992742
 20
180.0031733125235
 10
1793.977413992742
 20
177.5293177242021
 10
1794.155545190561
 20
177.4694217234648
 10
1799.7256530169
 20
177.4694217234648
 97
        0
 92
        7
 72
     0
 73
     1
 93
        9
 10
1791.332031233261
 20
180.4694217234638
 10
1785.909735203096
 20
180.4694217234638
 10
1785.909735203096
 20
177.4694217234648
 10
1791.332031233261
 20
177.4694217234648
 10
1791.332031233261
 20
177.8345007194185
 10
1790.672964476805
 20
178.0561096425874
 10
1790.302866128996
 20
178.2703291283753
 10
1790.672964476801
 20
178.6404274740409
 10
1791.332031233261
 20
178.4188185508712
 97
        0
 92
        7
 72
     0
 73
     1
 93
        5
 10
1793.977413992742
 20
180.0031733125226
 10
1792.589838297566
 20
180.4694217234638
 10
1791.332031233261
 20
180.4694217234638
 10
1791.332031233261
 20
178.4188185508702
 10
1793.977413992742
 20
177.5293177242012
 97
        0
 92
        7
 72
     0
 73
     1
 93
        4
 10
1793.736149455261
 20
180.4694217234638
 10
1792.589838297568
 20
180.4694217234647
 10
1794.636480749202
 20
179.7817159686284
 10
1795.006579092728
 20
180.1518143140239
 97
        0
 92
       23
 72
     0
 73
     1
 93
        4
 10
1794.328793759519
 20
180.4694217234638
 10
1793.736149455256
 20
180.4694217234638
 10
1795.006579092728
 20
180.1518143140221
 10
1794.6364807492
 20
180.3660337998109
 97
        0
 92
        7
 72
     0
 73
     1
 93
        4
 10
1790.672964476802
 20
178.640427474039
 10
1790.302866128997
 20
178.2703291283743
 10
1793.506495748633
 20
177.4694217234648
 10
1794.155545190559
 20
177.4694217234648
 97
        0
 92
        7
 72
     0
 73
     1
 93
        4
 10
1790.302866128993
 20
178.2703291283762
 10
1790.672964476804
 20
178.0561096425882
 10
1792.417779163787
 20
177.4694217234648
 10
1793.506495748635
 20
177.4694217234648
 97
        0
 92
       23
 72
     0
 73
     1
 93
        3
 10
1791.332031233261
 20
177.8345007194195
 10
1791.332031233261
 20
177.4694217234648
 10
1792.417779163781
 20
177.4694217234648
 97
        0
 92
        7
 72
     0
 73
     1
 93
        4
 10
1772.423543708264
 20
180.4694217234638
 10
1766.09201892609
 20
180.4694217234638
 10
1766.09201892609
 20
177.4694217234648
 10
1772.423543708265
 20
177.4694217234657
 97
        0
 75
     0
 76
     1
 47
0.0980096762587744
 98
       10
 10
1813.800770938055
 20
179.5878683105986
 10
1797.997973175196
 20
178.8358154216368
 10
1788.872005965732
 20
178.872418281284
 10
1792.415926865499
 20
178.81707784408
 10
1793.783472860615
 20
180.1720043228089
 10
1794.344851312668
 20
180.3880484242765
 10
1792.035521333838
 20
177.9885649027457
 10
1792.27377025829
 20
177.6771721971383
 10
1791.613977871429
 20
177.6405357876648
 10
1768.568384492811
 20
178.7114629933277
  0
LWPOLYLINE
  5
2843
330
1F
100
AcDbEntity
  8
izolace
100
AcDbPolyline
 90
        4
 70
     1
 43
0.0
 10
1816.09201892609
 20
177.4694217234648
 10
1766.09201892609
 20
177.4694217234648
 10
1766.09201892609
 20
180.4694217234638
 10
1816.09201892609
 20
180.4694217234638
  0
HATCH
  5
2844
330
1F
100
AcDbEntity
  8
izolace
100
AcDbHatch
 10
0.0
 20
0.0
 30
0.0
210
0.0
220
0.0
230
1.0
  2
SOLID
 70
     1
 71
     0
 91
       10
 92
        7
 72
     0
 73
     1
 93
        4
 10
2094.145610284467
 20
180.4694217234638
 10
2090.221189277047
 20
180.4694217234638
 10
2090.221189277047
 20
177.4694217234648
 10
2094.145610284467
 20
177.4694217234648
 97
        0
 92
        7
 72
     0
 73
     1
 93
        9
 10
2077.779244375278
 20
180.4694217234638
 10
2072.382385117894
 20
180.4694217234638
 10
2072.690072107582
 20
180.3660337998091
 10
2073.060170451106
 20
180.1518143140239
 10
2072.690072107579
 20
179.7817159686303
 10
2072.031005351119
 20
180.0031733125235
 10
2072.031005351119
 20
177.5293177242021
 10
2072.209136548938
 20
177.4694217234648
 10
2077.779244375276
 20
177.4694217234648
 97
        0
 92
        7
 72
     0
 73
     1
 93
        9
 10
2069.385622591638
 20
180.4694217234638
 10
2063.963326561473
 20
180.4694217234638
 10
2063.963326561473
 20
177.4694217234648
 10
2069.385622591638
 20
177.4694217234648
 10
2069.385622591638
 20
177.8345007194185
 10
2068.726555835183
 20
178.0561096425874
 10
2068.356457487373
 20
178.2703291283753
 10
2068.726555835178
 20
178.6404274740409
 10
2069.385622591638
 20
178.4188185508712
 97
        0
 92
        7
 72
     0
 73
     1
 93
        5
 10
2072.031005351119
 20
180.0031733125226
 10
2070.643429655943
 20
180.4694217234638
 10
2069.385622591638
 20
180.4694217234638
 10
2069.385622591638
 20
178.4188185508702
 10
2072.031005351119
 20
177.5293177242012
 97
        0
 92
        7
 72
     0
 73
     1
 93
        4
 10
2071.789740813638
 20
180.4694217234638
 10
2070.643429655945
 20
180.4694217234647
 10
2072.690072107579
 20
179.7817159686284
 10
2073.060170451105
 20
180.1518143140239
 97
        0
 92
       23
 72
     0
 73
     1
 93
        4
 10
2072.382385117896
 20
180.4694217234638
 10
2071.789740813633
 20
180.4694217234638
 10
2073.060170451105
 20
180.1518143140221
 10
2072.690072107577
 20
180.3660337998109
 97
        0
 92
        7
 72
     0
 73
     1
 93
        4
 10
2068.726555835179
 20
178.640427474039
 10
2068.356457487374
 20
178.2703291283743
 10
2071.56008710701
 20
177.4694217234648
 10
2072.209136548936
 20
177.4694217234648
 97
        0
 92
        7
 72
     0
 73
     1
 93
        4
 10
2068.356457487369
 20
178.2703291283762
 10
2068.726555835181
 20
178.0561096425882
 10
2070.471370522164
 20
177.4694217234648
 10
2071.560087107012
 20
177.4694217234648
 97
        0
 92
       23
 72
     0
 73
     1
 93
        3
 10
2069.385622591638
 20
177.8345007194195
 10
2069.385622591638
 20
177.4694217234648
 10
2070.471370522158
 20
177.4694217234648
 97
        0
 92
        7
 72
     0
 73
     1
 93
        4
 10
2050.477135066641
 20
180.4694217234638
 10
2044.145610284467
 20
180.4694217234638
 10
2044.145610284467
 20
177.4694217234648
 10
2050.477135066642
 20
177.4694217234657
 97
        0
 75
     0
 76
     1
 47
0.0980096762587744
 98
       10
 10
2091.854362296432
 20
179.5878683105986
 10
2076.051564533573
 20
178.8358154216368
 10
2066.925597324109
 20
178.872418281284
 10
2070.469518223876
 20
178.81707784408
 10
2071.837064218992
 20
180.1720043228089
 10
2072.398442671045
 20
180.3880484242765
 10
2070.089112692215
 20
177.9885649027457
 10
2070.327361616667
 20
177.6771721971383
 10
2069.667569229805
 20
177.6405357876648
 10
2046.621975851188
 20
178.7114629933277
  0
LWPOLYLINE
  5
2845
330
1F
100
AcDbEntity
  8
izolace
100
AcDbPolyline
 90
        4
 70
     1
 43
0.0
 10
2094.145610284467
 20
177.4694217234648
 10
2044.145610284467
 20
177.4694217234648
 10
2044.145610284467
 20
180.4694217234638
 10
2094.145610284467
 20
180.4694217234638
  0
ENDSEC
  0
SECTION
  2
OBJECTS
  0
DICTIONARY
  5
C
330
0
100
AcDbDictionary
281
     1
  3
ACAD_GROUP
350
D
  3
ACAD_LAYOUT
350
1A
  3
ACAD_MLINESTYLE
350
17
  3
ACAD_PLOTSETTINGS
350
19
  3
ACAD_PLOTSTYLENAME
350
E
  3
AcDbVariableDictionary
350
284D
  0
DICTIONARY
  5
D
102
{ACAD_REACTORS
330
C
102
}
330
C
100
AcDbDictionary
281
     1
  0
DICTIONARY
  5
1A
102
{ACAD_REACTORS
330
C
102
}
330
C
100
AcDbDictionary
281
     1
  3
Model
350
22
  3
Rozvržení1
350
1E
  3
Rozvržení2
350
26
  0
DICTIONARY
  5
17
102
{ACAD_REACTORS
330
C
102
}
330
C
100
AcDbDictionary
281
     1
  3
Standard
350
18
  0
DICTIONARY
  5
19
102
{ACAD_REACTORS
330
C
102
}
330
C
100
AcDbDictionary
281
     1
  0
ACDBDICTIONARYWDFLT
  5
E
102
{ACAD_REACTORS
330
C
102
}
330
C
100
AcDbDictionary
281
     1
  3
Normal
350
F
100
AcDbDictionaryWithDefault
340
F
  0
DICTIONARY
  5
284D
102
{ACAD_REACTORS
330
C
102
}
330
C
100
AcDbDictionary
281
     1
  3
DIMASSOC
350
284E
  0
LAYOUT
  5
22
102
{ACAD_REACTORS
330
1A
102
}
330
1A
100
AcDbPlotSettings
  1

  2
HP DeskJet 690C
  4

  6

 40
0.0
 41
0.0
 42
0.0
 43
0.0
 44
0.0
 45
0.0
 46
0.0
 47
0.0
 48
0.0
 49
0.0
140
0.0
141
0.0
142
1.0
143
1.0
 70
  1712
 72
     0
 73
     0
 74
     0
  7
monochrome.ctb
 75
     0
147
1.0
148
0.0
149
0.0
100
AcDbLayout
  1
Model
 70
     1
 71
     0
 10
0.0
 20
0.0
 11
12.0
 21
9.0
 12
0.0
 22
0.0
 32
0.0
 14
0.0
 24
0.0
 34
0.0
 15
0.0
 25
0.0
 35
0.0
146
0.0
 13
0.0
 23
0.0
 33
0.0
 16
1.0
 26
0.0
 36
0.0
 17
0.0
 27
1.0
 37
0.0
 76
     0
330
1F
  0
LAYOUT
  5
1E
102
{ACAD_REACTORS
330
1A
102
}
330
1A
100
AcDbPlotSettings
  1

  2
HP DeskJet 690C
  4

  6

 40
0.0
 41
0.0
 42
0.0
 43
0.0
 44
0.0
 45
0.0
 46
0.0
 47
0.0
 48
0.0
 49
0.0
140
0.0
141
0.0
142
1.0
143
1.0
 70
   688
 72
     0
 73
     0
 74
     5
  7
monochrome.ctb
 75
    16
147
1.0
148
0.0
149
0.0
100
AcDbLayout
  1
Rozvržení1
 70
     1
 71
     1
 10
0.0
 20
0.0
 11
420.0
 21
297.0
 12
0.0
 22
0.0
 32
0.0
 14
1.000000000000000E+20
 24
1.000000000000000E+20
 34
1.000000000000000E+20
 15
-1.000000000000000E+20
 25
-1.000000000000000E+20
 35
-1.000000000000000E+20
146
0.0
 13
0.0
 23
0.0
 33
0.0
 16
1.0
 26
0.0
 36
0.0
 17
0.0
 27
1.0
 37
0.0
 76
     0
330
1B
  0
LAYOUT
  5
26
102
{ACAD_REACTORS
330
1A
102
}
330
1A
100
AcDbPlotSettings
  1

  2
HP DeskJet 690C
  4

  6

 40
0.0
 41
0.0
 42
0.0
 43
0.0
 44
0.0
 45
0.0
 46
0.0
 47
0.0
 48
0.0
 49
0.0
140
0.0
141
0.0
142
1.0
143
1.0
 70
   688
 72
     0
 73
     0
 74
     5
  7
monochrome.ctb
 75
    16
147
1.0
148
0.0
149
0.0
100
AcDbLayout
  1
Rozvržení2
 70
     1
 71
     2
 10
0.0
 20
0.0
 11
12.0
 21
9.0
 12
0.0
 22
0.0
 32
0.0
 14
0.0
 24
0.0
 34
0.0
 15
0.0
 25
0.0
 35
0.0
146
0.0
 13
0.0
 23
0.0
 33
0.0
 16
1.0
 26
0.0
 36
0.0
 17
0.0
 27
1.0
 37
0.0
 76
     0
330
23
  0
MLINESTYLE
  5
18
102
{ACAD_REACTORS
330
17
102
}
330
17
100
AcDbMlineStyle
  2
STANDARD
 70
     0
  3

 62
   256
 51
90.0
 52
90.0
 71
     2
 49
0.5
 62
   256
  6
BYLAYER
 49
-0.5
 62
   256
  6
BYLAYER
  0
ACDBPLACEHOLDER
  5
F
102
{ACAD_REACTORS
330
E
102
}
330
E
  0
DICTIONARYVAR
  5
284E
102
{ACAD_REACTORS
330
284D
102
}
330
284D
100
DictionaryVariables
280
     0
  1
1
  0
ENDSEC
  0
EOF
