  0
SECTION
  2
HEADER
  9
$ACADVER
  1
AC1015
  9
$ACADMAINTVER
 70
    10
  9
$DWGCODEPAGE
  3
ANSI_1250
  9
$INSBASE
 10
0.0
 20
0.0
 30
0.0
  9
$EXTMIN
 10
-305.9189096990801
 20
-168.5864017127999
 30
0.0
  9
$EXTMAX
 10
988.3278130167624
 20
323.7639711247277
 30
0.0
  9
$LIMMIN
 10
0.0
 20
0.0
  9
$LIMMAX
 10
420.0
 20
297.0
  9
$ORTHOMODE
 70
     0
  9
$REGENMODE
 70
     1
  9
$FILLMODE
 70
     1
  9
$QTEXTMODE
 70
     0
  9
$MIRRTEXT
 70
     1
  9
$LTSCALE
 40
1.0
  9
$ATTMODE
 70
     1
  9
$TEXTSIZE
 40
2.5
  9
$TRACEWID
 40
1.0
  9
$TEXTSTYLE
  7
Standard
  9
$CLAYER
  8
0
  9
$CELTYPE
  6
ByLayer
  9
$CECOLOR
 62
   256
  9
$CELTSCALE
 40
1.0
  9
$DISPSILH
 70
     0
  9
$DIMSCALE
 40
1.0
  9
$DIMASZ
 40
2.5
  9
$DIMEXO
 40
0.625
  9
$DIMDLI
 40
3.75
  9
$DIMRND
 40
0.0
  9
$DIMDLE
 40
0.0
  9
$DIMEXE
 40
1.25
  9
$DIMTP
 40
0.0
  9
$DIMTM
 40
0.0
  9
$DIMTXT
 40
2.5
  9
$DIMCEN
 40
2.5
  9
$DIMTSZ
 40
0.0
  9
$DIMTOL
 70
     0
  9
$DIMLIM
 70
     0
  9
$DIMTIH
 70
     0
  9
$DIMTOH
 70
     0
  9
$DIMSE1
 70
     0
  9
$DIMSE2
 70
     0
  9
$DIMTAD
 70
     1
  9
$DIMZIN
 70
     8
  9
$DIMBLK
  1

  9
$DIMASO
 70
     1
  9
$DIMSHO
 70
     1
  9
$DIMPOST
  1

  9
$DIMAPOST
  1

  9
$DIMALT
 70
     0
  9
$DIMALTD
 70
     3
  9
$DIMALTF
 40
0.03937007874016
  9
$DIMLFAC
 40
1.0
  9
$DIMTOFL
 70
     1
  9
$DIMTVP
 40
0.0
  9
$DIMTIX
 70
     0
  9
$DIMSOXD
 70
     0
  9
$DIMSAH
 70
     0
  9
$DIMBLK1
  1

  9
$DIMBLK2
  1

  9
$DIMSTYLE
  2
ISO-25
  9
$DIMCLRD
 70
     0
  9
$DIMCLRE
 70
     0
  9
$DIMCLRT
 70
     0
  9
$DIMTFAC
 40
1.0
  9
$DIMGAP
 40
0.625
  9
$DIMJUST
 70
     0
  9
$DIMSD1
 70
     0
  9
$DIMSD2
 70
     0
  9
$DIMTOLJ
 70
     0
  9
$DIMTZIN
 70
     8
  9
$DIMALTZ
 70
     0
  9
$DIMALTTZ
 70
     0
  9
$DIMUPT
 70
     0
  9
$DIMDEC
 70
     2
  9
$DIMTDEC
 70
     2
  9
$DIMALTU
 70
     2
  9
$DIMALTTD
 70
     3
  9
$DIMTXSTY
  7
Standard
  9
$DIMAUNIT
 70
     0
  9
$DIMADEC
 70
     0
  9
$DIMALTRND
 40
0.0
  9
$DIMAZIN
 70
     0
  9
$DIMDSEP
 70
    44
  9
$DIMATFIT
 70
     3
  9
$DIMFRAC
 70
     0
  9
$DIMLDRBLK
  1

  9
$DIMLUNIT
 70
     2
  9
$DIMLWD
 70
    -2
  9
$DIMLWE
 70
    -2
  9
$DIMTMOVE
 70
     0
  9
$LUNITS
 70
     2
  9
$LUPREC
 70
     4
  9
$SKETCHINC
 40
1.0
  9
$FILLETRAD
 40
10.0
  9
$AUNITS
 70
     0
  9
$AUPREC
 70
     0
  9
$MENU
  1
.
  9
$ELEVATION
 40
0.0
  9
$PELEVATION
 40
0.0
  9
$THICKNESS
 40
0.0
  9
$LIMCHECK
 70
     0
  9
$CHAMFERA
 40
10.0
  9
$CHAMFERB
 40
10.0
  9
$CHAMFERC
 40
20.0
  9
$CHAMFERD
 40
0.0
  9
$SKPOLY
 70
     0
  9
$TDCREATE
 40
2452332.468649768
  9
$TDUCREATE
 40
2452332.426983101
  9
$TDUPDATE
 40
2452653.400558622
  9
$TDUUPDATE
 40
2452653.358891956
  9
$TDINDWG
 40
0.0297204282
  9
$TDUSRTIMER
 40
0.0297178819
  9
$USRTIMER
 70
     1
  9
$ANGBASE
 50
0.0
  9
$ANGDIR
 70
     0
  9
$PDMODE
 70
     0
  9
$PDSIZE
 40
0.0
  9
$PLINEWID
 40
0.0
  9
$SPLFRAME
 70
     0
  9
$SPLINETYPE
 70
     6
  9
$SPLINESEGS
 70
     8
  9
$HANDSEED
  5
21EC
  9
$SURFTAB1
 70
     6
  9
$SURFTAB2
 70
     6
  9
$SURFTYPE
 70
     6
  9
$SURFU
 70
     6
  9
$SURFV
 70
     6
  9
$UCSBASE
  2

  9
$UCSNAME
  2

  9
$UCSORG
 10
0.0
 20
0.0
 30
0.0
  9
$UCSXDIR
 10
1.0
 20
0.0
 30
0.0
  9
$UCSYDIR
 10
0.0
 20
1.0
 30
0.0
  9
$UCSORTHOREF
  2

  9
$UCSORTHOVIEW
 70
     0
  9
$UCSORGTOP
 10
0.0
 20
0.0
 30
0.0
  9
$UCSORGBOTTOM
 10
0.0
 20
0.0
 30
0.0
  9
$UCSORGLEFT
 10
0.0
 20
0.0
 30
0.0
  9
$UCSORGRIGHT
 10
0.0
 20
0.0
 30
0.0
  9
$UCSORGFRONT
 10
0.0
 20
0.0
 30
0.0
  9
$UCSORGBACK
 10
0.0
 20
0.0
 30
0.0
  9
$PUCSBASE
  2

  9
$PUCSNAME
  2

  9
$PUCSORG
 10
0.0
 20
0.0
 30
0.0
  9
$PUCSXDIR
 10
1.0
 20
0.0
 30
0.0
  9
$PUCSYDIR
 10
0.0
 20
1.0
 30
0.0
  9
$PUCSORTHOREF
  2

  9
$PUCSORTHOVIEW
 70
     0
  9
$PUCSORGTOP
 10
0.0
 20
0.0
 30
0.0
  9
$PUCSORGBOTTOM
 10
0.0
 20
0.0
 30
0.0
  9
$PUCSORGLEFT
 10
0.0
 20
0.0
 30
0.0
  9
$PUCSORGRIGHT
 10
0.0
 20
0.0
 30
0.0
  9
$PUCSORGFRONT
 10
0.0
 20
0.0
 30
0.0
  9
$PUCSORGBACK
 10
0.0
 20
0.0
 30
0.0
  9
$USERI1
 70
     0
  9
$USERI2
 70
     0
  9
$USERI3
 70
     0
  9
$USERI4
 70
     0
  9
$USERI5
 70
     0
  9
$USERR1
 40
0.0
  9
$USERR2
 40
0.0
  9
$USERR3
 40
0.0
  9
$USERR4
 40
0.0
  9
$USERR5
 40
0.0
  9
$WORLDVIEW
 70
     1
  9
$SHADEDGE
 70
     3
  9
$SHADEDIF
 70
    70
  9
$TILEMODE
 70
     1
  9
$MAXACTVP
 70
    64
  9
$PINSBASE
 10
0.0
 20
0.0
 30
0.0
  9
$PLIMCHECK
 70
     0
  9
$PEXTMIN
 10
1.000000000000000E+20
 20
1.000000000000000E+20
 30
1.000000000000000E+20
  9
$PEXTMAX
 10
-1.000000000000000E+20
 20
-1.000000000000000E+20
 30
-1.000000000000000E+20
  9
$PLIMMIN
 10
0.0
 20
0.0
  9
$PLIMMAX
 10
420.0
 20
297.0
  9
$UNITMODE
 70
     0
  9
$VISRETAIN
 70
     1
  9
$PLINEGEN
 70
     0
  9
$PSLTSCALE
 70
     1
  9
$TREEDEPTH
 70
  3020
  9
$CMLSTYLE
  2
Standard
  9
$CMLJUST
 70
     0
  9
$CMLSCALE
 40
20.0
  9
$PROXYGRAPHICS
 70
     1
  9
$MEASUREMENT
 70
     1
  9
$CELWEIGHT
370
    -1
  9
$ENDCAPS
280
     0
  9
$JOINSTYLE
280
     0
  9
$LWDISPLAY
290
     0
  9
$INSUNITS
 70
     4
  9
$HYPERLINKBASE
  1

  9
$STYLESHEET
  1

  9
$XEDIT
290
     1
  9
$CEPSNTYPE
380
     0
  9
$PSTYLEMODE
290
     1
  9
$FINGERPRINTGUID
  2
{A3477950-F6EC-44A0-8776-592C40033ABE}
  9
$VERSIONGUID
  2
{D355EB79-A67A-4F10-B795-D19117074892}
  9
$EXTNAMES
290
     1
  9
$PSVPSCALE
 40
0.0
  9
$OLESTARTUP
290
     0
  0
ENDSEC
  0
SECTION
  2
CLASSES
  0
CLASS
  1
ACDBDICTIONARYWDFLT
  2
AcDbDictionaryWithDefault
  3
AutoCAD 2000
 90
        0
280
     0
281
     0
  0
CLASS
  1
ACDBPLACEHOLDER
  2
AcDbPlaceHolder
  3
AutoCAD 2000
 90
        0
280
     0
281
     0
  0
CLASS
  1
LAYOUT
  2
AcDbLayout
  3
AutoCAD 2000
 90
        0
280
     0
281
     0
  0
CLASS
  1
DICTIONARYVAR
  2
AcDbDictionaryVar
  3
AutoCAD 2000
 90
        0
280
     0
281
     0
  0
ENDSEC
  0
SECTION
  2
TABLES
  0
TABLE
  2
VPORT
  5
8
330
0
100
AcDbSymbolTable
 70
     6
  0
VPORT
  5
21EB
330
8
100
AcDbSymbolTableRecord
100
AcDbViewportTableRecord
  2
*Active
 70
     0
 10
0.0
 20
0.0
 11
1.0
 21
1.0
 12
309.1662998431302
 22
58.54887616399577
 13
0.0
 23
0.0
 14
10.0
 24
10.0
 15
10.0
 25
10.0
 16
0.0
 26
0.0
 36
1.0
 17
0.0
 27
0.0
 37
0.0
 40
620.6649015179326
 41
2.041152263374485
 42
50.0
 43
0.0
 44
0.0
 50
0.0
 51
0.0
 71
     0
 72
   100
 73
     1
 74
     3
 75
     0
 76
     0
 77
     0
 78
     0
281
     0
 65
     1
110
0.0
120
0.0
130
0.0
111
1.0
121
0.0
131
0.0
112
0.0
122
1.0
132
0.0
 79
     0
146
0.0
  0
ENDTAB
  0
TABLE
  2
LTYPE
  5
5
330
0
100
AcDbSymbolTable
 70
     3
  0
LTYPE
  5
14
330
5
100
AcDbSymbolTableRecord
100
AcDbLinetypeTableRecord
  2
ByBlock
 70
     0
  3

 72
    65
 73
     0
 40
0.0
  0
LTYPE
  5
15
330
5
100
AcDbSymbolTableRecord
100
AcDbLinetypeTableRecord
  2
ByLayer
 70
     0
  3

 72
    65
 73
     0
 40
0.0
  0
LTYPE
  5
16
330
5
100
AcDbSymbolTableRecord
100
AcDbLinetypeTableRecord
  2
Continuous
 70
     0
  3
Solid line
 72
    65
 73
     0
 40
0.0
  0
LTYPE
  5
1B79
330
5
100
AcDbSymbolTableRecord
100
AcDbLinetypeTableRecord
  2
DASHED
 70
     0
  3
Dashed __ __ __ __ __ __ __ __ __ __ __ __ __ _
 72
    65
 73
     2
 40
19.04999999999999
 49
12.7
 74
     0
 49
-6.349999999999999
 74
     0
  0
LTYPE
  5
1B7A
330
5
100
AcDbSymbolTableRecord
100
AcDbLinetypeTableRecord
  2
IZOLACE
 70
     0
  3
Izolace SSSSSSSSSSSSSSSSSSSSSSSSSSSSSSSSSSSSSSS
 72
    65
 73
     4
 40
10.16253999999999
 49
0.00254
 74
     0
 49
-2.54
 74
     4
 75
   134
340
1B82
 46
2.54
 50
0.0
 44
-2.54
 45
0.0
 49
-5.08
 74
     4
 75
   134
340
1B82
 46
2.54
 50
180.0
 44
2.54
 45
0.0
 49
-2.54
 74
     0
  0
ENDTAB
  0
TABLE
  2
LAYER
  5
2
330
0
100
AcDbSymbolTable
 70
     7
  0
LAYER
  5
10
330
2
100
AcDbSymbolTableRecord
100
AcDbLayerTableRecord
  2
0
 70
     0
 62
     7
  6
Continuous
370
    -3
390
F
  0
LAYER
  5
1B7B
330
2
100
AcDbSymbolTableRecord
100
AcDbLayerTableRecord
  2
POPIS
 70
     0
 62
    30
  6
Continuous
370
    -3
390
F
  0
LAYER
  5
1B7C
330
2
100
AcDbSymbolTableRecord
100
AcDbLayerTableRecord
  2
SPOJOVACÍ
 70
     0
 62
   180
  6
Continuous
370
    -3
390
F
  0
LAYER
  5
1B7D
330
2
100
AcDbSymbolTableRecord
100
AcDbLayerTableRecord
  2
CETRIS
 70
     0
 62
     1
  6
Continuous
370
    -3
390
F
  0
LAYER
  5
1B7E
330
2
100
AcDbSymbolTableRecord
100
AcDbLayerTableRecord
  2
izolace
 70
     0
 62
    33
  6
Continuous
370
    -3
390
F
  0
LAYER
  5
1B7F
330
2
100
AcDbSymbolTableRecord
100
AcDbLayerTableRecord
  2
nášlap_vrstvy
 70
     0
 62
    73
  6
Continuous
370
    -3
390
F
  0
LAYER
  5
1B80
330
2
100
AcDbSymbolTableRecord
100
AcDbLayerTableRecord
  2
STAVBA OBRYS
 70
     0
 62
     6
  6
Continuous
370
    -3
390
F
  0
ENDTAB
  0
TABLE
  2
STYLE
  5
3
330
0
100
AcDbSymbolTable
 70
     3
  0
STYLE
  5
11
330
3
100
AcDbSymbolTableRecord
100
AcDbTextStyleTableRecord
  2
Standard
 70
     0
 40
0.0
 41
1.0
 50
0.0
 71
     0
 42
2.5
  3
txt
  4

  0
STYLE
  5
1B81
330
3
100
AcDbSymbolTableRecord
100
AcDbTextStyleTableRecord
  2
SIMPLEX7
 70
     0
 40
0.0
 41
0.85
 50
0.0
 71
     0
 42
102.0
  3

  4

1001
ACAD
1000
Arial CE
1071
    60962
  0
STYLE
  5
1B82
330
3
100
AcDbSymbolTableRecord
100
AcDbTextStyleTableRecord
  2

 70
     1
 40
0.0
 41
1.0
 50
0.0
 71
     0
 42
2.5
  3
ltypeshp.shx
  4

  0
ENDTAB
  0
TABLE
  2
VIEW
  5
6
330
0
100
AcDbSymbolTable
 70
     0
  0
ENDTAB
  0
TABLE
  2
UCS
  5
7
330
0
100
AcDbSymbolTable
 70
     0
  0
ENDTAB
  0
TABLE
  2
APPID
  5
9
330
0
100
AcDbSymbolTable
 70
     1
  0
APPID
  5
12
330
9
100
AcDbSymbolTableRecord
100
AcDbRegAppTableRecord
  2
ACAD
 70
     0
  0
ENDTAB
  0
TABLE
  2
DIMSTYLE
  5
A
330
0
100
AcDbSymbolTable
 70
     1
100
AcDbDimStyleTable
 71
     0
  0
DIMSTYLE
105
27
330
A
100
AcDbSymbolTableRecord
100
AcDbDimStyleTableRecord
  2
ISO-25
 70
     0
 41
2.5
 42
0.625
 43
3.75
 44
1.25
 73
     0
 74
     0
 77
     1
 78
     8
140
2.5
141
2.5
143
0.03937007874016
147
0.625
171
     3
172
     1
271
     2
272
     2
274
     3
278
    44
283
     0
284
     8
340
11
  0
ENDTAB
  0
TABLE
  2
BLOCK_RECORD
  5
1
330
0
100
AcDbSymbolTable
 70
     2
  0
BLOCK_RECORD
  5
1F
330
1
100
AcDbSymbolTableRecord
100
AcDbBlockTableRecord
  2
*Model_Space
340
22
  0
BLOCK_RECORD
  5
1B
330
1
100
AcDbSymbolTableRecord
100
AcDbBlockTableRecord
  2
*Paper_Space
340
1E
  0
BLOCK_RECORD
  5
23
330
1
100
AcDbSymbolTableRecord
100
AcDbBlockTableRecord
  2
*Paper_Space0
340
26
  0
BLOCK_RECORD
  5
1B75
330
1
100
AcDbSymbolTableRecord
100
AcDbBlockTableRecord
  2
E_PUNKT
340
0
102
{BLKREFS
331
1FA6
331
1FA8
331
1FAA
331
1FB1
331
1FC4
331
20B0
331
20B1
331
20B7
331
21E8
102
}
  0
ENDTAB
  0
ENDSEC
  0
SECTION
  2
BLOCKS
  0
BLOCK
  5
20
330
1F
100
AcDbEntity
  8
0
100
AcDbBlockBegin
  2
*Model_Space
 70
     0
 10
0.0
 20
0.0
 30
0.0
  3
*Model_Space
  1

  0
ENDBLK
  5
21
330
1F
100
AcDbEntity
  8
0
100
AcDbBlockEnd
  0
BLOCK
  5
1C
330
1B
100
AcDbEntity
 67
     1
  8
0
100
AcDbBlockBegin
  2
*Paper_Space
 70
     0
 10
0.0
 20
0.0
 30
0.0
  3
*Paper_Space
  1

  0
ENDBLK
  5
1D
330
1B
100
AcDbEntity
 67
     1
  8
0
100
AcDbBlockEnd
  0
BLOCK
  5
24
330
23
100
AcDbEntity
  8
0
100
AcDbBlockBegin
  2
*Paper_Space0
 70
     0
 10
0.0
 20
0.0
 30
0.0
  3
*Paper_Space0
  1

  0
ENDBLK
  5
25
330
23
100
AcDbEntity
  8
0
100
AcDbBlockEnd
  0
BLOCK
  5
1B77
330
1B75
100
AcDbEntity
  8
0
100
AcDbBlockBegin
  2
E_PUNKT
 70
     0
 10
0.0
 20
0.0
 30
0.0
  3
E_PUNKT
  1

  0
LWPOLYLINE
  5
1B76
330
1B75
100
AcDbEntity
  8
POPIS
100
AcDbPolyline
 90
        2
 70
     1
 43
2.5
 10
1.27761037562675
 20
0.0290683308725193
 42
-1.0
 10
-1.222389624373249
 20
0.0290683308725193
 42
-1.0
  0
ENDBLK
  5
1B78
330
1B75
100
AcDbEntity
  8
0
100
AcDbBlockEnd
  0
ENDSEC
  0
SECTION
  2
ENTITIES
  0
TEXT
  5
1EAD
330
1F
100
AcDbEntity
  8
POPIS
100
AcDbText
 10
522.6403916154179
 20
27.80535625563453
 30
0.0
 40
25.0
  1
Vrut Bűhnen 4,2x45(55) mm
 41
0.7
  7
SIMPLEX7
100
AcDbText
  0
TEXT
  5
1EAE
330
1F
100
AcDbEntity
  8
POPIS
100
AcDbText
 10
522.6403916154179
 20
205.5189711842343
 30
0.0
 40
25.0
  1
Dilatační profil Schlűter DILEX
 41
0.7
  7
SIMPLEX7
100
AcDbText
  0
TEXT
  5
1EAF
330
1F
100
AcDbEntity
  8
POPIS
100
AcDbText
 10
522.6403916154179
 20
65.944839862121
 30
0.0
 40
25.0
  1
Podlahová deska CETRIS   PD (PDB)
 41
0.7
  7
SIMPLEX7
100
AcDbText
  0
TEXT
  5
1EB0
330
1F
100
AcDbEntity
  8
POPIS
100
AcDbText
 10
522.6403916154179
 20
171.8630853410234
 30
0.0
 40
25.0
  1
alt. dilatační pružný tmel
 41
0.7
  7
SIMPLEX7
100
AcDbText
  0
TEXT
  5
1EB1
330
1F
100
AcDbEntity
  8
POPIS
100
AcDbText
 10
522.6403916154179
 20
137.896869992532
 30
0.0
 40
25.0
  1
Nášlapná vrstva
 41
0.7
  7
SIMPLEX7
100
AcDbText
  0
TEXT
  5
1EB2
330
1F
100
AcDbEntity
  8
POPIS
100
AcDbText
 10
522.6403916154179
 20
101.3018583769047
 30
0.0
 40
25.0
  1
Dilatační spára tl. 15 mm
 41
0.7
  7
SIMPLEX7
100
AcDbText
  0
TEXT
  5
1EB3
330
1F
100
AcDbEntity
  8
POPIS
100
AcDbText
 10
522.6403916154179
 20
-42.73984360471485
 30
0.0
 40
25.0
  1
Dřevěný nosník
 41
0.7
  7
SIMPLEX7
100
AcDbText
  0
TEXT
  5
1EB4
330
1F
100
AcDbEntity
  8
POPIS
100
AcDbText
 10
522.6403916154179
 20
-8.789655359992764
 30
0.0
 40
25.0
  1
Zvukoizolační podložka
 41
0.7
  7
SIMPLEX7
100
AcDbText
  0
TEXT
  5
1EB5
330
1F
100
AcDbEntity
  8
POPIS
100
AcDbText
 10
522.6403916154179
 20
-112.0292763621639
 30
0.0
 40
25.0
  1
Stropní konstrukce
 41
0.7
  7
SIMPLEX7
100
AcDbText
  0
TEXT
  5
1EB6
330
1F
100
AcDbEntity
  8
POPIS
100
AcDbText
 10
522.6403916154179
 20
-78.144004822878
 30
0.0
 40
25.0
  1
Tepelná izolace
 41
0.7
  7
SIMPLEX7
100
AcDbText
  0
TEXT
  5
1EB7
330
1F
100
AcDbEntity
  8
POPIS
100
AcDbText
 10
163.5958668146443
 20
127.6785492657357
 30
0.0
 40
25.0
  1
07
 41
0.85
  7
SIMPLEX7
100
AcDbText
  0
TEXT
  5
1EB8
330
1F
100
AcDbEntity
  8
POPIS
100
AcDbText
 10
124.0523740743913
 20
127.6785492657357
 30
0.0
 40
25.0
  1
06
 41
0.85
  7
SIMPLEX7
100
AcDbText
  0
TEXT
  5
1EB9
330
1F
100
AcDbEntity
  8
POPIS
100
AcDbText
 10
-33.89495901718305
 20
127.7270131824937
 30
0.0
 40
25.0
  1
03
 41
0.85
  7
SIMPLEX7
100
AcDbText
  0
TEXT
  5
1EBA
330
1F
100
AcDbEntity
  8
POPIS
100
AcDbText
 10
-259.3252012434602
 20
127.5564181131106
 30
0.0
 40
25.0
  1
02
 41
0.85
  7
SIMPLEX7
100
AcDbText
  0
TEXT
  5
1EBB
330
1F
100
AcDbEntity
  8
POPIS
100
AcDbText
 10
-205.3333543767946
 20
127.5564181131106
 30
0.0
 40
25.0
  1
04
 41
0.85
  7
SIMPLEX7
100
AcDbText
  0
TEXT
  5
1EBC
330
1F
100
AcDbEntity
  8
POPIS
100
AcDbText
 10
81.59359061683085
 20
127.7270131824937
 30
0.0
 40
25.0
  1
05
 41
0.85
  7
SIMPLEX7
100
AcDbText
  0
TEXT
  5
1EBD
330
1F
100
AcDbEntity
  8
POPIS
100
AcDbText
 10
-91.86842163144296
 20
127.5564181131106
 30
0.0
 40
25.0
  1
09
 41
0.85
  7
SIMPLEX7
100
AcDbText
  0
TEXT
  5
1EBE
330
1F
100
AcDbEntity
  8
POPIS
100
AcDbText
 10
-154.0092471784153
 20
127.5564181131106
 30
0.0
 40
25.0
  1
08
 41
0.85
  7
SIMPLEX7
100
AcDbText
  0
TEXT
  5
1EBF
330
1F
100
AcDbEntity
  8
POPIS
100
AcDbText
 10
18.44769801091774
 20
127.7270131824937
 30
0.0
 40
25.0
  1
01
 41
0.85
  7
SIMPLEX7
100
AcDbText
  0
TEXT
  5
1EC0
330
1F
100
AcDbEntity
  8
POPIS
100
AcDbText
 10
468.2966884556756
 20
136.2379614930399
 30
0.0
 40
25.0
  1
02
 41
0.85
  7
SIMPLEX7
100
AcDbText
  0
HATCH
  5
1EC1
330
1F
100
AcDbEntity
  8
STAVBA OBRYS
100
AcDbHatch
 10
0.0
 20
0.0
 30
0.0
210
0.0
220
0.0
230
1.0
  2
AR-CONC
 70
     0
 71
     0
 91
        1
 92
        7
 72
     0
 73
     1
 93
        4
 10
370.1726153639885
 20
-158.5864017127984
 10
-305.9189096990783
 20
-158.5864017127984
 10
-305.9189096990792
 20
-168.5864017127993
 10
369.640373996229
 20
-168.5864017127993
 97
        0
 75
     0
 76
     1
 52
90.0
 41
0.1
 77
     0
 78
    13
 53
140.0
 43
-7201.529460489675
 44
-4142.44243736567
 45
1.593908553890309
 46
18.2184668996004
 79
     2
 49
1.905
 49
-20.955
 53
85.00000000000001
 43
-7201.529460489675
 44
-4142.44243736567
 45
-19.10566428821799
 46
-3.524282597566697
 79
     2
 49
1.524
 49
-16.764
 53
190.4509999999999
 43
-7201.396635489675
 44
-4140.924237365669
 45
-17.51166878202918
 46
14.69425016659592
 79
     2
 49
1.619
 49
-17.809
 53
136.1841999999999
 43
-7206.609460489675
 44
-4142.44243736567
 45
4.204232793272717
 46
27.10790408921299
 79
     2
 49
2.857499999999999
 49
-31.4325
 53
186.6355999999999
 43
-7206.259110489675
 44
-4140.18344736567
 45
-24.74255558900492
 46
23.74042344662371
 79
     2
 49
2.4285
 49
-26.7135
 53
81.18400000000004
 43
-7206.609460489675
 44
-4142.44243736567
 45
-24.74251178605976
 46
23.74046058139339
 79
     2
 49
2.286
 49
-25.146
 53
111.0
 43
-7205.339460489675
 44
-4139.90243736567
 45
10.22655185167625
 46
15.16148798353833
 79
     2
 49
1.905
 49
-20.955
 53
56.00000000000004
 43
-7205.339460489675
 44
-4139.90243736567
 45
-18.41879661223192
 46
6.180202834764708
 79
     2
 49
1.524
 49
-16.764
 53
161.4514
 43
-7204.487250489676
 44
-4138.638987365669
 45
-8.192285771605742
 46
21.34164907701245
 79
     2
 49
1.618999999999999
 49
-17.80899999999998
 53
127.5
 43
-7201.529460489675
 44
-4142.44243736567
 45
-8.455503887315311
 46
0.3088603250591822
 79
     6
 49
0.0
 49
-16.5608
 49
0.0
 49
-17.018
 49
0.0
 49
-16.8275
 53
97.49999999999996
 43
-7201.529460489675
 44
-4142.44243736567
 45
-10.01805748181195
 46
6.681966251030575
 79
     6
 49
0.0
 49
-9.702799999999999
 49
0.0
 49
-16.1798
 49
0.0
 49
-6.4135
 53
57.5
 43
-7201.529460489675
 44
-4148.10663736567
 45
0.5728743992673473
 46
13.55905951668713
 79
     6
 49
0.0
 49
-6.35
 49
0.0
 49
-19.812
 49
0.0
 49
-26.289
 53
47.5
 43
-7201.529460489675
 44
-4150.64663736567
 45
-2.5426491033333
 46
14.8129181386018
 79
     6
 49
0.0
 49
-8.255
 49
0.0
 49
-13.1572
 49
0.0
 49
-18.669
 47
0.9235294900383919
 98
        1
 10
143.2822145896118
 20
-165.6349796153051
  0
HATCH
  5
1EC2
330
1F
100
AcDbEntity
  8
CETRIS
100
AcDbHatch
 10
0.0
 20
0.0
 30
0.0
210
0.0
220
0.0
230
1.0
  2
ANSI31
 70
     0
 71
     0
 91
        9
 92
        7
 72
     0
 73
     1
 93
       41
 10
-279.5808747230037
 20
38.37198034899603
 10
-279.210776375198
 20
38.74207869466255
 10
-278.5517096187384
 20
38.52062135072475
 10
-278.5517096187402
 20
40.99447693903795
 10
-279.2107763752017
 20
41.21608586225494
 10
-279.5808747230037
 20
41.42939377557951
 10
-279.2107763751999
 20
41.80040369343288
 10
-278.5517096187393
 20
41.578794770265
 10
-278.5517096187393
 20
44.03712474249033
 10
-279.2107763751999
 20
44.25873366570278
 10
-279.5808747230028
 20
44.47204157903189
 10
-279.210776375198
 20
44.84305149688345
 10
-278.5517096187384
 20
44.62144257371557
 10
-278.5840704348827
 20
46.33158803589623
 10
-278.6164312510225
 20
46.71718311020078
 10
-279.0357544980377
 20
48.16840617990448
 10
-279.8160603677695
 20
49.46101567263332
 10
-280.9044776701218
 20
50.50841222225637
 10
-282.2271690519999
 20
51.23767004600205
 10
-282.2271690519999
 20
52.41359828719879
 10
-299.3670806716461
 20
52.4135982871997
 10
-300.1876225891153
 20
29.40783944532842
 10
-299.7685007440129
 20
28.41359828719879
 10
-278.5517096187393
 20
28.41359828719879
 10
-278.5517096187393
 20
28.77867728315533
 10
-279.2107763751989
 20
29.00028620632321
 10
-279.5808747230028
 20
29.21450569211021
 10
-279.2107763751989
 20
29.58460403777491
 10
-278.5517096187384
 20
29.36299511460612
 10
-278.5517096187402
 20
31.83624228928357
 10
-279.2107763751953
 20
32.05769963317499
 10
-279.5808747230028
 20
32.27191911896289
 10
-279.210776375198
 20
32.64201746462942
 10
-278.5517096187384
 20
32.42056012069161
 10
-278.5517096187393
 20
34.89441570900481
 10
-279.2107763751999
 20
35.11602463221908
 10
-279.5808747230028
 20
35.32933254554547
 10
-279.2107763751999
 20
35.70034246339793
 10
-278.5517096187384
 20
35.47873354022823
 10
-278.5517096187384
 20
37.93630351931762
 10
-279.2107763751989
 20
38.15776086320994
 97
        0
 92
        7
 72
     1
 73
     1
 93
       42
 10
-137.1115762466104
 20
52.4135982871997
 42
0.0
 10
-188.4356834449897
 20
52.4135982871997
 42
0.0
 10
-188.4356834449897
 20
42.21018872660107
 42
-0.8930636805437851
 10
-188.7154364589748
 20
39.74189555532968
 42
-1.119740979043173
 10
-188.4356834449897
 20
42.21018872660107
 42
0.0
 10
-188.4356834449888
 20
52.41359828719879
 42
0.0
 10
-272.2308674302774
 20
52.4135982871997
 42
0.0
 10
-272.2308674302764
 20
51.23767004600296
 42
0.0
 10
-272.9318665127173
 20
50.9076808808789
 42
0.0
 10
-274.1442576454444
 20
50.00795904064244
 42
0.0
 10
-275.0831770940265
 20
48.82473822140338
 42
0.0
 10
-275.6839032261921
 20
47.43914835589595
 42
0.0
 10
-275.9063268592569
 20
45.9459929615362
 42
0.0
 10
-275.9063268592579
 20
43.73194174705377
 42
0.0
 10
-275.2472601027927
 20
43.51033282388408
 42
0.0
 10
-274.8771617592726
 20
43.29611333809708
 42
0.0
 10
-275.2472601027982
 20
42.92601499243329
 42
0.0
 10
-275.9063268592579
 20
43.14762391564755
 42
0.0
 10
-275.9063268592579
 20
40.68929394360139
 42
0.0
 10
-275.2472601028037
 20
40.46768502043625
 42
0.0
 10
-274.8771617592726
 20
40.25346553464652
 42
0.0
 10
-275.2472601027991
 20
39.88336718898091
 42
0.0
 10
-275.9063268592569
 20
40.10497611219427
 42
0.0
 10
-275.9063268592587
 20
37.63172893751681
 42
0.0
 10
-275.2472601027964
 20
37.41027159357719
 42
0.0
 10
-274.8771617592717
 20
37.19605210779292
 42
0.0
 10
-275.2472601027991
 20
36.82595376239834
 42
0.0
 10
-275.9063268592587
 20
37.04741110629157
 42
0.0
 10
-275.9063268592587
 20
34.58923271356644
 42
0.0
 10
-275.2472601028
 20
34.36762379039857
 42
0.0
 10
-274.8771617592708
 20
34.15340430461339
 42
0.0
 10
-275.2472601027991
 20
33.78330595894686
 42
0.0
 10
-275.9063268592569
 20
34.00491488216022
 42
0.0
 10
-275.9063268592579
 20
31.53166770748276
 42
0.0
 10
-275.2472601027954
 20
31.31021036354496
 42
0.0
 10
-274.8771617592726
 20
31.09599087775797
 42
0.0
 10
-275.2472601027982
 20
30.7258925323652
 42
0.0
 10
-275.9063268592579
 20
30.94734987625753
 42
0.0
 10
-275.9063268592579
 20
28.47349428793705
 42
0.0
 10
-275.7281956614395
 20
28.41359828719879
 42
0.0
 10
-250.1533539955269
 20
28.41359828719879
 42
0.0
 10
-137.1115762466104
 20
28.41359828719879
 42
0.0
 97
        0
 92
        7
 72
     0
 73
     1
 93
        4
 10
-74.97075069963898
 20
52.4135982871997
 10
-137.1115762466104
 20
52.4135982871997
 10
-137.1115762466104
 20
28.4135982871997
 10
-74.97075069963807
 20
28.4135982871997
 97
        0
 92
        7
 72
     0
 73
     1
 93
       41
 10
0.8120709661745877
 20
34.89441570900391
 10
0.1530042097185742
 20
35.11602463221726
 10
-0.2170941380898057
 20
35.32933254554547
 10
0.1530042097140267
 20
35.70034246339884
 10
0.8120709661745877
 20
35.47873354023005
 10
0.8120709661736782
 20
37.93630351931852
 10
0.1530042097194837
 20
38.15776086320903
 10
-0.2170941380898057
 20
38.37198034899694
 10
0.1530042097149362
 20
38.74207869466255
 10
0.8120709661745877
 20
38.52062135072566
 10
0.8120709661754972
 20
40.99447693903885
 10
0.1530042097122077
 20
41.21608586225221
 10
-0.2170941380907152
 20
41.4293937755786
 10
0.1530042097140267
 20
41.80040369343288
 10
0.8120709661745877
 20
41.578794770265
 10
0.8120709661745877
 20
44.03712474249033
 10
0.1530042097131172
 20
44.25873366570278
 10
-0.2170941380898057
 20
44.47204157903189
 10
0.1530042097158457
 20
44.84305149688617
 10
0.8120709661745877
 20
44.62144257371647
 10
0.7797101500320878
 20
46.33158803586257
 10
0.7473493338904973
 20
46.71718311019986
 10
0.328026086878026
 20
48.16840617990084
 10
-0.4522797828537933
 20
49.46101567263423
 10
-1.540697085206147
 20
50.50841222225909
 10
-2.863388467085087
 20
51.23767004600478
 10
-2.863388467084178
 20
52.4135982871997
 10
-10.7344597032968
 20
52.4135982871997
 10
-74.97075069963898
 20
52.41359828719879
 10
-74.97075069963989
 20
28.41359828719879
 10
0.8120709661745877
 20
28.41359828720061
 10
0.8120709661736782
 20
28.77867728315533
 10
0.1530042097194837
 20
29.00028620631957
 10
-0.2170941380898057
 20
29.2145056921093
 10
0.1530042097158457
 20
29.58460403777491
 10
0.8120709661754972
 20
29.36299511460703
 10
0.8120709661745877
 20
31.83624228928448
 10
0.1530042097176647
 20
32.05769963317499
 10
-0.2170941380898057
 20
32.27191911896289
 10
0.1530042097158457
 20
32.6420174646285
 10
0.8120709661754972
 20
32.42056012069161
 97
        0
 92
        7
 72
     0
 73
     1
 93
       37
 10
14.34601211607719
 20
52.4135982871997
 10
7.132913154638345
 20
52.4135982871997
 10
7.132913154636526
 20
51.23767004600205
 10
6.431914072192057
 20
50.90768088087617
 10
5.219522939473108
 20
50.00795904064517
 10
4.280603490886505
 20
48.82473822140156
 10
3.679877358722706
 20
47.43914835589777
 10
3.457453725656023
 20
45.94599296153165
 10
3.457453725656023
 20
43.73194174705377
 10
4.116520482112036
 20
43.5103328238859
 10
4.486618825641244
 20
43.296113338098
 10
4.116520482115674
 20
42.92601499243239
 10
3.457453725656023
 20
43.14762391564665
 10
3.457453725656932
 20
40.68929394360139
 10
4.116520482113855
 20
40.4676850204317
 10
4.486618825642153
 20
40.25346553464652
 10
4.116520482113855
 20
39.88336718898091
 10
3.457453725656932
 20
40.10497611219427
 10
3.457453725653294
 20
37.63172893751681
 10
4.116520482114765
 20
37.41027159357901
 10
4.486618825642153
 20
37.19605210779201
 10
4.116520482115674
 20
36.82595376239834
 10
3.457453725656932
 20
37.04741110629067
 10
3.457453725656932
 20
34.58923271356735
 10
4.116520482113855
 20
34.36762379039766
 10
4.486618825642153
 20
34.15340430461248
 10
4.116520482114765
 20
33.78330595894686
 10
3.457453725656023
 20
34.00491488216113
 10
3.457453725656932
 20
31.53166770748367
 10
4.116520482109308
 20
31.31021036354678
 10
4.486618825642153
 20
31.09599087775888
 10
4.116520482115674
 20
30.72589253236429
 10
3.457453725656932
 20
30.94734987625753
 10
3.457453725656023
 20
28.47349428793705
 10
3.635584923473516
 20
28.4135982871997
 10
27.90023736285297
 20
28.4135982871997
 10
27.90023736285388
 20
30.84706993267928
 97
        0
 92
       23
 72
     0
 73
     1
 93
        3
 10
27.90023736285388
 20
52.4135982871997
 10
14.346012116079
 20
52.4135982871997
 10
27.90023736285297
 20
30.84706993268202
 97
        0
 92
        7
 72
     0
 73
     1
 93
       36
 10
67.34302100004447
 20
43.14762391564665
 10
66.68395424358482
 20
42.92601499243239
 10
66.31385590005834
 20
43.29611333809708
 10
66.68395424358664
 20
43.51033282388499
 10
67.34302100004447
 20
43.73194174705287
 10
67.34302100004538
 20
45.94599296152347
 10
67.12059736697688
 20
47.43914835589322
 10
66.51987123481581
 20
48.82473822139974
 10
65.58095178623012
 20
50.00795904064881
 10
64.36856065351299
 20
50.90768088087253
 10
63.66756157106306
 20
51.23767004600205
 10
63.66756157106306
 20
52.4135982871997
 10
42.90023736285024
 20
52.4135982871997
 10
42.90023736284934
 20
28.4135982871997
 10
67.16488980223061
 20
28.4135982871997
 10
67.34302100004356
 20
28.47349428793615
 10
67.34302100004447
 20
30.94734987625753
 10
66.68395424358482
 20
30.72589253236429
 10
66.31385590005834
 20
31.09599087775888
 10
66.68395424358573
 20
31.31021036354496
 10
67.34302100004447
 20
31.53166770748367
 10
67.34302100004447
 20
34.00491488216113
 10
66.68395424358482
 20
33.78330595894686
 10
66.31385590005743
 20
34.15340430461156
 10
66.68395424358118
 20
34.36762379039675
 10
67.34302100004265
 20
34.58923271356553
 10
67.34302100004356
 20
37.04741110629157
 10
66.68395424358482
 20
36.82595376239834
 10
66.31385590005834
 20
37.19605210779292
 10
66.68395424358573
 20
37.41027159357901
 10
67.34302100004447
 20
37.63172893751681
 10
67.34302100004447
 20
40.10497611219427
 10
66.68395424358573
 20
39.88336718898182
 10
66.31385590005925
 20
40.25346553464652
 10
66.68395424358482
 20
40.46768502043261
 10
67.34302100004538
 20
40.68929394360139
 97
        0
 92
        7
 72
     1
 73
     1
 93
       42
 10
100.5369212787075
 20
52.41359828719879
 42
0.0
 10
73.66386319278558
 20
52.41359828719879
 42
0.0
 10
73.66386319278558
 20
51.23767004600296
 42
0.0
 10
72.34117181090574
 20
50.50841222225909
 42
0.0
 10
71.25275450855338
 20
49.46101567263332
 42
0.0
 10
70.47244863882065
 20
48.16840617990175
 42
0.0
 10
70.05312539180818
 20
46.71718311018986
 42
0.0
 10
70.02076457566932
 20
46.33158803586894
 42
0.0
 10
69.98840375952591
 20
44.62144257371557
 42
0.0
 10
70.64747051598465
 20
44.84305149688345
 42
0.0
 10
71.01756886379121
 20
44.47204157903098
 42
0.0
 10
70.64747051598647
 20
44.25873366570368
 42
0.0
 10
69.98840375952591
 20
44.03712474248942
 42
0.0
 10
69.98840375952773
 20
41.578794770265
 42
0.0
 10
70.64747051598647
 20
41.80040369343379
 42
0.0
 10
71.0175688637903
 20
41.42939377557951
 42
0.0
 10
70.64747051598647
 20
41.21608586225221
 42
0.0
 10
69.98840375952591
 20
40.99447693903795
 42
0.0
 10
69.98840375952773
 20
38.52062135072475
 42
0.0
 10
70.64747051598465
 20
38.74207869466255
 42
0.0
 10
71.01756886379121
 20
38.37198034899785
 42
0.0
 10
70.64747051598738
 20
38.15776086321176
 42
0.0
 10
69.98840375952591
 20
37.93630351931762
 42
0.0
 10
69.98840375952591
 20
35.47873354023005
 42
0.0
 10
70.64747051598465
 20
35.70034246339884
 42
0.0
 10
71.0175688637903
 20
35.32933254554456
 42
0.0
 10
70.64747051598556
 20
35.11602463221817
 42
0.0
 10
69.98840375952591
 20
34.89441570900481
 42
0.0
 10
69.988403759525
 20
32.4205601206898
 42
0.0
 10
70.64747051598556
 20
32.6420174646285
 42
0.0
 10
71.0175688637903
 20
32.27191911896289
 42
0.0
 10
70.64747051598283
 20
32.0576996331759
 42
0.0
 10
69.988403759525
 20
31.83624228928448
 42
0.0
 10
69.98840375952681
 20
29.36299511460521
 42
0.0
 10
70.64747051598556
 20
29.58460403777582
 42
0.0
 10
71.01756886378939
 20
29.21450569210838
 42
0.0
 10
70.64747051598556
 20
29.00028620632321
 42
0.0
 10
69.98840375952591
 20
28.77867728315533
 42
0.0
 10
69.98840375952591
 20
28.41359828720061
 42
0.0
 10
81.55044893001401
 20
28.41359828720061
 42
-0.8404138967992548
 10
81.97435077190698
 20
30.83952652839553
 42
-0.1723754071308367
 10
82.76305245535628
 20
30.55929436376874
 42
0.0
 97
        0
 92
        7
 72
     1
 73
     1
 93
        5
 10
137.5837535330967
 20
52.4135982871997
 42
0.0
 10
100.5369212787102
 20
52.4135982871997
 42
0.0
 10
82.76305245535628
 20
30.55929436376874
 42
-0.5835076667820694
 10
82.39825261379815
 20
28.4135982871997
 42
0.0
 10
116.8589632787618
 20
28.4135982871997
 42
0.0
 97
        0
 75
     0
 76
     1
 52
0.0
 41
1.0
 77
     0
 78
     1
 53
45.0
 43
-7201.529460489675
 44
-4139.442437365671
 45
-2.245064030267287
 46
2.245064030267288
 79
     0
 47
0.6272747474595222
 98
        9
 10
-284.5614021201124
 20
38.12185555956085
 10
-254.4357882845522
 20
38.12185555956085
 10
-93.76577999977758
 20
36.86730467814624
 10
-22.21739990265791
 20
34.35820291531337
 10
14.18439680542201
 20
36.86730467814624
 10
23.59864204487371
 20
47.53096994679646
 10
57.48998304554539
 20
42.51276642113436
 10
80.08420068955297
 20
42.51276642113436
 10
107.0717521581812
 20
36.86730467814624
  0
LWPOLYLINE
  5
1EC3
330
1F
100
AcDbEntity
  8
CETRIS
100
AcDbPolyline
 90
        2
 70
     0
 43
0.0
 10
42.90023736285024
 20
28.4135982871997
 10
379.9658565307411
 20
28.4135982871997
  0
LINE
  5
1EC4
330
1F
100
AcDbEntity
  8
CETRIS
100
AcDbLine
 10
42.90023736285024
 20
52.4135982871997
 30
0.0
 11
81.5349344289973
 21
52.4135982871997
 31
0.0
  0
LWPOLYLINE
  5
1EC5
330
1F
100
AcDbEntity
  8
nášlap_vrstvy
100
AcDbPolyline
 90
        4
 70
     0
 43
0.0
 10
40.71899701932875
 20
55.03535864971701
 10
381.4363550154069
 20
55.03535864971701
 10
381.4936215795226
 20
59.37384767566465
 10
40.71899701932875
 20
59.37384767566465
  0
LINE
  5
1EC6
330
1F
100
AcDbEntity
  8
CETRIS
100
AcDbLine
 10
381.2432358133612
 20
52.4135982871997
 30
0.0
 11
42.90023736285024
 21
52.4135982871997
 31
0.0
  0
LWPOLYLINE
  5
1EC7
330
1F
100
AcDbEntity
  8
STAVBA OBRYS
100
AcDbPolyline
 90
        4
 70
     0
 43
0.0
 10
42.90023736285024
 20
15.21376811629426
 42
0.0067884601454759
 10
44.89608065389461
 20
5.084905104733763
 42
0.0219777111230329
 10
45.80219315587806
 20
1.566791848898276
 42
0.0757738131361498
 10
59.08329101209824
 20
-14.58640171280029
  0
LWPOLYLINE
  5
1EC8
330
1F
100
AcDbEntity
  8
STAVBA OBRYS
100
AcDbPolyline
 90
        3
 70
     0
 43
0.0
 10
66.89926227989985
 20
18.91442871794453
 10
46.90300984790724
 20
9.698399667424666
 10
42.90307221419266
 20
9.053002192082487
  0
LWPOLYLINE
  5
1EC9
330
1F
100
AcDbEntity
  8
STAVBA OBRYS
100
AcDbPolyline
 90
        6
 70
     0
 43
0.0
 10
51.36667890067315
 20
25.4135982871997
 42
0.0128837512779301
 10
51.65147086089769
 20
22.08043346545338
 42
0.0351641677647434
 10
52.27923058242073
 20
18.47672401111441
 42
0.0187319685742942
 10
55.6632464634115
 20
6.718486668971593
 42
0.0582629403736403
 10
57.32274633149268
 20
3.138652470039517
 42
0.1129599987265478
 10
74.69828818320206
 20
-14.58640171280029
 42
0.1129599987265478
  0
LWPOLYLINE
  5
1ECA
330
1F
100
AcDbEntity
  8
STAVBA OBRYS
100
AcDbPolyline
 90
        4
 70
     1
 43
0.0
 10
92.90023736285025
 20
-14.58640171280029
 10
42.90023736285024
 20
-14.58640171280029
 10
42.90023736285024
 20
25.4135982871997
 10
92.90023736285025
 20
25.4135982871997
  0
HATCH
  5
1ECB
330
1F
100
AcDbEntity
  8
izolace
100
AcDbHatch
 10
0.0
 20
0.0
 30
0.0
210
0.0
220
0.0
230
1.0
  2
SOLID
 70
     1
 71
     0
 91
       10
 92
        7
 72
     0
 73
     1
 93
        4
 10
42.90023736285024
 20
28.41359828719879
 10
46.82465837026962
 20
28.41359828719879
 10
46.82465837026962
 20
25.4135982871997
 10
42.90023736285024
 20
25.4135982871997
 97
        0
 92
        7
 72
     0
 73
     1
 93
        9
 10
59.26660327203922
 20
28.41359828719879
 10
64.66346252942298
 20
28.41359828719879
 10
64.35577553973439
 20
28.31021036354405
 10
63.98567719621064
 20
28.09599087775888
 10
64.35577553973804
 20
27.72589253236521
 10
65.01484229619769
 20
27.94734987625844
 10
65.01484229619769
 20
25.47349428793705
 10
64.83671109837837
 20
25.4135982871997
 10
59.26660327204013
 20
25.4135982871997
 97
        0
 92
        7
 72
     0
 73
     1
 93
        9
 10
67.66022505567912
 20
28.41359828719879
 10
73.08252108584406
 20
28.41359828719879
 10
73.08252108584406
 20
25.4135982871997
 10
67.66022505567912
 20
25.4135982871997
 10
67.66022505567912
 20
25.77867728315351
 10
68.31929181213422
 20
26.0002862063223
 10
68.68939015994351
 20
26.2145056921102
 10
68.31929181213877
 20
26.58460403777581
 10
67.66022505567912
 20
26.36299511460612
 97
        0
 92
        7
 72
     0
 73
     1
 93
        5
 10
65.01484229619769
 20
27.94734987625753
 10
66.40241799137334
 20
28.41359828719879
 10
67.66022505567821
 20
28.41359828719879
 10
67.66022505567821
 20
26.36299511460521
 10
65.01484229619769
 20
25.47349428793614
 97
        0
 92
        7
 72
     0
 73
     1
 93
        4
 10
65.25610683367836
 20
28.41359828719879
 10
66.40241799137152
 20
28.4135982871997
 10
64.35577553973804
 20
27.72589253236338
 10
63.98567719621155
 20
28.09599087775888
 97
        0
 92
       23
 72
     0
 73
     1
 93
        4
 10
64.66346252942026
 20
28.41359828719879
 10
65.25610683368381
 20
28.41359828719879
 10
63.98567719621155
 20
28.09599087775706
 10
64.35577553973985
 20
28.31021036354588
 97
        0
 92
        7
 72
     0
 73
     1
 93
        4
 10
68.31929181213786
 20
26.584604037774
 10
68.68939015994261
 20
26.2145056921093
 10
65.48576054030604
 20
25.4135982871997
 10
64.8367110983811
 20
25.4135982871997
 97
        0
 92
        7
 72
     0
 73
     1
 93
        4
 10
68.68939015994715
 20
26.21450569211111
 10
68.31929181213514
 20
26.00028620632321
 10
66.57447712515227
 20
25.4135982871997
 10
65.48576054030514
 20
25.4135982871997
 97
        0
 92
       23
 72
     0
 73
     1
 93
        3
 10
67.66022505567912
 20
25.77867728315442
 10
67.66022505567912
 20
25.4135982871997
 10
66.57447712515864
 20
25.4135982871997
 97
        0
 92
        7
 72
     0
 73
     1
 93
        4
 10
86.56871258067553
 20
28.41359828719879
 10
92.90023736285025
 20
28.41359828719879
 10
92.90023736285025
 20
25.4135982871997
 10
86.56871258067463
 20
25.41359828720061
 97
        0
 75
     0
 76
     1
 47
0.0980096762587744
 98
       10
 10
45.19148535088447
 20
27.5320448743335
 10
60.99428311374345
 20
26.77999198537174
 10
70.1202503232073
 20
26.81659484501898
 10
66.57632942344048
 20
26.76125440781499
 10
65.20878342832498
 20
28.11618088654387
 10
64.64740497627122
 20
28.33222498801143
 10
66.95673495510186
 20
25.93274146648065
 10
66.71848603064995
 20
25.62134876087322
 10
67.37827841751118
 20
25.58471235139978
 10
90.4238717961291
 20
26.65563955706267
  0
LWPOLYLINE
  5
1ECC
330
1F
100
AcDbEntity
  8
izolace
100
AcDbPolyline
 90
        4
 70
     1
 43
0.0
 10
42.90023736285024
 20
25.4135982871997
 10
92.90023736285025
 20
25.4135982871997
 10
92.90023736285025
 20
28.41359828719879
 10
42.90023736285024
 20
28.41359828719879
  0
LWPOLYLINE
  5
1ECD
330
1F
100
AcDbEntity
  8
STAVBA OBRYS
100
AcDbPolyline
 90
        4
 70
     0
 43
0.0
 10
29.48862025617041
 20
-159.0872321435478
 10
49.48487268816302
 20
-149.8712030930279
 10
66.26276325938147
 20
-147.1640588303368
 10
69.5263745070863
 20
-147.0337574659667
  0
LWPOLYLINE
  5
1ECE
330
1F
100
AcDbEntity
  8
STAVBA OBRYS
100
AcDbPolyline
 90
        5
 70
     0
 43
0.0
 10
53.99860931866192
 20
-158.5864017127993
 42
0.0133579731639958
 10
53.61179882963392
 20
-156.0685994252441
 42
0.0072443097182286
 10
51.49180188217565
 20
-145.257708530337
 42
0.0219777111230329
 10
50.5856893801922
 20
-141.7395952745015
 42
0.0092752982622242
 10
50.21046241824501
 20
-140.5864017127993
  0
LINE
  5
1ECF
330
1F
100
AcDbEntity
  8
STAVBA OBRYS
100
AcDbLine
 10
-305.9189096990801
 20
-168.5864017127993
 30
0.0
 11
370.9766645380534
 21
-168.5864017127993
 31
0.0
  0
LINE
  5
1ED0
330
1F
100
AcDbEntity
  8
STAVBA OBRYS
100
AcDbLine
 10
-305.9189096990792
 20
-158.5864017127989
 30
0.0
 11
370.9766645380534
 21
-158.5864017127993
 31
0.0
  0
LINE
  5
1ED1
330
1F
100
AcDbEntity
  8
STAVBA OBRYS
100
AcDbLine
 10
-304.4286338693562
 20
-140.5864017127993
 30
0.0
 11
370.9766645380534
 21
-140.5864017127993
 31
0.0
  0
LINE
  5
1ED2
330
1F
100
AcDbEntity
  8
STAVBA OBRYS
100
AcDbLine
 10
-301.7567566153199
 20
-17.58640171279847
 30
0.0
 11
377.677218649381
 21
-17.58640171280029
 31
0.0
  0
LWPOLYLINE
  5
1ED3
330
1F
100
AcDbEntity
  8
CETRIS
100
AcDbPolyline
 90
        2
 70
     0
 43
0.0
 10
81.5349344289973
 20
28.4135982871997
 10
42.90023736285024
 20
28.4135982871997
  0
LWPOLYLINE
  5
1ED4
330
1F
100
AcDbEntity
  8
CETRIS
100
AcDbPolyline
 90
        2
 70
     0
 43
0.0
 10
27.90023736285388
 20
28.4135982871997
 10
-295.593427164568
 20
28.4135982871997
  0
LWPOLYLINE
  5
1ED5
330
1F
100
AcDbEntity
  8
nášlap_vrstvy
100
AcDbPolyline
 90
        2
 70
     0
 43
0.0
 10
30.08147770637902
 20
59.37384767566465
 10
-299.1188308130556
 20
59.37384767566465
  0
LWPOLYLINE
  5
1ED6
330
1F
100
AcDbEntity
  8
nášlap_vrstvy
100
AcDbPolyline
 90
        3
 70
     0
 43
0.0
 10
-299.1188308130556
 20
59.37384767566465
 10
-299.1188308130556
 20
55.03535864971792
 10
30.08147770637902
 20
55.03535864971701
  0
LWPOLYLINE
  5
1ED7
330
1F
100
AcDbEntity
  8
STAVBA OBRYS
100
AcDbPolyline
 90
        4
 70
     0
 43
0.0
 10
-270.5113797438296
 20
-159.0872321435478
 10
-250.5151273118369
 20
-149.8712030930279
 10
-233.7372367406185
 20
-147.1640588303368
 10
-230.4736254929137
 20
-147.0337574659667
  0
LWPOLYLINE
  5
1ED8
330
1F
100
AcDbEntity
  8
STAVBA OBRYS
100
AcDbPolyline
 90
        5
 70
     0
 43
0.0
 10
-246.001390681338
 20
-158.5864017127993
 42
0.0133579731639958
 10
-246.388201170366
 20
-156.0685994252441
 42
0.0072443097182286
 10
-248.5081981178243
 20
-145.257708530337
 42
0.0219777111230329
 10
-249.4143106198078
 20
-141.7395952745015
 42
0.0092752982622242
 10
-249.7895375817549
 20
-140.5864017127993
  0
LINE
  5
1ED9
330
1F
100
AcDbEntity
  8
izolace
100
AcDbLine
 10
-250.1533539955269
 20
-9.928264439003839
 30
0.0
 11
-22.09976263714975
 21
-9.928264439003839
 31
0.0
  0
LINE
  5
1EDA
330
1F
100
AcDbEntity
  8
izolace
100
AcDbLine
 10
-250.1533539955269
 20
20.71119759602544
 30
0.0
 11
-22.09976263714975
 21
20.71119759602544
 31
0.0
  0
LINE
  5
1EDB
330
1F
100
AcDbEntity
  8
izolace
  6
IZOLACE
 48
1.5
100
AcDbLine
 10
-250.1533539955269
 20
5.413598287199704
 30
0.0
 11
-22.09976263714975
 21
5.413598287199704
 31
0.0
  0
LINE
  5
1EDC
330
1F
100
AcDbEntity
  8
CETRIS
100
AcDbLine
 10
-299.367080671647
 20
52.4135982871997
 30
0.0
 11
27.90023736285388
 21
52.4135982871997
 31
0.0
  0
LWPOLYLINE
  5
1EDE
330
1F
100
AcDbEntity
  8
STAVBA OBRYS
100
AcDbPolyline
 90
        4
 70
     0
 43
0.0
 10
-305.2322661048918
 20
-155.6854203952318
 10
-292.6170110712971
 20
-149.8712030930279
 10
-275.8391205000787
 20
-147.1640588303368
 10
-272.5755092523738
 20
-147.0337574659667
  0
LWPOLYLINE
  5
1EDF
330
1F
100
AcDbEntity
  8
STAVBA OBRYS
100
AcDbPolyline
 90
        4
 70
     0
 43
0.0
 10
-277.8591360660045
 20
-158.5864017127993
 42
0.0334776267545482
 10
-278.296413860711
 20
-154.5394267840626
 42
0.0091133963862869
 10
-280.7740181856295
 20
-141.8476969986028
 42
0.007828075361276
 10
-281.0649173207873
 20
-140.5864017127993
  0
LWPOLYLINE
  5
1EE0
330
1F
100
AcDbEntity
  8
STAVBA OBRYS
100
AcDbPolyline
 90
        4
 70
     0
 43
0.0
 10
-298.0088783146945
 20
-158.5864017127993
 42
0.0186324019486548
 10
-301.3772476868014
 20
-146.8912900945749
 42
0.0582629403736403
 10
-303.0367475548826
 20
-143.3114558956392
 42
0.0146402521923566
 10
-304.8211555364666
 20
-140.5864017127993
  0
LWPOLYLINE
  5
1EE1
330
1F
100
AcDbEntity
  8
STAVBA OBRYS
100
AcDbPolyline
 90
        5
 70
     0
 43
0.0
 10
-288.1032744407982
 20
-158.5864017127993
 42
0.0133579731639958
 10
-288.4900849298262
 20
-156.0685994252441
 42
0.0072443097182286
 10
-290.6100818772845
 20
-145.257708530337
 42
0.0219777111230329
 10
-291.5161943792679
 20
-141.7395952745015
 42
0.0092752982622242
 10
-291.8914213412151
 20
-140.5864017127993
  0
LWPOLYLINE
  5
1EE2
330
1F
100
AcDbEntity
  8
STAVBA OBRYS
100
AcDbPolyline
 90
        3
 70
     0
 43
0.0
 10
-266.4065982030367
 20
-158.5864017127993
 42
0.0052038508054843
 10
-269.6049951430193
 20
-142.1825752308019
 42
0.0065712046643719
 10
-269.9554209127834
 20
-140.5864017127993
  0
LWPOLYLINE
  5
1EE3
330
1F
100
AcDbEntity
  8
STAVBA OBRYS
100
AcDbPolyline
 90
        4
 70
     0
 43
0.0
 10
-255.9069945552344
 20
-158.5864017127993
 42
0.0186324019486548
 10
-259.2753639273412
 20
-146.8912900945749
 42
0.0582629403736403
 10
-260.9348637954224
 20
-143.3114558956392
 42
0.0146402521923566
 10
-262.7192717770065
 20
-140.5864017127993
  0
LWPOLYLINE
  5
1EE4
330
1F
100
AcDbEntity
  8
STAVBA OBRYS
100
AcDbPolyline
 90
        3
 70
     0
 43
0.0
 10
-257.5765332138924
 20
25.4135982871997
 42
-0.0146172580335466
 10
-263.6649506945557
 20
-8.255642335393247
 42
-0.0212216680259171
 10
-265.2852792040937
 20
-14.58640171280029
 42
-0.0212216680259171
  0
LINE
  5
1EE5
330
1F
100
AcDbEntity
  8
SPOJOVACÍ
  6
DASHED
100
AcDbLine
 10
-272.2308674302764
 20
52.4135982871997
 30
0.0
 11
-272.2308674302764
 21
51.23767004600296
 31
0.0
  0
LINE
  5
1EE6
330
1F
100
AcDbEntity
  8
SPOJOVACÍ
  6
DASHED
100
AcDbLine
 10
-272.9318665127209
 20
50.90768088087708
 30
0.0
 11
-272.2308674302764
 21
51.23767004600296
 31
0.0
  0
LINE
  5
1EE7
330
1F
100
AcDbEntity
  8
SPOJOVACÍ
  6
DASHED
100
AcDbLine
 10
-274.1442576454426
 20
50.00795904064426
 30
0.0
 11
-272.9318665127209
 21
50.90768088087708
 31
0.0
  0
LINE
  5
1EE8
330
1F
100
AcDbEntity
  8
SPOJOVACÍ
  6
DASHED
100
AcDbLine
 10
-275.0831770940274
 20
48.82473822140338
 30
0.0
 11
-274.1442576454426
 21
50.00795904064426
 31
0.0
  0
LINE
  5
1EE9
330
1F
100
AcDbEntity
  8
SPOJOVACÍ
  6
DASHED
100
AcDbLine
 10
-275.6839032261921
 20
47.43914835589413
 30
0.0
 11
-275.0831770940274
 21
48.82473822140338
 31
0.0
  0
LINE
  5
1EEA
330
1F
100
AcDbEntity
  8
SPOJOVACÍ
  6
DASHED
100
AcDbLine
 10
-275.9063268592579
 20
45.94599296153347
 30
0.0
 11
-275.6839032261921
 21
47.43914835589413
 31
0.0
  0
LINE
  5
1EEB
330
1F
100
AcDbEntity
  8
SPOJOVACÍ
  6
DASHED
100
AcDbLine
 10
-275.9063268592579
 20
45.94599296153529
 30
0.0
 11
-275.9063268592579
 21
43.73194174705377
 31
0.0
  0
LINE
  5
1EEC
330
1F
100
AcDbEntity
  8
SPOJOVACÍ
  6
DASHED
100
AcDbLine
 10
-279.2107763751989
 20
44.84305149688435
 30
0.0
 11
-275.2472601027982
 21
43.51033282388408
 31
0.0
  0
LINE
  5
1EED
330
1F
100
AcDbEntity
  8
SPOJOVACÍ
  6
DASHED
100
AcDbLine
 10
-274.8771617592717
 20
43.296113338098
 30
0.0
 11
-275.2472601027982
 21
43.51033282388408
 31
0.0
  0
LINE
  5
1EEE
330
1F
100
AcDbEntity
  8
SPOJOVACÍ
  6
DASHED
100
AcDbLine
 10
-274.8771617592717
 20
43.296113338098
 30
0.0
 11
-275.2472601027982
 21
42.92601499243239
 31
0.0
  0
LINE
  5
1EEF
330
1F
100
AcDbEntity
  8
SPOJOVACÍ
  6
DASHED
100
AcDbLine
 10
-279.2107763751989
 20
44.25873366570368
 30
0.0
 11
-275.2472601027982
 21
42.92601499243239
 31
0.0
  0
LINE
  5
1EF0
330
1F
100
AcDbEntity
  8
SPOJOVACÍ
  6
DASHED
100
AcDbLine
 10
-275.9063268592579
 20
43.15299649018044
 30
0.0
 11
-275.9063268592579
 21
40.68445875625212
 31
0.0
  0
LINE
  5
1EF1
330
1F
100
AcDbEntity
  8
SPOJOVACÍ
  6
DASHED
100
AcDbLine
 10
-279.2107763751989
 20
41.80040369343288
 30
0.0
 11
-275.2472601027982
 21
40.46768502043261
 31
0.0
  0
LINE
  5
1EF2
330
1F
100
AcDbEntity
  8
SPOJOVACÍ
  6
DASHED
100
AcDbLine
 10
-274.8771617592717
 20
40.25346553464652
 30
0.0
 11
-275.2472601027982
 21
40.46768502043261
 31
0.0
  0
LINE
  5
1EF3
330
1F
100
AcDbEntity
  8
SPOJOVACÍ
  6
DASHED
100
AcDbLine
 10
-274.8771617592717
 20
40.25346553464652
 30
0.0
 11
-275.2472601027982
 21
39.88336718898091
 31
0.0
  0
LINE
  5
1EF4
330
1F
100
AcDbEntity
  8
SPOJOVACÍ
  6
DASHED
100
AcDbLine
 10
-279.2107763751989
 20
41.21608586225221
 30
0.0
 11
-275.2472601027982
 21
39.88336718898091
 31
0.0
  0
LINE
  5
1EF5
330
1F
100
AcDbEntity
  8
SPOJOVACÍ
  6
DASHED
100
AcDbLine
 10
-275.9063268592579
 20
40.11034868672896
 30
0.0
 11
-275.9063268592579
 21
37.64181095280065
 31
0.0
  0
LINE
  5
1EF6
330
1F
100
AcDbEntity
  8
SPOJOVACÍ
  6
DASHED
100
AcDbLine
 10
-279.2107763751989
 20
38.74207869466255
 30
0.0
 11
-275.2472601027982
 21
37.41027159357901
 31
0.0
  0
LINE
  5
1EF7
330
1F
100
AcDbEntity
  8
SPOJOVACÍ
  6
DASHED
100
AcDbLine
 10
-274.8771617592717
 20
37.19605210779292
 30
0.0
 11
-275.2472601027982
 21
37.41027159357901
 31
0.0
  0
LINE
  5
1EF8
330
1F
100
AcDbEntity
  8
SPOJOVACÍ
  6
DASHED
100
AcDbLine
 10
-274.8771617592717
 20
37.19605210779292
 30
0.0
 11
-275.2472601027982
 21
36.82595376239834
 31
0.0
  0
LINE
  5
1EF9
330
1F
100
AcDbEntity
  8
SPOJOVACÍ
  6
DASHED
100
AcDbLine
 10
-279.2107763751989
 20
38.15776086321085
 30
0.0
 11
-275.2472601027982
 21
36.82595376239834
 31
0.0
  0
LINE
  5
1EFA
330
1F
100
AcDbEntity
  8
SPOJOVACÍ
  6
DASHED
100
AcDbLine
 10
-275.9063268592579
 20
37.05749312134895
 30
0.0
 11
-275.9063268592579
 21
34.57983966473722
 31
0.0
  0
LINE
  5
1EFB
330
1F
100
AcDbEntity
  8
SPOJOVACÍ
  6
DASHED
100
AcDbLine
 10
-279.2107763751989
 20
35.70034246339884
 30
0.0
 11
-275.2472601027982
 21
34.36762379039857
 31
0.0
  0
LINE
  5
1EFC
330
1F
100
AcDbEntity
  8
SPOJOVACÍ
  6
DASHED
100
AcDbLine
 10
-274.8771617592717
 20
34.15340430461248
 30
0.0
 11
-275.2472601027982
 21
34.36762379039857
 31
0.0
  0
LINE
  5
1EFD
330
1F
100
AcDbEntity
  8
SPOJOVACÍ
  6
DASHED
100
AcDbLine
 10
-274.8771617592717
 20
34.15340430461248
 30
0.0
 11
-275.2472601027982
 21
33.78330595894686
 31
0.0
  0
LINE
  5
1EFE
330
1F
100
AcDbEntity
  8
SPOJOVACÍ
  6
DASHED
100
AcDbLine
 10
-279.2107763751989
 20
35.11602463221817
 30
0.0
 11
-275.2472601027982
 21
33.78330595894686
 31
0.0
  0
LINE
  5
1EFF
330
1F
100
AcDbEntity
  8
SPOJOVACÍ
  6
DASHED
100
AcDbLine
 10
-275.9063268592579
 20
34.01028745669492
 30
0.0
 11
-275.9063268592579
 21
31.54174972276661
 31
0.0
  0
LINE
  5
1F00
330
1F
100
AcDbEntity
  8
SPOJOVACÍ
  6
DASHED
100
AcDbLine
 10
-279.2107763751989
 20
32.6420174646285
 30
0.0
 11
-275.2472601027982
 21
31.31021036354496
 31
0.0
  0
LINE
  5
1F01
330
1F
100
AcDbEntity
  8
SPOJOVACÍ
  6
DASHED
100
AcDbLine
 10
-274.8771617592717
 20
31.09599087775888
 30
0.0
 11
-275.2472601027982
 21
31.31021036354496
 31
0.0
  0
LINE
  5
1F02
330
1F
100
AcDbEntity
  8
SPOJOVACÍ
  6
DASHED
100
AcDbLine
 10
-274.8771617592717
 20
31.09599087775888
 30
0.0
 11
-275.2472601027982
 21
30.72589253236429
 31
0.0
  0
LINE
  5
1F03
330
1F
100
AcDbEntity
  8
SPOJOVACÍ
  6
DASHED
100
AcDbLine
 10
-279.2107763751989
 20
32.05769963317681
 30
0.0
 11
-275.2472601027982
 21
30.72589253236429
 31
0.0
  0
LINE
  5
1F04
330
1F
100
AcDbEntity
  8
SPOJOVACÍ
  6
DASHED
100
AcDbLine
 10
-275.9063268592579
 20
30.95743189131491
 30
0.0
 11
-275.9063268592579
 21
28.47977843470317
 31
0.0
  0
LINE
  5
1F05
330
1F
100
AcDbEntity
  8
SPOJOVACÍ
  6
DASHED
100
AcDbLine
 10
-279.2107763751989
 20
29.58460403777491
 30
0.0
 11
-275.2472601027982
 21
28.25188536476736
 31
0.0
  0
LINE
  5
1F06
330
1F
100
AcDbEntity
  8
SPOJOVACÍ
  6
DASHED
100
AcDbLine
 10
-279.5808747230037
 20
41.42939377557951
 30
0.0
 11
-279.2107763751989
 21
41.21608586225221
 31
0.0
  0
LINE
  5
1F07
330
1F
100
AcDbEntity
  8
SPOJOVACÍ
  6
DASHED
100
AcDbLine
 10
-279.5808747230037
 20
41.42939377557951
 30
0.0
 11
-279.2107763751989
 21
41.80040369343288
 31
0.0
  0
LINE
  5
1F08
330
1F
100
AcDbEntity
  8
SPOJOVACÍ
  6
DASHED
100
AcDbLine
 10
-278.5517096187393
 20
44.04816046893967
 30
0.0
 11
-278.5517096187393
 21
41.57962273501135
 31
0.0
  0
LINE
  5
1F09
330
1F
100
AcDbEntity
  8
SPOJOVACÍ
  6
DASHED
100
AcDbLine
 10
-279.5808747230037
 20
44.47204157903098
 30
0.0
 11
-279.2107763751989
 21
44.25873366570368
 31
0.0
  0
LINE
  5
1F0A
330
1F
100
AcDbEntity
  8
SPOJOVACÍ
  6
DASHED
100
AcDbLine
 10
-279.5808747230037
 20
44.47204157903098
 30
0.0
 11
-279.2107763751989
 21
44.84305149688435
 31
0.0
  0
LINE
  5
1F0B
330
1F
100
AcDbEntity
  8
SPOJOVACÍ
  6
DASHED
100
AcDbLine
 10
-278.5840704348809
 20
46.33158803586349
 30
0.0
 11
-278.5517096187393
 21
44.62144257371647
 31
0.0
  0
LINE
  5
1F0C
330
1F
100
AcDbEntity
  8
SPOJOVACÍ
  6
DASHED
100
AcDbLine
 10
-278.6164312510225
 20
46.7171831101935
 30
0.0
 11
-278.5517096187393
 21
45.94599296153347
 31
0.0
  0
LINE
  5
1F0D
330
1F
100
AcDbEntity
  8
SPOJOVACÍ
  6
DASHED
100
AcDbLine
 10
-279.0357544980358
 20
48.16840617990266
 30
0.0
 11
-278.6164312510225
 21
46.7171831101935
 31
0.0
  0
LINE
  5
1F0E
330
1F
100
AcDbEntity
  8
SPOJOVACÍ
  6
DASHED
100
AcDbLine
 10
-279.8160603677676
 20
49.46101567263423
 30
0.0
 11
-279.0357544980358
 21
48.16840617990266
 31
0.0
  0
LINE
  5
1F0F
330
1F
100
AcDbEntity
  8
SPOJOVACÍ
  6
DASHED
100
AcDbLine
 10
-280.9044776701191
 20
50.50841222225819
 30
0.0
 11
-279.8160603677676
 21
49.46101567263423
 31
0.0
  0
LINE
  5
1F10
330
1F
100
AcDbEntity
  8
SPOJOVACÍ
  6
DASHED
100
AcDbLine
 10
-282.2271690519989
 20
51.23767004600296
 30
0.0
 11
-280.9044776701191
 21
50.50841222225819
 31
0.0
  0
LINE
  5
1F11
330
1F
100
AcDbEntity
  8
SPOJOVACÍ
  6
DASHED
100
AcDbLine
 10
-282.2271690519989
 20
52.4135982871997
 30
0.0
 11
-282.2271690519989
 21
51.23767004600296
 31
0.0
  0
LINE
  5
1F12
330
1F
100
AcDbEntity
  8
SPOJOVACÍ
  6
DASHED
100
AcDbLine
 10
-278.5517096187393
 20
28.79244772665725
 30
0.0
 11
-278.5517096187393
 21
26.31479427004552
 31
0.0
  0
LINE
  5
1F13
330
1F
100
AcDbEntity
  8
SPOJOVACÍ
  6
DASHED
100
AcDbLine
 10
-279.2107763751989
 20
29.00028620632321
 30
0.0
 11
-275.2472601027982
 21
27.66756753332293
 31
0.0
  0
LINE
  5
1F14
330
1F
100
AcDbEntity
  8
SPOJOVACÍ
  6
DASHED
100
AcDbLine
 10
-279.5808747230037
 20
29.2145056921093
 30
0.0
 11
-279.2107763751989
 21
29.00028620632321
 31
0.0
  0
LINE
  5
1F15
330
1F
100
AcDbEntity
  8
SPOJOVACÍ
  6
DASHED
100
AcDbLine
 10
-279.5808747230037
 20
29.2145056921093
 30
0.0
 11
-279.2107763751989
 21
29.58460403777491
 31
0.0
  0
LINE
  5
1F16
330
1F
100
AcDbEntity
  8
SPOJOVACÍ
  6
DASHED
100
AcDbLine
 10
-278.5517096187393
 20
31.84530329203727
 30
0.0
 11
-278.5517096187393
 21
29.3749424134624
 31
0.0
  0
LINE
  5
1F17
330
1F
100
AcDbEntity
  8
SPOJOVACÍ
  6
DASHED
100
AcDbLine
 10
-279.5808747230037
 20
32.27191911896289
 30
0.0
 11
-279.2107763751989
 21
32.05769963317681
 31
0.0
  0
LINE
  5
1F18
330
1F
100
AcDbEntity
  8
SPOJOVACÍ
  6
DASHED
100
AcDbLine
 10
-279.5808747230037
 20
32.27191911896289
 30
0.0
 11
-279.2107763751989
 21
32.6420174646285
 31
0.0
  0
LINE
  5
1F19
330
1F
100
AcDbEntity
  8
SPOJOVACÍ
  6
DASHED
100
AcDbLine
 10
-278.5517096187393
 20
34.90545143545415
 30
0.0
 11
-278.5517096187393
 21
32.43691370152584
 31
0.0
  0
LINE
  5
1F1A
330
1F
100
AcDbEntity
  8
SPOJOVACÍ
  6
DASHED
100
AcDbLine
 10
-279.5808747230037
 20
35.32933254554547
 30
0.0
 11
-279.2107763751989
 21
35.11602463221817
 31
0.0
  0
LINE
  5
1F1B
330
1F
100
AcDbEntity
  8
SPOJOVACÍ
  6
DASHED
100
AcDbLine
 10
-279.5808747230037
 20
35.32933254554547
 30
0.0
 11
-279.2107763751989
 21
35.70034246339884
 31
0.0
  0
LINE
  5
1F1C
330
1F
100
AcDbEntity
  8
SPOJOVACÍ
  6
DASHED
100
AcDbLine
 10
-278.5517096187393
 20
37.94536452207131
 30
0.0
 11
-278.5517096187393
 21
35.47500364349644
 31
0.0
  0
LINE
  5
1F1D
330
1F
100
AcDbEntity
  8
SPOJOVACÍ
  6
DASHED
100
AcDbLine
 10
-279.5808747230037
 20
38.37198034899694
 30
0.0
 11
-279.2107763751989
 21
38.15776086321085
 31
0.0
  0
LINE
  5
1F1E
330
1F
100
AcDbEntity
  8
SPOJOVACÍ
  6
DASHED
100
AcDbLine
 10
-279.5808747230037
 20
38.37198034899694
 30
0.0
 11
-279.2107763751989
 21
38.74207869466255
 31
0.0
  0
LINE
  5
1F1F
330
1F
100
AcDbEntity
  8
SPOJOVACÍ
  6
DASHED
100
AcDbLine
 10
-278.5517096187393
 20
41.00551266548819
 30
0.0
 11
-278.5517096187393
 21
38.53697493155988
 31
0.0
  0
LINE
  5
1F20
330
1F
100
AcDbEntity
  8
SPOJOVACÍ
  6
DASHED
100
AcDbLine
 10
-282.2271690519989
 20
52.4135982871997
 30
0.0
 11
-272.2308674302764
 21
52.4135982871997
 31
0.0
  0
LINE
  5
1F21
330
1F
100
AcDbEntity
  8
SPOJOVACÍ
  6
DASHED
100
AcDbLine
 10
-282.2271690519989
 20
51.23767004600296
 30
0.0
 11
-272.2308674302764
 21
51.23767004600296
 31
0.0
  0
LINE
  5
1F22
330
1F
100
AcDbEntity
  8
SPOJOVACÍ
  6
DASHED
100
AcDbLine
 10
-279.5808747230037
 20
32.27191911896289
 30
0.0
 11
-274.8771617592717
 21
31.09599087775888
 31
0.0
  0
LINE
  5
1F23
330
1F
100
AcDbEntity
  8
SPOJOVACÍ
  6
DASHED
100
AcDbLine
 10
-279.5808747230037
 20
29.2145056921093
 30
0.0
 11
-274.8771617592717
 21
28.0385774511763
 31
0.0
  0
LINE
  5
1F24
330
1F
100
AcDbEntity
  8
SPOJOVACÍ
  6
DASHED
100
AcDbLine
 10
-275.9063268592579
 20
27.89728374789802
 30
0.0
 11
-275.9063268592579
 21
25.42692286932316
 31
0.0
  0
LINE
  5
1F25
330
1F
100
AcDbEntity
  8
SPOJOVACÍ
  6
DASHED
100
AcDbLine
 10
-278.5517096187393
 20
25.72227228810544
 30
0.0
 11
-278.5517096187393
 21
23.25464612636488
 31
0.0
  0
LINE
  5
1F26
330
1F
100
AcDbEntity
  8
SPOJOVACÍ
  6
DASHED
100
AcDbLine
 10
-278.5517096187393
 20
22.67032829491319
 30
0.0
 11
-278.5517096187393
 21
21.44790986786239
 31
0.0
  0
LINE
  5
1F27
330
1F
100
AcDbEntity
  8
SPOJOVACÍ
  6
DASHED
100
AcDbLine
 10
-275.9063268592579
 20
24.8380471766689
 30
0.0
 11
-275.9063268592579
 21
22.36950944274059
 31
0.0
  0
LINE
  5
1F28
330
1F
100
AcDbEntity
  8
SPOJOVACÍ
  6
DASHED
100
AcDbLine
 10
-275.9063268592579
 20
21.77789903298827
 30
0.0
 11
-275.9063268592579
 21
21.44790986786239
 31
0.0
  0
LINE
  5
1F29
330
1F
100
AcDbEntity
  8
SPOJOVACÍ
  6
DASHED
100
AcDbLine
 10
-278.5517096187393
 20
21.44790986786239
 30
0.0
 11
-278.4049464820707
 21
20.27471634349268
 31
0.0
  0
LINE
  5
1F2A
330
1F
100
AcDbEntity
  8
SPOJOVACÍ
  6
DASHED
100
AcDbLine
 10
-277.2290182411377
 20
10.86364412620815
 30
0.0
 11
-276.8817091996313
 21
13.64302800745127
 31
0.0
  0
LINE
  5
1F2B
330
1F
100
AcDbEntity
  8
SPOJOVACÍ
  6
DASHED
100
AcDbLine
 10
-278.3292859813952
 20
19.66669763275632
 30
0.0
 11
-278.0448754288661
 21
17.39141322241295
 31
0.0
  0
LINE
  5
1F2C
330
1F
100
AcDbEntity
  8
SPOJOVACÍ
  6
DASHED
100
AcDbLine
 10
-277.9673917848847
 20
16.77336721654165
 30
0.0
 11
-277.6829812366338
 21
14.49899437839332
 31
0.0
  0
LINE
  5
1F2D
330
1F
100
AcDbEntity
  8
SPOJOVACÍ
  6
DASHED
100
AcDbLine
 10
-277.6073207359583
 20
13.89097566765696
 30
0.0
 11
-277.2290182411377
 21
10.86364412620815
 31
0.0
  0
LINE
  5
1F2E
330
1F
100
AcDbEntity
  8
SPOJOVACÍ
  6
DASHED
100
AcDbLine
 10
-276.811518133152
 20
14.20091024277672
 30
0.0
 11
-276.5489853174074
 21
16.3029959200615
 31
0.0
  0
LINE
  5
1F2F
330
1F
100
AcDbEntity
  8
SPOJOVACÍ
  6
DASHED
100
AcDbLine
 10
-276.4787942552063
 20
16.86361287222126
 30
0.0
 11
-276.2171730089755
 21
18.95749439901766
 31
0.0
  0
LINE
  5
1F30
330
1F
100
AcDbEntity
  8
SPOJOVACÍ
  6
DASHED
100
AcDbLine
 10
-276.1469819424962
 20
19.5162882068019
 30
0.0
 11
-275.9063268592579
 21
21.44790986786239
 31
0.0
  0
LINE
  5
1F31
330
1F
100
AcDbEntity
  8
SPOJOVACÍ
  6
DASHED
100
AcDbLine
 10
-279.5808747230037
 20
35.32933254554547
 30
0.0
 11
-274.8771617592717
 21
34.15340430461248
 31
0.0
  0
LINE
  5
1F32
330
1F
100
AcDbEntity
  8
SPOJOVACÍ
  6
DASHED
100
AcDbLine
 10
-279.3320154884711
 20
20.08328616481077
 30
0.0
 11
-278.9610055711525
 21
19.86906667902468
 31
0.0
  0
LINE
  5
1F33
330
1F
100
AcDbEntity
  8
SPOJOVACÍ
  6
DASHED
100
AcDbLine
 10
-279.3320154884711
 20
20.08328616481077
 30
0.0
 11
-278.9610055711525
 21
20.45338451047638
 31
0.0
  0
LINE
  5
1F34
330
1F
100
AcDbEntity
  8
SPOJOVACÍ
  6
DASHED
100
AcDbLine
 10
-275.289192428783
 20
19.12978156015225
 30
0.0
 11
-275.6592907723095
 21
18.75877164202785
 31
0.0
  0
LINE
  5
1F35
330
1F
100
AcDbEntity
  8
SPOJOVACÍ
  6
DASHED
100
AcDbLine
 10
-275.289192428783
 20
19.12978156015225
 30
0.0
 11
-275.6592907723095
 21
19.34308947347955
 31
0.0
  0
LINE
  5
1F36
330
1F
100
AcDbEntity
  8
SPOJOVACÍ
  6
DASHED
100
AcDbLine
 10
-278.9610055711525
 20
19.86906667902468
 30
0.0
 11
-275.6592907723095
 21
18.75877164202785
 31
0.0
  0
LINE
  5
1F37
330
1F
100
AcDbEntity
  8
SPOJOVACÍ
  6
DASHED
100
AcDbLine
 10
-278.9610055711525
 20
20.45338451047638
 30
0.0
 11
-275.6592907723095
 21
19.34308947347955
 31
0.0
  0
LINE
  5
1F38
330
1F
100
AcDbEntity
  8
SPOJOVACÍ
  6
DASHED
100
AcDbLine
 10
-279.3320154884711
 20
20.08328616481077
 30
0.0
 11
-275.289192428783
 21
19.12978156015225
 31
0.0
  0
LINE
  5
1F39
330
1F
100
AcDbEntity
  8
SPOJOVACÍ
  6
DASHED
100
AcDbLine
 10
-278.7786911164873
 20
17.12888040559874
 30
0.0
 11
-278.4085927686826
 21
16.91557249227145
 31
0.0
  0
LINE
  5
1F3A
330
1F
100
AcDbEntity
  8
SPOJOVACÍ
  6
DASHED
100
AcDbLine
 10
-278.7786911164873
 20
17.12888040559874
 30
0.0
 11
-278.4085927686826
 21
17.49989032372315
 31
0.0
  0
LINE
  5
1F3B
330
1F
100
AcDbEntity
  8
SPOJOVACÍ
  6
DASHED
100
AcDbLine
 10
-275.7249239783848
 20
16.50809968316417
 30
0.0
 11
-276.0950223219113
 21
16.1370897653108
 31
0.0
  0
LINE
  5
1F3C
330
1F
100
AcDbEntity
  8
SPOJOVACÍ
  6
DASHED
100
AcDbLine
 10
-275.7249239783848
 20
16.50809968316417
 30
0.0
 11
-276.0950223219113
 21
16.72140759649147
 31
0.0
  0
LINE
  5
1F3D
330
1F
100
AcDbEntity
  8
SPOJOVACÍ
  6
DASHED
100
AcDbLine
 10
-278.4085927686826
 20
16.91557249227145
 30
0.0
 11
-276.0950223219113
 21
16.1370897653108
 31
0.0
  0
LINE
  5
1F3E
330
1F
100
AcDbEntity
  8
SPOJOVACÍ
  6
DASHED
100
AcDbLine
 10
-278.4085927686826
 20
17.49989032372315
 30
0.0
 11
-276.0950223219113
 21
16.72140759649147
 31
0.0
  0
LINE
  5
1F3F
330
1F
100
AcDbEntity
  8
SPOJOVACÍ
  6
DASHED
100
AcDbLine
 10
-278.7786911164873
 20
17.12888040559874
 30
0.0
 11
-275.7249239783848
 21
16.50809968316417
 31
0.0
  0
LINE
  5
1F40
330
1F
100
AcDbEntity
  8
SPOJOVACÍ
  6
DASHED
100
AcDbLine
 10
-278.2253667402253
 20
14.17538621884551
 30
0.0
 11
-277.8552683966988
 21
13.9611667330667
 31
0.0
  0
LINE
  5
1F41
330
1F
100
AcDbEntity
  8
SPOJOVACÍ
  6
DASHED
100
AcDbLine
 10
-278.2253667402253
 20
14.17538621884551
 30
0.0
 11
-277.8552683966988
 21
14.54548456451112
 31
0.0
  0
LINE
  5
1F42
330
1F
100
AcDbEntity
  8
SPOJOVACÍ
  6
DASHED
100
AcDbLine
 10
-276.1141653415977
 20
13.87092107738709
 30
0.0
 11
-276.4842636851242
 21
13.49991115953372
 31
0.0
  0
LINE
  5
1F43
330
1F
100
AcDbEntity
  8
SPOJOVACÍ
  6
DASHED
100
AcDbLine
 10
-276.1141653415977
 20
13.87092107738709
 30
0.0
 11
-276.4842636851242
 21
14.08422899097814
 31
0.0
  0
LINE
  5
1F44
330
1F
100
AcDbEntity
  8
SPOJOVACÍ
  6
DASHED
100
AcDbLine
 10
-277.8552683966988
 20
13.9611667330667
 30
0.0
 11
-276.4842636851242
 21
13.49991115953372
 31
0.0
  0
LINE
  5
1F45
330
1F
100
AcDbEntity
  8
SPOJOVACÍ
  6
DASHED
100
AcDbLine
 10
-277.8552683966988
 20
14.54548456451112
 30
0.0
 11
-276.4842636851242
 21
14.08422899097814
 31
0.0
  0
LINE
  5
1F46
330
1F
100
AcDbEntity
  8
SPOJOVACÍ
  6
DASHED
100
AcDbLine
 10
-278.2253667402253
 20
14.17538621884551
 30
0.0
 11
-276.1141653415977
 21
13.87092107738709
 31
0.0
  0
LINE
  5
1F47
330
1F
100
AcDbEntity
  8
SPOJOVACÍ
  6
DASHED
100
AcDbLine
 10
-274.8771617592717
 20
28.0385774511763
 30
0.0
 11
-275.2472601027982
 21
27.66756753332293
 31
0.0
  0
LINE
  5
1F48
330
1F
100
AcDbEntity
  8
SPOJOVACÍ
  6
DASHED
100
AcDbLine
 10
-274.8771617592717
 20
28.0385774511763
 30
0.0
 11
-275.2472601027982
 21
28.25188536476736
 31
0.0
  0
LINE
  5
1F49
330
1F
100
AcDbEntity
  8
SPOJOVACÍ
  6
DASHED
100
AcDbLine
 10
-279.5808747230037
 20
26.15709226551945
 30
0.0
 11
-274.8771617592717
 21
24.98116402458646
 31
0.0
  0
LINE
  5
1F4A
330
1F
100
AcDbEntity
  8
SPOJOVACÍ
  6
DASHED
100
AcDbLine
 10
-279.5808747230037
 20
26.15709226551945
 30
0.0
 11
-279.2107763751989
 21
25.94287277974064
 31
0.0
  0
LINE
  5
1F4B
330
1F
100
AcDbEntity
  8
SPOJOVACÍ
  6
DASHED
100
AcDbLine
 10
-279.5808747230037
 20
26.15709226551945
 30
0.0
 11
-279.2107763751989
 21
26.52719061118506
 31
0.0
  0
LINE
  5
1F4C
330
1F
100
AcDbEntity
  8
SPOJOVACÍ
  6
DASHED
100
AcDbLine
 10
-274.8771617592717
 20
24.98116402458646
 30
0.0
 11
-275.2472601027982
 21
24.61015410673309
 31
0.0
  0
LINE
  5
1F4D
330
1F
100
AcDbEntity
  8
SPOJOVACÍ
  6
DASHED
100
AcDbLine
 10
-274.8771617592717
 20
24.98116402458646
 30
0.0
 11
-275.2472601027982
 21
25.19447193791376
 31
0.0
  0
LINE
  5
1F4E
330
1F
100
AcDbEntity
  8
SPOJOVACÍ
  6
DASHED
100
AcDbLine
 10
-279.2107763751989
 20
25.94287277974064
 30
0.0
 11
-275.2472601027982
 21
24.61015410673309
 31
0.0
  0
LINE
  5
1F4F
330
1F
100
AcDbEntity
  8
SPOJOVACÍ
  6
DASHED
100
AcDbLine
 10
-279.2107763751989
 20
26.52719061118506
 30
0.0
 11
-275.2472601027982
 21
25.19447193791376
 31
0.0
  0
LINE
  5
1F50
330
1F
100
AcDbEntity
  8
SPOJOVACÍ
  6
DASHED
100
AcDbLine
 10
-279.5808747230037
 20
23.09876726647809
 30
0.0
 11
-274.8771617592717
 21
21.9228390255451
 31
0.0
  0
LINE
  5
1F51
330
1F
100
AcDbEntity
  8
SPOJOVACÍ
  6
DASHED
100
AcDbLine
 10
-279.5808747230037
 20
23.09876726647809
 30
0.0
 11
-279.2107763751989
 21
22.88545935315079
 31
0.0
  0
LINE
  5
1F52
330
1F
100
AcDbEntity
  8
SPOJOVACÍ
  6
DASHED
100
AcDbLine
 10
-279.5808747230037
 20
23.09876726647809
 30
0.0
 11
-279.2107763751989
 21
23.46977718460249
 31
0.0
  0
LINE
  5
1F53
330
1F
100
AcDbEntity
  8
SPOJOVACÍ
  6
DASHED
100
AcDbLine
 10
-274.8771617592717
 20
21.9228390255451
 30
0.0
 11
-275.2472601027982
 21
21.55274067987949
 31
0.0
  0
LINE
  5
1F54
330
1F
100
AcDbEntity
  8
SPOJOVACÍ
  6
DASHED
100
AcDbLine
 10
-274.8771617592717
 20
21.9228390255451
 30
0.0
 11
-275.2472601027982
 21
22.13705851133119
 31
0.0
  0
LINE
  5
1F55
330
1F
100
AcDbEntity
  8
SPOJOVACÍ
  6
DASHED
100
AcDbLine
 10
-279.2107763751989
 20
22.88545935315079
 30
0.0
 11
-275.2472601027982
 21
21.55274067987949
 31
0.0
  0
LINE
  5
1F56
330
1F
100
AcDbEntity
  8
SPOJOVACÍ
  6
DASHED
100
AcDbLine
 10
-279.2107763751989
 20
23.46977718460249
 30
0.0
 11
-275.2472601027982
 21
22.13705851133119
 31
0.0
  0
LINE
  5
1F57
330
1F
100
AcDbEntity
  8
SPOJOVACÍ
  6
DASHED
100
AcDbLine
 10
-279.5808747230037
 20
38.37198034899694
 30
0.0
 11
-274.8771617592717
 21
37.19605210779292
 31
0.0
  0
LINE
  5
1F58
330
1F
100
AcDbEntity
  8
SPOJOVACÍ
  6
DASHED
100
AcDbLine
 10
-279.5808747230037
 20
41.42939377557951
 30
0.0
 11
-274.8771617592717
 21
40.25346553464652
 31
0.0
  0
LINE
  5
1F59
330
1F
100
AcDbEntity
  8
SPOJOVACÍ
  6
DASHED
100
AcDbLine
 10
-279.5808747230037
 20
44.47204157903098
 30
0.0
 11
-274.8771617592717
 21
43.296113338098
 31
0.0
  0
LWPOLYLINE
  5
1F5A
330
1F
100
AcDbEntity
  8
STAVBA OBRYS
100
AcDbPolyline
 90
        4
 70
     0
 43
0.0
 10
-272.7625407054454
 20
25.33684876427315
 42
-0.0135911980674875
 10
-278.3412377412839
 20
-5.156191009425754
 42
-0.0219777111230329
 10
-279.7004064942609
 20
-10.43336089317898
 42
-0.0117780509051499
 10
-282.3066187968331
 20
-14.58640171280029
 42
-0.0117780509051499
  0
LWPOLYLINE
  5
1F5B
330
1F
100
AcDbEntity
  8
STAVBA OBRYS
100
AcDbPolyline
 90
        3
 70
     0
 43
0.0
 10
-301.4622202797042
 20
-6.32840567005013
 10
-286.1839893839221
 20
-13.97311262989268
 10
-285.5717645444936
 20
-14.58640171280029
  0
LWPOLYLINE
  5
1F5C
330
1F
100
AcDbEntity
  8
STAVBA OBRYS
100
AcDbPolyline
 90
        6
 70
     0
 43
0.0
 10
-288.0471351114481
 20
25.33684876427315
 42
-0.0128837512779301
 10
-288.4743230517867
 20
20.33710153165367
 42
-0.0351641677647434
 10
-289.4159626340713
 20
14.93153735014522
 42
-0.0187319685742942
 10
-294.4919864555574
 20
-2.70581866306901
 42
-0.0582629403736403
 10
-296.9812362576792
 20
-8.075569961467124
 42
-0.025396604607932
 10
-301.7737145592543
 20
-15.06185623898062
 42
-0.0034325858630352
  0
LWPOLYLINE
  5
1F5D
330
1F
100
AcDbEntity
  8
izolace
100
AcDbPolyline
 90
        4
 70
     0
 43
0.0
 10
-295.593427164568
 20
28.41359828719879
 10
-250.1533539955269
 20
28.41359828719879
 10
-250.1533539955269
 20
25.4135982871997
 10
-295.7530995748955
 20
25.4135982871997
  0
LWPOLYLINE
  5
1F5E
330
1F
100
AcDbEntity
  8
STAVBA OBRYS
100
AcDbPolyline
 90
        3
 70
     0
 43
0.0
 10
-272.0955784527375
 20
8.075181129448822
 10
-252.0993260207449
 20
-1.140847921071042
 10
-250.1533539955269
 20
-1.454834174651011
  0
HATCH
  5
1F5F
330
1F
100
AcDbEntity
  8
izolace
100
AcDbHatch
 10
0.0
 20
0.0
 30
0.0
210
0.0
220
0.0
230
1.0
  2
SOLID
 70
     1
 71
     0
 91
       10
 92
        7
 72
     0
 73
     1
 93
        4
 10
-250.1533539955269
 20
28.41359828719879
 10
-254.0777750029462
 20
28.41359828719879
 10
-254.0777750029462
 20
25.4135982871997
 10
-250.1533539955269
 20
25.4135982871997
 97
        0
 92
        7
 72
     0
 73
     1
 93
        9
 10
-266.5197199047158
 20
28.41359828719879
 10
-271.9165791620996
 20
28.41359828719879
 10
-271.608892172411
 20
28.31021036354405
 10
-271.2387938288873
 20
28.09599087775888
 10
-271.6088921724146
 20
27.72589253236521
 10
-272.2679589288743
 20
27.94734987625844
 10
-272.2679589288743
 20
25.47349428793705
 10
-272.089827731055
 20
25.4135982871997
 10
-266.5197199047168
 20
25.4135982871997
 97
        0
 92
        7
 72
     0
 73
     1
 93
        9
 10
-274.9133416883557
 20
28.41359828719879
 10
-280.3356377185207
 20
28.41359828719879
 10
-280.3356377185207
 20
25.4135982871997
 10
-274.9133416883557
 20
25.4135982871997
 10
-274.9133416883557
 20
25.77867728315351
 10
-275.5724084448108
 20
26.0002862063223
 10
-275.9425067926201
 20
26.2145056921102
 10
-275.5724084448154
 20
26.58460403777581
 10
-274.9133416883557
 20
26.36299511460612
 97
        0
 92
        7
 72
     0
 73
     1
 93
        5
 10
-272.2679589288743
 20
27.94734987625753
 10
-273.6555346240499
 20
28.41359828719879
 10
-274.9133416883548
 20
28.41359828719879
 10
-274.9133416883548
 20
26.36299511460521
 10
-272.2679589288743
 20
25.47349428793614
 97
        0
 92
        7
 72
     0
 73
     1
 93
        4
 10
-272.509223466355
 20
28.41359828719879
 10
-273.6555346240482
 20
28.4135982871997
 10
-271.6088921724146
 20
27.72589253236338
 10
-271.2387938288882
 20
28.09599087775888
 97
        0
 92
       23
 72
     0
 73
     1
 93
        4
 10
-271.9165791620969
 20
28.41359828719879
 10
-272.5092234663605
 20
28.41359828719879
 10
-271.2387938288882
 20
28.09599087775706
 10
-271.6088921724165
 20
28.31021036354588
 97
        0
 92
        7
 72
     0
 73
     1
 93
        4
 10
-275.5724084448145
 20
26.584604037774
 10
-275.9425067926192
 20
26.2145056921093
 10
-272.7388771729827
 20
25.4135982871997
 10
-272.0898277310577
 20
25.4135982871997
 97
        0
 92
        7
 72
     0
 73
     1
 93
        4
 10
-275.9425067926238
 20
26.21450569211111
 10
-275.5724084448118
 20
26.00028620632321
 10
-273.8275937578289
 20
25.4135982871997
 10
-272.7388771729818
 20
25.4135982871997
 97
        0
 92
       23
 72
     0
 73
     1
 93
        3
 10
-274.9133416883557
 20
25.77867728315442
 10
-274.9133416883557
 20
25.4135982871997
 10
-273.8275937578352
 20
25.4135982871997
 97
        0
 92
        7
 72
     0
 73
     1
 93
        4
 10
-293.8218292133522
 20
28.41359828719879
 10
-300.1533539955269
 20
28.41359828719879
 10
-300.1533539955269
 20
25.4135982871997
 10
-293.8218292133512
 20
25.41359828720061
 97
        0
 75
     0
 76
     1
 47
0.0980096762587744
 98
       10
 10
-252.4446019835611
 20
27.5320448743335
 10
-268.2473997464201
 20
26.77999198537174
 10
-277.3733669558839
 20
26.81659484501898
 10
-273.8294460561171
 20
26.76125440781499
 10
-272.4619000610016
 20
28.11618088654387
 10
-271.9005216089478
 20
28.33222498801143
 10
-274.2098515877785
 20
25.93274146648065
 10
-273.9716026633266
 20
25.62134876087322
 10
-274.6313950501878
 20
25.58471235139978
 10
-297.6769884288057
 20
26.65563955706267
  0
LWPOLYLINE
  5
1F60
330
1F
100
AcDbEntity
  8
STAVBA OBRYS
100
AcDbPolyline
 90
        4
 70
     0
 43
0.0
 10
-297.882065045929
 20
-14.58640171280029
 10
-250.1533539955269
 20
-14.58640171280029
 10
-250.1533539955269
 20
25.4135982871997
 10
-295.7530995748955
 20
25.4135982871997
  0
LWPOLYLINE
  5
1F61
330
1F
100
AcDbEntity
  8
STAVBA OBRYS
100
AcDbPolyline
 90
        4
 70
     0
 43
0.0
 10
-64.9171669863988
 20
-159.0872321435478
 10
-84.91341941839142
 20
-149.8712030930279
 10
-101.6913099896098
 20
-147.1640588303368
 10
-104.9549212373146
 20
-147.0337574659667
  0
LWPOLYLINE
  5
1F62
330
1F
100
AcDbEntity
  8
STAVBA OBRYS
100
AcDbPolyline
 90
        4
 70
     0
 43
0.0
 10
-99.67129442368401
 20
-158.5864017127993
 42
-0.0334776267545482
 10
-99.23401662897754
 20
-154.5394267840626
 42
-0.0091133963862869
 10
-96.75641230405904
 20
-141.8476969986028
 42
-0.007828075361276
 10
-96.46551316890123
 20
-140.5864017127993
  0
LWPOLYLINE
  5
1F63
330
1F
100
AcDbEntity
  8
STAVBA OBRYS
100
AcDbPolyline
 90
        4
 70
     0
 43
0.0
 10
-121.6234359344541
 20
-158.5864017127993
 42
-0.0186324019486548
 10
-118.2550665623473
 20
-146.8912900945749
 42
-0.0582629403736403
 10
-116.5955666942661
 20
-143.3114558956392
 42
-0.0146402521923566
 10
-114.811158712682
 20
-140.5864017127993
  0
LWPOLYLINE
  5
1F64
330
1F
100
AcDbEntity
  8
STAVBA OBRYS
100
AcDbPolyline
 90
        3
 70
     0
 43
0.0
 10
-111.1238322866518
 20
-158.5864017127993
 42
-0.0052038508054843
 10
-107.9254353466692
 20
-142.1825752308019
 42
-0.0065712046643719
 10
-107.5750095769051
 20
-140.5864017127993
  0
LWPOLYLINE
  5
1F65
330
1F
100
AcDbEntity
  8
STAVBA OBRYS
100
AcDbPolyline
 90
        4
 70
     0
 43
0.0
 10
-137.1660596023337
 20
-159.0872321435478
 10
-157.1623120343263
 20
-149.8712030930279
 10
-173.9402026055447
 20
-147.1640588303368
 10
-177.2038138532495
 20
-147.0337574659667
  0
LWPOLYLINE
  5
1F66
330
1F
100
AcDbEntity
  8
STAVBA OBRYS
100
AcDbPolyline
 90
        3
 70
     0
 43
0.0
 10
-153.2257160461119
 20
-158.5864017127993
 42
-0.0052038508054843
 10
-150.0273191061294
 20
-142.1825752308019
 42
-0.0065712046643719
 10
-149.6768933363653
 20
-140.5864017127993
  0
LWPOLYLINE
  5
1F67
330
1F
100
AcDbEntity
  8
STAVBA OBRYS
100
AcDbPolyline
 90
        4
 70
     0
 43
0.0
 10
-171.9201870396188
 20
-158.5864017127993
 42
-0.0334776267545482
 10
-171.4829092449124
 20
-154.5394267840626
 42
-0.0091133963862869
 10
-169.0053049199939
 20
-141.8476969986028
 42
-0.007828075361276
 10
-168.7144057848361
 20
-140.5864017127993
  0
LWPOLYLINE
  5
1F68
330
1F
100
AcDbEntity
  8
STAVBA OBRYS
100
AcDbPolyline
 90
        5
 70
     0
 43
0.0
 10
-161.6760486648252
 20
-158.5864017127993
 42
-0.0133579731639958
 10
-161.2892381757972
 20
-156.0685994252441
 42
-0.0072443097182286
 10
-159.1692412283389
 20
-145.257708530337
 42
-0.0219777111230329
 10
-158.2631287263554
 20
-141.7395952745015
 42
-0.0092752982622242
 10
-157.8879017644083
 20
-140.5864017127993
  0
LWPOLYLINE
  5
1F69
330
1F
100
AcDbEntity
  8
STAVBA OBRYS
100
AcDbPolyline
 90
        3
 70
     0
 43
0.0
 10
-183.3727249025866
 20
-158.5864017127993
 42
-0.0052038508054843
 10
-180.1743279626041
 20
-142.1825752308019
 42
-0.0065712046643719
 10
-179.82390219284
 20
-140.5864017127993
  0
LWPOLYLINE
  5
1F6A
330
1F
100
AcDbEntity
  8
STAVBA OBRYS
100
AcDbPolyline
 90
        5
 70
     0
 43
0.0
 10
-131.5290398083504
 20
-158.5864017127993
 42
-0.0133579731639958
 10
-131.1422293193224
 20
-156.0685994252441
 42
-0.0072443097182286
 10
-129.0222323718642
 20
-145.257708530337
 42
-0.0219777111230329
 10
-128.1161198698807
 20
-141.7395952745015
 42
-0.0092752982622242
 10
-127.7408929079335
 20
-140.5864017127993
  0
LWPOLYLINE
  5
1F6B
330
1F
100
AcDbEntity
  8
STAVBA OBRYS
100
AcDbPolyline
 90
        4
 70
     0
 43
0.0
 10
-141.7731781831441
 20
-158.5864017127993
 42
-0.0334776267545482
 10
-141.3359003884377
 20
-154.5394267840626
 42
-0.0091133963862869
 10
-138.8582960635192
 20
-141.8476969986028
 42
-0.007828075361276
 10
-138.5673969283613
 20
-140.5864017127993
  0
LWPOLYLINE
  5
1F6C
330
1F
100
AcDbEntity
  8
STAVBA OBRYS
100
AcDbPolyline
 90
        4
 70
     0
 43
0.0
 10
-107.0190507458589
 20
-159.0872321435478
 10
-127.0153031778515
 20
-149.8712030930279
 10
-143.79319374907
 20
-147.1640588303368
 10
-147.0568049967748
 20
-147.0337574659667
  0
LWPOLYLINE
  5
1F6D
330
1F
100
AcDbEntity
  8
STAVBA OBRYS
100
AcDbPolyline
 90
        4
 70
     0
 43
0.0
 10
-240.3643708873548
 20
-159.0872321435478
 10
-220.3681184553622
 20
-149.8712030930279
 10
-203.5902278841438
 20
-147.1640588303368
 10
-200.3266166364389
 20
-147.0337574659667
  0
LWPOLYLINE
  5
1F6E
330
1F
100
AcDbEntity
  8
STAVBA OBRYS
100
AcDbPolyline
 90
        5
 70
     0
 43
0.0
 10
-215.8543818248633
 20
-158.5864017127993
 42
0.0133579731639958
 10
-216.2411923138913
 20
-156.0685994252441
 42
0.0072443097182286
 10
-218.3611892613496
 20
-145.257708530337
 42
0.0219777111230329
 10
-219.267301763333
 20
-141.7395952745015
 42
0.0092752982622242
 10
-219.6425287252802
 20
-140.5864017127993
  0
LWPOLYLINE
  5
1F6F
330
1F
100
AcDbEntity
  8
STAVBA OBRYS
100
AcDbPolyline
 90
        3
 70
     0
 43
0.0
 10
-224.3047144435765
 20
-158.5864017127993
 42
0.0052038508054843
 10
-227.5031113835591
 20
-142.1825752308019
 42
0.0065712046643719
 10
-227.8535371533232
 20
-140.5864017127993
  0
LWPOLYLINE
  5
1F70
330
1F
100
AcDbEntity
  8
STAVBA OBRYS
100
AcDbPolyline
 90
        4
 70
     0
 43
0.0
 10
-235.7572523065444
 20
-158.5864017127993
 42
0.0334776267545482
 10
-236.1945301012508
 20
-154.5394267840626
 42
0.0091133963862869
 10
-238.6721344261693
 20
-141.8476969986028
 42
0.007828075361276
 10
-238.9630335613271
 20
-140.5864017127993
  0
LWPOLYLINE
  5
1F71
330
1F
100
AcDbEntity
  8
STAVBA OBRYS
100
AcDbPolyline
 90
        3
 70
     0
 43
0.0
 10
-194.1577055871018
 20
-158.5864017127993
 42
0.0052038508054843
 10
-197.3561025270844
 20
-142.1825752308019
 42
0.0065712046643719
 10
-197.7065282968485
 20
-140.5864017127993
  0
LWPOLYLINE
  5
1F72
330
1F
100
AcDbEntity
  8
STAVBA OBRYS
100
AcDbPolyline
 90
        4
 70
     0
 43
0.0
 10
-205.6102434500696
 20
-158.5864017127993
 42
0.0334776267545482
 10
-206.0475212447761
 20
-154.5394267840626
 42
0.0091133963862869
 10
-208.5251255696946
 20
-141.8476969986028
 42
0.007828075361276
 10
-208.8160247048524
 20
-140.5864017127993
  0
LINE
  5
1F73
330
1F
100
AcDbEntity
  8
STAVBA OBRYS
100
AcDbLine
 10
-188.7652152448442
 20
-140.5864017128003
 30
0.0
 11
-188.7652152448442
 21
-158.5864017127993
 31
0.0
  0
POLYLINE
  5
1F74
330
1F
100
AcDbEntity
  8
STAVBA OBRYS
100
AcDb2dPolyline
 66
     1
 10
0.0
 20
0.0
 30
0.0
  0
VERTEX
  5
1F75
330
1F74
100
AcDbEntity
  8
STAVBA OBRYS
100
AcDbVertex
100
AcDb2dVertex
 10
-43.93308948149729
 20
-158.5864017127993
 30
0.0
 42
-0.0094186890201653
  0
VERTEX
  5
1F76
330
1F74
100
AcDbEntity
  8
STAVBA OBRYS
100
AcDbVertex
100
AcDb2dVertex
 10
-43.58629091862326
 20
-158.4277288420314
 30
0.0
 42
-0.0322692699774654
  0
VERTEX
  5
1F77
330
1F74
100
AcDbEntity
  8
STAVBA OBRYS
100
AcDbVertex
100
AcDb2dVertex
 10
-40.69493673753254
 20
-157.3862053406307
 30
0.0
 42
-0.0276160659512937
  0
VERTEX
  5
1F78
330
1F74
100
AcDbEntity
  8
STAVBA OBRYS
100
AcDbVertex
100
AcDb2dVertex
 10
-39.8393602992453
 20
-157.1894699116862
 30
0.0
 42
-0.0126891984598699
  0
VERTEX
  5
1F79
330
1F74
100
AcDbEntity
  8
STAVBA OBRYS
100
AcDbVertex
100
AcDb2dVertex
 10
-38.91619190345386
 20
-157.0542675221447
 30
0.0
  0
SEQEND
  5
1F7A
330
1F74
100
AcDbEntity
  8
STAVBA OBRYS
  0
POLYLINE
  5
1F7B
330
1F
100
AcDbEntity
  8
STAVBA OBRYS
100
AcDb2dPolyline
 66
     1
 10
0.0
 20
0.0
 30
0.0
  0
VERTEX
  5
1F7C
330
1F7B
100
AcDbEntity
  8
STAVBA OBRYS
100
AcDbVertex
100
AcDb2dVertex
 10
-52.98623543103326
 20
-158.5864017127993
 30
0.0
 42
-0.0502247168465557
  0
VERTEX
  5
1F7D
330
1F7B
100
AcDbEntity
  8
STAVBA OBRYS
100
AcDbVertex
100
AcDb2dVertex
 10
-51.38718825486808
 20
-156.5789310400766
 30
0.0
 42
-0.0274923553235744
  0
VERTEX
  5
1F7E
330
1F7B
100
AcDbEntity
  8
STAVBA OBRYS
100
AcDbVertex
100
AcDb2dVertex
 10
-48.78988252431532
 20
-154.1938557169384
 30
0.0
 42
-0.0255412025538677
  0
VERTEX
  5
1F7F
330
1F7B
100
AcDbEntity
  8
STAVBA OBRYS
100
AcDbVertex
100
AcDb2dVertex
 10
-45.73845248660449
 20
-151.9371420399226
 30
0.0
 42
-0.0272796991712396
  0
VERTEX
  5
1F80
330
1F7B
100
AcDbEntity
  8
STAVBA OBRYS
100
AcDbVertex
100
AcDb2dVertex
 10
-41.62545333341927
 20
-149.5208061582568
 30
0.0
 42
-0.056967459841729
  0
VERTEX
  5
1F81
330
1F7B
100
AcDbEntity
  8
STAVBA OBRYS
100
AcDbVertex
100
AcDb2dVertex
 10
-39.48450605268749
 20
-148.7080703230573
 30
0.0
 42
-0.0373408083348504
  0
VERTEX
  5
1F82
330
1F7B
100
AcDbEntity
  8
STAVBA OBRYS
100
AcDbVertex
100
AcDb2dVertex
 10
-39.26215167721398
 20
-148.6689047821097
 30
0.0
 42
-0.0052305969362967
  0
VERTEX
  5
1F83
330
1F7B
100
AcDbEntity
  8
STAVBA OBRYS
100
AcDbVertex
100
AcDb2dVertex
 10
-38.91619190345386
 20
-148.6379478152054
 30
0.0
  0
SEQEND
  5
1F84
330
1F7B
100
AcDbEntity
  8
STAVBA OBRYS
  0
LINE
  5
1F85
330
1F
100
AcDbEntity
  8
STAVBA OBRYS
100
AcDbLine
 10
-38.76521524484428
 20
-140.5864017128003
 30
0.0
 11
-38.76521524484428
 21
-158.5864017127993
 31
0.0
  0
LWPOLYLINE
  5
1F86
330
1F
100
AcDbEntity
  8
STAVBA OBRYS
100
AcDbPolyline
 90
        5
 70
     0
 43
0.0
 10
-89.42715604889031
 20
-158.5864017127993
 42
-0.0133579731639958
 10
-89.04034555986232
 20
-156.0685994252441
 42
-0.0072443097182286
 10
-86.92034861240404
 20
-145.257708530337
 42
-0.0219777111230329
 10
-86.0142361104206
 20
-141.7395952745015
 42
-0.0092752982622242
 10
-85.63900914847341
 20
-140.5864017127993
  0
LWPOLYLINE
  5
1F87
330
1F
100
AcDbEntity
  8
STAVBA OBRYS
100
AcDbPolyline
 90
        4
 70
     0
 43
0.0
 10
-79.52155217499399
 20
-158.5864017127993
 42
-0.0186324019486548
 10
-76.15318280288716
 20
-146.8912900945749
 42
-0.0582629403736403
 10
-74.49368293480597
 20
-143.3114558956392
 42
-0.0146402521923566
 10
-72.70927495322189
 20
-140.5864017127993
  0
LWPOLYLINE
  5
1F88
330
1F
100
AcDbEntity
  8
STAVBA OBRYS
100
AcDbPolyline
 90
        6
 70
     0
 43
0.0
 10
-70.71109082615089
 20
-158.5864017127993
 42
-0.0121757200102759
 10
-69.34110111248969
 20
-153.9144843803321
 42
-0.0457786284636091
 10
-68.13307822287402
 20
-151.0658739974557
 42
-0.0295006114745606
 10
-65.71701776857458
 20
-147.1389747840536
 42
-0.0258674098621065
 10
-62.48434245461044
 20
-142.9931947052998
 42
-0.0093759062953949
 10
-60.31853027495322
 20
-140.5864017127993
  0
LWPOLYLINE
  5
1F89
330
1F
100
AcDbEntity
  8
STAVBA OBRYS
100
AcDbPolyline
 90
        8
 70
     0
 43
0.0
 10
-61.3382868183487
 20
-158.5864017127993
 42
-0.0217273703039143
 10
-59.14061655783894
 20
-153.5507113753216
 42
-0.0882970623535771
 10
-57.50339463774594
 20
-151.3103423245217
 42
-0.0171636441953577
 10
-54.69003057588793
 20
-148.7964249692765
 42
-0.0157521173632038
 10
-51.45117573885158
 20
-146.2649289167699
 42
-0.0073640874174249
 10
-46.81752638253033
 20
-142.9765274910338
 42
-0.0194185739168057
 10
-44.99548306285373
 20
-141.8249584917527
 42
-0.0229547400386702
 10
-42.61002499883921
 20
-140.5864017127993
  0
LWPOLYLINE
  5
1F8A
330
1F
100
AcDbEntity
  8
STAVBA OBRYS
100
AcDbPolyline
 90
        3
 70
     0
 43
0.0
 10
-48.58775905424204
 20
-158.5864017127993
 10
-62.37980698088154
 20
-151.6853301493126
 10
-70.54691163000621
 20
-143.504028448219
  0
POLYLINE
  5
1F8B
330
1F
100
AcDbEntity
  8
STAVBA OBRYS
100
AcDb2dPolyline
 66
     1
 10
0.0
 20
0.0
 30
0.0
  0
VERTEX
  5
1F8C
330
1F8B
100
AcDbEntity
  8
STAVBA OBRYS
100
AcDbVertex
100
AcDb2dVertex
 10
-33.59734100819128
 20
-158.5864017127993
 30
0.0
 42
0.0094186890201653
  0
VERTEX
  5
1F8D
330
1F8B
100
AcDbEntity
  8
STAVBA OBRYS
100
AcDbVertex
100
AcDb2dVertex
 10
-33.94413957106531
 20
-158.4277288420314
 30
0.0
 42
0.0322692699774654
  0
VERTEX
  5
1F8E
330
1F8B
100
AcDbEntity
  8
STAVBA OBRYS
100
AcDbVertex
100
AcDb2dVertex
 10
-36.83549375215602
 20
-157.3862053406307
 30
0.0
 42
0.0276160659512937
  0
VERTEX
  5
1F8F
330
1F8B
100
AcDbEntity
  8
STAVBA OBRYS
100
AcDbVertex
100
AcDb2dVertex
 10
-37.69107019044326
 20
-157.1894699116862
 30
0.0
 42
0.0126891984598699
  0
VERTEX
  5
1F90
330
1F8B
100
AcDbEntity
  8
STAVBA OBRYS
100
AcDbVertex
100
AcDb2dVertex
 10
-38.6142385862347
 20
-157.0542675221447
 30
0.0
  0
SEQEND
  5
1F91
330
1F8B
100
AcDbEntity
  8
STAVBA OBRYS
  0
LWPOLYLINE
  5
1F92
330
1F
100
AcDbEntity
  8
STAVBA OBRYS
100
AcDbPolyline
 90
        3
 70
     0
 43
0.0
 10
33.59340179696323
 20
-158.5864017127993
 42
0.0052038508054843
 10
30.39500485698067
 20
-142.1825752308019
 42
0.0065712046643719
 10
30.04457908721656
 20
-140.5864017127993
  0
LWPOLYLINE
  5
1F93
330
1F
100
AcDbEntity
  8
STAVBA OBRYS
100
AcDbPolyline
 90
        4
 70
     0
 43
0.0
 10
22.14086393399543
 20
-158.5864017127993
 42
0.0334776267545482
 10
21.70358613928897
 20
-154.5394267840626
 42
0.0091133963862869
 10
19.22598181437047
 20
-141.8476969986028
 42
0.007828075361276
 10
18.93508267921265
 20
-140.5864017127993
  0
LWPOLYLINE
  5
1F94
330
1F
100
AcDbEntity
  8
STAVBA OBRYS
100
AcDbPolyline
 90
        6
 70
     0
 43
0.0
 10
-6.819339663537675
 20
-158.5864017127993
 42
0.0121757200102759
 10
-8.189329377198873
 20
-153.9144843803321
 42
0.0457786284636091
 10
-9.39735226681455
 20
-151.0658739974557
 42
0.0295006114745606
 10
-11.81341272111399
 20
-147.1389747840536
 42
0.0258674098621065
 10
-15.04608803507812
 20
-142.9931947052998
 42
0.0093759062953949
 10
-17.21190021473535
 20
-140.5864017127993
  0
LWPOLYLINE
  5
1F95
330
1F
100
AcDbEntity
  8
STAVBA OBRYS
100
AcDbPolyline
 90
        3
 70
     0
 43
0.0
 10
-28.94267143544652
 20
-158.5864017127993
 10
-15.15062350880703
 20
-151.6853301493126
 10
-6.983518859682362
 20
-143.504028448219
  0
LWPOLYLINE
  5
1F96
330
1F
100
AcDbEntity
  8
STAVBA OBRYS
100
AcDbPolyline
 90
        8
 70
     0
 43
0.0
 10
-16.19214367133986
 20
-158.5864017127993
 42
0.0217273703039143
 10
-18.38981393184963
 20
-153.5507113753216
 42
0.0882970623535771
 10
-20.02703585194262
 20
-151.3103423245217
 42
0.0171636441953577
 10
-22.84039991380063
 20
-148.7964249692765
 42
0.0157521173632038
 10
-26.07925475083698
 20
-146.2649289167699
 42
0.0073640874174249
 10
-30.71290410715823
 20
-142.9765274910338
 42
0.0194185739168057
 10
-32.53494742683483
 20
-141.8249584917527
 42
0.0229547400386702
 10
-34.92040549084936
 20
-140.5864017127993
  0
POLYLINE
  5
1F97
330
1F
100
AcDbEntity
  8
STAVBA OBRYS
100
AcDb2dPolyline
 66
     1
 10
0.0
 20
0.0
 30
0.0
  0
VERTEX
  5
1F98
330
1F97
100
AcDbEntity
  8
STAVBA OBRYS
100
AcDbVertex
100
AcDb2dVertex
 10
-24.5441950586553
 20
-158.5864017127993
 30
0.0
 42
0.0502247168465557
  0
VERTEX
  5
1F99
330
1F97
100
AcDbEntity
  8
STAVBA OBRYS
100
AcDbVertex
100
AcDb2dVertex
 10
-26.14324223482049
 20
-156.5789310400766
 30
0.0
 42
0.0274923553235744
  0
VERTEX
  5
1F9A
330
1F97
100
AcDbEntity
  8
STAVBA OBRYS
100
AcDbVertex
100
AcDb2dVertex
 10
-28.74054796537325
 20
-154.1938557169384
 30
0.0
 42
0.0255412025538677
  0
VERTEX
  5
1F9B
330
1F97
100
AcDbEntity
  8
STAVBA OBRYS
100
AcDbVertex
100
AcDb2dVertex
 10
-31.79197800308406
 20
-151.9371420399226
 30
0.0
 42
0.0272796991712396
  0
VERTEX
  5
1F9C
330
1F97
100
AcDbEntity
  8
STAVBA OBRYS
100
AcDbVertex
100
AcDb2dVertex
 10
-35.90497715626929
 20
-149.5208061582568
 30
0.0
 42
0.056967459841729
  0
VERTEX
  5
1F9D
330
1F97
100
AcDbEntity
  8
STAVBA OBRYS
100
AcDbVertex
100
AcDb2dVertex
 10
-38.04592443700107
 20
-148.7080703230573
 30
0.0
 42
0.0373408083348504
  0
VERTEX
  5
1F9E
330
1F97
100
AcDbEntity
  8
STAVBA OBRYS
100
AcDbVertex
100
AcDb2dVertex
 10
-38.26827881247459
 20
-148.6689047821097
 30
0.0
 42
0.0052305969362967
  0
VERTEX
  5
1F9F
330
1F97
100
AcDbEntity
  8
STAVBA OBRYS
100
AcDbVertex
100
AcDb2dVertex
 10
-38.6142385862347
 20
-148.6379478152054
 30
0.0
  0
SEQEND
  5
1FA0
330
1F97
100
AcDbEntity
  8
STAVBA OBRYS
  0
LWPOLYLINE
  5
1FA1
330
1F
100
AcDbEntity
  8
STAVBA OBRYS
100
AcDbPolyline
 90
        4
 70
     0
 43
0.0
 10
1.991121685305415
 20
-158.5864017127993
 42
0.0186324019486548
 10
-1.37724768680141
 20
-146.8912900945749
 42
0.0582629403736403
 10
-3.036747554882595
 20
-143.3114558956392
 42
0.0146402521923566
 10
-4.821155536466676
 20
-140.5864017127993
  0
LWPOLYLINE
  5
1FA2
330
1F
100
AcDbEntity
  8
STAVBA OBRYS
100
AcDbPolyline
 90
        4
 70
     0
 43
0.0
 10
-12.61326350328977
 20
-159.0872321435478
 10
7.382988928702843
 20
-149.8712030930279
 10
24.16087949992129
 20
-147.1640588303368
 10
27.42449074762612
 20
-147.0337574659667
  0
LWPOLYLINE
  5
1FA3
330
1F
100
AcDbEntity
  8
STAVBA OBRYS
100
AcDbPolyline
 90
        5
 70
     0
 43
0.0
 10
11.89672555920174
 20
-158.5864017127993
 42
0.0133579731639958
 10
11.50991507017374
 20
-156.0685994252441
 42
0.0072443097182286
 10
9.389918122715471
 20
-145.257708530337
 42
0.0219777111230329
 10
8.483805620732027
 20
-141.7395952745015
 42
0.0092752982622242
 10
8.108578658784836
 20
-140.5864017127993
  0
LWPOLYLINE
  5
1FA4
330
1F
100
AcDbEntity
  8
STAVBA OBRYS
100
AcDbPolyline
 90
        4
 70
     0
 43
0.0
 10
44.09300544476559
 20
-158.5864017127993
 42
0.0186324019486548
 10
40.72463607265876
 20
-146.8912900945749
 42
0.0582629403736403
 10
39.06513620457758
 20
-143.3114558956392
 42
0.0146402521923566
 10
37.2807282229935
 20
-140.5864017127993
  0
LINE
  5
1FA5
330
1F
100
AcDbEntity
  8
STAVBA OBRYS
100
AcDbLine
 10
-38.76521524484428
 20
-140.5864017128003
 30
0.0
 11
-38.76521524484428
 21
-158.5864017127993
 31
0.0
  0
INSERT
  5
1FA6
330
1F
100
AcDbEntity
  8
POPIS
100
AcDbBlockReference
  2
E_PUNKT
 10
-242.5782726841023
 20
57.59432077753928
 30
0.0
 50
270.0
  0
LINE
  5
1FA7
330
1F
100
AcDbEntity
  8
POPIS
100
AcDbLine
 10
-242.4275303116553
 20
121.7070570403869
 30
0.0
 11
-242.4275303116553
 21
59.37384767566465
 31
0.0
  0
INSERT
  5
1FA8
330
1F
100
AcDbEntity
  8
POPIS
100
AcDbBlockReference
  2
E_PUNKT
 10
-188.744504789847
 20
41.01950593095653
 30
0.0
 50
270.0
  0
LINE
  5
1FA9
330
1F
100
AcDbEntity
  8
POPIS
100
AcDbLine
 10
-188.4356834449897
 20
121.7070570403869
 30
0.0
 11
-188.4356834449897
 21
41.08233039967518
 31
0.0
  0
INSERT
  5
1FAA
330
1F
100
AcDbEntity
  8
POPIS
100
AcDbBlockReference
  2
E_PUNKT
 10
-137.1406445774807
 20
7.631280777053063
 30
0.0
 50
270.0
  0
LINE
  5
1FAB
330
1F
100
AcDbEntity
  8
POPIS
100
AcDbLine
 10
-137.1115762466104
 20
121.7070570403869
 30
0.0
 11
-137.1115762466104
 21
7.603670401426199
 31
0.0
  0
LINE
  5
1FAC
330
1F
100
AcDbEntity
  8
POPIS
100
AcDbLine
 10
35.40023736285116
 20
18.9135982871997
 30
0.0
 11
-16.99728808537815
 21
102.2848495178716
 31
0.0
  0
LINE
  5
1FAD
330
1F
100
AcDbEntity
  8
POPIS
100
AcDbLine
 10
-16.99728808537815
 20
121.7070570403869
 30
0.0
 11
-16.99728808537815
 21
102.2848495178716
 31
0.0
  0
LINE
  5
1FAE
330
1F
100
AcDbEntity
  8
CETRIS
100
AcDbLine
 10
27.90023736285388
 20
52.4135982871997
 30
0.0
 11
-10.7344597032968
 21
52.4135982871997
 31
0.0
  0
LINE
  5
1FAF
330
1F
100
AcDbEntity
  8
POPIS
100
AcDbLine
 10
35.34536894272173
 20
121.7070570403869
 30
0.0
 11
35.34536894272264
 21
59.87532067365037
 31
0.0
  0
LINE
  5
1FB0
330
1F
100
AcDbEntity
  8
izolace
100
AcDbLine
 10
30.86355372522325
 20
59.37384767566465
 30
0.0
 11
39.93692100048452
 21
59.37384767566555
 31
0.0
  0
INSERT
  5
1FB1
330
1F
100
AcDbEntity
  8
POPIS
100
AcDbBlockReference
  2
E_PUNKT
 10
34.8592633157898
 20
61.06638148226131
 30
0.0
 50
270.0
  0
LINE
  5
1FB2
330
1F
100
AcDbEntity
  8
izolace
100
AcDbLine
 10
31.92548523773826
 20
58.27806702824211
 30
0.0
 11
38.87498948796951
 21
58.27806702824119
 31
0.0
  0
LINE
  5
1FB3
330
1F
100
AcDbEntity
  8
izolace
100
AcDbLine
 10
20.37461264043327
 20
54.35496639924014
 30
0.0
 11
30.86355372522325
 21
54.35496639924014
 31
0.0
  0
LINE
  5
1FB4
330
1F
100
AcDbEntity
  8
izolace
100
AcDbLine
 10
20.37461264043327
 20
53.41727467253287
 30
0.0
 11
31.92548523773826
 21
53.41727467253287
 31
0.0
  0
LINE
  5
1FB5
330
1F
100
AcDbEntity
  8
nášlap_vrstvy
100
AcDbLine
 10
40.71899701932875
 20
59.37384767566465
 30
0.0
 11
40.71899701932875
 21
55.03535864971701
 31
0.0
  0
LINE
  5
1FB6
330
1F
100
AcDbEntity
  8
izolace
100
AcDbLine
 10
39.93692100048452
 20
59.37384767566555
 30
0.0
 11
39.93692100048452
 21
54.35496639924014
 31
0.0
  0
LINE
  5
1FB7
330
1F
100
AcDbEntity
  8
izolace
100
AcDbLine
 10
38.87498948796951
 20
58.27806702824119
 30
0.0
 11
38.87498948796951
 21
53.41727467253287
 31
0.0
  0
LINE
  5
1FB8
330
1F
100
AcDbEntity
  8
nášlap_vrstvy
100
AcDbLine
 10
40.71899701932875
 20
55.03535864971701
 30
0.0
 11
40.71899701932875
 21
59.37384767566465
 31
0.0
  0
LINE
  5
1FB9
330
1F
100
AcDbEntity
  8
nášlap_vrstvy
100
AcDbLine
 10
30.08147770637902
 20
55.03535864971701
 30
0.0
 11
30.08147770637902
 21
59.37384767566465
 31
0.0
  0
LINE
  5
1FBA
330
1F
100
AcDbEntity
  8
izolace
100
AcDbLine
 10
31.92548523773826
 20
58.27806702824211
 30
0.0
 11
31.92548523773826
 21
53.41727467253287
 31
0.0
  0
LINE
  5
1FBB
330
1F
100
AcDbEntity
  8
izolace
100
AcDbLine
 10
30.86355372522325
 20
59.37384767566465
 30
0.0
 11
30.86355372522325
 21
54.35496639924014
 31
0.0
  0
LINE
  5
1FBC
330
1F
100
AcDbEntity
  8
izolace
100
AcDbLine
 10
50.4258620852745
 20
53.41727467253287
 30
0.0
 11
38.87498948796951
 21
53.41727467253287
 31
0.0
  0
LINE
  5
1FBD
330
1F
100
AcDbEntity
  8
izolace
100
AcDbLine
 10
50.4258620852745
 20
54.35496639924014
 30
0.0
 11
39.93692100048452
 21
54.35496639924014
 31
0.0
  0
HATCH
  5
1FBE
330
1F
100
AcDbEntity
  8
izolace
100
AcDbHatch
 10
0.0
 20
0.0
 30
0.0
210
0.0
220
0.0
230
1.0
  2
SOLID
 70
     1
 71
     0
 91
        1
 92
        7
 72
     0
 73
     1
 93
       12
 10
39.93692100048452
 20
59.37384767566647
 10
30.86355372522325
 20
59.37384767566465
 10
30.86355372522325
 20
54.35496639924014
 10
20.37461264043327
 20
54.35496639924014
 10
20.37461264043327
 20
53.41727467253287
 10
31.92548523773826
 20
53.41727467253287
 10
31.92548523773826
 20
58.27806702824211
 10
38.87498948796951
 20
58.27806702824119
 10
38.87498948797315
 20
53.41727467253287
 10
50.4258620852745
 20
53.41727467253287
 10
50.42586208527087
 20
54.35496639924014
 10
39.93692100048452
 20
54.35496639924014
 97
        0
 75
     0
 76
     1
 47
0.1079746841384943
 98
        1
 10
32.4511591615485
 20
58.94645942754351
  0
LINE
  5
1FBF
330
1F
100
AcDbEntity
  8
STAVBA OBRYS
  6
IZOLACE
 48
0.7
100
AcDbLine
 10
35.40023736285206
 20
52.4135982871997
 30
0.0
 11
35.40023736285025
 21
-14.58640171280029
 31
0.0
  0
LWPOLYLINE
  5
1FC0
330
1F
100
AcDbEntity
  8
STAVBA OBRYS
100
AcDbPolyline
 90
        4
 70
     1
 43
0.0
 10
42.90023736285024
 20
52.4135982871997
 10
27.90023736285388
 20
52.4135982871997
 10
27.90023736285388
 20
-14.58640171280029
 10
42.90023736285024
 20
-14.58640171280029
  0
LWPOLYLINE
  5
1FC1
330
1F
100
AcDbEntity
  8
CETRIS
100
AcDbPolyline
 90
        2
 70
     0
 43
0.0
 10
-10.7344597032968
 20
28.4135982871997
 10
27.90023736285388
 20
28.4135982871997
  0
LWPOLYLINE
  5
1FC2
330
1F
100
AcDbEntity
  8
STAVBA OBRYS
100
AcDbPolyline
 90
        2
 70
     0
 43
0.0
 10
45.68609037097326
 20
-5.589371761924383
 10
42.90023736285024
 20
-6.983317829736449
  0
LWPOLYLINE
  5
1FC3
330
1F
100
AcDbEntity
  8
STAVBA OBRYS
100
AcDbPolyline
 90
        2
 70
     0
 43
0.0
 10
42.90023736285024
 20
-12.86583314984335
 42
0.0063891037323949
 10
44.16030553099176
 20
-14.58640171280029
  0
INSERT
  5
1FC4
330
1F
100
AcDbEntity
  8
POPIS
100
AcDbBlockReference
  2
E_PUNKT
 10
-74.99981903051571
 20
-73.01107512253719
 30
0.0
 50
270.0
  0
LINE
  5
1FC5
330
1F
100
AcDbEntity
  8
SPOJOVACÍ
  6
DASHED
100
AcDbLine
 10
0.1530042097149362
 20
44.25873366570368
 30
0.0
 11
4.116520482115674
 21
42.92601499243239
 31
0.0
  0
LINE
  5
1FC6
330
1F
100
AcDbEntity
  8
SPOJOVACÍ
  6
DASHED
100
AcDbLine
 10
-0.2170941380898057
 20
44.47204157903098
 30
0.0
 11
0.1530042097149362
 21
44.25873366570368
 31
0.0
  0
LINE
  5
1FC7
330
1F
100
AcDbEntity
  8
SPOJOVACÍ
  6
DASHED
100
AcDbLine
 10
-0.2170941380898057
 20
44.47204157903098
 30
0.0
 11
0.1530042097149362
 21
44.84305149688435
 31
0.0
  0
LINE
  5
1FC8
330
1F
100
AcDbEntity
  8
SPOJOVACÍ
  6
DASHED
100
AcDbLine
 10
0.1530042097149362
 20
44.84305149688435
 30
0.0
 11
4.116520482115674
 21
43.51033282388408
 31
0.0
  0
LINE
  5
1FC9
330
1F
100
AcDbEntity
  8
SPOJOVACÍ
  6
DASHED
100
AcDbLine
 10
0.7797101500329973
 20
46.33158803586349
 30
0.0
 11
0.8120709661745877
 21
44.62144257371647
 31
0.0
  0
LINE
  5
1FCA
330
1F
100
AcDbEntity
  8
SPOJOVACÍ
  6
DASHED
100
AcDbLine
 10
0.7473493338914068
 20
46.7171831101935
 30
0.0
 11
0.8120709661745877
 21
45.94599296153347
 31
0.0
  0
LINE
  5
1FCB
330
1F
100
AcDbEntity
  8
SPOJOVACÍ
  6
DASHED
100
AcDbLine
 10
0.328026086878026
 20
48.16840617990266
 30
0.0
 11
0.7473493338914068
 21
46.7171831101935
 31
0.0
  0
LINE
  5
1FCC
330
1F
100
AcDbEntity
  8
SPOJOVACÍ
  6
DASHED
100
AcDbLine
 10
-0.4522797828537933
 20
49.46101567263423
 30
0.0
 11
0.328026086878026
 21
48.16840617990266
 31
0.0
  0
LINE
  5
1FCD
330
1F
100
AcDbEntity
  8
SPOJOVACÍ
  6
DASHED
100
AcDbLine
 10
-1.540697085205238
 20
50.50841222225819
 30
0.0
 11
-0.4522797828537933
 21
49.46101567263423
 31
0.0
  0
LINE
  5
1FCE
330
1F
100
AcDbEntity
  8
SPOJOVACÍ
  6
DASHED
100
AcDbLine
 10
-2.863388467085087
 20
51.23767004600296
 30
0.0
 11
-1.540697085205238
 21
50.50841222225819
 31
0.0
  0
LINE
  5
1FCF
330
1F
100
AcDbEntity
  8
SPOJOVACÍ
  6
DASHED
100
AcDbLine
 10
-2.863388467085087
 20
52.4135982871997
 30
0.0
 11
-2.863388467085087
 21
51.23767004600296
 31
0.0
  0
LINE
  5
1FD0
330
1F
100
AcDbEntity
  8
SPOJOVACÍ
  6
DASHED
100
AcDbLine
 10
0.8120709661745877
 20
28.79244772665725
 30
0.0
 11
0.8120709661745877
 21
26.31479427004552
 31
0.0
  0
LINE
  5
1FD1
330
1F
100
AcDbEntity
  8
SPOJOVACÍ
  6
DASHED
100
AcDbLine
 10
0.1530042097149362
 20
29.00028620632321
 30
0.0
 11
4.116520482115674
 21
27.66756753332293
 31
0.0
  0
LINE
  5
1FD2
330
1F
100
AcDbEntity
  8
SPOJOVACÍ
  6
DASHED
100
AcDbLine
 10
-0.2170941380898057
 20
29.2145056921093
 30
0.0
 11
0.1530042097149362
 21
29.00028620632321
 31
0.0
  0
LINE
  5
1FD3
330
1F
100
AcDbEntity
  8
SPOJOVACÍ
  6
DASHED
100
AcDbLine
 10
-0.2170941380898057
 20
29.2145056921093
 30
0.0
 11
0.1530042097149362
 21
29.58460403777491
 31
0.0
  0
LINE
  5
1FD4
330
1F
100
AcDbEntity
  8
SPOJOVACÍ
  6
DASHED
100
AcDbLine
 10
0.1530042097149362
 20
29.58460403777491
 30
0.0
 11
4.116520482115674
 21
28.25188536476736
 31
0.0
  0
LINE
  5
1FD5
330
1F
100
AcDbEntity
  8
SPOJOVACÍ
  6
DASHED
100
AcDbLine
 10
0.8120709661745877
 20
31.84530329203727
 30
0.0
 11
0.8120709661745877
 21
29.3749424134624
 31
0.0
  0
LINE
  5
1FD6
330
1F
100
AcDbEntity
  8
SPOJOVACÍ
  6
DASHED
100
AcDbLine
 10
0.1530042097149362
 20
32.05769963317681
 30
0.0
 11
4.116520482115674
 21
30.72589253236429
 31
0.0
  0
LINE
  5
1FD7
330
1F
100
AcDbEntity
  8
SPOJOVACÍ
  6
DASHED
100
AcDbLine
 10
-0.2170941380898057
 20
32.27191911896289
 30
0.0
 11
0.1530042097149362
 21
32.05769963317681
 31
0.0
  0
LINE
  5
1FD8
330
1F
100
AcDbEntity
  8
SPOJOVACÍ
  6
DASHED
100
AcDbLine
 10
-0.2170941380898057
 20
32.27191911896289
 30
0.0
 11
0.1530042097149362
 21
32.6420174646285
 31
0.0
  0
LINE
  5
1FD9
330
1F
100
AcDbEntity
  8
SPOJOVACÍ
  6
DASHED
100
AcDbLine
 10
0.1530042097149362
 20
32.6420174646285
 30
0.0
 11
4.116520482115674
 21
31.31021036354496
 31
0.0
  0
LINE
  5
1FDA
330
1F
100
AcDbEntity
  8
SPOJOVACÍ
  6
DASHED
100
AcDbLine
 10
0.8120709661745877
 20
34.90545143545415
 30
0.0
 11
0.8120709661745877
 21
32.43691370152584
 31
0.0
  0
LINE
  5
1FDB
330
1F
100
AcDbEntity
  8
SPOJOVACÍ
  6
DASHED
100
AcDbLine
 10
0.1530042097149362
 20
35.11602463221817
 30
0.0
 11
4.116520482115674
 21
33.78330595894686
 31
0.0
  0
LINE
  5
1FDC
330
1F
100
AcDbEntity
  8
SPOJOVACÍ
  6
DASHED
100
AcDbLine
 10
-0.2170941380898057
 20
35.32933254554547
 30
0.0
 11
0.1530042097149362
 21
35.11602463221817
 31
0.0
  0
LINE
  5
1FDD
330
1F
100
AcDbEntity
  8
SPOJOVACÍ
  6
DASHED
100
AcDbLine
 10
-0.2170941380898057
 20
35.32933254554547
 30
0.0
 11
0.1530042097149362
 21
35.70034246339884
 31
0.0
  0
LINE
  5
1FDE
330
1F
100
AcDbEntity
  8
SPOJOVACÍ
  6
DASHED
100
AcDbLine
 10
0.1530042097149362
 20
35.70034246339884
 30
0.0
 11
4.116520482115674
 21
34.36762379039857
 31
0.0
  0
LINE
  5
1FDF
330
1F
100
AcDbEntity
  8
SPOJOVACÍ
  6
DASHED
100
AcDbLine
 10
0.8120709661745877
 20
37.94536452207131
 30
0.0
 11
0.8120709661745877
 21
35.47500364349644
 31
0.0
  0
LINE
  5
1FE0
330
1F
100
AcDbEntity
  8
SPOJOVACÍ
  6
DASHED
100
AcDbLine
 10
0.1530042097149362
 20
38.15776086321085
 30
0.0
 11
4.116520482115674
 21
36.82595376239834
 31
0.0
  0
LINE
  5
1FE1
330
1F
100
AcDbEntity
  8
SPOJOVACÍ
  6
DASHED
100
AcDbLine
 10
-0.2170941380898057
 20
38.37198034899694
 30
0.0
 11
0.1530042097149362
 21
38.15776086321085
 31
0.0
  0
LINE
  5
1FE2
330
1F
100
AcDbEntity
  8
SPOJOVACÍ
  6
DASHED
100
AcDbLine
 10
-0.2170941380898057
 20
38.37198034899694
 30
0.0
 11
0.1530042097149362
 21
38.74207869466255
 31
0.0
  0
LINE
  5
1FE3
330
1F
100
AcDbEntity
  8
SPOJOVACÍ
  6
DASHED
100
AcDbLine
 10
0.1530042097149362
 20
38.74207869466255
 30
0.0
 11
4.116520482115674
 21
37.41027159357901
 31
0.0
  0
LINE
  5
1FE4
330
1F
100
AcDbEntity
  8
SPOJOVACÍ
  6
DASHED
100
AcDbLine
 10
0.8120709661745877
 20
41.00551266548819
 30
0.0
 11
0.8120709661745877
 21
38.53697493155988
 31
0.0
  0
LINE
  5
1FE5
330
1F
100
AcDbEntity
  8
SPOJOVACÍ
  6
DASHED
100
AcDbLine
 10
0.1530042097149362
 20
41.21608586225221
 30
0.0
 11
4.116520482115674
 21
39.88336718898091
 31
0.0
  0
LINE
  5
1FE6
330
1F
100
AcDbEntity
  8
SPOJOVACÍ
  6
DASHED
100
AcDbLine
 10
-0.2170941380898057
 20
41.42939377557951
 30
0.0
 11
0.1530042097149362
 21
41.21608586225221
 31
0.0
  0
LINE
  5
1FE7
330
1F
100
AcDbEntity
  8
SPOJOVACÍ
  6
DASHED
100
AcDbLine
 10
-0.2170941380898057
 20
41.42939377557951
 30
0.0
 11
0.1530042097149362
 21
41.80040369343288
 31
0.0
  0
LINE
  5
1FE8
330
1F
100
AcDbEntity
  8
SPOJOVACÍ
  6
DASHED
100
AcDbLine
 10
0.1530042097149362
 20
41.80040369343288
 30
0.0
 11
4.116520482115674
 21
40.46768502043261
 31
0.0
  0
LINE
  5
1FE9
330
1F
100
AcDbEntity
  8
SPOJOVACÍ
  6
DASHED
100
AcDbLine
 10
0.8120709661745877
 20
44.04816046893967
 30
0.0
 11
0.8120709661745877
 21
41.57962273501135
 31
0.0
  0
LINE
  5
1FEA
330
1F
100
AcDbEntity
  8
SPOJOVACÍ
  6
DASHED
100
AcDbLine
 10
7.132913154637435
 20
52.4135982871997
 30
0.0
 11
7.132913154637435
 21
51.23767004600296
 31
0.0
  0
LINE
  5
1FEB
330
1F
100
AcDbEntity
  8
SPOJOVACÍ
  6
DASHED
100
AcDbLine
 10
6.431914072192967
 20
50.90768088087708
 30
0.0
 11
7.132913154637435
 21
51.23767004600296
 31
0.0
  0
LINE
  5
1FEC
330
1F
100
AcDbEntity
  8
SPOJOVACÍ
  6
DASHED
100
AcDbLine
 10
5.219522939471289
 20
50.00795904064426
 30
0.0
 11
6.431914072192967
 21
50.90768088087708
 31
0.0
  0
LINE
  5
1FED
330
1F
100
AcDbEntity
  8
SPOJOVACÍ
  6
DASHED
100
AcDbLine
 10
4.280603490886505
 20
48.82473822140338
 30
0.0
 11
5.219522939471289
 21
50.00795904064426
 31
0.0
  0
LINE
  5
1FEE
330
1F
100
AcDbEntity
  8
SPOJOVACÍ
  6
DASHED
100
AcDbLine
 10
3.679877358721796
 20
47.43914835589413
 30
0.0
 11
4.280603490886505
 21
48.82473822140338
 31
0.0
  0
LINE
  5
1FEF
330
1F
100
AcDbEntity
  8
SPOJOVACÍ
  6
DASHED
100
AcDbLine
 10
3.457453725656023
 20
45.94599296153347
 30
0.0
 11
3.679877358721796
 21
47.43914835589413
 31
0.0
  0
LINE
  5
1FF0
330
1F
100
AcDbEntity
  8
SPOJOVACÍ
  6
DASHED
100
AcDbLine
 10
3.457453725656023
 20
45.94599296153529
 30
0.0
 11
3.457453725656023
 21
43.73194174705377
 31
0.0
  0
LINE
  5
1FF1
330
1F
100
AcDbEntity
  8
SPOJOVACÍ
  6
DASHED
100
AcDbLine
 10
4.486618825642153
 20
43.296113338098
 30
0.0
 11
4.116520482115674
 21
43.51033282388408
 31
0.0
  0
LINE
  5
1FF2
330
1F
100
AcDbEntity
  8
SPOJOVACÍ
  6
DASHED
100
AcDbLine
 10
4.486618825642153
 20
43.296113338098
 30
0.0
 11
4.116520482115674
 21
42.92601499243239
 31
0.0
  0
LINE
  5
1FF3
330
1F
100
AcDbEntity
  8
SPOJOVACÍ
  6
DASHED
100
AcDbLine
 10
3.457453725656023
 20
43.15299649018044
 30
0.0
 11
3.457453725656023
 21
40.68445875625212
 31
0.0
  0
LINE
  5
1FF4
330
1F
100
AcDbEntity
  8
SPOJOVACÍ
  6
DASHED
100
AcDbLine
 10
4.486618825642153
 20
40.25346553464652
 30
0.0
 11
4.116520482115674
 21
40.46768502043261
 31
0.0
  0
LINE
  5
1FF5
330
1F
100
AcDbEntity
  8
SPOJOVACÍ
  6
DASHED
100
AcDbLine
 10
4.486618825642153
 20
40.25346553464652
 30
0.0
 11
4.116520482115674
 21
39.88336718898091
 31
0.0
  0
LINE
  5
1FF6
330
1F
100
AcDbEntity
  8
SPOJOVACÍ
  6
DASHED
100
AcDbLine
 10
3.457453725656023
 20
40.11034868672896
 30
0.0
 11
3.457453725656023
 21
37.64181095280065
 31
0.0
  0
LINE
  5
1FF7
330
1F
100
AcDbEntity
  8
SPOJOVACÍ
  6
DASHED
100
AcDbLine
 10
4.486618825642153
 20
37.19605210779292
 30
0.0
 11
4.116520482115674
 21
37.41027159357901
 31
0.0
  0
LINE
  5
1FF8
330
1F
100
AcDbEntity
  8
SPOJOVACÍ
  6
DASHED
100
AcDbLine
 10
4.486618825642153
 20
37.19605210779292
 30
0.0
 11
4.116520482115674
 21
36.82595376239834
 31
0.0
  0
LINE
  5
1FF9
330
1F
100
AcDbEntity
  8
SPOJOVACÍ
  6
DASHED
100
AcDbLine
 10
3.457453725656023
 20
37.05749312134895
 30
0.0
 11
3.457453725656023
 21
34.57983966473722
 31
0.0
  0
LINE
  5
1FFA
330
1F
100
AcDbEntity
  8
SPOJOVACÍ
  6
DASHED
100
AcDbLine
 10
4.486618825642153
 20
34.15340430461248
 30
0.0
 11
4.116520482115674
 21
34.36762379039857
 31
0.0
  0
LINE
  5
1FFB
330
1F
100
AcDbEntity
  8
SPOJOVACÍ
  6
DASHED
100
AcDbLine
 10
4.486618825642153
 20
34.15340430461248
 30
0.0
 11
4.116520482115674
 21
33.78330595894686
 31
0.0
  0
LINE
  5
1FFC
330
1F
100
AcDbEntity
  8
SPOJOVACÍ
  6
DASHED
100
AcDbLine
 10
3.457453725656023
 20
34.01028745669492
 30
0.0
 11
3.457453725656023
 21
31.54174972276661
 31
0.0
  0
LINE
  5
1FFD
330
1F
100
AcDbEntity
  8
SPOJOVACÍ
  6
DASHED
100
AcDbLine
 10
4.486618825642153
 20
31.09599087775888
 30
0.0
 11
4.116520482115674
 21
31.31021036354496
 31
0.0
  0
LINE
  5
1FFE
330
1F
100
AcDbEntity
  8
SPOJOVACÍ
  6
DASHED
100
AcDbLine
 10
4.486618825642153
 20
31.09599087775888
 30
0.0
 11
4.116520482115674
 21
30.72589253236429
 31
0.0
  0
LINE
  5
1FFF
330
1F
100
AcDbEntity
  8
SPOJOVACÍ
  6
DASHED
100
AcDbLine
 10
3.457453725656023
 20
30.95743189131491
 30
0.0
 11
3.457453725656023
 21
28.47977843470317
 31
0.0
  0
LINE
  5
2000
330
1F
100
AcDbEntity
  8
SPOJOVACÍ
  6
DASHED
100
AcDbLine
 10
-2.863388467085087
 20
52.4135982871997
 30
0.0
 11
7.132913154637435
 21
52.4135982871997
 31
0.0
  0
LINE
  5
2001
330
1F
100
AcDbEntity
  8
SPOJOVACÍ
  6
DASHED
100
AcDbLine
 10
-2.863388467085087
 20
51.23767004600296
 30
0.0
 11
7.132913154637435
 21
51.23767004600296
 31
0.0
  0
LINE
  5
2002
330
1F
100
AcDbEntity
  8
SPOJOVACÍ
  6
DASHED
100
AcDbLine
 10
-0.2170941380898057
 20
32.27191911896289
 30
0.0
 11
4.486618825642153
 21
31.09599087775888
 31
0.0
  0
LINE
  5
2003
330
1F
100
AcDbEntity
  8
SPOJOVACÍ
  6
DASHED
100
AcDbLine
 10
-0.2170941380898057
 20
29.2145056921093
 30
0.0
 11
4.486618825642153
 21
28.0385774511763
 31
0.0
  0
LINE
  5
2004
330
1F
100
AcDbEntity
  8
SPOJOVACÍ
  6
DASHED
100
AcDbLine
 10
3.457453725656023
 20
27.89728374789802
 30
0.0
 11
3.457453725656023
 21
25.42692286932316
 31
0.0
  0
LINE
  5
2005
330
1F
100
AcDbEntity
  8
SPOJOVACÍ
  6
DASHED
100
AcDbLine
 10
0.8120709661745877
 20
25.72227228810544
 30
0.0
 11
0.8120709661745877
 21
23.25464612636488
 31
0.0
  0
LINE
  5
2006
330
1F
100
AcDbEntity
  8
SPOJOVACÍ
  6
DASHED
100
AcDbLine
 10
0.8120709661745877
 20
22.67032829491319
 30
0.0
 11
0.8120709661745877
 21
21.44790986786239
 31
0.0
  0
LINE
  5
2007
330
1F
100
AcDbEntity
  8
SPOJOVACÍ
  6
DASHED
100
AcDbLine
 10
3.457453725656023
 20
24.8380471766689
 30
0.0
 11
3.457453725656023
 21
22.36950944274059
 31
0.0
  0
LINE
  5
2008
330
1F
100
AcDbEntity
  8
SPOJOVACÍ
  6
DASHED
100
AcDbLine
 10
3.457453725656023
 20
21.77789903298827
 30
0.0
 11
3.457453725656023
 21
21.44790986786239
 31
0.0
  0
LINE
  5
2009
330
1F
100
AcDbEntity
  8
SPOJOVACÍ
  6
DASHED
100
AcDbLine
 10
0.8120709661745877
 20
21.44790986786239
 30
0.0
 11
0.9588341028431841
 21
20.27471634349268
 31
0.0
  0
LINE
  5
200A
330
1F
100
AcDbEntity
  8
SPOJOVACÍ
  6
DASHED
100
AcDbLine
 10
2.134762343776174
 20
10.86364412620815
 30
0.0
 11
2.482071385282552
 21
13.64302800745127
 31
0.0
  0
LINE
  5
200B
330
1F
100
AcDbEntity
  8
SPOJOVACÍ
  6
DASHED
100
AcDbLine
 10
1.034494603518623
 20
19.66669763275632
 30
0.0
 11
1.318905156047776
 21
17.39141322241295
 31
0.0
  0
LINE
  5
200C
330
1F
100
AcDbEntity
  8
SPOJOVACÍ
  6
DASHED
100
AcDbLine
 10
1.396388800029171
 20
16.77336721654165
 30
0.0
 11
1.680799348280061
 21
14.49899437839332
 31
0.0
  0
LINE
  5
200D
330
1F
100
AcDbEntity
  8
SPOJOVACÍ
  6
DASHED
100
AcDbLine
 10
1.756459848955501
 20
13.89097566765696
 30
0.0
 11
2.134762343776174
 21
10.86364412620815
 31
0.0
  0
LINE
  5
200E
330
1F
100
AcDbEntity
  8
SPOJOVACÍ
  6
DASHED
100
AcDbLine
 10
2.552262451761862
 20
14.20091024277672
 30
0.0
 11
2.814795267506497
 21
16.3029959200615
 31
0.0
  0
LINE
  5
200F
330
1F
100
AcDbEntity
  8
SPOJOVACÍ
  6
DASHED
100
AcDbLine
 10
2.884986329707544
 20
16.86361287222126
 30
0.0
 11
3.146607575938332
 21
18.95749439901766
 31
0.0
  0
LINE
  5
2010
330
1F
100
AcDbEntity
  8
SPOJOVACÍ
  6
DASHED
100
AcDbLine
 10
3.216798642417643
 20
19.5162882068019
 30
0.0
 11
3.457453725656023
 21
21.44790986786239
 31
0.0
  0
LINE
  5
2011
330
1F
100
AcDbEntity
  8
SPOJOVACÍ
  6
DASHED
100
AcDbLine
 10
-0.2170941380898057
 20
35.32933254554547
 30
0.0
 11
4.486618825642153
 21
34.15340430461248
 31
0.0
  0
LINE
  5
2012
330
1F
100
AcDbEntity
  8
SPOJOVACÍ
  6
DASHED
100
AcDbLine
 10
0.0317650964427685
 20
20.08328616481077
 30
0.0
 11
0.4027750137613566
 21
19.86906667902468
 31
0.0
  0
LINE
  5
2013
330
1F
100
AcDbEntity
  8
SPOJOVACÍ
  6
DASHED
100
AcDbLine
 10
0.0317650964427685
 20
20.08328616481077
 30
0.0
 11
0.4027750137613566
 21
20.45338451047638
 31
0.0
  0
LINE
  5
2014
330
1F
100
AcDbEntity
  8
SPOJOVACÍ
  6
DASHED
100
AcDbLine
 10
4.074588156130857
 20
19.12978156015225
 30
0.0
 11
3.704489812604379
 21
18.75877164202785
 31
0.0
  0
LINE
  5
2015
330
1F
100
AcDbEntity
  8
SPOJOVACÍ
  6
DASHED
100
AcDbLine
 10
4.074588156130857
 20
19.12978156015225
 30
0.0
 11
3.704489812604379
 21
19.34308947347955
 31
0.0
  0
LINE
  5
2016
330
1F
100
AcDbEntity
  8
SPOJOVACÍ
  6
DASHED
100
AcDbLine
 10
0.4027750137613566
 20
19.86906667902468
 30
0.0
 11
3.704489812604379
 21
18.75877164202785
 31
0.0
  0
LINE
  5
2017
330
1F
100
AcDbEntity
  8
SPOJOVACÍ
  6
DASHED
100
AcDbLine
 10
0.4027750137613566
 20
20.45338451047638
 30
0.0
 11
3.704489812604379
 21
19.34308947347955
 31
0.0
  0
LINE
  5
2018
330
1F
100
AcDbEntity
  8
SPOJOVACÍ
  6
DASHED
100
AcDbLine
 10
0.0317650964427685
 20
20.08328616481077
 30
0.0
 11
4.074588156130857
 21
19.12978156015225
 31
0.0
  0
LINE
  5
2019
330
1F
100
AcDbEntity
  8
SPOJOVACÍ
  6
DASHED
100
AcDbLine
 10
0.5850894684265314
 20
17.12888040559874
 30
0.0
 11
0.9551878162312732
 21
16.91557249227145
 31
0.0
  0
LINE
  5
201A
330
1F
100
AcDbEntity
  8
SPOJOVACÍ
  6
DASHED
100
AcDbLine
 10
0.5850894684265314
 20
17.12888040559874
 30
0.0
 11
0.9551878162312732
 21
17.49989032372315
 31
0.0
  0
LINE
  5
201B
330
1F
100
AcDbEntity
  8
SPOJOVACÍ
  6
DASHED
100
AcDbLine
 10
3.638856606529088
 20
16.50809968316417
 30
0.0
 11
3.268758263002609
 21
16.1370897653108
 31
0.0
  0
LINE
  5
201C
330
1F
100
AcDbEntity
  8
SPOJOVACÍ
  6
DASHED
100
AcDbLine
 10
3.638856606529088
 20
16.50809968316417
 30
0.0
 11
3.268758263002609
 21
16.72140759649147
 31
0.0
  0
LINE
  5
201D
330
1F
100
AcDbEntity
  8
SPOJOVACÍ
  6
DASHED
100
AcDbLine
 10
0.9551878162312732
 20
16.91557249227145
 30
0.0
 11
3.268758263002609
 21
16.1370897653108
 31
0.0
  0
LINE
  5
201E
330
1F
100
AcDbEntity
  8
SPOJOVACÍ
  6
DASHED
100
AcDbLine
 10
0.9551878162312732
 20
17.49989032372315
 30
0.0
 11
3.268758263002609
 21
16.72140759649147
 31
0.0
  0
LINE
  5
201F
330
1F
100
AcDbEntity
  8
SPOJOVACÍ
  6
DASHED
100
AcDbLine
 10
0.5850894684265314
 20
17.12888040559874
 30
0.0
 11
3.638856606529088
 21
16.50809968316417
 31
0.0
  0
LINE
  5
2020
330
1F
100
AcDbEntity
  8
SPOJOVACÍ
  6
DASHED
100
AcDbLine
 10
1.138413844688557
 20
14.17538621884551
 30
0.0
 11
1.508512188215036
 21
13.9611667330667
 31
0.0
  0
LINE
  5
2021
330
1F
100
AcDbEntity
  8
SPOJOVACÍ
  6
DASHED
100
AcDbLine
 10
1.138413844688557
 20
14.17538621884551
 30
0.0
 11
1.508512188215036
 21
14.54548456451112
 31
0.0
  0
LINE
  5
2022
330
1F
100
AcDbEntity
  8
SPOJOVACÍ
  6
DASHED
100
AcDbLine
 10
3.249615243316156
 20
13.87092107738709
 30
0.0
 11
2.879516899789678
 21
13.49991115953372
 31
0.0
  0
LINE
  5
2023
330
1F
100
AcDbEntity
  8
SPOJOVACÍ
  6
DASHED
100
AcDbLine
 10
3.249615243316156
 20
13.87092107738709
 30
0.0
 11
2.879516899789678
 21
14.08422899097814
 31
0.0
  0
LINE
  5
2024
330
1F
100
AcDbEntity
  8
SPOJOVACÍ
  6
DASHED
100
AcDbLine
 10
1.508512188215036
 20
13.9611667330667
 30
0.0
 11
2.879516899789678
 21
13.49991115953372
 31
0.0
  0
LINE
  5
2025
330
1F
100
AcDbEntity
  8
SPOJOVACÍ
  6
DASHED
100
AcDbLine
 10
1.508512188215036
 20
14.54548456451112
 30
0.0
 11
2.879516899789678
 21
14.08422899097814
 31
0.0
  0
LINE
  5
2026
330
1F
100
AcDbEntity
  8
SPOJOVACÍ
  6
DASHED
100
AcDbLine
 10
1.138413844688557
 20
14.17538621884551
 30
0.0
 11
3.249615243316156
 21
13.87092107738709
 31
0.0
  0
LINE
  5
2027
330
1F
100
AcDbEntity
  8
SPOJOVACÍ
  6
DASHED
100
AcDbLine
 10
4.486618825642153
 20
28.0385774511763
 30
0.0
 11
4.116520482115674
 21
27.66756753332293
 31
0.0
  0
LINE
  5
2028
330
1F
100
AcDbEntity
  8
SPOJOVACÍ
  6
DASHED
100
AcDbLine
 10
4.486618825642153
 20
28.0385774511763
 30
0.0
 11
4.116520482115674
 21
28.25188536476736
 31
0.0
  0
LINE
  5
2029
330
1F
100
AcDbEntity
  8
SPOJOVACÍ
  6
DASHED
100
AcDbLine
 10
-0.2170941380898057
 20
26.15709226551945
 30
0.0
 11
4.486618825642153
 21
24.98116402458646
 31
0.0
  0
LINE
  5
202A
330
1F
100
AcDbEntity
  8
SPOJOVACÍ
  6
DASHED
100
AcDbLine
 10
-0.2170941380898057
 20
26.15709226551945
 30
0.0
 11
0.1530042097149362
 21
25.94287277974064
 31
0.0
  0
LINE
  5
202B
330
1F
100
AcDbEntity
  8
SPOJOVACÍ
  6
DASHED
100
AcDbLine
 10
-0.2170941380898057
 20
26.15709226551945
 30
0.0
 11
0.1530042097149362
 21
26.52719061118506
 31
0.0
  0
LINE
  5
202C
330
1F
100
AcDbEntity
  8
SPOJOVACÍ
  6
DASHED
100
AcDbLine
 10
4.486618825642153
 20
24.98116402458646
 30
0.0
 11
4.116520482115674
 21
24.61015410673309
 31
0.0
  0
LINE
  5
202D
330
1F
100
AcDbEntity
  8
SPOJOVACÍ
  6
DASHED
100
AcDbLine
 10
4.486618825642153
 20
24.98116402458646
 30
0.0
 11
4.116520482115674
 21
25.19447193791376
 31
0.0
  0
LINE
  5
202E
330
1F
100
AcDbEntity
  8
SPOJOVACÍ
  6
DASHED
100
AcDbLine
 10
0.1530042097149362
 20
25.94287277974064
 30
0.0
 11
4.116520482115674
 21
24.61015410673309
 31
0.0
  0
LINE
  5
202F
330
1F
100
AcDbEntity
  8
SPOJOVACÍ
  6
DASHED
100
AcDbLine
 10
0.1530042097149362
 20
26.52719061118506
 30
0.0
 11
4.116520482115674
 21
25.19447193791376
 31
0.0
  0
LINE
  5
2030
330
1F
100
AcDbEntity
  8
SPOJOVACÍ
  6
DASHED
100
AcDbLine
 10
-0.2170941380898057
 20
23.09876726647809
 30
0.0
 11
4.486618825642153
 21
21.9228390255451
 31
0.0
  0
LINE
  5
2031
330
1F
100
AcDbEntity
  8
SPOJOVACÍ
  6
DASHED
100
AcDbLine
 10
-0.2170941380898057
 20
23.09876726647809
 30
0.0
 11
0.1530042097149362
 21
22.88545935315079
 31
0.0
  0
LINE
  5
2032
330
1F
100
AcDbEntity
  8
SPOJOVACÍ
  6
DASHED
100
AcDbLine
 10
-0.2170941380898057
 20
23.09876726647809
 30
0.0
 11
0.1530042097149362
 21
23.46977718460249
 31
0.0
  0
LINE
  5
2033
330
1F
100
AcDbEntity
  8
SPOJOVACÍ
  6
DASHED
100
AcDbLine
 10
4.486618825642153
 20
21.9228390255451
 30
0.0
 11
4.116520482115674
 21
21.55274067987949
 31
0.0
  0
LINE
  5
2034
330
1F
100
AcDbEntity
  8
SPOJOVACÍ
  6
DASHED
100
AcDbLine
 10
4.486618825642153
 20
21.9228390255451
 30
0.0
 11
4.116520482115674
 21
22.13705851133119
 31
0.0
  0
LINE
  5
2035
330
1F
100
AcDbEntity
  8
SPOJOVACÍ
  6
DASHED
100
AcDbLine
 10
0.1530042097149362
 20
22.88545935315079
 30
0.0
 11
4.116520482115674
 21
21.55274067987949
 31
0.0
  0
LINE
  5
2036
330
1F
100
AcDbEntity
  8
SPOJOVACÍ
  6
DASHED
100
AcDbLine
 10
0.1530042097149362
 20
23.46977718460249
 30
0.0
 11
4.116520482115674
 21
22.13705851133119
 31
0.0
  0
LINE
  5
2037
330
1F
100
AcDbEntity
  8
SPOJOVACÍ
  6
DASHED
100
AcDbLine
 10
-0.2170941380898057
 20
38.37198034899694
 30
0.0
 11
4.486618825642153
 21
37.19605210779292
 31
0.0
  0
LINE
  5
2038
330
1F
100
AcDbEntity
  8
SPOJOVACÍ
  6
DASHED
100
AcDbLine
 10
-0.2170941380898057
 20
41.42939377557951
 30
0.0
 11
4.486618825642153
 21
40.25346553464652
 31
0.0
  0
LINE
  5
2039
330
1F
100
AcDbEntity
  8
SPOJOVACÍ
  6
DASHED
100
AcDbLine
 10
-0.2170941380898057
 20
44.47204157903098
 30
0.0
 11
4.486618825642153
 21
43.296113338098
 31
0.0
  0
LWPOLYLINE
  5
203A
330
1F
100
AcDbEntity
  8
STAVBA OBRYS
100
AcDbPolyline
 90
        2
 70
     0
 43
0.0
 10
27.90023736285025
 20
-12.86583314984335
 42
-0.0063891037323949
 10
26.64016919470873
 20
-14.58640171280029
  0
LWPOLYLINE
  5
203B
330
1F
100
AcDbEntity
  8
STAVBA OBRYS
100
AcDbPolyline
 90
        2
 70
     0
 43
0.0
 10
25.11438435472723
 20
-5.589371761924383
 10
27.90023736285025
 20
-6.983317829736449
  0
LWPOLYLINE
  5
203C
330
1F
100
AcDbEntity
  8
STAVBA OBRYS
100
AcDbPolyline
 90
        6
 70
     0
 43
0.0
 10
19.43379582502734
 20
25.4135982871997
 42
-0.0128837512779301
 10
19.1490038648028
 20
22.08043346545338
 42
-0.0351641677647434
 10
18.52124414327977
 20
18.47672401111441
 42
-0.0187319685742942
 10
15.13722826228899
 20
6.718486668971593
 42
-0.0582629403736403
 10
13.47772839420781
 20
3.138652470039517
 42
-0.1129599987265478
 10
-3.89781345750157
 20
-14.58640171280029
 42
-0.1129599987265478
  0
LWPOLYLINE
  5
203D
330
1F
100
AcDbEntity
  8
STAVBA OBRYS
100
AcDbPolyline
 90
        3
 70
     0
 43
0.0
 10
3.901212445800638
 20
18.91442871794453
 10
23.89746487779325
 20
9.698399667424666
 10
27.89740251150783
 20
9.053002192082487
  0
LWPOLYLINE
  5
203E
330
1F
100
AcDbEntity
  8
STAVBA OBRYS
100
AcDbPolyline
 90
        4
 70
     0
 43
0.0
 10
27.90023736285025
 20
15.21376811629426
 42
-0.0067884601454759
 10
25.90439407180588
 20
5.084905104733763
 42
-0.0219777111230329
 10
24.99828156982244
 20
1.566791848898276
 42
-0.0757738131361498
 10
11.71718371360225
 20
-14.58640171280029
  0
LWPOLYLINE
  5
203F
330
1F
100
AcDbEntity
  8
STAVBA OBRYS
100
AcDbPolyline
 90
        7
 70
     0
 43
0.0
 10
-17.58499415746496
 20
25.4135982871997
 42
-0.0203924744732807
 10
-18.48707814187378
 20
24.40046825804557
 42
-0.0273961979096945
 10
-19.33694249206905
 20
23.61229188401949
 42
-0.0243529190212958
 10
-20.50006298448875
 20
22.73853253935186
 42
-0.0398020282482987
 10
-21.2750215220492
 20
22.29890379590534
 42
-0.104168275620852
 10
-21.66143265838923
 20
22.2088873357282
 42
-0.007272956268647
 10
-22.09976263714793
 20
22.19043398443346
 42
-0.007272956268647
  0
LINE
  5
2040
330
1F
100
AcDbEntity
  8
POPIS
100
AcDbLine
 10
-74.97075069963807
 20
121.7070570403869
 30
0.0
 11
-74.97075069963807
 21
-73.03868549816406
 31
0.0
  0
LWPOLYLINE
  5
2041
330
1F
100
AcDbEntity
  8
izolace
100
AcDbPolyline
 90
        4
 70
     1
 43
0.0
 10
27.90023736285025
 20
25.4135982871997
 10
-22.09976263714975
 20
25.4135982871997
 10
-22.09976263714975
 20
28.41359828719879
 10
27.90023736285025
 20
28.41359828719879
  0
POLYLINE
  5
2042
330
1F
100
AcDbEntity
  8
STAVBA OBRYS
100
AcDb2dPolyline
 66
     1
 10
0.0
 20
0.0
 30
0.0
  0
VERTEX
  5
2043
330
2042
100
AcDbEntity
  8
STAVBA OBRYS
100
AcDbVertex
100
AcDb2dVertex
 10
-12.23530782294778
 20
25.41359828719788
 30
0.0
 42
-0.0064239028828688
  0
VERTEX
  5
2044
330
2042
100
AcDbEntity
  8
STAVBA OBRYS
100
AcDbVertex
100
AcDb2dVertex
 10
-12.27417626312831
 20
25.19448462784777
 30
0.0
 42
-0.0832048017309575
  0
VERTEX
  5
2045
330
2042
100
AcDbEntity
  8
STAVBA OBRYS
100
AcDbVertex
100
AcDb2dVertex
 10
-13.05835886580985
 20
22.86427104819296
 30
0.0
 42
-0.0336767237692336
  0
VERTEX
  5
2046
330
2042
100
AcDbEntity
  8
STAVBA OBRYS
100
AcDbVertex
100
AcDb2dVertex
 10
-14.76117542473161
 20
20.13599652873228
 30
0.0
 42
-0.0844635135812105
  0
VERTEX
  5
2047
330
2042
100
AcDbEntity
  8
STAVBA OBRYS
100
AcDbVertex
100
AcDb2dVertex
 10
-15.68098518462443
 20
19.23157492373712
 30
0.0
 42
-0.0495829410719565
  0
VERTEX
  5
2048
330
2042
100
AcDbEntity
  8
STAVBA OBRYS
100
AcDbVertex
100
AcDb2dVertex
 10
-17.42966362197853
 20
18.25492541642444
 30
0.0
 42
-0.0322692699774654
  0
VERTEX
  5
2049
330
2042
100
AcDbEntity
  8
STAVBA OBRYS
100
AcDbVertex
100
AcDb2dVertex
 10
-20.32101780306925
 20
17.21340191502378
 30
0.0
 42
-0.0276160659512937
  0
VERTEX
  5
204A
330
2042
100
AcDbEntity
  8
STAVBA OBRYS
100
AcDbVertex
100
AcDb2dVertex
 10
-21.17659424135649
 20
17.01666648607925
 30
0.0
 42
-0.0126891984598699
  0
VERTEX
  5
204B
330
2042
100
AcDbEntity
  8
STAVBA OBRYS
100
AcDbVertex
100
AcDb2dVertex
 10
-22.09976263714793
 20
16.88146409653774
 30
0.0
  0
SEQEND
  5
204C
330
2042
100
AcDbEntity
  8
STAVBA OBRYS
  0
LWPOLYLINE
  5
204D
330
1F
100
AcDbEntity
  8
STAVBA OBRYS
100
AcDbPolyline
 90
       10
 70
     0
 43
0.0
 10
1.942521221475772
 20
25.4135982871997
 42
-0.0168162630274194
 10
1.807495642411822
 20
23.72256013508041
 42
-0.0575155827655532
 10
1.127463362068965
 20
20.62293547436303
 42
-0.0310289133982999
 10
-1.875337982759219
 20
13.37790794971835
 42
-0.0882970623535771
 10
-3.512559902852217
 20
11.13753889891842
 42
-0.0171636441953577
 10
-6.325923964710227
 20
8.623621543673209
 42
-0.0157521173632038
 10
-9.56477880174657
 20
6.092125491166655
 42
-0.0073640874174249
 10
-14.19842815806782
 20
2.803724065430571
 42
-0.0194185739168057
 10
-16.02047147774442
 20
1.652155066149418
 42
-0.0567960585128809
 10
-22.09976263714793
 20
-0.9997091392266952
 42
-0.0229547400386702
  0
LWPOLYLINE
  5
204E
330
1F
100
AcDbEntity
  8
STAVBA OBRYS
100
AcDbPolyline
 90
        8
 70
     0
 43
0.0
 10
10.80958044498606
 20
25.4135982871997
 42
-0.0120721047703132
 10
10.74059775494811
 20
23.67971014845562
 42
-0.044358077361292
 10
10.34497002027478
 20
20.98391013003884
 42
-0.0188067511131767
 10
8.325146571891536
 20
13.74168095473243
 42
-0.0457786284636091
 10
7.11712368227586
 20
10.89307057185243
 42
-0.0295006114745606
 10
4.701063227976419
 20
6.966171358450367
 42
-0.0258674098621065
 10
1.468387914012282
 20
2.82039127969648
 42
-0.2409478365688615
 10
-22.09976263714793
 20
-11.60415616527706
 42
-0.0884720560394402
  0
POLYLINE
  5
204F
330
1F
100
AcDbEntity
  8
STAVBA OBRYS
100
AcDb2dPolyline
 66
     1
 10
0.0
 20
0.0
 30
0.0
  0
VERTEX
  5
2050
330
204F
100
AcDbEntity
  8
STAVBA OBRYS
100
AcDbVertex
100
AcDb2dVertex
 10
-5.00725680220944
 20
25.41359828719788
 30
0.0
 42
-0.0072417954699014
  0
VERTEX
  5
2051
330
204F
100
AcDbEntity
  8
STAVBA OBRYS
100
AcDbVertex
100
AcDb2dVertex
 10
-5.062827170053196
 20
25.00219307592334
 30
0.0
 42
-0.0707158694326265
  0
VERTEX
  5
2052
330
204F
100
AcDbEntity
  8
STAVBA OBRYS
100
AcDbVertex
100
AcDb2dVertex
 10
-5.593953686473241
 20
23.06608962332967
 30
0.0
 42
-0.033952657250207
  0
VERTEX
  5
2053
330
204F
100
AcDbEntity
  8
STAVBA OBRYS
100
AcDbVertex
100
AcDb2dVertex
 10
-7.842609525881698
 20
18.71305189815603
 30
0.0
 42
-0.0571374688189033
  0
VERTEX
  5
2054
330
204F
100
AcDbEntity
  8
STAVBA OBRYS
100
AcDbVertex
100
AcDb2dVertex
 10
-9.628766285733718
 20
16.40612761446965
 30
0.0
 42
-0.0274923553235744
  0
VERTEX
  5
2055
330
204F
100
AcDbEntity
  8
STAVBA OBRYS
100
AcDbVertex
100
AcDb2dVertex
 10
-12.22607201628647
 20
14.02105229133513
 30
0.0
 42
-0.0255412025538677
  0
VERTEX
  5
2056
330
204F
100
AcDbEntity
  8
STAVBA OBRYS
100
AcDbVertex
100
AcDb2dVertex
 10
-15.27750205399729
 20
11.7643386143157
 30
0.0
 42
-0.0272796991712396
  0
VERTEX
  5
2057
330
204F
100
AcDbEntity
  8
STAVBA OBRYS
100
AcDbVertex
100
AcDb2dVertex
 10
-19.39050120718252
 20
9.348002732653469
 30
0.0
 42
-0.056967459841729
  0
VERTEX
  5
2058
330
204F
100
AcDbEntity
  8
STAVBA OBRYS
100
AcDbVertex
100
AcDb2dVertex
 10
-21.5314484879143
 20
8.53526689745405
 30
0.0
 42
-0.0373408083348504
  0
VERTEX
  5
2059
330
204F
100
AcDbEntity
  8
STAVBA OBRYS
100
AcDbVertex
100
AcDb2dVertex
 10
-21.75380286338782
 20
8.496101356502833
 30
0.0
 42
-0.0052305969362967
  0
VERTEX
  5
205A
330
204F
100
AcDbEntity
  8
STAVBA OBRYS
100
AcDbVertex
100
AcDb2dVertex
 10
-22.09976263714793
 20
8.465144389598492
 30
0.0
  0
SEQEND
  5
205B
330
204F
100
AcDbEntity
  8
STAVBA OBRYS
  0
HATCH
  5
205C
330
1F
100
AcDbEntity
  8
izolace
100
AcDbHatch
 10
0.0
 20
0.0
 30
0.0
210
0.0
220
0.0
230
1.0
  2
SOLID
 70
     1
 71
     0
 91
       10
 92
        7
 72
     0
 73
     1
 93
        4
 10
27.90023736285025
 20
28.41359828719879
 10
23.97581635543088
 20
28.41359828719879
 10
23.97581635543088
 20
25.4135982871997
 10
27.90023736285025
 20
25.4135982871997
 97
        0
 92
        7
 72
     0
 73
     1
 93
        9
 10
11.53387145366127
 20
28.41359828719879
 10
6.13701219627751
 20
28.41359828719879
 10
6.444699185966101
 20
28.31021036354405
 10
6.814797529489851
 20
28.09599087775888
 10
6.444699185962463
 20
27.72589253236521
 10
5.785632429502811
 20
27.94734987625844
 10
5.785632429502811
 20
25.47349428793705
 10
5.963763627322123
 20
25.4135982871997
 10
11.53387145366036
 20
25.4135982871997
 97
        0
 92
        7
 72
     0
 73
     1
 93
        9
 10
3.140249670021376
 20
28.41359828719879
 10
-2.282046360143567
 20
28.41359828719879
 10
-2.282046360143567
 20
25.4135982871997
 10
3.140249670021376
 20
25.4135982871997
 10
3.140249670021376
 20
25.77867728315351
 10
2.481182913566271
 20
26.0002862063223
 10
2.111084565756982
 20
26.2145056921102
 10
2.481182913561724
 20
26.58460403777581
 10
3.140249670021376
 20
26.36299511460612
 97
        0
 92
        7
 72
     0
 73
     1
 93
        5
 10
5.785632429502811
 20
27.94734987625753
 10
4.398056734327155
 20
28.41359828719879
 10
3.140249670022285
 20
28.41359828719879
 10
3.140249670022285
 20
26.36299511460521
 10
5.785632429502811
 20
25.47349428793614
 97
        0
 92
        7
 72
     0
 73
     1
 93
        4
 10
5.544367892022137
 20
28.41359828719879
 10
4.398056734328974
 20
28.4135982871997
 10
6.444699185962463
 20
27.72589253236338
 10
6.814797529488942
 20
28.09599087775888
 97
        0
 92
       23
 72
     0
 73
     1
 93
        4
 10
6.137012196280238
 20
28.41359828719879
 10
5.54436789201668
 20
28.41359828719879
 10
6.814797529488942
 20
28.09599087775706
 10
6.444699185960644
 20
28.31021036354588
 97
        0
 92
        7
 72
     0
 73
     1
 93
        4
 10
2.481182913562633
 20
26.584604037774
 10
2.111084565757892
 20
26.2145056921093
 10
5.31471418539445
 20
25.4135982871997
 10
5.963763627319394
 20
25.4135982871997
 97
        0
 92
        7
 72
     0
 73
     1
 93
        4
 10
2.111084565753344
 20
26.21450569211111
 10
2.481182913565362
 20
26.00028620632321
 10
4.225997600548225
 20
25.4135982871997
 10
5.314714185395359
 20
25.4135982871997
 97
        0
 92
       23
 72
     0
 73
     1
 93
        3
 10
3.140249670021376
 20
25.77867728315442
 10
3.140249670021376
 20
25.4135982871997
 10
4.225997600541859
 20
25.4135982871997
 97
        0
 92
        7
 72
     0
 73
     1
 93
        4
 10
-15.76823785497504
 20
28.41359828719879
 10
-22.09976263714975
 20
28.41359828719879
 10
-22.09976263714975
 20
25.4135982871997
 10
-15.76823785497413
 20
25.41359828720061
 97
        0
 75
     0
 76
     1
 47
0.0980096762587744
 98
       10
 10
25.60898937481602
 20
27.5320448743335
 10
9.806191611957046
 20
26.77999198537174
 10
0.6802244024931952
 20
26.81659484501898
 10
4.224145302260012
 20
26.76125440781499
 10
5.591691297375518
 20
28.11618088654387
 10
6.153069749429278
 20
28.33222498801143
 10
3.843739770598631
 20
25.93274146648065
 10
4.08198869505054
 20
25.62134876087322
 10
3.422196308189313
 20
25.58471235139978
 10
-19.6233970704286
 20
26.65563955706267
  0
LWPOLYLINE
  5
205D
330
1F
100
AcDbEntity
  8
STAVBA OBRYS
100
AcDbPolyline
 90
        4
 70
     1
 43
0.0
 10
-22.09976263714975
 20
-14.58640171280029
 10
27.90023736285025
 20
-14.58640171280029
 10
27.90023736285025
 20
25.4135982871997
 10
-22.09976263714975
 20
25.4135982871997
  0
LWPOLYLINE
  5
205E
330
1F
100
AcDbEntity
  8
STAVBA OBRYS
100
AcDbPolyline
 90
        3
 70
     0
 43
0.0
 10
-15.39136517944439
 20
19.89626759168123
 10
1.36385244028338
 20
11.51252672371293
 10
9.530957089408047
 20
3.331225022615683
  0
HATCH
  5
205F
330
1F
100
AcDbEntity
  8
CETRIS
100
AcDbHatch
 10
0.0
 20
0.0
 30
0.0
210
0.0
220
0.0
230
1.0
  2
ANSI31
 70
     0
 71
     0
 91
        2
 92
        7
 72
     0
 73
     1
 93
       36
 10
346.7068015849584
 20
40.10497611219427
 10
346.0477348284987
 20
39.88336718898091
 10
345.6776364849713
 20
40.25346553464652
 10
346.0477348285005
 20
40.46768502043351
 10
346.7068015849601
 20
40.68929394360231
 10
346.7068015849574
 20
43.14762391564573
 10
346.0477348285005
 20
42.92601499243239
 10
345.6776364849713
 20
43.29611333809708
 10
346.0477348285005
 20
43.51033282388499
 10
346.7068015849593
 20
43.73194174705377
 10
346.7068015849593
 20
45.94599296153165
 10
346.4843779518908
 20
47.43914835589686
 10
345.883651819726
 20
48.82473822140247
 10
344.9447323711367
 20
50.00795904064426
 10
343.7323412384223
 20
50.9076808808789
 10
343.031342155976
 20
51.23767004600296
 10
343.0313421559769
 20
52.4135982871997
 10
137.5837535330958
 20
52.4135982871997
 10
116.85896327876
 20
28.41359828720061
 10
346.5286703871463
 20
28.41359828720061
 10
346.7068015849584
 20
28.47349428793705
 10
346.7068015849584
 20
30.94734987625753
 10
346.0477348284996
 20
30.72589253236429
 10
345.6776364849713
 20
31.09599087775797
 10
346.0477348284969
 20
31.31021036354406
 10
346.7068015849584
 20
31.53166770748276
 10
346.7068015849584
 20
34.00491488216022
 10
346.0477348284987
 20
33.78330595894686
 10
345.6776364849722
 20
34.15340430461248
 10
346.047734828496
 20
34.36762379039766
 10
346.7068015849574
 20
34.58923271356735
 10
346.7068015849574
 20
37.04741110629157
 10
346.0477348284978
 20
36.82595376239834
 10
345.6776364849722
 20
37.19605210779292
 10
346.0477348284969
 20
37.4102715935781
 10
346.7068015849584
 20
37.63172893751681
 97
        0
 92
        7
 72
     0
 73
     1
 93
       40
 10
381.2432358133603
 20
52.4135982871997
 10
353.0276437776985
 20
52.4135982871997
 10
353.0276437777004
 20
51.23767004600387
 10
351.7049523958196
 20
50.50841222225819
 10
350.6165350934681
 20
49.46101567263423
 10
349.8362292237345
 20
48.16840617990357
 10
349.416905976722
 20
46.71718311018895
 10
349.3845451605823
 20
46.33158803585257
 10
349.3521843444398
 20
44.62144257371647
 10
350.0112511008976
 20
44.84305149688435
 10
350.3813494487033
 20
44.47204157903008
 10
350.0112511008985
 20
44.25873366570368
 10
349.3521843444407
 20
44.03712474249124
 10
349.3521843444379
 20
41.57879477026409
 10
350.0112511009003
 20
41.80040369343288
 10
350.3813494487042
 20
41.4293937755786
 10
350.0112511008967
 20
41.2160858622513
 10
349.3521843444398
 20
40.99447693903885
 10
349.3521843444389
 20
38.52062135072384
 10
350.0112511008994
 20
38.74207869466255
 10
350.3813494487051
 20
38.37198034899694
 10
350.0112511008994
 20
38.15776086321176
 10
349.3521843444407
 20
37.93630351931852
 10
349.3521843444379
 20
35.47873354022914
 10
350.0112511009003
 20
35.70034246339884
 10
350.3813494487042
 20
35.32933254554547
 10
350.0112511009003
 20
35.11602463221817
 10
349.3521843444407
 20
34.89441570900481
 10
349.3521843444389
 20
32.4205601206898
 10
350.0112511009012
 20
32.6420174646285
 10
350.3813494487051
 20
32.27191911896289
 10
350.0112511008985
 20
32.0576996331759
 10
349.3521843444407
 20
31.83624228928448
 10
349.3521843444379
 20
29.3629951146043
 10
350.0112511008976
 20
29.58460403777491
 10
350.3813494487042
 20
29.2145056921093
 10
350.0112511009012
 20
29.00028620632502
 10
349.3521843444398
 20
28.77867728315624
 10
349.3521843444389
 20
28.4135982871997
 10
379.9658565307402
 20
28.4135982871997
 97
        0
 75
     0
 76
     1
 52
0.0
 41
1.0
 77
     0
 78
     1
 53
45.0
 43
-7201.529460489675
 44
-4139.442437365671
 45
-2.245064030267287
 46
2.245064030267288
 79
     0
 47
0.6272747517726124
 98
        2
 10
278.1775888614558
 20
38.12543802226201
 10
368.5544885067995
 20
39.37998890368027
  0
HATCH
  5
2060
330
1F
100
AcDbEntity
  8
izolace
100
AcDbHatch
 10
0.0
 20
0.0
 30
0.0
210
0.0
220
0.0
230
1.0
  2
SOLID
 70
     1
 71
     0
 91
       10
 92
        7
 72
     0
 73
     1
 93
        4
 10
320.9538287212274
 20
28.41359828719879
 10
324.8782497286467
 20
28.41359828719879
 10
324.8782497286467
 20
25.4135982871997
 10
320.9538287212274
 20
25.4135982871997
 97
        0
 92
        7
 72
     0
 73
     1
 93
        9
 10
337.3201946304163
 20
28.41359828719879
 10
342.7170538878001
 20
28.41359828719879
 10
342.4093668981115
 20
28.31021036354405
 10
342.0392685545877
 20
28.09599087775888
 10
342.4093668981151
 20
27.72589253236521
 10
343.0684336545748
 20
27.94734987625844
 10
343.0684336545748
 20
25.47349428793705
 10
342.8903024567555
 20
25.4135982871997
 10
337.3201946304173
 20
25.4135982871997
 97
        0
 92
        7
 72
     0
 73
     1
 93
        9
 10
345.7138164140562
 20
28.41359828719879
 10
351.1361124442212
 20
28.41359828719879
 10
351.1361124442212
 20
25.4135982871997
 10
345.7138164140562
 20
25.4135982871997
 10
345.7138164140562
 20
25.77867728315351
 10
346.3728831705113
 20
26.0002862063223
 10
346.7429815183206
 20
26.2145056921102
 10
346.3728831705159
 20
26.58460403777581
 10
345.7138164140562
 20
26.36299511460612
 97
        0
 92
        7
 72
     0
 73
     1
 93
        5
 10
343.0684336545748
 20
27.94734987625753
 10
344.4560093497504
 20
28.41359828719879
 10
345.7138164140553
 20
28.41359828719879
 10
345.7138164140553
 20
26.36299511460521
 10
343.0684336545748
 20
25.47349428793614
 97
        0
 92
        7
 72
     0
 73
     1
 93
        4
 10
343.3096981920555
 20
28.41359828719879
 10
344.4560093497486
 20
28.4135982871997
 10
342.4093668981151
 20
27.72589253236338
 10
342.0392685545887
 20
28.09599087775888
 97
        0
 92
       23
 72
     0
 73
     1
 93
        4
 10
342.7170538877974
 20
28.41359828719879
 10
343.3096981920609
 20
28.41359828719879
 10
342.0392685545887
 20
28.09599087775706
 10
342.409366898117
 20
28.31021036354588
 97
        0
 92
        7
 72
     0
 73
     1
 93
        4
 10
346.372883170515
 20
26.584604037774
 10
346.7429815183197
 20
26.2145056921093
 10
343.5393518986832
 20
25.4135982871997
 10
342.8903024567582
 20
25.4135982871997
 97
        0
 92
        7
 72
     0
 73
     1
 93
        4
 10
346.7429815183243
 20
26.21450569211111
 10
346.3728831705123
 20
26.00028620632321
 10
344.6280684835294
 20
25.4135982871997
 10
343.5393518986823
 20
25.4135982871997
 97
        0
 92
       23
 72
     0
 73
     1
 93
        3
 10
345.7138164140562
 20
25.77867728315442
 10
345.7138164140562
 20
25.4135982871997
 10
344.6280684835357
 20
25.4135982871997
 97
        0
 92
        7
 72
     0
 73
     1
 93
        4
 10
364.6223039390527
 20
28.41359828719879
 10
370.9538287212274
 20
28.41359828719879
 10
370.9538287212274
 20
25.4135982871997
 10
364.6223039390517
 20
25.41359828720061
 97
        0
 75
     0
 76
     1
 47
0.0980096762587744
 98
       10
 10
323.2450767092616
 20
27.5320448743335
 10
339.0478744721206
 20
26.77999198537174
 10
348.1738416815844
 20
26.81659484501898
 10
344.6299207818176
 20
26.76125440781499
 10
343.2623747867021
 20
28.11618088654387
 10
342.7009963346483
 20
28.33222498801143
 10
345.010326313479
 20
25.93274146648065
 10
344.7720773890271
 20
25.62134876087322
 10
345.4318697758883
 20
25.58471235139978
 10
368.4774631545062
 20
26.65563955706267
  0
LWPOLYLINE
  5
2061
330
1F
100
AcDbEntity
  8
izolace
100
AcDbPolyline
 90
        4
 70
     1
 43
0.0
 10
320.9538287212274
 20
25.4135982871997
 10
370.9538287212274
 20
25.4135982871997
 10
370.9538287212274
 20
28.41359828719879
 10
320.9538287212274
 20
28.41359828719879
  0
LWPOLYLINE
  5
2062
330
1F
100
AcDbEntity
  8
STAVBA OBRYS
100
AcDbPolyline
 90
        4
 70
     0
 43
0.0
 10
377.6772186493801
 20
-14.58640171280029
 10
320.9538287212274
 20
-14.58640171280029
 10
320.9538287212274
 20
25.4135982871997
 10
379.8061841204128
 20
25.4135982871997
  0
LWPOLYLINE
  5
2063
330
1F
100
AcDbEntity
  8
STAVBA OBRYS
100
AcDbPolyline
 90
        4
 70
     0
 43
0.0
 10
343.5630154311459
 20
25.33684876427315
 42
0.0135911980674875
 10
349.1417124669844
 20
-5.156191009425754
 42
0.0219777111230329
 10
350.5008812199614
 20
-10.43336089317898
 42
0.0117780509051499
 10
353.1070935225336
 20
-14.58640171280029
 42
0.0117780509051499
  0
LINE
  5
2064
330
1F
100
AcDbEntity
  8
SPOJOVACÍ
  6
DASHED
100
AcDbLine
 10
353.0276437776994
 20
51.23767004600296
 30
0.0
 11
343.0313421559769
 21
51.23767004600296
 31
0.0
  0
LINE
  5
2065
330
1F
100
AcDbEntity
  8
SPOJOVACÍ
  6
DASHED
100
AcDbLine
 10
353.0276437776994
 20
52.4135982871997
 30
0.0
 11
343.0313421559769
 21
52.4135982871997
 31
0.0
  0
LINE
  5
2066
330
1F
100
AcDbEntity
  8
SPOJOVACÍ
  6
DASHED
100
AcDbLine
 10
353.0276437776994
 20
51.23767004600296
 30
0.0
 11
351.7049523958196
 21
50.50841222225819
 31
0.0
  0
LWPOLYLINE
  5
2067
330
1F
100
AcDbEntity
  8
STAVBA OBRYS
100
AcDbPolyline
 90
        4
 70
     0
 43
0.0
 10
329.4886202561704
 20
-159.0872321435478
 10
349.484872688163
 20
-149.8712030930279
 10
366.2627632593814
 20
-147.1640588303368
 10
369.5263745070862
 20
-147.0337574659667
  0
LWPOLYLINE
  5
2068
330
1F
100
AcDbEntity
  8
STAVBA OBRYS
100
AcDbPolyline
 90
        5
 70
     0
 43
0.0
 10
353.9986093186619
 20
-158.5864017127993
 42
0.0133579731639958
 10
353.6117988296339
 20
-156.0685994252441
 42
0.0072443097182286
 10
351.4918018821756
 20
-145.257708530337
 42
0.0219777111230329
 10
350.5856893801922
 20
-141.7395952745015
 42
0.0092752982622242
 10
350.210462418245
 20
-140.5864017127993
  0
LWPOLYLINE
  5
2069
330
1F
100
AcDbEntity
  8
STAVBA OBRYS
100
AcDbPolyline
 90
        4
 70
     0
 43
0.0
 10
235.0828330136012
 20
-159.0872321435478
 10
215.0865805816085
 20
-149.8712030930279
 10
198.3086900103901
 20
-147.1640588303368
 10
195.0450787626852
 20
-147.0337574659667
  0
LWPOLYLINE
  5
206A
330
1F
100
AcDbEntity
  8
STAVBA OBRYS
100
AcDbPolyline
 90
        4
 70
     0
 43
0.0
 10
200.328705576316
 20
-158.5864017127993
 42
-0.0334776267545482
 10
200.7659833710224
 20
-154.5394267840626
 42
-0.0091133963862869
 10
203.2435876959409
 20
-141.8476969986028
 42
-0.007828075361276
 10
203.5344868310987
 20
-140.5864017127993
  0
LWPOLYLINE
  5
206B
330
1F
100
AcDbEntity
  8
STAVBA OBRYS
100
AcDbPolyline
 90
        4
 70
     0
 43
0.0
 10
178.3765640655458
 20
-158.5864017127993
 42
-0.0186324019486548
 10
181.7449334376526
 20
-146.8912900945749
 42
-0.0582629403736403
 10
183.4044333057338
 20
-143.3114558956392
 42
-0.0146402521923566
 10
185.1888412873179
 20
-140.5864017127993
  0
LWPOLYLINE
  5
206C
330
1F
100
AcDbEntity
  8
STAVBA OBRYS
100
AcDbPolyline
 90
        5
 70
     0
 43
0.0
 10
168.4709601916495
 20
-158.5864017127993
 42
-0.0133579731639958
 10
168.8577706806775
 20
-156.0685994252441
 42
-0.0072443097182286
 10
170.9777676281357
 20
-145.257708530337
 42
-0.0219777111230329
 10
171.8838801301192
 20
-141.7395952745015
 42
-0.0092752982622242
 10
172.2591070920664
 20
-140.5864017127993
  0
LWPOLYLINE
  5
206D
330
1F
100
AcDbEntity
  8
STAVBA OBRYS
100
AcDbPolyline
 90
        4
 70
     0
 43
0.0
 10
158.2268218168558
 20
-158.5864017127993
 42
-0.0334776267545482
 10
158.6640996115622
 20
-154.5394267840626
 42
-0.0091133963862869
 10
161.1417039364807
 20
-141.8476969986028
 42
-0.007828075361276
 10
161.4326030716386
 20
-140.5864017127993
  0
LWPOLYLINE
  5
206E
330
1F
100
AcDbEntity
  8
STAVBA OBRYS
100
AcDbPolyline
 90
        4
 70
     0
 43
0.0
 10
192.980949254141
 20
-159.0872321435478
 10
172.9846968221484
 20
-149.8712030930279
 10
156.2068062509299
 20
-147.1640588303368
 10
152.9431950032251
 20
-147.0337574659667
  0
LWPOLYLINE
  5
206F
330
1F
100
AcDbEntity
  8
STAVBA OBRYS
100
AcDbPolyline
 90
        4
 70
     0
 43
0.0
 10
162.8339403976663
 20
-159.0872321435478
 10
142.8376879656736
 20
-149.8712030930279
 10
126.0597973944552
 20
-147.1640588303368
 10
122.7961861467504
 20
-147.0337574659667
  0
LWPOLYLINE
  5
2070
330
1F
100
AcDbEntity
  8
STAVBA OBRYS
100
AcDbPolyline
 90
        3
 70
     0
 43
0.0
 10
146.774283953888
 20
-158.5864017127993
 42
-0.0052038508054843
 10
149.9726808938705
 20
-142.1825752308019
 42
-0.0065712046643719
 10
150.3231066636346
 20
-140.5864017127993
  0
LWPOLYLINE
  5
2071
330
1F
100
AcDbEntity
  8
STAVBA OBRYS
100
AcDbPolyline
 90
        4
 70
     0
 43
0.0
 10
128.0798129603811
 20
-158.5864017127993
 42
-0.0334776267545482
 10
128.5170907550875
 20
-154.5394267840626
 42
-0.0091133963862869
 10
130.994695080006
 20
-141.8476969986028
 42
-0.007828075361276
 10
131.2855942151638
 20
-140.5864017127993
  0
LWPOLYLINE
  5
2072
330
1F
100
AcDbEntity
  8
STAVBA OBRYS
100
AcDbPolyline
 90
        5
 70
     0
 43
0.0
 10
138.3239513351748
 20
-158.5864017127993
 42
-0.0133579731639958
 10
138.7107618242027
 20
-156.0685994252441
 42
-0.0072443097182286
 10
140.830758771661
 20
-145.257708530337
 42
-0.0219777111230329
 10
141.7368712736445
 20
-141.7395952745015
 42
-0.0092752982622242
 10
142.1120982355916
 20
-140.5864017127993
  0
LWPOLYLINE
  5
2073
330
1F
100
AcDbEntity
  8
STAVBA OBRYS
100
AcDbPolyline
 90
        3
 70
     0
 43
0.0
 10
116.6272750974133
 20
-158.5864017127993
 42
-0.0052038508054843
 10
119.8256720373958
 20
-142.1825752308019
 42
-0.0065712046643719
 10
120.1760978071599
 20
-140.5864017127993
  0
LWPOLYLINE
  5
2074
330
1F
100
AcDbEntity
  8
STAVBA OBRYS
100
AcDbPolyline
 90
        3
 70
     0
 43
0.0
 10
188.8761677133482
 20
-158.5864017127993
 42
-0.0052038508054843
 10
192.0745646533307
 20
-142.1825752308019
 42
-0.0065712046643719
 10
192.4249904230948
 20
-140.5864017127993
  0
LWPOLYLINE
  5
2075
330
1F
100
AcDbEntity
  8
STAVBA OBRYS
100
AcDbPolyline
 90
        3
 70
     0
 43
0.0
 10
105.8422944128981
 20
-158.5864017127993
 42
0.0052038508054843
 10
102.6438974729155
 20
-142.1825752308019
 42
0.0065712046643719
 10
102.2934717031514
 20
-140.5864017127993
  0
LWPOLYLINE
  5
2076
330
1F
100
AcDbEntity
  8
STAVBA OBRYS
100
AcDbPolyline
 90
        5
 70
     0
 43
0.0
 10
84.14561817513662
 20
-158.5864017127993
 42
0.0133579731639958
 10
83.75880768610864
 20
-156.0685994252441
 42
0.0072443097182286
 10
81.63881073865036
 20
-145.257708530337
 42
0.0219777111230329
 10
80.73269823666691
 20
-141.7395952745015
 42
0.0092752982622242
 10
80.35747127471973
 20
-140.5864017127993
  0
LWPOLYLINE
  5
2077
330
1F
100
AcDbEntity
  8
STAVBA OBRYS
100
AcDbPolyline
 90
        4
 70
     0
 43
0.0
 10
94.38975654993033
 20
-158.5864017127993
 42
0.0334776267545482
 10
93.95247875522386
 20
-154.5394267840626
 42
0.0091133963862869
 10
91.47487443030536
 20
-141.8476969986028
 42
0.007828075361276
 10
91.18397529514755
 20
-140.5864017127993
  0
LWPOLYLINE
  5
2078
330
1F
100
AcDbEntity
  8
STAVBA OBRYS
100
AcDbPolyline
 90
        3
 70
     0
 43
0.0
 10
75.69528555642341
 20
-158.5864017127993
 42
0.0052038508054843
 10
72.49688861644085
 20
-142.1825752308019
 42
0.0065712046643719
 10
72.14646284667674
 20
-140.5864017127993
  0
LWPOLYLINE
  5
2079
330
1F
100
AcDbEntity
  8
STAVBA OBRYS
100
AcDbPolyline
 90
        4
 70
     0
 43
0.0
 10
59.63562911264512
 20
-159.0872321435478
 10
79.63188154463773
 20
-149.8712030930279
 10
96.40977211585619
 20
-147.1640588303368
 10
99.67338336356101
 20
-147.0337574659667
  0
LWPOLYLINE
  5
207A
330
1F
100
AcDbEntity
  8
STAVBA OBRYS
100
AcDbPolyline
 90
        4
 70
     0
 43
0.0
 10
64.24274769345561
 20
-158.5864017127993
 42
0.0334776267545482
 10
63.80546989874915
 20
-154.5394267840626
 42
0.0091133963862869
 10
61.32786557383065
 20
-141.8476969986028
 42
0.007828075361276
 10
61.03696643867284
 20
-140.5864017127993
  0
LINE
  5
207B
330
1F
100
AcDbEntity
  8
STAVBA OBRYS
100
AcDbLine
 10
111.2347847551557
 20
-140.5864017128003
 30
0.0
 11
111.2347847551557
 21
-158.5864017127993
 31
0.0
  0
LWPOLYLINE
  5
207C
330
1F
100
AcDbEntity
  8
STAVBA OBRYS
100
AcDbPolyline
 90
        3
 70
     0
 43
0.0
 10
333.5934017969632
 20
-158.5864017127993
 42
0.0052038508054843
 10
330.3950048569806
 20
-142.1825752308019
 42
0.0065712046643719
 10
330.0445790872165
 20
-140.5864017127993
  0
LWPOLYLINE
  5
207D
330
1F
100
AcDbEntity
  8
STAVBA OBRYS
100
AcDbPolyline
 90
        4
 70
     0
 43
0.0
 10
322.1408639339954
 20
-158.5864017127993
 42
0.0334776267545482
 10
321.7035861392889
 20
-154.5394267840626
 42
0.0091133963862869
 10
319.2259818143704
 20
-141.8476969986028
 42
0.007828075361276
 10
318.9350826792126
 20
-140.5864017127993
  0
LWPOLYLINE
  5
207E
330
1F
100
AcDbEntity
  8
STAVBA OBRYS
100
AcDbPolyline
 90
        6
 70
     0
 43
0.0
 10
293.1806603364623
 20
-158.5864017127993
 42
0.0121757200102759
 10
291.8106706228011
 20
-153.9144843803321
 42
0.0457786284636091
 10
290.6026477331854
 20
-151.0658739974557
 42
0.0295006114745606
 10
288.186587278886
 20
-147.1389747840536
 42
0.0258674098621065
 10
284.9539119649218
 20
-142.9931947052998
 42
0.0093759062953949
 10
282.7880997852646
 20
-140.5864017127993
  0
LWPOLYLINE
  5
207F
330
1F
100
AcDbEntity
  8
STAVBA OBRYS
100
AcDbPolyline
 90
        4
 70
     0
 43
0.0
 10
301.9911216853054
 20
-158.5864017127993
 42
0.0186324019486548
 10
298.6227523131986
 20
-146.8912900945749
 42
0.0582629403736403
 10
296.9632524451174
 20
-143.3114558956392
 42
0.0146402521923566
 10
295.1788444635333
 20
-140.5864017127993
  0
LWPOLYLINE
  5
2080
330
1F
100
AcDbEntity
  8
STAVBA OBRYS
100
AcDbPolyline
 90
        4
 70
     0
 43
0.0
 10
287.3867364967102
 20
-159.0872321435478
 10
307.3829889287028
 20
-149.8712030930279
 10
324.1608794999212
 20
-147.1640588303368
 10
327.4244907476261
 20
-147.0337574659667
  0
LWPOLYLINE
  5
2081
330
1F
100
AcDbEntity
  8
STAVBA OBRYS
100
AcDbPolyline
 90
        5
 70
     0
 43
0.0
 10
311.8967255592017
 20
-158.5864017127993
 42
0.0133579731639958
 10
311.5099150701737
 20
-156.0685994252441
 42
0.0072443097182286
 10
309.3899181227154
 20
-145.257708530337
 42
0.0219777111230329
 10
308.483805620732
 20
-141.7395952745015
 42
0.0092752982622242
 10
308.1085786587848
 20
-140.5864017127993
  0
LWPOLYLINE
  5
2082
330
1F
100
AcDbEntity
  8
STAVBA OBRYS
100
AcDbPolyline
 90
        4
 70
     0
 43
0.0
 10
344.0930054447655
 20
-158.5864017127993
 42
0.0186324019486548
 10
340.7246360726587
 20
-146.8912900945749
 42
0.0582629403736403
 10
339.0651362045776
 20
-143.3114558956392
 42
0.0146402521923566
 10
337.2807282229935
 20
-140.5864017127993
  0
POLYLINE
  5
2083
330
1F
100
AcDbEntity
  8
STAVBA OBRYS
100
AcDb2dPolyline
 66
     1
 10
0.0
 20
0.0
 30
0.0
  0
VERTEX
  5
2084
330
2083
100
AcDbEntity
  8
STAVBA OBRYS
100
AcDbVertex
100
AcDb2dVertex
 10
266.4026589918087
 20
-158.5864017127993
 30
0.0
 42
0.0094186890201653
  0
VERTEX
  5
2085
330
2083
100
AcDbEntity
  8
STAVBA OBRYS
100
AcDbVertex
100
AcDb2dVertex
 10
266.0558604289346
 20
-158.4277288420314
 30
0.0
 42
0.0322692699774654
  0
VERTEX
  5
2086
330
2083
100
AcDbEntity
  8
STAVBA OBRYS
100
AcDbVertex
100
AcDb2dVertex
 10
263.1645062478439
 20
-157.3862053406307
 30
0.0
 42
0.0276160659512937
  0
VERTEX
  5
2087
330
2083
100
AcDbEntity
  8
STAVBA OBRYS
100
AcDbVertex
100
AcDb2dVertex
 10
262.3089298095567
 20
-157.1894699116862
 30
0.0
 42
0.0126891984598699
  0
VERTEX
  5
2088
330
2083
100
AcDbEntity
  8
STAVBA OBRYS
100
AcDbVertex
100
AcDb2dVertex
 10
261.3857614137653
 20
-157.0542675221447
 30
0.0
  0
SEQEND
  5
2089
330
2083
100
AcDbEntity
  8
STAVBA OBRYS
  0
POLYLINE
  5
208A
330
1F
100
AcDbEntity
  8
STAVBA OBRYS
100
AcDb2dPolyline
 66
     1
 10
0.0
 20
0.0
 30
0.0
  0
VERTEX
  5
208B
330
208A
100
AcDbEntity
  8
STAVBA OBRYS
100
AcDbVertex
100
AcDb2dVertex
 10
256.0669105185027
 20
-158.5864017127993
 30
0.0
 42
-0.0094186890201653
  0
VERTEX
  5
208C
330
208A
100
AcDbEntity
  8
STAVBA OBRYS
100
AcDbVertex
100
AcDb2dVertex
 10
256.4137090813767
 20
-158.4277288420314
 30
0.0
 42
-0.0322692699774654
  0
VERTEX
  5
208D
330
208A
100
AcDbEntity
  8
STAVBA OBRYS
100
AcDbVertex
100
AcDb2dVertex
 10
259.3050632624674
 20
-157.3862053406307
 30
0.0
 42
-0.0276160659512937
  0
VERTEX
  5
208E
330
208A
100
AcDbEntity
  8
STAVBA OBRYS
100
AcDbVertex
100
AcDb2dVertex
 10
260.1606397007547
 20
-157.1894699116862
 30
0.0
 42
-0.0126891984598699
  0
VERTEX
  5
208F
330
208A
100
AcDbEntity
  8
STAVBA OBRYS
100
AcDbVertex
100
AcDb2dVertex
 10
261.0838080965461
 20
-157.0542675221447
 30
0.0
  0
SEQEND
  5
2090
330
208A
100
AcDbEntity
  8
STAVBA OBRYS
  0
LWPOLYLINE
  5
2091
330
1F
100
AcDbEntity
  8
STAVBA OBRYS
100
AcDbPolyline
 90
        5
 70
     0
 43
0.0
 10
210.5728439511096
 20
-158.5864017127993
 42
-0.0133579731639958
 10
210.9596544401376
 20
-156.0685994252441
 42
-0.0072443097182286
 10
213.0796513875959
 20
-145.257708530337
 42
-0.0219777111230329
 10
213.9857638895794
 20
-141.7395952745015
 42
-0.0092752982622242
 10
214.3609908515265
 20
-140.5864017127993
  0
LWPOLYLINE
  5
2092
330
1F
100
AcDbEntity
  8
STAVBA OBRYS
100
AcDbPolyline
 90
        4
 70
     0
 43
0.0
 10
220.478447825006
 20
-158.5864017127993
 42
-0.0186324019486548
 10
223.8468171971128
 20
-146.8912900945749
 42
-0.0582629403736403
 10
225.506317065194
 20
-143.3114558956392
 42
-0.0146402521923566
 10
227.2907250467781
 20
-140.5864017127993
  0
POLYLINE
  5
2093
330
1F
100
AcDbEntity
  8
STAVBA OBRYS
100
AcDb2dPolyline
 66
     1
 10
0.0
 20
0.0
 30
0.0
  0
VERTEX
  5
2094
330
2093
100
AcDbEntity
  8
STAVBA OBRYS
100
AcDbVertex
100
AcDb2dVertex
 10
247.0137645689667
 20
-158.5864017127993
 30
0.0
 42
-0.0502247168465557
  0
VERTEX
  5
2095
330
2093
100
AcDbEntity
  8
STAVBA OBRYS
100
AcDbVertex
100
AcDb2dVertex
 10
248.6128117451319
 20
-156.5789310400766
 30
0.0
 42
-0.0274923553235744
  0
VERTEX
  5
2096
330
2093
100
AcDbEntity
  8
STAVBA OBRYS
100
AcDbVertex
100
AcDb2dVertex
 10
251.2101174756846
 20
-154.1938557169384
 30
0.0
 42
-0.0255412025538677
  0
VERTEX
  5
2097
330
2093
100
AcDbEntity
  8
STAVBA OBRYS
100
AcDbVertex
100
AcDb2dVertex
 10
254.2615475133954
 20
-151.9371420399226
 30
0.0
 42
-0.0272796991712396
  0
VERTEX
  5
2098
330
2093
100
AcDbEntity
  8
STAVBA OBRYS
100
AcDbVertex
100
AcDb2dVertex
 10
258.3745466665807
 20
-149.5208061582568
 30
0.0
 42
-0.056967459841729
  0
VERTEX
  5
2099
330
2093
100
AcDbEntity
  8
STAVBA OBRYS
100
AcDbVertex
100
AcDb2dVertex
 10
260.5154939473125
 20
-148.7080703230573
 30
0.0
 42
-0.0373408083348504
  0
VERTEX
  5
209A
330
2093
100
AcDbEntity
  8
STAVBA OBRYS
100
AcDbVertex
100
AcDb2dVertex
 10
260.737848322786
 20
-148.6689047821097
 30
0.0
 42
-0.0052305969362967
  0
VERTEX
  5
209B
330
2093
100
AcDbEntity
  8
STAVBA OBRYS
100
AcDbVertex
100
AcDb2dVertex
 10
261.0838080965461
 20
-148.6379478152054
 30
0.0
  0
SEQEND
  5
209C
330
2093
100
AcDbEntity
  8
STAVBA OBRYS
  0
LWPOLYLINE
  5
209D
330
1F
100
AcDbEntity
  8
STAVBA OBRYS
100
AcDbPolyline
 90
        8
 70
     0
 43
0.0
 10
238.6617131816513
 20
-158.5864017127993
 42
-0.0217273703039143
 10
240.859383442161
 20
-153.5507113753216
 42
-0.0882970623535771
 10
242.496605362254
 20
-151.3103423245217
 42
-0.0171636441953577
 10
245.309969424112
 20
-148.7964249692765
 42
-0.0157521173632038
 10
248.5488242611484
 20
-146.2649289167699
 42
-0.0073640874174249
 10
253.1824736174696
 20
-142.9765274910338
 42
-0.0194185739168057
 10
255.0045169371462
 20
-141.8249584917527
 42
-0.0229547400386702
 10
257.3899750011607
 20
-140.5864017127993
  0
LWPOLYLINE
  5
209E
330
1F
100
AcDbEntity
  8
STAVBA OBRYS
100
AcDbPolyline
 90
        3
 70
     0
 43
0.0
 10
251.4122409457579
 20
-158.5864017127993
 10
237.6201930191184
 20
-151.6853301493126
 10
229.4530883699938
 20
-143.504028448219
  0
LWPOLYLINE
  5
209F
330
1F
100
AcDbEntity
  8
STAVBA OBRYS
100
AcDbPolyline
 90
        6
 70
     0
 43
0.0
 10
229.2889091738491
 20
-158.5864017127993
 42
-0.0121757200102759
 10
230.6588988875103
 20
-153.9144843803321
 42
-0.0457786284636091
 10
231.866921777126
 20
-151.0658739974557
 42
-0.0295006114745606
 10
234.2829822314254
 20
-147.1389747840536
 42
-0.0258674098621065
 10
237.5156575453895
 20
-142.9931947052998
 42
-0.0093759062953949
 10
239.6814697250468
 20
-140.5864017127993
  0
LINE
  5
20A0
330
1F
100
AcDbEntity
  8
STAVBA OBRYS
100
AcDbLine
 10
261.2347847551557
 20
-140.5864017128003
 30
0.0
 11
261.2347847551557
 21
-158.5864017127993
 31
0.0
  0
LWPOLYLINE
  5
20A1
330
1F
100
AcDbEntity
  8
STAVBA OBRYS
100
AcDbPolyline
 90
        3
 70
     0
 43
0.0
 10
271.0573285645534
 20
-158.5864017127993
 10
284.8493764911929
 20
-151.6853301493126
 10
293.0164811403176
 20
-143.504028448219
  0
LWPOLYLINE
  5
20A2
330
1F
100
AcDbEntity
  8
STAVBA OBRYS
100
AcDbPolyline
 90
        8
 70
     0
 43
0.0
 10
283.8078563286601
 20
-158.5864017127993
 42
0.0217273703039143
 10
281.6101860681503
 20
-153.5507113753216
 42
0.0882970623535771
 10
279.9729641480573
 20
-151.3103423245217
 42
0.0171636441953577
 10
277.1596000861993
 20
-148.7964249692765
 42
0.0157521173632038
 10
273.920745249163
 20
-146.2649289167699
 42
0.0073640874174249
 10
269.2870958928417
 20
-142.9765274910338
 42
0.0194185739168057
 10
267.4650525731651
 20
-141.8249584917527
 42
0.0229547400386702
 10
265.0795945091506
 20
-140.5864017127993
  0
POLYLINE
  5
20A3
330
1F
100
AcDbEntity
  8
STAVBA OBRYS
100
AcDb2dPolyline
 66
     1
 10
0.0
 20
0.0
 30
0.0
  0
VERTEX
  5
20A4
330
20A3
100
AcDbEntity
  8
STAVBA OBRYS
100
AcDbVertex
100
AcDb2dVertex
 10
275.4558049413446
 20
-158.5864017127993
 30
0.0
 42
0.0502247168465557
  0
VERTEX
  5
20A5
330
20A3
100
AcDbEntity
  8
STAVBA OBRYS
100
AcDbVertex
100
AcDb2dVertex
 10
273.8567577651795
 20
-156.5789310400766
 30
0.0
 42
0.0274923553235744
  0
VERTEX
  5
20A6
330
20A3
100
AcDbEntity
  8
STAVBA OBRYS
100
AcDbVertex
100
AcDb2dVertex
 10
271.2594520346267
 20
-154.1938557169384
 30
0.0
 42
0.0255412025538677
  0
VERTEX
  5
20A7
330
20A3
100
AcDbEntity
  8
STAVBA OBRYS
100
AcDbVertex
100
AcDb2dVertex
 10
268.2080219969159
 20
-151.9371420399226
 30
0.0
 42
0.0272796991712396
  0
VERTEX
  5
20A8
330
20A3
100
AcDbEntity
  8
STAVBA OBRYS
100
AcDbVertex
100
AcDb2dVertex
 10
264.0950228437306
 20
-149.5208061582568
 30
0.0
 42
0.056967459841729
  0
VERTEX
  5
20A9
330
20A3
100
AcDbEntity
  8
STAVBA OBRYS
100
AcDbVertex
100
AcDb2dVertex
 10
261.9540755629989
 20
-148.7080703230573
 30
0.0
 42
0.0373408083348504
  0
VERTEX
  5
20AA
330
20A3
100
AcDbEntity
  8
STAVBA OBRYS
100
AcDbVertex
100
AcDb2dVertex
 10
261.7317211875254
 20
-148.6689047821097
 30
0.0
 42
0.0052305969362967
  0
VERTEX
  5
20AB
330
20A3
100
AcDbEntity
  8
STAVBA OBRYS
100
AcDbVertex
100
AcDb2dVertex
 10
261.3857614137653
 20
-148.6379478152054
 30
0.0
  0
SEQEND
  5
20AC
330
20A3
100
AcDbEntity
  8
STAVBA OBRYS
  0
LINE
  5
20AD
330
1F
100
AcDbEntity
  8
izolace
  6
IZOLACE
 48
1.5
100
AcDbLine
 10
320.9538287212274
 20
5.413598287199704
 30
0.0
 11
92.90023736285025
 21
5.413598287199704
 31
0.0
  0
LINE
  5
20AE
330
1F
100
AcDbEntity
  8
izolace
100
AcDbLine
 10
320.9538287212274
 20
20.71119759602544
 30
0.0
 11
92.90023736285025
 21
20.71119759602544
 31
0.0
  0
LINE
  5
20AF
330
1F
100
AcDbEntity
  8
izolace
100
AcDbLine
 10
320.9538287212274
 20
-9.928264439003839
 30
0.0
 11
92.90023736285025
 21
-9.928264439003839
 31
0.0
  0
INSERT
  5
20B0
330
1F
100
AcDbEntity
  8
POPIS
100
AcDbBlockReference
  2
E_PUNKT
 10
84.73588674755069
 20
-8.724725822180232
 30
0.0
 50
270.0
  0
INSERT
  5
20B1
330
1F
100
AcDbEntity
  8
POPIS
100
AcDbBlockReference
  2
E_PUNKT
 10
81.9452824410348
 20
29.6171369040224
 30
0.0
 50
270.0
  0
LINE
  5
20B2
330
1F
100
AcDbEntity
  8
POPIS
100
AcDbLine
 10
180.4935377464483
 20
121.6585931236289
 30
0.0
 11
180.4935377464483
 21
102.1045629957564
 31
0.0
  0
LINE
  5
20B3
330
1F
100
AcDbEntity
  8
POPIS
100
AcDbLine
 10
84.76495507842287
 20
-8.752336197807096
 30
0.0
 11
180.4935377464483
 21
102.1045629957564
 31
0.0
  0
LINE
  5
20B4
330
1F
100
AcDbEntity
  8
POPIS
100
AcDbLine
 10
140.9500450061953
 20
121.6585931236289
 30
0.0
 11
140.9500450061953
 21
102.1045629957564
 31
0.0
  0
LINE
  5
20B5
330
1F
100
AcDbEntity
  8
POPIS
100
AcDbLine
 10
81.97435077190698
 20
29.58952652839553
 30
0.0
 11
140.9500450061953
 21
102.1045629957564
 31
0.0
  0
LINE
  5
20B6
330
1F
100
AcDbEntity
  8
POPIS
100
AcDbLine
 10
68.66571238192432
 20
52.4135982871997
 30
0.0
 11
98.49126154863576
 21
102.1530269125135
 31
0.0
  0
INSERT
  5
20B7
330
1F
100
AcDbEntity
  8
POPIS
100
AcDbBlockReference
  2
E_PUNKT
 10
68.63664405105215
 20
52.44120866282656
 30
0.0
 50
270.0
  0
LINE
  5
20B8
330
1F
100
AcDbEntity
  8
POPIS
100
AcDbLine
 10
98.49126154863483
 20
121.7070570403869
 30
0.0
 11
98.49126154863576
 21
102.1530269125135
 31
0.0
  0
LINE
  5
20B9
330
1F
100
AcDbEntity
  8
SPOJOVACÍ
  6
DASHED
100
AcDbLine
 10
71.0175688637903
 20
44.47204157903098
 30
0.0
 11
66.31385590005834
 21
43.296113338098
 31
0.0
  0
LINE
  5
20BA
330
1F
100
AcDbEntity
  8
SPOJOVACÍ
  6
DASHED
100
AcDbLine
 10
71.0175688637903
 20
41.42939377557951
 30
0.0
 11
66.31385590005834
 21
40.25346553464652
 31
0.0
  0
LINE
  5
20BB
330
1F
100
AcDbEntity
  8
SPOJOVACÍ
  6
DASHED
100
AcDbLine
 10
71.0175688637903
 20
38.37198034899694
 30
0.0
 11
66.31385590005834
 21
37.19605210779292
 31
0.0
  0
LINE
  5
20BC
330
1F
100
AcDbEntity
  8
SPOJOVACÍ
  6
DASHED
100
AcDbLine
 10
70.64747051598556
 20
23.46977718460249
 30
0.0
 11
66.68395424358482
 21
22.13705851133119
 31
0.0
  0
LINE
  5
20BD
330
1F
100
AcDbEntity
  8
SPOJOVACÍ
  6
DASHED
100
AcDbLine
 10
70.64747051598556
 20
22.88545935315079
 30
0.0
 11
66.68395424358482
 21
21.55274067987949
 31
0.0
  0
LINE
  5
20BE
330
1F
100
AcDbEntity
  8
SPOJOVACÍ
  6
DASHED
100
AcDbLine
 10
66.31385590005834
 20
21.9228390255451
 30
0.0
 11
66.68395424358482
 21
22.13705851133119
 31
0.0
  0
LINE
  5
20BF
330
1F
100
AcDbEntity
  8
SPOJOVACÍ
  6
DASHED
100
AcDbLine
 10
66.31385590005834
 20
21.9228390255451
 30
0.0
 11
66.68395424358482
 21
21.55274067987949
 31
0.0
  0
LINE
  5
20C0
330
1F
100
AcDbEntity
  8
SPOJOVACÍ
  6
DASHED
100
AcDbLine
 10
71.0175688637903
 20
23.09876726647809
 30
0.0
 11
70.64747051598556
 21
23.46977718460249
 31
0.0
  0
LINE
  5
20C1
330
1F
100
AcDbEntity
  8
SPOJOVACÍ
  6
DASHED
100
AcDbLine
 10
71.0175688637903
 20
23.09876726647809
 30
0.0
 11
70.64747051598556
 21
22.88545935315079
 31
0.0
  0
LINE
  5
20C2
330
1F
100
AcDbEntity
  8
SPOJOVACÍ
  6
DASHED
100
AcDbLine
 10
71.0175688637903
 20
23.09876726647809
 30
0.0
 11
66.31385590005834
 21
21.9228390255451
 31
0.0
  0
LINE
  5
20C3
330
1F
100
AcDbEntity
  8
SPOJOVACÍ
  6
DASHED
100
AcDbLine
 10
70.64747051598556
 20
26.52719061118506
 30
0.0
 11
66.68395424358482
 21
25.19447193791376
 31
0.0
  0
LINE
  5
20C4
330
1F
100
AcDbEntity
  8
SPOJOVACÍ
  6
DASHED
100
AcDbLine
 10
70.64747051598556
 20
25.94287277974064
 30
0.0
 11
66.68395424358482
 21
24.61015410673309
 31
0.0
  0
LINE
  5
20C5
330
1F
100
AcDbEntity
  8
SPOJOVACÍ
  6
DASHED
100
AcDbLine
 10
66.31385590005834
 20
24.98116402458646
 30
0.0
 11
66.68395424358482
 21
25.19447193791376
 31
0.0
  0
LINE
  5
20C6
330
1F
100
AcDbEntity
  8
SPOJOVACÍ
  6
DASHED
100
AcDbLine
 10
66.31385590005834
 20
24.98116402458646
 30
0.0
 11
66.68395424358482
 21
24.61015410673309
 31
0.0
  0
LINE
  5
20C7
330
1F
100
AcDbEntity
  8
SPOJOVACÍ
  6
DASHED
100
AcDbLine
 10
71.0175688637903
 20
26.15709226551945
 30
0.0
 11
70.64747051598556
 21
26.52719061118506
 31
0.0
  0
LINE
  5
20C8
330
1F
100
AcDbEntity
  8
SPOJOVACÍ
  6
DASHED
100
AcDbLine
 10
71.0175688637903
 20
26.15709226551945
 30
0.0
 11
70.64747051598556
 21
25.94287277974064
 31
0.0
  0
LINE
  5
20C9
330
1F
100
AcDbEntity
  8
SPOJOVACÍ
  6
DASHED
100
AcDbLine
 10
71.0175688637903
 20
26.15709226551945
 30
0.0
 11
66.31385590005834
 21
24.98116402458646
 31
0.0
  0
LINE
  5
20CA
330
1F
100
AcDbEntity
  8
SPOJOVACÍ
  6
DASHED
100
AcDbLine
 10
66.31385590005834
 20
28.0385774511763
 30
0.0
 11
66.68395424358482
 21
28.25188536476736
 31
0.0
  0
LINE
  5
20CB
330
1F
100
AcDbEntity
  8
SPOJOVACÍ
  6
DASHED
100
AcDbLine
 10
66.31385590005834
 20
28.0385774511763
 30
0.0
 11
66.68395424358482
 21
27.66756753332293
 31
0.0
  0
LINE
  5
20CC
330
1F
100
AcDbEntity
  8
SPOJOVACÍ
  6
DASHED
100
AcDbLine
 10
69.66206088101194
 20
14.17538621884551
 30
0.0
 11
67.55085948238434
 21
13.87092107738709
 31
0.0
  0
LINE
  5
20CD
330
1F
100
AcDbEntity
  8
SPOJOVACÍ
  6
DASHED
100
AcDbLine
 10
69.29196253748546
 20
14.54548456451112
 30
0.0
 11
67.92095782591082
 21
14.08422899097814
 31
0.0
  0
LINE
  5
20CE
330
1F
100
AcDbEntity
  8
SPOJOVACÍ
  6
DASHED
100
AcDbLine
 10
69.29196253748546
 20
13.9611667330667
 30
0.0
 11
67.92095782591082
 21
13.49991115953372
 31
0.0
  0
LINE
  5
20CF
330
1F
100
AcDbEntity
  8
SPOJOVACÍ
  6
DASHED
100
AcDbLine
 10
67.55085948238434
 20
13.87092107738709
 30
0.0
 11
67.92095782591082
 21
14.08422899097814
 31
0.0
  0
LINE
  5
20D0
330
1F
100
AcDbEntity
  8
SPOJOVACÍ
  6
DASHED
100
AcDbLine
 10
67.55085948238434
 20
13.87092107738709
 30
0.0
 11
67.92095782591082
 21
13.49991115953372
 31
0.0
  0
LINE
  5
20D1
330
1F
100
AcDbEntity
  8
SPOJOVACÍ
  6
DASHED
100
AcDbLine
 10
69.66206088101194
 20
14.17538621884551
 30
0.0
 11
69.29196253748546
 21
14.54548456451112
 31
0.0
  0
LINE
  5
20D2
330
1F
100
AcDbEntity
  8
SPOJOVACÍ
  6
DASHED
100
AcDbLine
 10
69.66206088101194
 20
14.17538621884551
 30
0.0
 11
69.29196253748546
 21
13.9611667330667
 31
0.0
  0
LINE
  5
20D3
330
1F
100
AcDbEntity
  8
SPOJOVACÍ
  6
DASHED
100
AcDbLine
 10
70.21538525727397
 20
17.12888040559874
 30
0.0
 11
67.16161811917141
 21
16.50809968316417
 31
0.0
  0
LINE
  5
20D4
330
1F
100
AcDbEntity
  8
SPOJOVACÍ
  6
DASHED
100
AcDbLine
 10
69.84528690946922
 20
17.49989032372315
 30
0.0
 11
67.53171646269788
 21
16.72140759649147
 31
0.0
  0
LINE
  5
20D5
330
1F
100
AcDbEntity
  8
SPOJOVACÍ
  6
DASHED
100
AcDbLine
 10
69.84528690946922
 20
16.91557249227145
 30
0.0
 11
67.53171646269788
 21
16.1370897653108
 31
0.0
  0
LINE
  5
20D6
330
1F
100
AcDbEntity
  8
SPOJOVACÍ
  6
DASHED
100
AcDbLine
 10
67.16161811917141
 20
16.50809968316417
 30
0.0
 11
67.53171646269788
 21
16.72140759649147
 31
0.0
  0
LINE
  5
20D7
330
1F
100
AcDbEntity
  8
SPOJOVACÍ
  6
DASHED
100
AcDbLine
 10
67.16161811917141
 20
16.50809968316417
 30
0.0
 11
67.53171646269788
 21
16.1370897653108
 31
0.0
  0
LINE
  5
20D8
330
1F
100
AcDbEntity
  8
SPOJOVACÍ
  6
DASHED
100
AcDbLine
 10
70.21538525727397
 20
17.12888040559874
 30
0.0
 11
69.84528690946922
 21
17.49989032372315
 31
0.0
  0
LINE
  5
20D9
330
1F
100
AcDbEntity
  8
SPOJOVACÍ
  6
DASHED
100
AcDbLine
 10
70.21538525727397
 20
17.12888040559874
 30
0.0
 11
69.84528690946922
 21
16.91557249227145
 31
0.0
  0
LINE
  5
20DA
330
1F
100
AcDbEntity
  8
SPOJOVACÍ
  6
DASHED
100
AcDbLine
 10
70.76870962925773
 20
20.08328616481077
 30
0.0
 11
66.72588656956964
 21
19.12978156015225
 31
0.0
  0
LINE
  5
20DB
330
1F
100
AcDbEntity
  8
SPOJOVACÍ
  6
DASHED
100
AcDbLine
 10
70.39769971193914
 20
20.45338451047638
 30
0.0
 11
67.09598491309612
 21
19.34308947347955
 31
0.0
  0
LINE
  5
20DC
330
1F
100
AcDbEntity
  8
SPOJOVACÍ
  6
DASHED
100
AcDbLine
 10
70.39769971193914
 20
19.86906667902468
 30
0.0
 11
67.09598491309612
 21
18.75877164202785
 31
0.0
  0
LINE
  5
20DD
330
1F
100
AcDbEntity
  8
SPOJOVACÍ
  6
DASHED
100
AcDbLine
 10
66.72588656956964
 20
19.12978156015225
 30
0.0
 11
67.09598491309612
 21
19.34308947347955
 31
0.0
  0
LINE
  5
20DE
330
1F
100
AcDbEntity
  8
SPOJOVACÍ
  6
DASHED
100
AcDbLine
 10
66.72588656956964
 20
19.12978156015225
 30
0.0
 11
67.09598491309612
 21
18.75877164202785
 31
0.0
  0
LINE
  5
20DF
330
1F
100
AcDbEntity
  8
SPOJOVACÍ
  6
DASHED
100
AcDbLine
 10
70.76870962925773
 20
20.08328616481077
 30
0.0
 11
70.39769971193914
 21
20.45338451047638
 31
0.0
  0
LINE
  5
20E0
330
1F
100
AcDbEntity
  8
SPOJOVACÍ
  6
DASHED
100
AcDbLine
 10
70.76870962925773
 20
20.08328616481077
 30
0.0
 11
70.39769971193914
 21
19.86906667902468
 31
0.0
  0
LINE
  5
20E1
330
1F
100
AcDbEntity
  8
SPOJOVACÍ
  6
DASHED
100
AcDbLine
 10
71.0175688637903
 20
35.32933254554547
 30
0.0
 11
66.31385590005834
 21
34.15340430461248
 31
0.0
  0
LINE
  5
20E2
330
1F
100
AcDbEntity
  8
SPOJOVACÍ
  6
DASHED
100
AcDbLine
 10
67.58367608328285
 20
19.5162882068019
 30
0.0
 11
67.34302100004447
 21
21.44790986786239
 31
0.0
  0
LINE
  5
20E3
330
1F
100
AcDbEntity
  8
SPOJOVACÍ
  6
DASHED
100
AcDbLine
 10
67.91548839599295
 20
16.86361287222126
 30
0.0
 11
67.65386714976216
 21
18.95749439901766
 31
0.0
  0
LINE
  5
20E4
330
1F
100
AcDbEntity
  8
SPOJOVACÍ
  6
DASHED
100
AcDbLine
 10
68.24821227393863
 20
14.20091024277672
 30
0.0
 11
67.98567945819399
 21
16.3029959200615
 31
0.0
  0
LINE
  5
20E5
330
1F
100
AcDbEntity
  8
SPOJOVACÍ
  6
DASHED
100
AcDbLine
 10
69.04401487674499
 20
13.89097566765696
 30
0.0
 11
68.66571238192432
 21
10.86364412620815
 31
0.0
  0
LINE
  5
20E6
330
1F
100
AcDbEntity
  8
SPOJOVACÍ
  6
DASHED
100
AcDbLine
 10
69.40408592567132
 20
16.77336721654165
 30
0.0
 11
69.11967537742043
 21
14.49899437839332
 31
0.0
  0
LINE
  5
20E7
330
1F
100
AcDbEntity
  8
SPOJOVACÍ
  6
DASHED
100
AcDbLine
 10
69.76598012218187
 20
19.66669763275632
 30
0.0
 11
69.48156956965272
 21
17.39141322241295
 31
0.0
  0
LINE
  5
20E8
330
1F
100
AcDbEntity
  8
SPOJOVACÍ
  6
DASHED
100
AcDbLine
 10
68.66571238192432
 20
10.86364412620815
 30
0.0
 11
68.31840334041794
 21
13.64302800745127
 31
0.0
  0
LINE
  5
20E9
330
1F
100
AcDbEntity
  8
SPOJOVACÍ
  6
DASHED
100
AcDbLine
 10
69.98840375952591
 20
21.44790986786239
 30
0.0
 11
69.84164062285731
 21
20.27471634349268
 31
0.0
  0
LINE
  5
20EA
330
1F
100
AcDbEntity
  8
SPOJOVACÍ
  6
DASHED
100
AcDbLine
 10
67.34302100004447
 20
21.77789903298827
 30
0.0
 11
67.34302100004447
 21
21.44790986786239
 31
0.0
  0
LINE
  5
20EB
330
1F
100
AcDbEntity
  8
SPOJOVACÍ
  6
DASHED
100
AcDbLine
 10
67.34302100004447
 20
24.8380471766689
 30
0.0
 11
67.34302100004447
 21
22.36950944274059
 31
0.0
  0
LINE
  5
20EC
330
1F
100
AcDbEntity
  8
SPOJOVACÍ
  6
DASHED
100
AcDbLine
 10
69.98840375952591
 20
22.67032829491319
 30
0.0
 11
69.98840375952591
 21
21.44790986786239
 31
0.0
  0
LINE
  5
20ED
330
1F
100
AcDbEntity
  8
SPOJOVACÍ
  6
DASHED
100
AcDbLine
 10
69.98840375952591
 20
25.72227228810544
 30
0.0
 11
69.98840375952591
 21
23.25464612636488
 31
0.0
  0
LINE
  5
20EE
330
1F
100
AcDbEntity
  8
SPOJOVACÍ
  6
DASHED
100
AcDbLine
 10
67.34302100004447
 20
27.89728374789802
 30
0.0
 11
67.34302100004447
 21
25.42692286932316
 31
0.0
  0
LINE
  5
20EF
330
1F
100
AcDbEntity
  8
SPOJOVACÍ
  6
DASHED
100
AcDbLine
 10
71.0175688637903
 20
29.2145056921093
 30
0.0
 11
66.31385590005834
 21
28.0385774511763
 31
0.0
  0
LINE
  5
20F0
330
1F
100
AcDbEntity
  8
SPOJOVACÍ
  6
DASHED
100
AcDbLine
 10
71.0175688637903
 20
32.27191911896289
 30
0.0
 11
66.31385590005834
 21
31.09599087775888
 31
0.0
  0
LINE
  5
20F1
330
1F
100
AcDbEntity
  8
SPOJOVACÍ
  6
DASHED
100
AcDbLine
 10
73.66386319278558
 20
51.23767004600296
 30
0.0
 11
63.66756157106306
 21
51.23767004600296
 31
0.0
  0
LINE
  5
20F2
330
1F
100
AcDbEntity
  8
SPOJOVACÍ
  6
DASHED
100
AcDbLine
 10
73.66386319278558
 20
52.4135982871997
 30
0.0
 11
63.66756157106306
 21
52.4135982871997
 31
0.0
  0
LINE
  5
20F3
330
1F
100
AcDbEntity
  8
SPOJOVACÍ
  6
DASHED
100
AcDbLine
 10
67.34302100004447
 20
30.95743189131491
 30
0.0
 11
67.34302100004447
 21
28.47977843470317
 31
0.0
  0
LINE
  5
20F4
330
1F
100
AcDbEntity
  8
SPOJOVACÍ
  6
DASHED
100
AcDbLine
 10
66.31385590005834
 20
31.09599087775888
 30
0.0
 11
66.68395424358482
 21
30.72589253236429
 31
0.0
  0
LINE
  5
20F5
330
1F
100
AcDbEntity
  8
SPOJOVACÍ
  6
DASHED
100
AcDbLine
 10
66.31385590005834
 20
31.09599087775888
 30
0.0
 11
66.68395424358482
 21
31.31021036354496
 31
0.0
  0
LINE
  5
20F6
330
1F
100
AcDbEntity
  8
SPOJOVACÍ
  6
DASHED
100
AcDbLine
 10
67.34302100004447
 20
34.01028745669492
 30
0.0
 11
67.34302100004447
 21
31.54174972276661
 31
0.0
  0
LINE
  5
20F7
330
1F
100
AcDbEntity
  8
SPOJOVACÍ
  6
DASHED
100
AcDbLine
 10
66.31385590005834
 20
34.15340430461248
 30
0.0
 11
66.68395424358482
 21
33.78330595894686
 31
0.0
  0
LINE
  5
20F8
330
1F
100
AcDbEntity
  8
SPOJOVACÍ
  6
DASHED
100
AcDbLine
 10
66.31385590005834
 20
34.15340430461248
 30
0.0
 11
66.68395424358482
 21
34.36762379039857
 31
0.0
  0
LINE
  5
20F9
330
1F
100
AcDbEntity
  8
SPOJOVACÍ
  6
DASHED
100
AcDbLine
 10
67.34302100004447
 20
37.05749312134895
 30
0.0
 11
67.34302100004447
 21
34.57983966473722
 31
0.0
  0
LINE
  5
20FA
330
1F
100
AcDbEntity
  8
SPOJOVACÍ
  6
DASHED
100
AcDbLine
 10
66.31385590005834
 20
37.19605210779292
 30
0.0
 11
66.68395424358482
 21
36.82595376239834
 31
0.0
  0
LINE
  5
20FB
330
1F
100
AcDbEntity
  8
SPOJOVACÍ
  6
DASHED
100
AcDbLine
 10
66.31385590005834
 20
37.19605210779292
 30
0.0
 11
66.68395424358482
 21
37.41027159357901
 31
0.0
  0
LINE
  5
20FC
330
1F
100
AcDbEntity
  8
SPOJOVACÍ
  6
DASHED
100
AcDbLine
 10
67.34302100004447
 20
40.11034868672896
 30
0.0
 11
67.34302100004447
 21
37.64181095280065
 31
0.0
  0
LINE
  5
20FD
330
1F
100
AcDbEntity
  8
SPOJOVACÍ
  6
DASHED
100
AcDbLine
 10
66.31385590005834
 20
40.25346553464652
 30
0.0
 11
66.68395424358482
 21
39.88336718898091
 31
0.0
  0
LINE
  5
20FE
330
1F
100
AcDbEntity
  8
SPOJOVACÍ
  6
DASHED
100
AcDbLine
 10
66.31385590005834
 20
40.25346553464652
 30
0.0
 11
66.68395424358482
 21
40.46768502043261
 31
0.0
  0
LINE
  5
20FF
330
1F
100
AcDbEntity
  8
SPOJOVACÍ
  6
DASHED
100
AcDbLine
 10
67.34302100004447
 20
43.15299649018044
 30
0.0
 11
67.34302100004447
 21
40.68445875625212
 31
0.0
  0
LINE
  5
2100
330
1F
100
AcDbEntity
  8
SPOJOVACÍ
  6
DASHED
100
AcDbLine
 10
66.31385590005834
 20
43.296113338098
 30
0.0
 11
66.68395424358482
 21
42.92601499243239
 31
0.0
  0
LINE
  5
2101
330
1F
100
AcDbEntity
  8
SPOJOVACÍ
  6
DASHED
100
AcDbLine
 10
66.31385590005834
 20
43.296113338098
 30
0.0
 11
66.68395424358482
 21
43.51033282388408
 31
0.0
  0
LINE
  5
2102
330
1F
100
AcDbEntity
  8
SPOJOVACÍ
  6
DASHED
100
AcDbLine
 10
67.34302100004447
 20
45.94599296153529
 30
0.0
 11
67.34302100004447
 21
43.73194174705377
 31
0.0
  0
LINE
  5
2103
330
1F
100
AcDbEntity
  8
SPOJOVACÍ
  6
DASHED
100
AcDbLine
 10
67.34302100004447
 20
45.94599296153347
 30
0.0
 11
67.1205973669787
 21
47.43914835589413
 31
0.0
  0
LINE
  5
2104
330
1F
100
AcDbEntity
  8
SPOJOVACÍ
  6
DASHED
100
AcDbLine
 10
67.1205973669787
 20
47.43914835589413
 30
0.0
 11
66.51987123481399
 21
48.82473822140338
 31
0.0
  0
LINE
  5
2105
330
1F
100
AcDbEntity
  8
SPOJOVACÍ
  6
DASHED
100
AcDbLine
 10
66.51987123481399
 20
48.82473822140338
 30
0.0
 11
65.5809517862292
 21
50.00795904064426
 31
0.0
  0
LINE
  5
2106
330
1F
100
AcDbEntity
  8
SPOJOVACÍ
  6
DASHED
100
AcDbLine
 10
65.5809517862292
 20
50.00795904064426
 30
0.0
 11
64.36856065350752
 21
50.90768088087708
 31
0.0
  0
LINE
  5
2107
330
1F
100
AcDbEntity
  8
SPOJOVACÍ
  6
DASHED
100
AcDbLine
 10
64.36856065350752
 20
50.90768088087708
 30
0.0
 11
63.66756157106306
 21
51.23767004600296
 31
0.0
  0
LINE
  5
2108
330
1F
100
AcDbEntity
  8
SPOJOVACÍ
  6
DASHED
100
AcDbLine
 10
63.66756157106306
 20
52.4135982871997
 30
0.0
 11
63.66756157106306
 21
51.23767004600296
 31
0.0
  0
LINE
  5
2109
330
1F
100
AcDbEntity
  8
SPOJOVACÍ
  6
DASHED
100
AcDbLine
 10
69.98840375952591
 20
44.04816046893967
 30
0.0
 11
69.98840375952591
 21
41.57962273501135
 31
0.0
  0
LINE
  5
210A
330
1F
100
AcDbEntity
  8
SPOJOVACÍ
  6
DASHED
100
AcDbLine
 10
70.64747051598556
 20
41.80040369343288
 30
0.0
 11
66.68395424358482
 21
40.46768502043261
 31
0.0
  0
LINE
  5
210B
330
1F
100
AcDbEntity
  8
SPOJOVACÍ
  6
DASHED
100
AcDbLine
 10
71.0175688637903
 20
41.42939377557951
 30
0.0
 11
70.64747051598556
 21
41.80040369343288
 31
0.0
  0
LINE
  5
210C
330
1F
100
AcDbEntity
  8
SPOJOVACÍ
  6
DASHED
100
AcDbLine
 10
71.0175688637903
 20
41.42939377557951
 30
0.0
 11
70.64747051598556
 21
41.21608586225221
 31
0.0
  0
LINE
  5
210D
330
1F
100
AcDbEntity
  8
SPOJOVACÍ
  6
DASHED
100
AcDbLine
 10
70.64747051598556
 20
41.21608586225221
 30
0.0
 11
66.68395424358482
 21
39.88336718898091
 31
0.0
  0
LINE
  5
210E
330
1F
100
AcDbEntity
  8
SPOJOVACÍ
  6
DASHED
100
AcDbLine
 10
69.98840375952591
 20
41.00551266548819
 30
0.0
 11
69.98840375952591
 21
38.53697493155988
 31
0.0
  0
LINE
  5
210F
330
1F
100
AcDbEntity
  8
SPOJOVACÍ
  6
DASHED
100
AcDbLine
 10
70.64747051598556
 20
38.74207869466255
 30
0.0
 11
66.68395424358482
 21
37.41027159357901
 31
0.0
  0
LINE
  5
2110
330
1F
100
AcDbEntity
  8
SPOJOVACÍ
  6
DASHED
100
AcDbLine
 10
71.0175688637903
 20
38.37198034899694
 30
0.0
 11
70.64747051598556
 21
38.74207869466255
 31
0.0
  0
LINE
  5
2111
330
1F
100
AcDbEntity
  8
SPOJOVACÍ
  6
DASHED
100
AcDbLine
 10
71.0175688637903
 20
38.37198034899694
 30
0.0
 11
70.64747051598556
 21
38.15776086321085
 31
0.0
  0
LINE
  5
2112
330
1F
100
AcDbEntity
  8
SPOJOVACÍ
  6
DASHED
100
AcDbLine
 10
70.64747051598556
 20
38.15776086321085
 30
0.0
 11
66.68395424358482
 21
36.82595376239834
 31
0.0
  0
LINE
  5
2113
330
1F
100
AcDbEntity
  8
SPOJOVACÍ
  6
DASHED
100
AcDbLine
 10
69.98840375952591
 20
37.94536452207131
 30
0.0
 11
69.98840375952591
 21
35.47500364349644
 31
0.0
  0
LINE
  5
2114
330
1F
100
AcDbEntity
  8
SPOJOVACÍ
  6
DASHED
100
AcDbLine
 10
70.64747051598556
 20
35.70034246339884
 30
0.0
 11
66.68395424358482
 21
34.36762379039857
 31
0.0
  0
LINE
  5
2115
330
1F
100
AcDbEntity
  8
SPOJOVACÍ
  6
DASHED
100
AcDbLine
 10
71.0175688637903
 20
35.32933254554547
 30
0.0
 11
70.64747051598556
 21
35.70034246339884
 31
0.0
  0
LINE
  5
2116
330
1F
100
AcDbEntity
  8
SPOJOVACÍ
  6
DASHED
100
AcDbLine
 10
71.0175688637903
 20
35.32933254554547
 30
0.0
 11
70.64747051598556
 21
35.11602463221817
 31
0.0
  0
LINE
  5
2117
330
1F
100
AcDbEntity
  8
SPOJOVACÍ
  6
DASHED
100
AcDbLine
 10
70.64747051598556
 20
35.11602463221817
 30
0.0
 11
66.68395424358482
 21
33.78330595894686
 31
0.0
  0
LINE
  5
2118
330
1F
100
AcDbEntity
  8
SPOJOVACÍ
  6
DASHED
100
AcDbLine
 10
69.98840375952591
 20
34.90545143545415
 30
0.0
 11
69.98840375952591
 21
32.43691370152584
 31
0.0
  0
LINE
  5
2119
330
1F
100
AcDbEntity
  8
SPOJOVACÍ
  6
DASHED
100
AcDbLine
 10
70.64747051598556
 20
32.6420174646285
 30
0.0
 11
66.68395424358482
 21
31.31021036354496
 31
0.0
  0
LINE
  5
211A
330
1F
100
AcDbEntity
  8
SPOJOVACÍ
  6
DASHED
100
AcDbLine
 10
71.0175688637903
 20
32.27191911896289
 30
0.0
 11
70.64747051598556
 21
32.6420174646285
 31
0.0
  0
LINE
  5
211B
330
1F
100
AcDbEntity
  8
SPOJOVACÍ
  6
DASHED
100
AcDbLine
 10
71.0175688637903
 20
32.27191911896289
 30
0.0
 11
70.64747051598556
 21
32.05769963317681
 31
0.0
  0
LINE
  5
211C
330
1F
100
AcDbEntity
  8
SPOJOVACÍ
  6
DASHED
100
AcDbLine
 10
70.64747051598556
 20
32.05769963317681
 30
0.0
 11
66.68395424358482
 21
30.72589253236429
 31
0.0
  0
LINE
  5
211D
330
1F
100
AcDbEntity
  8
SPOJOVACÍ
  6
DASHED
100
AcDbLine
 10
69.98840375952591
 20
31.84530329203727
 30
0.0
 11
69.98840375952591
 21
29.3749424134624
 31
0.0
  0
LINE
  5
211E
330
1F
100
AcDbEntity
  8
SPOJOVACÍ
  6
DASHED
100
AcDbLine
 10
70.64747051598556
 20
29.58460403777491
 30
0.0
 11
66.68395424358482
 21
28.25188536476736
 31
0.0
  0
LINE
  5
211F
330
1F
100
AcDbEntity
  8
SPOJOVACÍ
  6
DASHED
100
AcDbLine
 10
71.0175688637903
 20
29.2145056921093
 30
0.0
 11
70.64747051598556
 21
29.58460403777491
 31
0.0
  0
LINE
  5
2120
330
1F
100
AcDbEntity
  8
SPOJOVACÍ
  6
DASHED
100
AcDbLine
 10
71.0175688637903
 20
29.2145056921093
 30
0.0
 11
70.64747051598556
 21
29.00028620632321
 31
0.0
  0
LINE
  5
2121
330
1F
100
AcDbEntity
  8
SPOJOVACÍ
  6
DASHED
100
AcDbLine
 10
70.64747051598556
 20
29.00028620632321
 30
0.0
 11
66.68395424358482
 21
27.66756753332293
 31
0.0
  0
LINE
  5
2122
330
1F
100
AcDbEntity
  8
SPOJOVACÍ
  6
DASHED
100
AcDbLine
 10
69.98840375952591
 20
28.79244772665725
 30
0.0
 11
69.98840375952591
 21
26.31479427004552
 31
0.0
  0
LINE
  5
2123
330
1F
100
AcDbEntity
  8
SPOJOVACÍ
  6
DASHED
100
AcDbLine
 10
73.66386319278558
 20
52.4135982871997
 30
0.0
 11
73.66386319278558
 21
51.23767004600296
 31
0.0
  0
LINE
  5
2124
330
1F
100
AcDbEntity
  8
SPOJOVACÍ
  6
DASHED
100
AcDbLine
 10
73.66386319278558
 20
51.23767004600296
 30
0.0
 11
72.34117181090574
 21
50.50841222225819
 31
0.0
  0
LINE
  5
2125
330
1F
100
AcDbEntity
  8
SPOJOVACÍ
  6
DASHED
100
AcDbLine
 10
72.34117181090574
 20
50.50841222225819
 30
0.0
 11
71.25275450855429
 21
49.46101567263423
 31
0.0
  0
LINE
  5
2126
330
1F
100
AcDbEntity
  8
SPOJOVACÍ
  6
DASHED
100
AcDbLine
 10
71.25275450855429
 20
49.46101567263423
 30
0.0
 11
70.47244863882247
 21
48.16840617990266
 31
0.0
  0
LINE
  5
2127
330
1F
100
AcDbEntity
  8
SPOJOVACÍ
  6
DASHED
100
AcDbLine
 10
70.47244863882247
 20
48.16840617990266
 30
0.0
 11
70.05312539180909
 21
46.7171831101935
 31
0.0
  0
LINE
  5
2128
330
1F
100
AcDbEntity
  8
SPOJOVACÍ
  6
DASHED
100
AcDbLine
 10
70.05312539180909
 20
46.7171831101935
 30
0.0
 11
69.98840375952591
 21
45.94599296153347
 31
0.0
  0
LINE
  5
2129
330
1F
100
AcDbEntity
  8
SPOJOVACÍ
  6
DASHED
100
AcDbLine
 10
70.0207645756675
 20
46.33158803586349
 30
0.0
 11
69.98840375952591
 21
44.62144257371647
 31
0.0
  0
LINE
  5
212A
330
1F
100
AcDbEntity
  8
SPOJOVACÍ
  6
DASHED
100
AcDbLine
 10
70.64747051598556
 20
44.84305149688435
 30
0.0
 11
66.68395424358482
 21
43.51033282388408
 31
0.0
  0
LINE
  5
212B
330
1F
100
AcDbEntity
  8
SPOJOVACÍ
  6
DASHED
100
AcDbLine
 10
71.0175688637903
 20
44.47204157903098
 30
0.0
 11
70.64747051598556
 21
44.84305149688435
 31
0.0
  0
LINE
  5
212C
330
1F
100
AcDbEntity
  8
SPOJOVACÍ
  6
DASHED
100
AcDbLine
 10
71.0175688637903
 20
44.47204157903098
 30
0.0
 11
70.64747051598556
 21
44.25873366570368
 31
0.0
  0
LINE
  5
212D
330
1F
100
AcDbEntity
  8
SPOJOVACÍ
  6
DASHED
100
AcDbLine
 10
70.64747051598556
 20
44.25873366570368
 30
0.0
 11
66.68395424358482
 21
42.92601499243239
 31
0.0
  0
LWPOLYLINE
  5
212E
330
1F
100
AcDbEntity
  8
STAVBA OBRYS
100
AcDbPolyline
 90
        7
 70
     0
 43
0.0
 10
88.38546888316546
 20
25.4135982871997
 42
0.0203924744732807
 10
89.28755286757427
 20
24.40046825804557
 42
0.0273961979096945
 10
90.13741721776955
 20
23.61229188401949
 42
0.0243529190212958
 10
91.30053771018925
 20
22.73853253935186
 42
0.0398020282482987
 10
92.07549624774969
 20
22.29890379590534
 42
0.104168275620852
 10
92.46190738408973
 20
22.2088873357282
 42
0.007272956268647
 10
92.90023736284842
 20
22.19043398443346
 42
0.007272956268647
  0
LWPOLYLINE
  5
212F
330
1F
100
AcDbEntity
  8
STAVBA OBRYS
100
AcDbPolyline
 90
        3
 70
     0
 43
0.0
 10
86.19183990514489
 20
19.89626759168123
 10
69.43662228541711
 20
11.51252672371293
 10
61.26951763629245
 20
3.331225022615683
  0
POLYLINE
  5
2130
330
1F
100
AcDbEntity
  8
STAVBA OBRYS
100
AcDb2dPolyline
 66
     1
 10
0.0
 20
0.0
 30
0.0
  0
VERTEX
  5
2131
330
2130
100
AcDbEntity
  8
STAVBA OBRYS
100
AcDbVertex
100
AcDb2dVertex
 10
75.80773152790993
 20
25.41359828719788
 30
0.0
 42
0.0072417954699014
  0
VERTEX
  5
2132
330
2130
100
AcDbEntity
  8
STAVBA OBRYS
100
AcDbVertex
100
AcDb2dVertex
 10
75.86330189575369
 20
25.00219307592334
 30
0.0
 42
0.0707158694326265
  0
VERTEX
  5
2133
330
2130
100
AcDbEntity
  8
STAVBA OBRYS
100
AcDbVertex
100
AcDb2dVertex
 10
76.39442841217373
 20
23.06608962332967
 30
0.0
 42
0.033952657250207
  0
VERTEX
  5
2134
330
2130
100
AcDbEntity
  8
STAVBA OBRYS
100
AcDbVertex
100
AcDb2dVertex
 10
78.6430842515822
 20
18.71305189815603
 30
0.0
 42
0.0571374688189033
  0
VERTEX
  5
2135
330
2130
100
AcDbEntity
  8
STAVBA OBRYS
100
AcDbVertex
100
AcDb2dVertex
 10
80.42924101143421
 20
16.40612761446965
 30
0.0
 42
0.0274923553235744
  0
VERTEX
  5
2136
330
2130
100
AcDbEntity
  8
STAVBA OBRYS
100
AcDbVertex
100
AcDb2dVertex
 10
83.02654674198697
 20
14.02105229133513
 30
0.0
 42
0.0255412025538677
  0
VERTEX
  5
2137
330
2130
100
AcDbEntity
  8
STAVBA OBRYS
100
AcDbVertex
100
AcDb2dVertex
 10
86.07797677969779
 20
11.7643386143157
 30
0.0
 42
0.0272796991712396
  0
VERTEX
  5
2138
330
2130
100
AcDbEntity
  8
STAVBA OBRYS
100
AcDbVertex
100
AcDb2dVertex
 10
90.19097593288302
 20
9.348002732653469
 30
0.0
 42
0.056967459841729
  0
VERTEX
  5
2139
330
2130
100
AcDbEntity
  8
STAVBA OBRYS
100
AcDbVertex
100
AcDb2dVertex
 10
92.3319232136148
 20
8.53526689745405
 30
0.0
 42
0.0373408083348504
  0
VERTEX
  5
213A
330
2130
100
AcDbEntity
  8
STAVBA OBRYS
100
AcDbVertex
100
AcDb2dVertex
 10
92.55427758908831
 20
8.496101356502833
 30
0.0
 42
0.0052305969362967
  0
VERTEX
  5
213B
330
2130
100
AcDbEntity
  8
STAVBA OBRYS
100
AcDbVertex
100
AcDb2dVertex
 10
92.90023736284842
 20
8.465144389598492
 30
0.0
  0
SEQEND
  5
213C
330
2130
100
AcDbEntity
  8
STAVBA OBRYS
  0
LWPOLYLINE
  5
213D
330
1F
100
AcDbEntity
  8
STAVBA OBRYS
100
AcDbPolyline
 90
        8
 70
     0
 43
0.0
 10
59.99089428071442
 20
25.4135982871997
 42
0.0120721047703132
 10
60.05987697075238
 20
23.67971014845562
 42
0.044358077361292
 10
60.45550470542571
 20
20.98391013003884
 42
0.0188067511131767
 10
62.47532815380896
 20
13.74168095473243
 42
0.0457786284636091
 10
63.68335104342463
 20
10.89307057185243
 42
0.0295006114745606
 10
66.09941149772407
 20
6.966171358450367
 42
0.0258674098621065
 10
69.33208681168821
 20
2.82039127969648
 42
0.2409478365688615
 10
92.90023736284842
 20
-11.60415616527706
 42
0.0884720560394402
  0
LWPOLYLINE
  5
213E
330
1F
100
AcDbEntity
  8
STAVBA OBRYS
100
AcDbPolyline
 90
       10
 70
     0
 43
0.0
 10
68.85795350422473
 20
25.4135982871997
 42
0.0168162630274194
 10
68.99297908328867
 20
23.72256013508041
 42
0.0575155827655532
 10
69.67301136363153
 20
20.62293547436303
 42
0.0310289133982999
 10
72.67581270845972
 20
13.37790794971835
 42
0.0882970623535771
 10
74.31303462855272
 20
11.13753889891842
 42
0.0171636441953577
 10
77.12639869041073
 20
8.623621543673209
 42
0.0157521173632038
 10
80.36525352744707
 20
6.092125491166655
 42
0.0073640874174249
 10
84.99890288376832
 20
2.803724065430571
 42
0.0194185739168057
 10
86.82094620344491
 20
1.652155066149418
 42
0.0567960585128809
 10
92.90023736284842
 20
-0.9997091392266952
 42
0.0229547400386702
  0
POLYLINE
  5
213F
330
1F
100
AcDbEntity
  8
STAVBA OBRYS
100
AcDb2dPolyline
 66
     1
 10
0.0
 20
0.0
 30
0.0
  0
VERTEX
  5
2140
330
213F
100
AcDbEntity
  8
STAVBA OBRYS
100
AcDbVertex
100
AcDb2dVertex
 10
83.03578254864829
 20
25.41359828719788
 30
0.0
 42
0.0064239028828688
  0
VERTEX
  5
2141
330
213F
100
AcDbEntity
  8
STAVBA OBRYS
100
AcDbVertex
100
AcDb2dVertex
 10
83.07465098882881
 20
25.19448462784777
 30
0.0
 42
0.0832048017309575
  0
VERTEX
  5
2142
330
213F
100
AcDbEntity
  8
STAVBA OBRYS
100
AcDbVertex
100
AcDb2dVertex
 10
83.85883359151035
 20
22.86427104819296
 30
0.0
 42
0.0336767237692336
  0
VERTEX
  5
2143
330
213F
100
AcDbEntity
  8
STAVBA OBRYS
100
AcDbVertex
100
AcDb2dVertex
 10
85.56165015043211
 20
20.13599652873228
 30
0.0
 42
0.0844635135812105
  0
VERTEX
  5
2144
330
213F
100
AcDbEntity
  8
STAVBA OBRYS
100
AcDbVertex
100
AcDb2dVertex
 10
86.48145991032492
 20
19.23157492373712
 30
0.0
 42
0.0495829410719565
  0
VERTEX
  5
2145
330
213F
100
AcDbEntity
  8
STAVBA OBRYS
100
AcDbVertex
100
AcDb2dVertex
 10
88.23013834767904
 20
18.25492541642444
 30
0.0
 42
0.0322692699774654
  0
VERTEX
  5
2146
330
213F
100
AcDbEntity
  8
STAVBA OBRYS
100
AcDbVertex
100
AcDb2dVertex
 10
91.12149252876974
 20
17.21340191502378
 30
0.0
 42
0.0276160659512937
  0
VERTEX
  5
2147
330
213F
100
AcDbEntity
  8
STAVBA OBRYS
100
AcDbVertex
100
AcDb2dVertex
 10
91.977068967057
 20
17.01666648607925
 30
0.0
 42
0.0126891984598699
  0
VERTEX
  5
2148
330
213F
100
AcDbEntity
  8
STAVBA OBRYS
100
AcDbVertex
100
AcDb2dVertex
 10
92.90023736284842
 20
16.88146409653774
 30
0.0
  0
SEQEND
  5
2149
330
213F
100
AcDbEntity
  8
STAVBA OBRYS
  0
LWPOLYLINE
  5
214A
330
1F
100
AcDbEntity
  8
STAVBA OBRYS
100
AcDbPolyline
 90
        3
 70
     0
 43
0.0
 10
328.3770079395929
 20
25.4135982871997
 42
0.0146172580335466
 10
334.4654254202562
 20
-8.255642335393247
 42
0.0212216680259171
 10
336.0857539297942
 20
-14.58640171280029
 42
0.0212216680259171
  0
LINE
  5
214B
330
1F
100
AcDbEntity
  8
SPOJOVACÍ
  6
DASHED
100
AcDbLine
 10
350.3813494487042
 20
44.47204157903098
 30
0.0
 11
345.6776364849722
 21
43.296113338098
 31
0.0
  0
LINE
  5
214C
330
1F
100
AcDbEntity
  8
SPOJOVACÍ
  6
DASHED
100
AcDbLine
 10
350.3813494487042
 20
41.42939377557951
 30
0.0
 11
345.6776364849722
 21
40.25346553464652
 31
0.0
  0
LINE
  5
214D
330
1F
100
AcDbEntity
  8
SPOJOVACÍ
  6
DASHED
100
AcDbLine
 10
350.3813494487042
 20
38.37198034899694
 30
0.0
 11
345.6776364849722
 21
37.19605210779292
 31
0.0
  0
LINE
  5
214E
330
1F
100
AcDbEntity
  8
SPOJOVACÍ
  6
DASHED
100
AcDbLine
 10
350.0112511008994
 20
23.46977718460249
 30
0.0
 11
346.0477348284987
 21
22.13705851133119
 31
0.0
  0
LINE
  5
214F
330
1F
100
AcDbEntity
  8
SPOJOVACÍ
  6
DASHED
100
AcDbLine
 10
350.0112511008994
 20
22.88545935315079
 30
0.0
 11
346.0477348284987
 21
21.55274067987949
 31
0.0
  0
LINE
  5
2150
330
1F
100
AcDbEntity
  8
SPOJOVACÍ
  6
DASHED
100
AcDbLine
 10
345.6776364849722
 20
21.9228390255451
 30
0.0
 11
346.0477348284987
 21
22.13705851133119
 31
0.0
  0
LINE
  5
2151
330
1F
100
AcDbEntity
  8
SPOJOVACÍ
  6
DASHED
100
AcDbLine
 10
345.6776364849722
 20
21.9228390255451
 30
0.0
 11
346.0477348284987
 21
21.55274067987949
 31
0.0
  0
LINE
  5
2152
330
1F
100
AcDbEntity
  8
SPOJOVACÍ
  6
DASHED
100
AcDbLine
 10
350.3813494487042
 20
23.09876726647809
 30
0.0
 11
350.0112511008994
 21
23.46977718460249
 31
0.0
  0
LINE
  5
2153
330
1F
100
AcDbEntity
  8
SPOJOVACÍ
  6
DASHED
100
AcDbLine
 10
350.3813494487042
 20
23.09876726647809
 30
0.0
 11
350.0112511008994
 21
22.88545935315079
 31
0.0
  0
LINE
  5
2154
330
1F
100
AcDbEntity
  8
SPOJOVACÍ
  6
DASHED
100
AcDbLine
 10
350.3813494487042
 20
23.09876726647809
 30
0.0
 11
345.6776364849722
 21
21.9228390255451
 31
0.0
  0
LINE
  5
2155
330
1F
100
AcDbEntity
  8
SPOJOVACÍ
  6
DASHED
100
AcDbLine
 10
350.0112511008994
 20
26.52719061118506
 30
0.0
 11
346.0477348284987
 21
25.19447193791376
 31
0.0
  0
LINE
  5
2156
330
1F
100
AcDbEntity
  8
SPOJOVACÍ
  6
DASHED
100
AcDbLine
 10
350.0112511008994
 20
25.94287277974064
 30
0.0
 11
346.0477348284987
 21
24.61015410673309
 31
0.0
  0
LINE
  5
2157
330
1F
100
AcDbEntity
  8
SPOJOVACÍ
  6
DASHED
100
AcDbLine
 10
345.6776364849722
 20
24.98116402458646
 30
0.0
 11
346.0477348284987
 21
25.19447193791376
 31
0.0
  0
LINE
  5
2158
330
1F
100
AcDbEntity
  8
SPOJOVACÍ
  6
DASHED
100
AcDbLine
 10
345.6776364849722
 20
24.98116402458646
 30
0.0
 11
346.0477348284987
 21
24.61015410673309
 31
0.0
  0
LINE
  5
2159
330
1F
100
AcDbEntity
  8
SPOJOVACÍ
  6
DASHED
100
AcDbLine
 10
350.3813494487042
 20
26.15709226551945
 30
0.0
 11
350.0112511008994
 21
26.52719061118506
 31
0.0
  0
LINE
  5
215A
330
1F
100
AcDbEntity
  8
SPOJOVACÍ
  6
DASHED
100
AcDbLine
 10
350.3813494487042
 20
26.15709226551945
 30
0.0
 11
350.0112511008994
 21
25.94287277974064
 31
0.0
  0
LINE
  5
215B
330
1F
100
AcDbEntity
  8
SPOJOVACÍ
  6
DASHED
100
AcDbLine
 10
350.3813494487042
 20
26.15709226551945
 30
0.0
 11
345.6776364849722
 21
24.98116402458646
 31
0.0
  0
LINE
  5
215C
330
1F
100
AcDbEntity
  8
SPOJOVACÍ
  6
DASHED
100
AcDbLine
 10
345.6776364849722
 20
28.0385774511763
 30
0.0
 11
346.0477348284987
 21
28.25188536476736
 31
0.0
  0
LINE
  5
215D
330
1F
100
AcDbEntity
  8
SPOJOVACÍ
  6
DASHED
100
AcDbLine
 10
345.6776364849722
 20
28.0385774511763
 30
0.0
 11
346.0477348284987
 21
27.66756753332293
 31
0.0
  0
LINE
  5
215E
330
1F
100
AcDbEntity
  8
SPOJOVACÍ
  6
DASHED
100
AcDbLine
 10
349.0258414659258
 20
14.17538621884551
 30
0.0
 11
346.9146400672982
 21
13.87092107738709
 31
0.0
  0
LINE
  5
215F
330
1F
100
AcDbEntity
  8
SPOJOVACÍ
  6
DASHED
100
AcDbLine
 10
348.6557431223993
 20
14.54548456451112
 30
0.0
 11
347.2847384108247
 21
14.08422899097814
 31
0.0
  0
LINE
  5
2160
330
1F
100
AcDbEntity
  8
SPOJOVACÍ
  6
DASHED
100
AcDbLine
 10
348.6557431223993
 20
13.9611667330667
 30
0.0
 11
347.2847384108247
 21
13.49991115953372
 31
0.0
  0
LINE
  5
2161
330
1F
100
AcDbEntity
  8
SPOJOVACÍ
  6
DASHED
100
AcDbLine
 10
346.9146400672982
 20
13.87092107738709
 30
0.0
 11
347.2847384108247
 21
14.08422899097814
 31
0.0
  0
LINE
  5
2162
330
1F
100
AcDbEntity
  8
SPOJOVACÍ
  6
DASHED
100
AcDbLine
 10
346.9146400672982
 20
13.87092107738709
 30
0.0
 11
347.2847384108247
 21
13.49991115953372
 31
0.0
  0
LINE
  5
2163
330
1F
100
AcDbEntity
  8
SPOJOVACÍ
  6
DASHED
100
AcDbLine
 10
349.0258414659258
 20
14.17538621884551
 30
0.0
 11
348.6557431223993
 21
14.54548456451112
 31
0.0
  0
LINE
  5
2164
330
1F
100
AcDbEntity
  8
SPOJOVACÍ
  6
DASHED
100
AcDbLine
 10
349.0258414659258
 20
14.17538621884551
 30
0.0
 11
348.6557431223993
 21
13.9611667330667
 31
0.0
  0
LINE
  5
2165
330
1F
100
AcDbEntity
  8
SPOJOVACÍ
  6
DASHED
100
AcDbLine
 10
349.5791658421878
 20
17.12888040559874
 30
0.0
 11
346.5253987040853
 21
16.50809968316417
 31
0.0
  0
LINE
  5
2166
330
1F
100
AcDbEntity
  8
SPOJOVACÍ
  6
DASHED
100
AcDbLine
 10
349.2090674943831
 20
17.49989032372315
 30
0.0
 11
346.8954970476118
 21
16.72140759649147
 31
0.0
  0
LINE
  5
2167
330
1F
100
AcDbEntity
  8
SPOJOVACÍ
  6
DASHED
100
AcDbLine
 10
349.2090674943831
 20
16.91557249227145
 30
0.0
 11
346.8954970476118
 21
16.1370897653108
 31
0.0
  0
LINE
  5
2168
330
1F
100
AcDbEntity
  8
SPOJOVACÍ
  6
DASHED
100
AcDbLine
 10
346.5253987040853
 20
16.50809968316417
 30
0.0
 11
346.8954970476118
 21
16.72140759649147
 31
0.0
  0
LINE
  5
2169
330
1F
100
AcDbEntity
  8
SPOJOVACÍ
  6
DASHED
100
AcDbLine
 10
346.5253987040853
 20
16.50809968316417
 30
0.0
 11
346.8954970476118
 21
16.1370897653108
 31
0.0
  0
LINE
  5
216A
330
1F
100
AcDbEntity
  8
SPOJOVACÍ
  6
DASHED
100
AcDbLine
 10
349.5791658421878
 20
17.12888040559874
 30
0.0
 11
349.2090674943831
 21
17.49989032372315
 31
0.0
  0
LINE
  5
216B
330
1F
100
AcDbEntity
  8
SPOJOVACÍ
  6
DASHED
100
AcDbLine
 10
349.5791658421878
 20
17.12888040559874
 30
0.0
 11
349.2090674943831
 21
16.91557249227145
 31
0.0
  0
LINE
  5
216C
330
1F
100
AcDbEntity
  8
SPOJOVACÍ
  6
DASHED
100
AcDbLine
 10
350.1324902141716
 20
20.08328616481077
 30
0.0
 11
346.0896671544835
 21
19.12978156015225
 31
0.0
  0
LINE
  5
216D
330
1F
100
AcDbEntity
  8
SPOJOVACÍ
  6
DASHED
100
AcDbLine
 10
349.761480296853
 20
20.45338451047638
 30
0.0
 11
346.45976549801
 21
19.34308947347955
 31
0.0
  0
LINE
  5
216E
330
1F
100
AcDbEntity
  8
SPOJOVACÍ
  6
DASHED
100
AcDbLine
 10
349.761480296853
 20
19.86906667902468
 30
0.0
 11
346.45976549801
 21
18.75877164202785
 31
0.0
  0
LINE
  5
216F
330
1F
100
AcDbEntity
  8
SPOJOVACÍ
  6
DASHED
100
AcDbLine
 10
346.0896671544835
 20
19.12978156015225
 30
0.0
 11
346.45976549801
 21
19.34308947347955
 31
0.0
  0
LINE
  5
2170
330
1F
100
AcDbEntity
  8
SPOJOVACÍ
  6
DASHED
100
AcDbLine
 10
346.0896671544835
 20
19.12978156015225
 30
0.0
 11
346.45976549801
 21
18.75877164202785
 31
0.0
  0
LINE
  5
2171
330
1F
100
AcDbEntity
  8
SPOJOVACÍ
  6
DASHED
100
AcDbLine
 10
350.1324902141716
 20
20.08328616481077
 30
0.0
 11
349.761480296853
 21
20.45338451047638
 31
0.0
  0
LINE
  5
2172
330
1F
100
AcDbEntity
  8
SPOJOVACÍ
  6
DASHED
100
AcDbLine
 10
350.1324902141716
 20
20.08328616481077
 30
0.0
 11
349.761480296853
 21
19.86906667902468
 31
0.0
  0
LINE
  5
2173
330
1F
100
AcDbEntity
  8
SPOJOVACÍ
  6
DASHED
100
AcDbLine
 10
350.3813494487042
 20
35.32933254554547
 30
0.0
 11
345.6776364849722
 21
34.15340430461248
 31
0.0
  0
LINE
  5
2174
330
1F
100
AcDbEntity
  8
SPOJOVACÍ
  6
DASHED
100
AcDbLine
 10
346.9474566681967
 20
19.5162882068019
 30
0.0
 11
346.7068015849584
 21
21.44790986786239
 31
0.0
  0
LINE
  5
2175
330
1F
100
AcDbEntity
  8
SPOJOVACÍ
  6
DASHED
100
AcDbLine
 10
347.2792689809068
 20
16.86361287222126
 30
0.0
 11
347.017647734676
 21
18.95749439901766
 31
0.0
  0
LINE
  5
2176
330
1F
100
AcDbEntity
  8
SPOJOVACÍ
  6
DASHED
100
AcDbLine
 10
347.6119928588525
 20
14.20091024277672
 30
0.0
 11
347.3494600431079
 21
16.3029959200615
 31
0.0
  0
LINE
  5
2177
330
1F
100
AcDbEntity
  8
SPOJOVACÍ
  6
DASHED
100
AcDbLine
 10
348.4077954616588
 20
13.89097566765696
 30
0.0
 11
348.0294929668382
 21
10.86364412620815
 31
0.0
  0
LINE
  5
2178
330
1F
100
AcDbEntity
  8
SPOJOVACÍ
  6
DASHED
100
AcDbLine
 10
348.7678665105852
 20
16.77336721654165
 30
0.0
 11
348.4834559623343
 21
14.49899437839332
 31
0.0
  0
LINE
  5
2179
330
1F
100
AcDbEntity
  8
SPOJOVACÍ
  6
DASHED
100
AcDbLine
 10
349.1297607070957
 20
19.66669763275632
 30
0.0
 11
348.8453501545666
 21
17.39141322241295
 31
0.0
  0
LINE
  5
217A
330
1F
100
AcDbEntity
  8
SPOJOVACÍ
  6
DASHED
100
AcDbLine
 10
348.0294929668382
 20
10.86364412620815
 30
0.0
 11
347.6821839253318
 21
13.64302800745127
 31
0.0
  0
LINE
  5
217B
330
1F
100
AcDbEntity
  8
SPOJOVACÍ
  6
DASHED
100
AcDbLine
 10
349.3521843444398
 20
21.44790986786239
 30
0.0
 11
349.2054212077712
 21
20.27471634349268
 31
0.0
  0
LINE
  5
217C
330
1F
100
AcDbEntity
  8
SPOJOVACÍ
  6
DASHED
100
AcDbLine
 10
346.7068015849584
 20
21.77789903298827
 30
0.0
 11
346.7068015849584
 21
21.44790986786239
 31
0.0
  0
LINE
  5
217D
330
1F
100
AcDbEntity
  8
SPOJOVACÍ
  6
DASHED
100
AcDbLine
 10
346.7068015849584
 20
24.8380471766689
 30
0.0
 11
346.7068015849584
 21
22.36950944274059
 31
0.0
  0
LINE
  5
217E
330
1F
100
AcDbEntity
  8
SPOJOVACÍ
  6
DASHED
100
AcDbLine
 10
349.3521843444398
 20
22.67032829491319
 30
0.0
 11
349.3521843444398
 21
21.44790986786239
 31
0.0
  0
LINE
  5
217F
330
1F
100
AcDbEntity
  8
SPOJOVACÍ
  6
DASHED
100
AcDbLine
 10
349.3521843444398
 20
25.72227228810544
 30
0.0
 11
349.3521843444398
 21
23.25464612636488
 31
0.0
  0
LINE
  5
2180
330
1F
100
AcDbEntity
  8
SPOJOVACÍ
  6
DASHED
100
AcDbLine
 10
346.7068015849584
 20
27.89728374789802
 30
0.0
 11
346.7068015849584
 21
25.42692286932316
 31
0.0
  0
LINE
  5
2181
330
1F
100
AcDbEntity
  8
SPOJOVACÍ
  6
DASHED
100
AcDbLine
 10
350.3813494487042
 20
29.2145056921093
 30
0.0
 11
345.6776364849722
 21
28.0385774511763
 31
0.0
  0
LINE
  5
2182
330
1F
100
AcDbEntity
  8
SPOJOVACÍ
  6
DASHED
100
AcDbLine
 10
350.3813494487042
 20
32.27191911896289
 30
0.0
 11
345.6776364849722
 21
31.09599087775888
 31
0.0
  0
LINE
  5
2183
330
1F
100
AcDbEntity
  8
SPOJOVACÍ
  6
DASHED
100
AcDbLine
 10
349.3521843444398
 20
41.00551266548819
 30
0.0
 11
349.3521843444398
 21
38.53697493155988
 31
0.0
  0
LINE
  5
2184
330
1F
100
AcDbEntity
  8
SPOJOVACÍ
  6
DASHED
100
AcDbLine
 10
350.3813494487042
 20
38.37198034899694
 30
0.0
 11
350.0112511008994
 21
38.74207869466255
 31
0.0
  0
LINE
  5
2185
330
1F
100
AcDbEntity
  8
SPOJOVACÍ
  6
DASHED
100
AcDbLine
 10
350.3813494487042
 20
38.37198034899694
 30
0.0
 11
350.0112511008994
 21
38.15776086321085
 31
0.0
  0
LINE
  5
2186
330
1F
100
AcDbEntity
  8
SPOJOVACÍ
  6
DASHED
100
AcDbLine
 10
349.3521843444398
 20
37.94536452207131
 30
0.0
 11
349.3521843444398
 21
35.47500364349644
 31
0.0
  0
LINE
  5
2187
330
1F
100
AcDbEntity
  8
SPOJOVACÍ
  6
DASHED
100
AcDbLine
 10
350.3813494487042
 20
35.32933254554547
 30
0.0
 11
350.0112511008994
 21
35.70034246339884
 31
0.0
  0
LINE
  5
2188
330
1F
100
AcDbEntity
  8
SPOJOVACÍ
  6
DASHED
100
AcDbLine
 10
350.3813494487042
 20
35.32933254554547
 30
0.0
 11
350.0112511008994
 21
35.11602463221817
 31
0.0
  0
LINE
  5
2189
330
1F
100
AcDbEntity
  8
SPOJOVACÍ
  6
DASHED
100
AcDbLine
 10
349.3521843444398
 20
34.90545143545415
 30
0.0
 11
349.3521843444398
 21
32.43691370152584
 31
0.0
  0
LINE
  5
218A
330
1F
100
AcDbEntity
  8
SPOJOVACÍ
  6
DASHED
100
AcDbLine
 10
350.3813494487042
 20
32.27191911896289
 30
0.0
 11
350.0112511008994
 21
32.6420174646285
 31
0.0
  0
LINE
  5
218B
330
1F
100
AcDbEntity
  8
SPOJOVACÍ
  6
DASHED
100
AcDbLine
 10
350.3813494487042
 20
32.27191911896289
 30
0.0
 11
350.0112511008994
 21
32.05769963317681
 31
0.0
  0
LINE
  5
218C
330
1F
100
AcDbEntity
  8
SPOJOVACÍ
  6
DASHED
100
AcDbLine
 10
349.3521843444398
 20
31.84530329203727
 30
0.0
 11
349.3521843444398
 21
29.3749424134624
 31
0.0
  0
LINE
  5
218D
330
1F
100
AcDbEntity
  8
SPOJOVACÍ
  6
DASHED
100
AcDbLine
 10
350.3813494487042
 20
29.2145056921093
 30
0.0
 11
350.0112511008994
 21
29.58460403777491
 31
0.0
  0
LINE
  5
218E
330
1F
100
AcDbEntity
  8
SPOJOVACÍ
  6
DASHED
100
AcDbLine
 10
350.3813494487042
 20
29.2145056921093
 30
0.0
 11
350.0112511008994
 21
29.00028620632321
 31
0.0
  0
LINE
  5
218F
330
1F
100
AcDbEntity
  8
SPOJOVACÍ
  6
DASHED
100
AcDbLine
 10
350.0112511008994
 20
29.00028620632321
 30
0.0
 11
346.0477348284987
 21
27.66756753332293
 31
0.0
  0
LINE
  5
2190
330
1F
100
AcDbEntity
  8
SPOJOVACÍ
  6
DASHED
100
AcDbLine
 10
349.3521843444398
 20
28.79244772665725
 30
0.0
 11
349.3521843444398
 21
26.31479427004552
 31
0.0
  0
LINE
  5
2191
330
1F
100
AcDbEntity
  8
SPOJOVACÍ
  6
DASHED
100
AcDbLine
 10
351.7049523958196
 20
50.50841222225819
 30
0.0
 11
350.6165350934681
 21
49.46101567263423
 31
0.0
  0
LINE
  5
2192
330
1F
100
AcDbEntity
  8
SPOJOVACÍ
  6
DASHED
100
AcDbLine
 10
350.6165350934681
 20
49.46101567263423
 30
0.0
 11
349.8362292237363
 21
48.16840617990266
 31
0.0
  0
LINE
  5
2193
330
1F
100
AcDbEntity
  8
SPOJOVACÍ
  6
DASHED
100
AcDbLine
 10
349.8362292237363
 20
48.16840617990266
 30
0.0
 11
349.416905976723
 21
46.7171831101935
 31
0.0
  0
LINE
  5
2194
330
1F
100
AcDbEntity
  8
SPOJOVACÍ
  6
DASHED
100
AcDbLine
 10
349.416905976723
 20
46.7171831101935
 30
0.0
 11
349.3521843444398
 21
45.94599296153347
 31
0.0
  0
LINE
  5
2195
330
1F
100
AcDbEntity
  8
SPOJOVACÍ
  6
DASHED
100
AcDbLine
 10
349.3845451605814
 20
46.33158803586349
 30
0.0
 11
349.3521843444398
 21
44.62144257371647
 31
0.0
  0
LINE
  5
2196
330
1F
100
AcDbEntity
  8
SPOJOVACÍ
  6
DASHED
100
AcDbLine
 10
350.3813494487042
 20
44.47204157903098
 30
0.0
 11
350.0112511008994
 21
44.84305149688435
 31
0.0
  0
LINE
  5
2197
330
1F
100
AcDbEntity
  8
SPOJOVACÍ
  6
DASHED
100
AcDbLine
 10
350.3813494487042
 20
44.47204157903098
 30
0.0
 11
350.0112511008994
 21
44.25873366570368
 31
0.0
  0
LINE
  5
2198
330
1F
100
AcDbEntity
  8
SPOJOVACÍ
  6
DASHED
100
AcDbLine
 10
349.3521843444398
 20
44.04816046893967
 30
0.0
 11
349.3521843444398
 21
41.57962273501135
 31
0.0
  0
LINE
  5
2199
330
1F
100
AcDbEntity
  8
SPOJOVACÍ
  6
DASHED
100
AcDbLine
 10
350.3813494487042
 20
41.42939377557951
 30
0.0
 11
350.0112511008994
 21
41.80040369343288
 31
0.0
  0
LINE
  5
219A
330
1F
100
AcDbEntity
  8
SPOJOVACÍ
  6
DASHED
100
AcDbLine
 10
350.3813494487042
 20
41.42939377557951
 30
0.0
 11
350.0112511008994
 21
41.21608586225221
 31
0.0
  0
LINE
  5
219B
330
1F
100
AcDbEntity
  8
SPOJOVACÍ
  6
DASHED
100
AcDbLine
 10
350.0112511008994
 20
29.58460403777491
 30
0.0
 11
346.0477348284987
 21
28.25188536476736
 31
0.0
  0
LINE
  5
219C
330
1F
100
AcDbEntity
  8
SPOJOVACÍ
  6
DASHED
100
AcDbLine
 10
346.7068015849584
 20
30.95743189131491
 30
0.0
 11
346.7068015849584
 21
28.47977843470317
 31
0.0
  0
LINE
  5
219D
330
1F
100
AcDbEntity
  8
SPOJOVACÍ
  6
DASHED
100
AcDbLine
 10
350.0112511008994
 20
32.05769963317681
 30
0.0
 11
346.0477348284987
 21
30.72589253236429
 31
0.0
  0
LINE
  5
219E
330
1F
100
AcDbEntity
  8
SPOJOVACÍ
  6
DASHED
100
AcDbLine
 10
345.6776364849722
 20
31.09599087775888
 30
0.0
 11
346.0477348284987
 21
30.72589253236429
 31
0.0
  0
LINE
  5
219F
330
1F
100
AcDbEntity
  8
SPOJOVACÍ
  6
DASHED
100
AcDbLine
 10
345.6776364849722
 20
31.09599087775888
 30
0.0
 11
346.0477348284987
 21
31.31021036354496
 31
0.0
  0
LINE
  5
21A0
330
1F
100
AcDbEntity
  8
SPOJOVACÍ
  6
DASHED
100
AcDbLine
 10
350.0112511008994
 20
32.6420174646285
 30
0.0
 11
346.0477348284987
 21
31.31021036354496
 31
0.0
  0
LINE
  5
21A1
330
1F
100
AcDbEntity
  8
SPOJOVACÍ
  6
DASHED
100
AcDbLine
 10
346.7068015849584
 20
34.01028745669492
 30
0.0
 11
346.7068015849584
 21
31.54174972276661
 31
0.0
  0
LINE
  5
21A2
330
1F
100
AcDbEntity
  8
SPOJOVACÍ
  6
DASHED
100
AcDbLine
 10
350.0112511008994
 20
35.11602463221817
 30
0.0
 11
346.0477348284987
 21
33.78330595894686
 31
0.0
  0
LINE
  5
21A3
330
1F
100
AcDbEntity
  8
SPOJOVACÍ
  6
DASHED
100
AcDbLine
 10
345.6776364849722
 20
34.15340430461248
 30
0.0
 11
346.0477348284987
 21
33.78330595894686
 31
0.0
  0
LINE
  5
21A4
330
1F
100
AcDbEntity
  8
SPOJOVACÍ
  6
DASHED
100
AcDbLine
 10
345.6776364849722
 20
34.15340430461248
 30
0.0
 11
346.0477348284987
 21
34.36762379039857
 31
0.0
  0
LINE
  5
21A5
330
1F
100
AcDbEntity
  8
SPOJOVACÍ
  6
DASHED
100
AcDbLine
 10
350.0112511008994
 20
35.70034246339884
 30
0.0
 11
346.0477348284987
 21
34.36762379039857
 31
0.0
  0
LINE
  5
21A6
330
1F
100
AcDbEntity
  8
SPOJOVACÍ
  6
DASHED
100
AcDbLine
 10
346.7068015849584
 20
37.05749312134895
 30
0.0
 11
346.7068015849584
 21
34.57983966473722
 31
0.0
  0
LINE
  5
21A7
330
1F
100
AcDbEntity
  8
SPOJOVACÍ
  6
DASHED
100
AcDbLine
 10
350.0112511008994
 20
38.15776086321085
 30
0.0
 11
346.0477348284987
 21
36.82595376239834
 31
0.0
  0
LINE
  5
21A8
330
1F
100
AcDbEntity
  8
SPOJOVACÍ
  6
DASHED
100
AcDbLine
 10
345.6776364849722
 20
37.19605210779292
 30
0.0
 11
346.0477348284987
 21
36.82595376239834
 31
0.0
  0
LINE
  5
21A9
330
1F
100
AcDbEntity
  8
SPOJOVACÍ
  6
DASHED
100
AcDbLine
 10
345.6776364849722
 20
37.19605210779292
 30
0.0
 11
346.0477348284987
 21
37.41027159357901
 31
0.0
  0
LINE
  5
21AA
330
1F
100
AcDbEntity
  8
SPOJOVACÍ
  6
DASHED
100
AcDbLine
 10
350.0112511008994
 20
38.74207869466255
 30
0.0
 11
346.0477348284987
 21
37.41027159357901
 31
0.0
  0
LINE
  5
21AB
330
1F
100
AcDbEntity
  8
SPOJOVACÍ
  6
DASHED
100
AcDbLine
 10
346.7068015849584
 20
40.11034868672896
 30
0.0
 11
346.7068015849584
 21
37.64181095280065
 31
0.0
  0
LINE
  5
21AC
330
1F
100
AcDbEntity
  8
SPOJOVACÍ
  6
DASHED
100
AcDbLine
 10
350.0112511008994
 20
41.21608586225221
 30
0.0
 11
346.0477348284987
 21
39.88336718898091
 31
0.0
  0
LINE
  5
21AD
330
1F
100
AcDbEntity
  8
SPOJOVACÍ
  6
DASHED
100
AcDbLine
 10
345.6776364849722
 20
40.25346553464652
 30
0.0
 11
346.0477348284987
 21
39.88336718898091
 31
0.0
  0
LINE
  5
21AE
330
1F
100
AcDbEntity
  8
SPOJOVACÍ
  6
DASHED
100
AcDbLine
 10
345.6776364849722
 20
40.25346553464652
 30
0.0
 11
346.0477348284987
 21
40.46768502043261
 31
0.0
  0
LINE
  5
21AF
330
1F
100
AcDbEntity
  8
SPOJOVACÍ
  6
DASHED
100
AcDbLine
 10
350.0112511008994
 20
41.80040369343288
 30
0.0
 11
346.0477348284987
 21
40.46768502043261
 31
0.0
  0
LINE
  5
21B0
330
1F
100
AcDbEntity
  8
SPOJOVACÍ
  6
DASHED
100
AcDbLine
 10
346.7068015849584
 20
43.15299649018044
 30
0.0
 11
346.7068015849584
 21
40.68445875625212
 31
0.0
  0
LINE
  5
21B1
330
1F
100
AcDbEntity
  8
SPOJOVACÍ
  6
DASHED
100
AcDbLine
 10
350.0112511008994
 20
44.25873366570368
 30
0.0
 11
346.0477348284987
 21
42.92601499243239
 31
0.0
  0
LINE
  5
21B2
330
1F
100
AcDbEntity
  8
SPOJOVACÍ
  6
DASHED
100
AcDbLine
 10
345.6776364849722
 20
43.296113338098
 30
0.0
 11
346.0477348284987
 21
42.92601499243239
 31
0.0
  0
LINE
  5
21B3
330
1F
100
AcDbEntity
  8
SPOJOVACÍ
  6
DASHED
100
AcDbLine
 10
345.6776364849722
 20
43.296113338098
 30
0.0
 11
346.0477348284987
 21
43.51033282388408
 31
0.0
  0
LINE
  5
21B4
330
1F
100
AcDbEntity
  8
SPOJOVACÍ
  6
DASHED
100
AcDbLine
 10
350.0112511008994
 20
44.84305149688435
 30
0.0
 11
346.0477348284987
 21
43.51033282388408
 31
0.0
  0
LINE
  5
21B5
330
1F
100
AcDbEntity
  8
SPOJOVACÍ
  6
DASHED
100
AcDbLine
 10
346.7068015849584
 20
45.94599296153529
 30
0.0
 11
346.7068015849584
 21
43.73194174705377
 31
0.0
  0
LINE
  5
21B6
330
1F
100
AcDbEntity
  8
SPOJOVACÍ
  6
DASHED
100
AcDbLine
 10
346.7068015849584
 20
45.94599296153347
 30
0.0
 11
346.4843779518925
 21
47.43914835589413
 31
0.0
  0
LINE
  5
21B7
330
1F
100
AcDbEntity
  8
SPOJOVACÍ
  6
DASHED
100
AcDbLine
 10
346.4843779518925
 20
47.43914835589413
 30
0.0
 11
345.8836518197279
 21
48.82473822140338
 31
0.0
  0
LINE
  5
21B8
330
1F
100
AcDbEntity
  8
SPOJOVACÍ
  6
DASHED
100
AcDbLine
 10
345.8836518197279
 20
48.82473822140338
 30
0.0
 11
344.9447323711431
 21
50.00795904064426
 31
0.0
  0
LINE
  5
21B9
330
1F
100
AcDbEntity
  8
SPOJOVACÍ
  6
DASHED
100
AcDbLine
 10
344.9447323711431
 20
50.00795904064426
 30
0.0
 11
343.7323412384214
 21
50.90768088087708
 31
0.0
  0
LINE
  5
21BA
330
1F
100
AcDbEntity
  8
SPOJOVACÍ
  6
DASHED
100
AcDbLine
 10
343.7323412384214
 20
50.90768088087708
 30
0.0
 11
343.0313421559769
 21
51.23767004600296
 31
0.0
  0
LINE
  5
21BB
330
1F
100
AcDbEntity
  8
SPOJOVACÍ
  6
DASHED
100
AcDbLine
 10
343.0313421559769
 20
52.4135982871997
 30
0.0
 11
343.0313421559769
 21
51.23767004600296
 31
0.0
  0
LWPOLYLINE
  5
21BC
330
1F
100
AcDbEntity
  8
STAVBA OBRYS
100
AcDbPolyline
 90
        3
 70
     0
 43
0.0
 10
342.896053178438
 20
8.075181129448822
 10
322.8998007464454
 20
-1.140847921071042
 10
320.9538287212274
 20
-1.454834174651011
  0
LWPOLYLINE
  5
21BD
330
1F
100
AcDbEntity
  8
STAVBA OBRYS
100
AcDbPolyline
 90
        2
 70
     0
 43
0.0
 10
359.6356291126451
 20
-159.0872321435478
 10
370.9766645380534
 20
-153.860287129775
  0
LWPOLYLINE
  5
21BE
330
1F
100
AcDbEntity
  8
STAVBA OBRYS
100
AcDbPolyline
 90
        4
 70
     0
 43
0.0
 10
364.2427476934556
 20
-158.5864017127993
 42
0.0334776267545482
 10
363.8054698987491
 20
-154.5394267840626
 42
0.0091133963862869
 10
361.3278655738306
 20
-141.8476969986028
 42
0.007828075361276
 10
361.0369664386728
 20
-140.5864017127993
  0
LWPOLYLINE
  5
21BF
330
1F
100
AcDbEntity
  8
STAVBA OBRYS
100
AcDbPolyline
 90
        3
 70
     0
 43
0.0
 10
379.070675957859
 20
11.59452658197943
 10
374.9566012062844
 20
9.698399667424666
 10
370.9566635725698
 20
9.053002192082487
  0
LWPOLYLINE
  5
21C0
330
1F
100
AcDbEntity
  8
STAVBA OBRYS
100
AcDbPolyline
 90
        4
 70
     0
 43
0.0
 10
369.230540655046
 20
25.4135982871997
 42
0.0135911980674876
 10
372.9496720122718
 20
5.084905104733763
 42
0.0219777111230329
 10
373.8557845142552
 20
1.566791848898276
 42
0.0279968300048242
 10
378.194206797508
 20
-4.872986344396565
 42
0.0279968300048242
  0
LWPOLYLINE
  5
21C1
330
1F
100
AcDbEntity
  8
STAVBA OBRYS
100
AcDbPolyline
 90
        6
 70
     0
 43
0.0
 10
358.8476098371486
 20
25.33684876427315
 42
0.0128837512779301
 10
359.2747977774872
 20
20.33710153165367
 42
0.0351641677647434
 10
360.2164373597718
 20
14.93153735014522
 42
0.0187319685742942
 10
365.2924611812579
 20
-2.70581866306901
 42
0.0582629403736403
 10
367.7817109833797
 20
-8.075569961467124
 42
0.0236084222362755
 10
372.2138968893689
 20
-14.58640171280029
 42
0.0236084222362755
  0
LWPOLYLINE
  5
21C2
330
1F
100
AcDbEntity
  8
STAVBA OBRYS
100
AcDbPolyline
 90
        3
 70
     0
 43
0.0
 10
373.7396817293504
 20
-5.589371761924383
 10
356.9844641096226
 20
-13.97311262989268
 10
356.3722392701941
 20
-14.58640171280029
  0
LWPOLYLINE
  5
21C3
330
1F
100
AcDbEntity
  8
STAVBA OBRYS
100
AcDbPolyline
 90
        2
 70
     0
 43
0.0
 10
379.4202702590503
 20
25.4135982871997
 42
0.0110480995635617
 10
379.6540022197034
 20
22.55433348878188
 42
0.0110480995635617
  0
LINE
  5
21C4
330
1F
100
AcDbEntity
  8
SPOJOVACÍ
  6
DASHED
100
AcDbLine
 10
353.0276437776994
 20
52.4135982871997
 30
0.0
 11
353.0276437776994
 21
51.23767004600296
 31
0.0
  0
TEXT
  5
21C5
330
1F
100
AcDbEntity
  8
POPIS
100
AcDbText
 10
468.2966884556756
 20
102.1189360791016
 30
0.0
 40
25.0
  1
03
 41
0.85
  7
SIMPLEX7
100
AcDbText
  0
TEXT
  5
21C6
330
1F
100
AcDbEntity
  8
POPIS
100
AcDbText
 10
468.2966884556756
 20
-7.764321792275666
 30
0.0
 40
25.0
  1
06
 41
0.85
  7
SIMPLEX7
100
AcDbText
  0
TEXT
  5
21C7
330
1F
100
AcDbEntity
  8
POPIS
100
AcDbText
 10
468.2966884556756
 20
27.63983942588703
 30
0.0
 40
25.0
  1
05
 41
0.85
  7
SIMPLEX7
100
AcDbText
  0
TEXT
  5
21C8
330
1F
100
AcDbEntity
  8
POPIS
100
AcDbText
 10
468.2966884556756
 20
-114.010774235756
 30
0.0
 40
25.0
  1
09
 41
0.85
  7
SIMPLEX7
100
AcDbText
  0
TEXT
  5
21C9
330
1F
100
AcDbEntity
  8
POPIS
100
AcDbText
 10
468.2966884556756
 20
-78.48513333445424
 30
0.0
 40
25.0
  1
08
 41
0.85
  7
SIMPLEX7
100
AcDbText
  0
TEXT
  5
21CA
330
1F
100
AcDbEntity
  8
POPIS
100
AcDbText
 10
468.2966884556756
 20
-41.64959333156156
 30
0.0
 40
25.0
  1
07
 41
0.85
  7
SIMPLEX7
100
AcDbText
  0
TEXT
  5
21CB
330
1F
100
AcDbEntity
  8
POPIS
100
AcDbText
 10
468.2966884556756
 20
65.52392446347432
 30
0.0
 40
25.0
  1
04
 41
0.85
  7
SIMPLEX7
100
AcDbText
  0
TEXT
  5
21CC
330
1F
100
AcDbEntity
  8
POPIS
100
AcDbText
 10
-267.6834490674043
 20
260.5306832666104
 30
0.0
 40
50.0
  1
Řešení dilatace
 41
0.85
  7
SIMPLEX7
100
AcDbText
  0
TEXT
  5
21CD
330
1F
100
AcDbEntity
  8
POPIS
100
AcDbText
 10
-267.6834490674043
 20
205.9059402408095
 30
0.0
 40
35.0
  1
SVISLÝ ŘEZ
 41
0.85
  7
SIMPLEX7
100
AcDbText
  0
TEXT
  5
21CE
330
1F
100
AcDbEntity
  8
POPIS
100
AcDbText
 10
468.2966884556756
 20
206.488858951878
 30
0.0
 40
25.0
  1
01
 41
0.85
  7
SIMPLEX7
100
AcDbText
  0
TEXT
  5
21CF
330
1F
100
AcDbEntity
  8
POPIS
100
AcDbText
 10
809.9171481992927
 20
89.12333881783371
 30
0.0
 40
8.399999999999998
  1
R
 41
0.85
  7
SIMPLEX7
100
AcDbText
  0
CIRCLE
  5
21D0
330
1F
100
AcDbEntity
  8
POPIS
100
AcDbCircle
 10
813.2484685379207
 20
93.00508083932646
 30
0.0
 40
7.795592338044182
  0
HATCH
  5
21D7
330
1F
100
AcDbEntity
  8
izolace
100
AcDbHatch
 10
0.0
 20
0.0
 30
0.0
210
0.0
220
0.0
230
1.0
  2
SOLID
 70
     1
 71
     0
 91
       10
 92
        7
 72
     0
 73
     1
 93
        4
 10
42.90023736285007
 20
-14.58640171280104
 10
46.82465837026945
 20
-14.58640171280104
 10
46.82465837026945
 20
-17.58640171280013
 10
42.90023736285007
 20
-17.58640171280013
 97
        0
 92
        7
 72
     0
 73
     1
 93
        9
 10
59.26660327203904
 20
-14.58640171280104
 10
64.66346252942281
 20
-14.58640171280104
 10
64.35577553973423
 20
-14.68978963645578
 10
63.98567719621047
 20
-14.90400912224096
 10
64.35577553973786
 20
-15.27410746763463
 10
65.01484229619752
 20
-15.0526501237414
 10
65.01484229619752
 20
-17.52650571206278
 10
64.8367110983782
 20
-17.58640171280013
 10
59.26660327203996
 20
-17.58640171280013
 97
        0
 92
        7
 72
     0
 73
     1
 93
        9
 10
67.66022505567895
 20
-14.58640171280104
 10
73.08252108584389
 20
-14.58640171280104
 10
73.08252108584389
 20
-17.58640171280013
 10
67.66022505567895
 20
-17.58640171280013
 10
67.66022505567895
 20
-17.22132271684633
 10
68.31929181213405
 20
-16.99971379367754
 10
68.68939015994334
 20
-16.78549430788963
 10
68.3192918121386
 20
-16.41539596222402
 10
67.66022505567895
 20
-16.63700488539372
 97
        0
 92
        7
 72
     0
 73
     1
 93
        5
 10
65.01484229619752
 20
-15.05265012374231
 10
66.40241799137317
 20
-14.58640171280104
 10
67.66022505567804
 20
-14.58640171280104
 10
67.66022505567804
 20
-16.63700488539463
 10
65.01484229619752
 20
-17.52650571206369
 97
        0
 92
        7
 72
     0
 73
     1
 93
        4
 10
65.25610683367819
 20
-14.58640171280104
 10
66.40241799137135
 20
-14.58640171280014
 10
64.35577553973786
 20
-15.27410746763645
 10
63.98567719621138
 20
-14.90400912224096
 97
        0
 92
       23
 72
     0
 73
     1
 93
        4
 10
64.66346252942009
 20
-14.58640171280104
 10
65.25610683368364
 20
-14.58640171280104
 10
63.98567719621138
 20
-14.90400912224278
 10
64.35577553973968
 20
-14.68978963645396
 97
        0
 92
        7
 72
     0
 73
     1
 93
        4
 10
68.31929181213769
 20
-16.41539596222584
 10
68.68939015994243
 20
-16.78549430789054
 10
65.48576054030587
 20
-17.58640171280013
 10
64.83671109838093
 20
-17.58640171280013
 97
        0
 92
        7
 72
     0
 73
     1
 93
        4
 10
68.68939015994698
 20
-16.78549430788872
 10
68.31929181213496
 20
-16.99971379367663
 10
66.5744771251521
 20
-17.58640171280013
 10
65.48576054030497
 20
-17.58640171280013
 97
        0
 92
       23
 72
     0
 73
     1
 93
        3
 10
67.66022505567895
 20
-17.22132271684542
 10
67.66022505567895
 20
-17.58640171280013
 10
66.57447712515846
 20
-17.58640171280013
 97
        0
 92
        7
 72
     0
 73
     1
 93
        4
 10
86.56871258067537
 20
-14.58640171280104
 10
92.90023736285007
 20
-14.58640171280104
 10
92.90023736285007
 20
-17.58640171280013
 10
86.56871258067445
 20
-17.58640171279923
 97
        0
 75
     0
 76
     1
 47
0.0980096762587744
 98
       10
 10
45.1914853508843
 20
-15.46795512566633
 10
60.99428311374328
 20
-16.2200080146281
 10
70.12025032320713
 20
-16.18340515498086
 10
66.57632942344031
 20
-16.23874559218485
 10
65.20878342832481
 20
-14.88381911345597
 10
64.64740497627104
 20
-14.66777501198841
 10
66.95673495510169
 20
-17.06725853351919
 10
66.71848603064979
 20
-17.37865123912662
 10
67.37827841751101
 20
-17.41528764860005
 10
90.42387179612893
 20
-16.34436044293717
  0
HATCH
  5
21D8
330
1F
100
AcDbEntity
  8
izolace
100
AcDbHatch
 10
0.0
 20
0.0
 30
0.0
210
0.0
220
0.0
230
1.0
  2
SOLID
 70
     1
 71
     0
 91
       10
 92
        7
 72
     0
 73
     1
 93
        4
 10
27.90023736285007
 20
-14.58640171280104
 10
23.9758163554307
 20
-14.58640171280104
 10
23.9758163554307
 20
-17.58640171280013
 10
27.90023736285007
 20
-17.58640171280013
 97
        0
 92
        7
 72
     0
 73
     1
 93
        9
 10
11.5338714536611
 20
-14.58640171280104
 10
6.137012196277339
 20
-14.58640171280104
 10
6.44469918596593
 20
-14.68978963645578
 10
6.81479752948968
 20
-14.90400912224096
 10
6.444699185962292
 20
-15.27410746763463
 10
5.785632429502641
 20
-15.0526501237414
 10
5.785632429502641
 20
-17.52650571206278
 10
5.963763627321952
 20
-17.58640171280013
 10
11.53387145366019
 20
-17.58640171280013
 97
        0
 92
        7
 72
     0
 73
     1
 93
        9
 10
3.140249670021205
 20
-14.58640171280104
 10
-2.282046360143738
 20
-14.58640171280104
 10
-2.282046360143738
 20
-17.58640171280013
 10
3.140249670021205
 20
-17.58640171280013
 10
3.140249670021205
 20
-17.22132271684633
 10
2.481182913566101
 20
-16.99971379367754
 10
2.111084565756812
 20
-16.78549430788963
 10
2.481182913561553
 20
-16.41539596222402
 10
3.140249670021205
 20
-16.63700488539372
 97
        0
 92
        7
 72
     0
 73
     1
 93
        5
 10
5.785632429502641
 20
-15.05265012374231
 10
4.398056734326985
 20
-14.58640171280104
 10
3.140249670022114
 20
-14.58640171280104
 10
3.140249670022114
 20
-16.63700488539463
 10
5.785632429502641
 20
-17.52650571206369
 97
        0
 92
        7
 72
     0
 73
     1
 93
        4
 10
5.544367892021966
 20
-14.58640171280104
 10
4.398056734328804
 20
-14.58640171280014
 10
6.444699185962292
 20
-15.27410746763645
 10
6.814797529488771
 20
-14.90400912224096
 97
        0
 92
       23
 72
     0
 73
     1
 93
        4
 10
6.137012196280068
 20
-14.58640171280104
 10
5.544367892016509
 20
-14.58640171280104
 10
6.814797529488771
 20
-14.90400912224278
 10
6.444699185960473
 20
-14.68978963645396
 97
        0
 92
        7
 72
     0
 73
     1
 93
        4
 10
2.481182913562463
 20
-16.41539596222584
 10
2.111084565757721
 20
-16.78549430789054
 10
5.314714185394279
 20
-17.58640171280013
 10
5.963763627319224
 20
-17.58640171280013
 97
        0
 92
        7
 72
     0
 73
     1
 93
        4
 10
2.111084565753174
 20
-16.78549430788872
 10
2.481182913565191
 20
-16.99971379367663
 10
4.225997600548055
 20
-17.58640171280013
 10
5.314714185395189
 20
-17.58640171280013
 97
        0
 92
       23
 72
     0
 73
     1
 93
        3
 10
3.140249670021205
 20
-17.22132271684542
 10
3.140249670021205
 20
-17.58640171280013
 10
4.225997600541688
 20
-17.58640171280013
 97
        0
 92
        7
 72
     0
 73
     1
 93
        4
 10
-15.76823785497521
 20
-14.58640171280104
 10
-22.09976263714992
 20
-14.58640171280104
 10
-22.09976263714992
 20
-17.58640171280013
 10
-15.7682378549743
 20
-17.58640171279923
 97
        0
 75
     0
 76
     1
 47
0.0980096762587744
 98
       10
 10
25.60898937481585
 20
-15.46795512566633
 10
9.806191611956876
 20
-16.2200080146281
 10
0.6802244024930247
 20
-16.18340515498086
 10
4.224145302259842
 20
-16.23874559218485
 10
5.591691297375348
 20
-14.88381911345597
 10
6.153069749429107
 20
-14.66777501198841
 10
3.84373977059846
 20
-17.06725853351919
 10
4.08198869505037
 20
-17.37865123912662
 10
3.422196308189143
 20
-17.41528764860005
 10
-19.62339707042877
 20
-16.34436044293717
  0
HATCH
  5
21D9
330
1F
100
AcDbEntity
  8
izolace
100
AcDbHatch
 10
0.0
 20
0.0
 30
0.0
210
0.0
220
0.0
230
1.0
  2
SOLID
 70
     1
 71
     0
 91
       10
 92
        7
 72
     0
 73
     1
 93
        4
 10
-250.153353995527
 20
-14.58640171280104
 10
-254.0777750029464
 20
-14.58640171280104
 10
-254.0777750029464
 20
-17.58640171280013
 10
-250.153353995527
 20
-17.58640171280013
 97
        0
 92
        7
 72
     0
 73
     1
 93
        9
 10
-266.519719904716
 20
-14.58640171280104
 10
-271.9165791620998
 20
-14.58640171280104
 10
-271.6088921724112
 20
-14.68978963645578
 10
-271.2387938288874
 20
-14.90400912224096
 10
-271.6088921724148
 20
-15.27410746763463
 10
-272.2679589288745
 20
-15.0526501237414
 10
-272.2679589288745
 20
-17.52650571206278
 10
-272.0898277310552
 20
-17.58640171280013
 10
-266.5197199047169
 20
-17.58640171280013
 97
        0
 92
        7
 72
     0
 73
     1
 93
        9
 10
-274.9133416883559
 20
-14.58640171280104
 10
-280.3356377185209
 20
-14.58640171280104
 10
-280.3356377185209
 20
-17.58640171280013
 10
-274.9133416883559
 20
-17.58640171280013
 10
-274.9133416883559
 20
-17.22132271684633
 10
-275.572408444811
 20
-16.99971379367754
 10
-275.9425067926203
 20
-16.78549430788963
 10
-275.5724084448156
 20
-16.41539596222402
 10
-274.9133416883559
 20
-16.63700488539372
 97
        0
 92
        7
 72
     0
 73
     1
 93
        5
 10
-272.2679589288745
 20
-15.05265012374231
 10
-273.6555346240501
 20
-14.58640171280104
 10
-274.913341688355
 20
-14.58640171280104
 10
-274.913341688355
 20
-16.63700488539463
 10
-272.2679589288745
 20
-17.52650571206369
 97
        0
 92
        7
 72
     0
 73
     1
 93
        4
 10
-272.5092234663552
 20
-14.58640171280104
 10
-273.6555346240483
 20
-14.58640171280014
 10
-271.6088921724148
 20
-15.27410746763645
 10
-271.2387938288884
 20
-14.90400912224096
 97
        0
 92
       23
 72
     0
 73
     1
 93
        4
 10
-271.916579162097
 20
-14.58640171280104
 10
-272.5092234663606
 20
-14.58640171280104
 10
-271.2387938288884
 20
-14.90400912224278
 10
-271.6088921724166
 20
-14.68978963645396
 97
        0
 92
        7
 72
     0
 73
     1
 93
        4
 10
-275.5724084448146
 20
-16.41539596222584
 10
-275.9425067926194
 20
-16.78549430789054
 10
-272.7388771729828
 20
-17.58640171280013
 10
-272.0898277310579
 20
-17.58640171280013
 97
        0
 92
        7
 72
     0
 73
     1
 93
        4
 10
-275.9425067926239
 20
-16.78549430788872
 10
-275.5724084448119
 20
-16.99971379367663
 10
-273.8275937578291
 20
-17.58640171280013
 10
-272.7388771729819
 20
-17.58640171280013
 97
        0
 92
       23
 72
     0
 73
     1
 93
        3
 10
-274.9133416883559
 20
-17.22132271684542
 10
-274.9133416883559
 20
-17.58640171280013
 10
-273.8275937578354
 20
-17.58640171280013
 97
        0
 92
        7
 72
     0
 73
     1
 93
        4
 10
-293.8218292133523
 20
-14.58640171280104
 10
-300.153353995527
 20
-14.58640171280104
 10
-300.153353995527
 20
-17.58640171280013
 10
-293.8218292133514
 20
-17.58640171279923
 97
        0
 75
     0
 76
     1
 47
0.0980096762587744
 98
       10
 10
-252.4446019835613
 20
-15.46795512566633
 10
-268.2473997464203
 20
-16.2200080146281
 10
-277.3733669558841
 20
-16.18340515498086
 10
-273.8294460561173
 20
-16.23874559218485
 10
-272.4619000610018
 20
-14.88381911345597
 10
-271.900521608948
 20
-14.66777501198841
 10
-274.2098515877787
 20
-17.06725853351919
 10
-273.9716026633268
 20
-17.37865123912662
 10
-274.631395050188
 20
-17.41528764860005
 10
-297.6769884288059
 20
-16.34436044293717
  0
LWPOLYLINE
  5
21DA
330
1F
100
AcDbEntity
  8
izolace
100
AcDbPolyline
 90
        4
 70
     1
 43
0.0
 10
320.9538287212272
 20
-17.58640171280013
 10
370.9538287212272
 20
-17.58640171280013
 10
370.9538287212272
 20
-14.58640171280104
 10
320.9538287212272
 20
-14.58640171280104
  0
HATCH
  5
21DB
330
1F
100
AcDbEntity
  8
izolace
100
AcDbHatch
 10
0.0
 20
0.0
 30
0.0
210
0.0
220
0.0
230
1.0
  2
SOLID
 70
     1
 71
     0
 91
       10
 92
        7
 72
     0
 73
     1
 93
        4
 10
320.9538287212272
 20
-14.58640171280104
 10
324.8782497286466
 20
-14.58640171280104
 10
324.8782497286466
 20
-17.58640171280013
 10
320.9538287212272
 20
-17.58640171280013
 97
        0
 92
        7
 72
     0
 73
     1
 93
        9
 10
337.3201946304162
 20
-14.58640171280104
 10
342.7170538877999
 20
-14.58640171280104
 10
342.4093668981114
 20
-14.68978963645578
 10
342.0392685545876
 20
-14.90400912224096
 10
342.409366898115
 20
-15.27410746763463
 10
343.0684336545746
 20
-15.0526501237414
 10
343.0684336545746
 20
-17.52650571206278
 10
342.8903024567553
 20
-17.58640171280013
 10
337.3201946304171
 20
-17.58640171280013
 97
        0
 92
        7
 72
     0
 73
     1
 93
        9
 10
345.7138164140561
 20
-14.58640171280104
 10
351.136112444221
 20
-14.58640171280104
 10
351.136112444221
 20
-17.58640171280013
 10
345.7138164140561
 20
-17.58640171280013
 10
345.7138164140561
 20
-17.22132271684633
 10
346.3728831705112
 20
-16.99971379367754
 10
346.7429815183205
 20
-16.78549430788963
 10
346.3728831705157
 20
-16.41539596222402
 10
345.7138164140561
 20
-16.63700488539372
 97
        0
 92
        7
 72
     0
 73
     1
 93
        5
 10
343.0684336545746
 20
-15.05265012374231
 10
344.4560093497503
 20
-14.58640171280104
 10
345.7138164140552
 20
-14.58640171280104
 10
345.7138164140552
 20
-16.63700488539463
 10
343.0684336545746
 20
-17.52650571206369
 97
        0
 92
        7
 72
     0
 73
     1
 93
        4
 10
343.3096981920553
 20
-14.58640171280104
 10
344.4560093497485
 20
-14.58640171280014
 10
342.409366898115
 20
-15.27410746763645
 10
342.0392685545885
 20
-14.90400912224096
 97
        0
 92
       23
 72
     0
 73
     1
 93
        4
 10
342.7170538877972
 20
-14.58640171280104
 10
343.3096981920608
 20
-14.58640171280104
 10
342.0392685545885
 20
-14.90400912224278
 10
342.4093668981168
 20
-14.68978963645396
 97
        0
 92
        7
 72
     0
 73
     1
 93
        4
 10
346.3728831705148
 20
-16.41539596222584
 10
346.7429815183196
 20
-16.78549430789054
 10
343.539351898683
 20
-17.58640171280013
 10
342.890302456758
 20
-17.58640171280013
 97
        0
 92
        7
 72
     0
 73
     1
 93
        4
 10
346.7429815183241
 20
-16.78549430788872
 10
346.3728831705121
 20
-16.99971379367663
 10
344.6280684835292
 20
-17.58640171280013
 10
343.5393518986821
 20
-17.58640171280013
 97
        0
 92
       23
 72
     0
 73
     1
 93
        3
 10
345.7138164140561
 20
-17.22132271684542
 10
345.7138164140561
 20
-17.58640171280013
 10
344.6280684835356
 20
-17.58640171280013
 97
        0
 92
        7
 72
     0
 73
     1
 93
        4
 10
364.6223039390525
 20
-14.58640171280104
 10
370.9538287212272
 20
-14.58640171280104
 10
370.9538287212272
 20
-17.58640171280013
 10
364.6223039390516
 20
-17.58640171279923
 97
        0
 75
     0
 76
     1
 47
0.0980096762587744
 98
       10
 10
323.2450767092614
 20
-15.46795512566633
 10
339.0478744721204
 20
-16.2200080146281
 10
348.1738416815843
 20
-16.18340515498086
 10
344.6299207818174
 20
-16.23874559218485
 10
343.2623747867019
 20
-14.88381911345597
 10
342.7009963346482
 20
-14.66777501198841
 10
345.0103263134788
 20
-17.06725853351919
 10
344.7720773890269
 20
-17.37865123912662
 10
345.4318697758882
 20
-17.41528764860005
 10
368.4774631545061
 20
-16.34436044293717
  0
LWPOLYLINE
  5
21DF
330
1F
100
AcDbEntity
  8
0
100
AcDbPolyline
 90
        4
 70
     1
 43
0.0
 10
27.90023736285388
 20
-14.58640171280029
 10
42.90248856220023
 20
-14.58640171280029
 10
42.90248856220023
 20
-17.58541180232668
 10
27.90023736285388
 20
-17.58541180232668
  0
HATCH
  5
21E4
330
1F
100
AcDbEntity
  8
izolace
100
AcDbHatch
 10
0.0
 20
0.0
 30
0.0
210
0.0
220
0.0
230
1.0
  2
SOLID
 70
     1
 71
     0
 91
        1
 92
        7
 72
     0
 73
     1
 93
        4
 10
42.90248856220023
 20
-14.58640171280029
 10
27.90023736285388
 20
-14.58640171280029
 10
27.90023736285389
 20
-17.58541180232668
 10
42.90248856220022
 20
-17.58541180232668
 97
        0
 75
     0
 76
     1
 47
0.0877759150348184
 98
        1
 10
37.88087958535288
 20
-15.96727687895054
  0
TEXT
  5
21E6
330
1F
100
AcDbEntity
  8
POPIS
100
AcDbText
 10
314.6217510811386
 20
127.7270131824937
 30
0.0
 40
25.0
  1
05
 41
0.85
  7
SIMPLEX7
100
AcDbText
  0
LINE
  5
21E7
330
1F
100
AcDbEntity
  8
POPIS
100
AcDbLine
 10
331.5194220129426
 20
121.7070570403869
 30
0.0
 11
331.5194220129491
 21
-17.58640171280017
 31
0.0
  0
INSERT
  5
21E8
330
1F
100
AcDbEntity
  8
POPIS
100
AcDbBlockReference
  2
E_PUNKT
 10
331.8265237549633
 20
-15.96300396736813
 30
0.0
 50
270.0
  0
ENDSEC
  0
SECTION
  2
OBJECTS
  0
DICTIONARY
  5
C
330
0
100
AcDbDictionary
281
     1
  3
ACAD_GROUP
350
D
  3
ACAD_LAYOUT
350
1A
  3
ACAD_MLINESTYLE
350
17
  3
ACAD_PLOTSETTINGS
350
19
  3
ACAD_PLOTSTYLENAME
350
E
  3
AcDbVariableDictionary
350
21DD
  0
DICTIONARY
  5
D
102
{ACAD_REACTORS
330
C
102
}
330
C
100
AcDbDictionary
281
     1
  0
DICTIONARY
  5
1A
102
{ACAD_REACTORS
330
C
102
}
330
C
100
AcDbDictionary
281
     1
  3
Model
350
22
  3
Rozvržení1
350
1E
  3
Rozvržení2
350
26
  0
DICTIONARY
  5
17
102
{ACAD_REACTORS
330
C
102
}
330
C
100
AcDbDictionary
281
     1
  3
Standard
350
18
  0
DICTIONARY
  5
19
102
{ACAD_REACTORS
330
C
102
}
330
C
100
AcDbDictionary
281
     1
  0
ACDBDICTIONARYWDFLT
  5
E
102
{ACAD_REACTORS
330
C
102
}
330
C
100
AcDbDictionary
281
     1
  3
Normal
350
F
100
AcDbDictionaryWithDefault
340
F
  0
DICTIONARY
  5
21DD
102
{ACAD_REACTORS
330
C
102
}
330
C
100
AcDbDictionary
281
     1
  3
SORTENTS
350
21DE
  0
LAYOUT
  5
22
102
{ACAD_REACTORS
330
1A
102
}
330
1A
100
AcDbPlotSettings
  1

  2
HP DeskJet 690C
  4

  6

 40
0.0
 41
0.0
 42
0.0
 43
0.0
 44
0.0
 45
0.0
 46
0.0
 47
0.0
 48
0.0
 49
0.0
140
0.0
141
0.0
142
1.0
143
1.0
 70
  1712
 72
     0
 73
     0
 74
     0
  7
monochrome.ctb
 75
     0
147
1.0
148
0.0
149
0.0
100
AcDbLayout
  1
Model
 70
     1
 71
     0
 10
0.0
 20
0.0
 11
12.0
 21
9.0
 12
0.0
 22
0.0
 32
0.0
 14
0.0
 24
0.0
 34
0.0
 15
0.0
 25
0.0
 35
0.0
146
0.0
 13
0.0
 23
0.0
 33
0.0
 16
1.0
 26
0.0
 36
0.0
 17
0.0
 27
1.0
 37
0.0
 76
     0
330
1F
  0
LAYOUT
  5
1E
102
{ACAD_REACTORS
330
1A
102
}
330
1A
100
AcDbPlotSettings
  1

  2
HP DeskJet 690C
  4

  6

 40
0.0
 41
0.0
 42
0.0
 43
0.0
 44
0.0
 45
0.0
 46
0.0
 47
0.0
 48
0.0
 49
0.0
140
0.0
141
0.0
142
1.0
143
1.0
 70
   688
 72
     0
 73
     0
 74
     5
  7
monochrome.ctb
 75
    16
147
1.0
148
0.0
149
0.0
100
AcDbLayout
  1
Rozvržení1
 70
     1
 71
     1
 10
0.0
 20
0.0
 11
420.0
 21
297.0
 12
0.0
 22
0.0
 32
0.0
 14
1.000000000000000E+20
 24
1.000000000000000E+20
 34
1.000000000000000E+20
 15
-1.000000000000000E+20
 25
-1.000000000000000E+20
 35
-1.000000000000000E+20
146
0.0
 13
0.0
 23
0.0
 33
0.0
 16
1.0
 26
0.0
 36
0.0
 17
0.0
 27
1.0
 37
0.0
 76
     0
330
1B
  0
LAYOUT
  5
26
102
{ACAD_REACTORS
330
1A
102
}
330
1A
100
AcDbPlotSettings
  1

  2
HP DeskJet 690C
  4

  6

 40
0.0
 41
0.0
 42
0.0
 43
0.0
 44
0.0
 45
0.0
 46
0.0
 47
0.0
 48
0.0
 49
0.0
140
0.0
141
0.0
142
1.0
143
1.0
 70
   688
 72
     0
 73
     0
 74
     5
  7
monochrome.ctb
 75
    16
147
1.0
148
0.0
149
0.0
100
AcDbLayout
  1
Rozvržení2
 70
     1
 71
     2
 10
0.0
 20
0.0
 11
12.0
 21
9.0
 12
0.0
 22
0.0
 32
0.0
 14
0.0
 24
0.0
 34
0.0
 15
0.0
 25
0.0
 35
0.0
146
0.0
 13
0.0
 23
0.0
 33
0.0
 16
1.0
 26
0.0
 36
0.0
 17
0.0
 27
1.0
 37
0.0
 76
     0
330
23
  0
MLINESTYLE
  5
18
102
{ACAD_REACTORS
330
17
102
}
330
17
100
AcDbMlineStyle
  2
STANDARD
 70
     0
  3

 62
   256
 51
90.0
 52
90.0
 71
     2
 49
0.5
 62
   256
  6
BYLAYER
 49
-0.5
 62
   256
  6
BYLAYER
  0
ACDBPLACEHOLDER
  5
F
102
{ACAD_REACTORS
330
E
102
}
330
E
  0
DICTIONARYVAR
  5
21DE
102
{ACAD_REACTORS
330
21DD
102
}
330
21DD
100
DictionaryVariables
280
     0
  1
96
  0
ENDSEC
  0
EOF
