  0
SECTION
  2
HEADER
  9
$ACADVER
  1
AC1015
  9
$ACADMAINTVER
 70
    10
  9
$DWGCODEPAGE
  3
ANSI_1250
  9
$INSBASE
 10
0.0
 20
0.0
 30
0.0
  9
$EXTMIN
 10
-391.0726565278134
 20
-261.4082215474137
 30
0.0
  9
$EXTMAX
 10
1208.947580768913
 20
511.8396063700591
 30
0.0
  9
$LIMMIN
 10
0.0
 20
0.0
  9
$LIMMAX
 10
420.0
 20
297.0
  9
$ORTHOMODE
 70
     0
  9
$REGENMODE
 70
     1
  9
$FILLMODE
 70
     1
  9
$QTEXTMODE
 70
     0
  9
$MIRRTEXT
 70
     1
  9
$LTSCALE
 40
1.0
  9
$ATTMODE
 70
     1
  9
$TEXTSIZE
 40
2.5
  9
$TRACEWID
 40
1.0
  9
$TEXTSTYLE
  7
Standard
  9
$CLAYER
  8
0
  9
$CELTYPE
  6
ByLayer
  9
$CECOLOR
 62
   256
  9
$CELTSCALE
 40
1.0
  9
$DISPSILH
 70
     0
  9
$DIMSCALE
 40
1.0
  9
$DIMASZ
 40
2.5
  9
$DIMEXO
 40
0.625
  9
$DIMDLI
 40
3.75
  9
$DIMRND
 40
0.0
  9
$DIMDLE
 40
0.0
  9
$DIMEXE
 40
1.25
  9
$DIMTP
 40
0.0
  9
$DIMTM
 40
0.0
  9
$DIMTXT
 40
2.5
  9
$DIMCEN
 40
2.5
  9
$DIMTSZ
 40
0.0
  9
$DIMTOL
 70
     0
  9
$DIMLIM
 70
     0
  9
$DIMTIH
 70
     0
  9
$DIMTOH
 70
     0
  9
$DIMSE1
 70
     0
  9
$DIMSE2
 70
     0
  9
$DIMTAD
 70
     1
  9
$DIMZIN
 70
     8
  9
$DIMBLK
  1

  9
$DIMASO
 70
     1
  9
$DIMSHO
 70
     1
  9
$DIMPOST
  1

  9
$DIMAPOST
  1

  9
$DIMALT
 70
     0
  9
$DIMALTD
 70
     3
  9
$DIMALTF
 40
0.03937007874016
  9
$DIMLFAC
 40
1.0
  9
$DIMTOFL
 70
     1
  9
$DIMTVP
 40
0.0
  9
$DIMTIX
 70
     0
  9
$DIMSOXD
 70
     0
  9
$DIMSAH
 70
     0
  9
$DIMBLK1
  1

  9
$DIMBLK2
  1

  9
$DIMSTYLE
  2
ISO-25
  9
$DIMCLRD
 70
     0
  9
$DIMCLRE
 70
     0
  9
$DIMCLRT
 70
     0
  9
$DIMTFAC
 40
1.0
  9
$DIMGAP
 40
0.625
  9
$DIMJUST
 70
     0
  9
$DIMSD1
 70
     0
  9
$DIMSD2
 70
     0
  9
$DIMTOLJ
 70
     0
  9
$DIMTZIN
 70
     8
  9
$DIMALTZ
 70
     0
  9
$DIMALTTZ
 70
     0
  9
$DIMUPT
 70
     0
  9
$DIMDEC
 70
     2
  9
$DIMTDEC
 70
     2
  9
$DIMALTU
 70
     2
  9
$DIMALTTD
 70
     3
  9
$DIMTXSTY
  7
Standard
  9
$DIMAUNIT
 70
     0
  9
$DIMADEC
 70
     0
  9
$DIMALTRND
 40
0.0
  9
$DIMAZIN
 70
     0
  9
$DIMDSEP
 70
    44
  9
$DIMATFIT
 70
     3
  9
$DIMFRAC
 70
     0
  9
$DIMLDRBLK
  1

  9
$DIMLUNIT
 70
     2
  9
$DIMLWD
 70
    -2
  9
$DIMLWE
 70
    -2
  9
$DIMTMOVE
 70
     0
  9
$LUNITS
 70
     2
  9
$LUPREC
 70
     4
  9
$SKETCHINC
 40
1.0
  9
$FILLETRAD
 40
10.0
  9
$AUNITS
 70
     0
  9
$AUPREC
 70
     0
  9
$MENU
  1
.
  9
$ELEVATION
 40
0.0
  9
$PELEVATION
 40
0.0
  9
$THICKNESS
 40
0.0
  9
$LIMCHECK
 70
     0
  9
$CHAMFERA
 40
10.0
  9
$CHAMFERB
 40
10.0
  9
$CHAMFERC
 40
20.0
  9
$CHAMFERD
 40
0.0
  9
$SKPOLY
 70
     0
  9
$TDCREATE
 40
2452332.468649768
  9
$TDUCREATE
 40
2452332.426983101
  9
$TDUPDATE
 40
2452653.377799108
  9
$TDUUPDATE
 40
2452653.336132442
  9
$TDINDWG
 40
0.0362943634
  9
$TDUSRTIMER
 40
0.0362918171
  9
$USRTIMER
 70
     1
  9
$ANGBASE
 50
0.0
  9
$ANGDIR
 70
     0
  9
$PDMODE
 70
     0
  9
$PDSIZE
 40
0.0
  9
$PLINEWID
 40
0.0
  9
$SPLFRAME
 70
     0
  9
$SPLINETYPE
 70
     6
  9
$SPLINESEGS
 70
     8
  9
$HANDSEED
  5
DCB
  9
$SURFTAB1
 70
     6
  9
$SURFTAB2
 70
     6
  9
$SURFTYPE
 70
     6
  9
$SURFU
 70
     6
  9
$SURFV
 70
     6
  9
$UCSBASE
  2

  9
$UCSNAME
  2

  9
$UCSORG
 10
0.0
 20
0.0
 30
0.0
  9
$UCSXDIR
 10
1.0
 20
0.0
 30
0.0
  9
$UCSYDIR
 10
0.0
 20
1.0
 30
0.0
  9
$UCSORTHOREF
  2

  9
$UCSORTHOVIEW
 70
     0
  9
$UCSORGTOP
 10
0.0
 20
0.0
 30
0.0
  9
$UCSORGBOTTOM
 10
0.0
 20
0.0
 30
0.0
  9
$UCSORGLEFT
 10
0.0
 20
0.0
 30
0.0
  9
$UCSORGRIGHT
 10
0.0
 20
0.0
 30
0.0
  9
$UCSORGFRONT
 10
0.0
 20
0.0
 30
0.0
  9
$UCSORGBACK
 10
0.0
 20
0.0
 30
0.0
  9
$PUCSBASE
  2

  9
$PUCSNAME
  2

  9
$PUCSORG
 10
0.0
 20
0.0
 30
0.0
  9
$PUCSXDIR
 10
1.0
 20
0.0
 30
0.0
  9
$PUCSYDIR
 10
0.0
 20
1.0
 30
0.0
  9
$PUCSORTHOREF
  2

  9
$PUCSORTHOVIEW
 70
     0
  9
$PUCSORGTOP
 10
0.0
 20
0.0
 30
0.0
  9
$PUCSORGBOTTOM
 10
0.0
 20
0.0
 30
0.0
  9
$PUCSORGLEFT
 10
0.0
 20
0.0
 30
0.0
  9
$PUCSORGRIGHT
 10
0.0
 20
0.0
 30
0.0
  9
$PUCSORGFRONT
 10
0.0
 20
0.0
 30
0.0
  9
$PUCSORGBACK
 10
0.0
 20
0.0
 30
0.0
  9
$USERI1
 70
     0
  9
$USERI2
 70
     0
  9
$USERI3
 70
     0
  9
$USERI4
 70
     0
  9
$USERI5
 70
     0
  9
$USERR1
 40
0.0
  9
$USERR2
 40
0.0
  9
$USERR3
 40
0.0
  9
$USERR4
 40
0.0
  9
$USERR5
 40
0.0
  9
$WORLDVIEW
 70
     1
  9
$SHADEDGE
 70
     3
  9
$SHADEDIF
 70
    70
  9
$TILEMODE
 70
     1
  9
$MAXACTVP
 70
    64
  9
$PINSBASE
 10
0.0
 20
0.0
 30
0.0
  9
$PLIMCHECK
 70
     0
  9
$PEXTMIN
 10
1.000000000000000E+20
 20
1.000000000000000E+20
 30
1.000000000000000E+20
  9
$PEXTMAX
 10
-1.000000000000000E+20
 20
-1.000000000000000E+20
 30
-1.000000000000000E+20
  9
$PLIMMIN
 10
0.0
 20
0.0
  9
$PLIMMAX
 10
420.0
 20
297.0
  9
$UNITMODE
 70
     0
  9
$VISRETAIN
 70
     1
  9
$PLINEGEN
 70
     0
  9
$PSLTSCALE
 70
     1
  9
$TREEDEPTH
 70
  3020
  9
$CMLSTYLE
  2
Standard
  9
$CMLJUST
 70
     0
  9
$CMLSCALE
 40
20.0
  9
$PROXYGRAPHICS
 70
     1
  9
$MEASUREMENT
 70
     1
  9
$CELWEIGHT
370
    -1
  9
$ENDCAPS
280
     0
  9
$JOINSTYLE
280
     0
  9
$LWDISPLAY
290
     0
  9
$INSUNITS
 70
     4
  9
$HYPERLINKBASE
  1

  9
$STYLESHEET
  1

  9
$XEDIT
290
     1
  9
$CEPSNTYPE
380
     0
  9
$PSTYLEMODE
290
     1
  9
$FINGERPRINTGUID
  2
{A3477950-F6EC-44A0-8776-592C40033ABE}
  9
$VERSIONGUID
  2
{90D870C5-4A10-4418-95BE-F73D93018E27}
  9
$EXTNAMES
290
     1
  9
$PSVPSCALE
 40
0.0
  9
$OLESTARTUP
290
     0
  0
ENDSEC
  0
SECTION
  2
CLASSES
  0
CLASS
  1
ACDBDICTIONARYWDFLT
  2
AcDbDictionaryWithDefault
  3
AutoCAD 2000
 90
        0
280
     0
281
     0
  0
CLASS
  1
ACDBPLACEHOLDER
  2
AcDbPlaceHolder
  3
AutoCAD 2000
 90
        0
280
     0
281
     0
  0
CLASS
  1
LAYOUT
  2
AcDbLayout
  3
AutoCAD 2000
 90
        0
280
     0
281
     0
  0
ENDSEC
  0
SECTION
  2
TABLES
  0
TABLE
  2
VPORT
  5
8
330
0
100
AcDbSymbolTable
 70
     2
  0
VPORT
  5
DCA
330
8
100
AcDbSymbolTableRecord
100
AcDbViewportTableRecord
  2
*Active
 70
     0
 10
0.0
 20
0.0
 11
1.0
 21
1.0
 12
404.7591939498743
 22
122.6230959102216
 13
0.0
 23
0.0
 14
10.0
 24
10.0
 15
10.0
 25
10.0
 16
0.0
 26
0.0
 36
1.0
 17
0.0
 27
0.0
 37
0.0
 40
790.8215211131724
 41
2.09051724137931
 42
50.0
 43
0.0
 44
0.0
 50
0.0
 51
0.0
 71
     0
 72
   100
 73
     1
 74
     3
 75
     0
 76
     0
 77
     0
 78
     0
281
     0
 65
     1
110
0.0
120
0.0
130
0.0
111
1.0
121
0.0
131
0.0
112
0.0
122
1.0
132
0.0
 79
     0
146
0.0
  0
ENDTAB
  0
TABLE
  2
LTYPE
  5
5
330
0
100
AcDbSymbolTable
 70
     3
  0
LTYPE
  5
14
330
5
100
AcDbSymbolTableRecord
100
AcDbLinetypeTableRecord
  2
ByBlock
 70
     0
  3

 72
    65
 73
     0
 40
0.0
  0
LTYPE
  5
15
330
5
100
AcDbSymbolTableRecord
100
AcDbLinetypeTableRecord
  2
ByLayer
 70
     0
  3

 72
    65
 73
     0
 40
0.0
  0
LTYPE
  5
16
330
5
100
AcDbSymbolTableRecord
100
AcDbLinetypeTableRecord
  2
Continuous
 70
     0
  3
Solid line
 72
    65
 73
     0
 40
0.0
  0
LTYPE
  5
95E
330
5
100
AcDbSymbolTableRecord
100
AcDbLinetypeTableRecord
  2
DASHED
 70
     0
  3
Dashed __ __ __ __ __ __ __ __ __ __ __ __ __ _
 72
    65
 73
     2
 40
19.04999999999999
 49
12.7
 74
     0
 49
-6.349999999999999
 74
     0
  0
LTYPE
  5
95F
330
5
100
AcDbSymbolTableRecord
100
AcDbLinetypeTableRecord
  2
IZOLACE
 70
     0
  3
Izolace SSSSSSSSSSSSSSSSSSSSSSSSSSSSSSSSSSSSSSS
 72
    65
 73
     4
 40
10.16253999999999
 49
0.00254
 74
     0
 49
-2.54
 74
     4
 75
   134
340
967
 46
2.54
 50
0.0
 44
-2.54
 45
0.0
 49
-5.08
 74
     4
 75
   134
340
967
 46
2.54
 50
180.0
 44
2.54
 45
0.0
 49
-2.54
 74
     0
  0
ENDTAB
  0
TABLE
  2
LAYER
  5
2
330
0
100
AcDbSymbolTable
 70
     7
  0
LAYER
  5
10
330
2
100
AcDbSymbolTableRecord
100
AcDbLayerTableRecord
  2
0
 70
     0
 62
     7
  6
Continuous
370
    -3
390
F
  0
LAYER
  5
960
330
2
100
AcDbSymbolTableRecord
100
AcDbLayerTableRecord
  2
POPIS
 70
     0
 62
    30
  6
Continuous
370
    -3
390
F
  0
LAYER
  5
961
330
2
100
AcDbSymbolTableRecord
100
AcDbLayerTableRecord
  2
SPOJOVACÍ
 70
     0
 62
   180
  6
Continuous
370
    -3
390
F
  0
LAYER
  5
962
330
2
100
AcDbSymbolTableRecord
100
AcDbLayerTableRecord
  2
CETRIS
 70
     0
 62
     1
  6
Continuous
370
    -3
390
F
  0
LAYER
  5
963
330
2
100
AcDbSymbolTableRecord
100
AcDbLayerTableRecord
  2
izolace
 70
     0
 62
    33
  6
Continuous
370
    -3
390
F
  0
LAYER
  5
964
330
2
100
AcDbSymbolTableRecord
100
AcDbLayerTableRecord
  2
nášlap_vrstvy
 70
     0
 62
    73
  6
Continuous
370
    -3
390
F
  0
LAYER
  5
965
330
2
100
AcDbSymbolTableRecord
100
AcDbLayerTableRecord
  2
STAVBA OBRYS
 70
     0
 62
     6
  6
Continuous
370
    -3
390
F
  0
ENDTAB
  0
TABLE
  2
STYLE
  5
3
330
0
100
AcDbSymbolTable
 70
     3
  0
STYLE
  5
11
330
3
100
AcDbSymbolTableRecord
100
AcDbTextStyleTableRecord
  2
Standard
 70
     0
 40
0.0
 41
1.0
 50
0.0
 71
     0
 42
2.5
  3
txt
  4

  0
STYLE
  5
966
330
3
100
AcDbSymbolTableRecord
100
AcDbTextStyleTableRecord
  2
SIMPLEX7
 70
     0
 40
0.0
 41
0.85
 50
0.0
 71
     0
 42
102.0
  3

  4

1001
ACAD
1000
Arial CE
1071
    60962
  0
STYLE
  5
967
330
3
100
AcDbSymbolTableRecord
100
AcDbTextStyleTableRecord
  2

 70
     1
 40
0.0
 41
1.0
 50
0.0
 71
     0
 42
2.5
  3
ltypeshp.shx
  4

  0
ENDTAB
  0
TABLE
  2
VIEW
  5
6
330
0
100
AcDbSymbolTable
 70
     0
  0
ENDTAB
  0
TABLE
  2
UCS
  5
7
330
0
100
AcDbSymbolTable
 70
     0
  0
ENDTAB
  0
TABLE
  2
APPID
  5
9
330
0
100
AcDbSymbolTable
 70
     1
  0
APPID
  5
12
330
9
100
AcDbSymbolTableRecord
100
AcDbRegAppTableRecord
  2
ACAD
 70
     0
  0
ENDTAB
  0
TABLE
  2
DIMSTYLE
  5
A
330
0
100
AcDbSymbolTable
 70
     1
100
AcDbDimStyleTable
 71
     0
  0
DIMSTYLE
105
27
330
A
100
AcDbSymbolTableRecord
100
AcDbDimStyleTableRecord
  2
ISO-25
 70
     0
 41
2.5
 42
0.625
 43
3.75
 44
1.25
 73
     0
 74
     0
 77
     1
 78
     8
140
2.5
141
2.5
143
0.03937007874016
147
0.625
171
     3
172
     1
271
     2
272
     2
274
     3
278
    44
283
     0
284
     8
340
11
  0
ENDTAB
  0
TABLE
  2
BLOCK_RECORD
  5
1
330
0
100
AcDbSymbolTable
 70
     2
  0
BLOCK_RECORD
  5
1F
330
1
100
AcDbSymbolTableRecord
100
AcDbBlockTableRecord
  2
*Model_Space
340
22
  0
BLOCK_RECORD
  5
1B
330
1
100
AcDbSymbolTableRecord
100
AcDbBlockTableRecord
  2
*Paper_Space
340
1E
  0
BLOCK_RECORD
  5
23
330
1
100
AcDbSymbolTableRecord
100
AcDbBlockTableRecord
  2
*Paper_Space0
340
26
  0
BLOCK_RECORD
  5
95A
330
1
100
AcDbSymbolTableRecord
100
AcDbBlockTableRecord
  2
E_PUNKT
340
0
102
{BLKREFS
331
BC1
331
C16
331
C86
331
CF2
331
CF3
331
D63
331
D6B
102
}
  0
ENDTAB
  0
ENDSEC
  0
SECTION
  2
BLOCKS
  0
BLOCK
  5
20
330
1F
100
AcDbEntity
  8
0
100
AcDbBlockBegin
  2
*Model_Space
 70
     0
 10
0.0
 20
0.0
 30
0.0
  3
*Model_Space
  1

  0
ENDBLK
  5
21
330
1F
100
AcDbEntity
  8
0
100
AcDbBlockEnd
  0
BLOCK
  5
1C
330
1B
100
AcDbEntity
 67
     1
  8
0
100
AcDbBlockBegin
  2
*Paper_Space
 70
     0
 10
0.0
 20
0.0
 30
0.0
  3
*Paper_Space
  1

  0
ENDBLK
  5
1D
330
1B
100
AcDbEntity
 67
     1
  8
0
100
AcDbBlockEnd
  0
BLOCK
  5
24
330
23
100
AcDbEntity
  8
0
100
AcDbBlockBegin
  2
*Paper_Space0
 70
     0
 10
0.0
 20
0.0
 30
0.0
  3
*Paper_Space0
  1

  0
ENDBLK
  5
25
330
23
100
AcDbEntity
  8
0
100
AcDbBlockEnd
  0
BLOCK
  5
95C
330
95A
100
AcDbEntity
  8
0
100
AcDbBlockBegin
  2
E_PUNKT
 70
     0
 10
0.0
 20
0.0
 30
0.0
  3
E_PUNKT
  1

  0
LWPOLYLINE
  5
95B
330
95A
100
AcDbEntity
  8
POPIS
100
AcDbPolyline
 90
        2
 70
     1
 43
2.5
 10
1.27761037562675
 20
0.0290683308725193
 42
-1.0
 10
-1.222389624373249
 20
0.0290683308725193
 42
-1.0
  0
ENDBLK
  5
95D
330
95A
100
AcDbEntity
  8
0
100
AcDbBlockEnd
  0
ENDSEC
  0
SECTION
  2
ENTITIES
  0
TEXT
  5
B99
330
1F
100
AcDbEntity
  8
POPIS
100
AcDbText
 10
-391.0726565278134
 20
448.6063185119418
 30
0.0
 40
50.0
  1
Podlahová krytina -  lamino (dř. parkety - plovoucí)
 41
0.75
  7
SIMPLEX7
100
AcDbText
  0
LINE
  5
B9A
330
1F
100
AcDbEntity
  8
nášlap_vrstvy
100
AcDbLine
 10
-111.9863797200494
 20
141.6331122894752
 30
0.0
 11
577.0120726884263
 21
141.6331122894788
 31
0.0
  0
HATCH
  5
B9B
330
1F
100
AcDbEntity
  8
STAVBA OBRYS
100
AcDbHatch
 10
0.0
 20
0.0
 30
0.0
210
0.0
220
0.0
230
1.0
  2
AR-CONC
 70
     0
 71
     0
 91
        1
 92
        7
 72
     0
 73
     1
 93
        6
 10
577.0120726884263
 20
-61.05388255808623
 10
-132.7298070944677
 20
-61.05388255808623
 10
-132.729807094475
 20
-249.2966293856881
 10
-122.7298070944786
 20
-248.810377450991
 10
-122.7298070944714
 20
-71.05388255808623
 10
577.0120726884263
 20
-71.05388255808623
 97
        0
 75
     0
 76
     1
 52
90.0
 41
0.1
 77
     0
 78
    13
 53
140.0
 43
-27820.12127422066
 44
2985.665347436707
 45
1.593908553890309
 46
18.2184668996004
 79
     2
 49
1.905
 49
-20.955
 53
85.00000000000001
 43
-27820.12127422066
 44
2985.665347436707
 45
-19.10566428821799
 46
-3.524282597566697
 79
     2
 49
1.524
 49
-16.764
 53
190.4509999999999
 43
-27819.98844922066
 44
2987.183547436707
 45
-17.51166878202918
 46
14.69425016659592
 79
     2
 49
1.619
 49
-17.809
 53
136.1841999999999
 43
-27825.20127422066
 44
2985.665347436707
 45
4.204232793272717
 46
27.10790408921299
 79
     2
 49
2.857499999999999
 49
-31.4325
 53
186.6355999999999
 43
-27824.85092422066
 44
2987.924337436707
 45
-24.74255558900492
 46
23.74042344662371
 79
     2
 49
2.4285
 49
-26.7135
 53
81.18400000000004
 43
-27825.20127422066
 44
2985.665347436707
 45
-24.74251178605976
 46
23.74046058139339
 79
     2
 49
2.286
 49
-25.146
 53
111.0
 43
-27823.93127422067
 44
2988.205347436707
 45
10.22655185167625
 46
15.16148798353833
 79
     2
 49
1.905
 49
-20.955
 53
56.00000000000004
 43
-27823.93127422067
 44
2988.205347436707
 45
-18.41879661223192
 46
6.180202834764708
 79
     2
 49
1.524
 49
-16.764
 53
161.4514
 43
-27823.07906422066
 44
2989.468797436706
 45
-8.192285771605742
 46
21.34164907701245
 79
     2
 49
1.618999999999997
 49
-17.80899999999996
 53
127.5
 43
-27820.12127422066
 44
2985.665347436707
 45
-8.455503887315311
 46
0.3088603250591822
 79
     6
 49
0.0
 49
-16.5608
 49
0.0
 49
-17.018
 49
0.0
 49
-16.8275
 53
97.49999999999987
 43
-27820.12127422066
 44
2985.665347436707
 45
-10.01805748181195
 46
6.681966251030575
 79
     6
 49
0.0
 49
-9.702799999999998
 49
0.0
 49
-16.17979999999999
 49
0.0
 49
-6.413499999999999
 53
57.5
 43
-27820.12127422066
 44
2980.001147436707
 45
0.5728743992673473
 46
13.55905951668713
 79
     6
 49
0.0
 49
-6.35
 49
0.0
 49
-19.812
 49
0.0
 49
-26.289
 53
47.5
 43
-27820.12127422066
 44
2977.461147436707
 45
-2.5426491033333
 46
14.8129181386018
 79
     6
 49
0.0
 49
-8.255
 49
0.0
 49
-13.1572
 49
0.0
 49
-18.669
 47
1.255134839913078
 98
        1
 10
50.86854131738005
 20
-64.72605613871394
  0
HATCH
  5
B9C
330
1F
100
AcDbEntity
  8
STAVBA OBRYS
100
AcDbHatch
 10
0.0
 20
0.0
 30
0.0
210
0.0
220
0.0
230
1.0
  2
ANSI35
 70
     0
 71
     0
 91
        1
 92
        7
 72
     1
 73
     1
 93
       13
 10
577.0120726884263
 20
58.94611744191377
 42
0.0
 10
420.5063875597873
 20
58.94611744191377
 42
0.0
 10
420.5063875597873
 20
4.743833656550009
 42
-1.0
 10
420.5063875597873
 20
2.243833656550009
 42
-1.0
 10
420.5063875597873
 20
4.743833656550009
 42
0.0
 10
420.5063875597909
 20
58.94611744191377
 42
0.0
 10
397.3883125218992
 20
58.94611744191377
 42
0.0
 10
-122.729807094475
 20
58.94611744191377
 42
0.0
 10
-328.1091908908426
 20
58.94611744191377
 42
0.0
 10
-328.1091908908463
 20
-154.6655726425943
 42
0.0
 10
-132.7298070944714
 20
-154.6655726425943
 42
0.0
 10
-132.7298070944677
 20
-61.05388255808623
 42
0.0
 10
577.0120726884299
 20
-61.05388255808623
 42
0.0
 97
        0
 75
     0
 76
     1
 52
0.0
 41
3.0
 77
     0
 78
     2
 53
45.0
 43
-27820.12127422066
 44
2985.665347436707
 45
-13.47038418160372
 46
13.47038418160373
 79
     0
 53
45.0
 43
-27806.65088422066
 44
2985.665347436707
 45
-13.47038418160372
 46
13.47038418160373
 79
     4
 49
23.8125
 49
-4.762499999999999
 49
0.0
 49
-4.762499999999999
 47
3.017070218097292
 98
        1
 10
-90.88373125930298
 20
-11.07754662007039
  0
LWPOLYLINE
  5
B9D
330
1F
100
AcDbEntity
  8
izolace
100
AcDbPolyline
 90
        4
 70
     1
 43
0.0
 10
577.0120726884263
 20
58.94611744191377
 10
-122.729807094475
 20
58.94611744191377
 10
-122.729807094475
 20
61.94611744191377
 10
577.0120726884263
 20
61.94611744191377
  0
HATCH
  5
B9E
330
1F
100
AcDbEntity
  8
CETRIS
100
AcDbHatch
 10
0.0
 20
0.0
 30
0.0
210
0.0
220
0.0
230
1.0
  2
ANSI31
 70
     0
 71
     0
 91
        1
 92
        1
 93
        4
 72
     1
 10
577.0120726884263
 20
113.9461174419137
 11
577.0120726884263
 21
101.9461174419137
 72
     1
 10
577.0120726884263
 20
101.9461174419137
 11
-107.729807094475
 21
101.9461174419137
 72
     1
 10
-107.729807094475
 20
101.9461174419137
 11
-107.729807094475
 21
113.9461174419137
 72
     1
 10
-107.729807094475
 20
113.9461174419137
 11
577.0120726884263
 21
113.9461174419137
 97
        0
 75
     0
 76
     1
 52
90.0
 41
1.0
 77
     0
 78
     1
 53
135.0
 43
-25266.24911723683
 44
3217.434338089503
 45
-2.245064030267288
 46
-2.245064030267287
 79
     0
 98
        1
 10
-25266.24911723683
 20
3217.434338089503
  0
HATCH
  5
B9F
330
1F
100
AcDbEntity
  8
CETRIS
100
AcDbHatch
 10
0.0
 20
0.0
 30
0.0
210
0.0
220
0.0
230
1.0
  2
ANSI31
 70
     0
 71
     0
 91
        1
 92
        1
 93
        4
 72
     1
 10
577.0120726884263
 20
125.9461174419137
 11
577.0120726884263
 21
113.9461174419137
 72
     1
 10
577.0120726884263
 20
113.9461174419137
 11
-107.729807094475
 21
113.9461174419137
 72
     1
 10
-107.729807094475
 20
113.9461174419137
 11
-107.729807094475
 21
125.9461174419137
 72
     1
 10
-107.729807094475
 20
125.9461174419137
 11
577.0120726884263
 21
125.9461174419137
 97
        0
 75
     0
 76
     1
 52
0.0
 41
1.0
 77
     0
 78
     1
 53
45.0
 43
-25266.24911723683
 44
3217.434338089503
 45
-2.245064030267287
 46
2.245064030267288
 79
     0
 98
        1
 10
-25266.24911723683
 20
3217.434338089503
  0
LINE
  5
BA0
330
1F
100
AcDbEntity
  8
STAVBA OBRYS
100
AcDbLine
 10
-122.729807094475
 20
-71.05388255808623
 30
0.0
 11
577.0120726884263
 21
-71.05388255808623
 31
0.0
  0
LINE
  5
BA1
330
1F
100
AcDbEntity
  8
STAVBA OBRYS
100
AcDbLine
 10
-132.7298070944714
 20
-61.05388255808623
 30
0.0
 11
577.0120726884263
 21
-61.05388255808623
 31
0.0
  0
LINE
  5
BA2
330
1F
100
AcDbEntity
  8
CETRIS
100
AcDbLine
 10
-107.729807094475
 20
113.9461174419137
 30
0.0
 11
577.0120726884263
 21
113.9461174419137
 31
0.0
  0
LINE
  5
BA3
330
1F
100
AcDbEntity
  8
izolace
  6
IZOLACE
 48
1.9
100
AcDbLine
 10
-107.729807094475
 20
81.94611744191377
 30
0.0
 11
577.0120726884263
 21
81.94611744191377
 31
0.0
  0
LINE
  5
BA4
330
1F
100
AcDbEntity
  8
CETRIS
100
AcDbLine
 10
-107.729807094475
 20
101.9461174419137
 30
0.0
 11
577.0120726884263
 21
101.9461174419137
 31
0.0
  0
LINE
  5
BA5
330
1F
100
AcDbEntity
  8
CETRIS
100
AcDbLine
 10
-107.729807094475
 20
125.9461174419137
 30
0.0
 11
577.0120726884263
 21
125.9461174419137
 31
0.0
  0
LINE
  5
BA6
330
1F
100
AcDbEntity
  8
STAVBA OBRYS
100
AcDbLine
 10
-371.8104029229696
 20
58.94611744191377
 30
0.0
 11
577.0120726884263
 21
58.94611744191377
 31
0.0
  0
LINE
  5
BA7
330
1F
100
AcDbEntity
  8
STAVBA OBRYS
100
AcDbLine
 10
-123.5469245420943
 20
58.94611744191377
 30
0.0
 11
87.88075534974565
 21
58.94611744191377
 31
0.0
  0
LWPOLYLINE
  5
BA8
330
1F
100
AcDbEntity
  8
nášlap_vrstvy
100
AcDbPolyline
 90
        4
 70
     1
 43
0.0
 10
227.1411327969792
 20
125.9461174419137
 10
-122.7298070944714
 20
125.9461174419137
 10
-122.7298070944714
 20
127.4461174419137
 10
227.1411327969792
 20
127.4461174419137
  0
HATCH
  5
BA9
330
1F
100
AcDbEntity
  8
nášlap_vrstvy
100
AcDbHatch
 10
0.0
 20
0.0
 30
0.0
210
0.0
220
0.0
230
1.0
  2
ANSI31
 70
     0
 71
     0
 91
        1
 92
        7
 72
     0
 73
     1
 93
       12
 10
-111.9863797200457
 20
141.6331122894743
 10
-111.9863797200603
 20
136.2853705109245
 10
-119.5701178596107
 20
136.2853705109245
 10
-119.570117859607
 20
131.8602086767358
 10
-111.9863797200603
 20
131.8602086767367
 10
-111.9863797200566
 20
127.4461174419146
 10
63.35497364260596
 20
127.4461174419146
 10
63.35497364259868
 20
131.8602086767367
 10
55.77123550305191
 20
131.8602086767376
 10
55.77123550305191
 20
136.2853705109254
 10
63.35497364260959
 20
136.2853705109235
 10
63.35497364261687
 20
141.6331122894761
 97
        0
 75
     0
 76
     1
 52
75.0
 41
1.0
 77
     0
 78
     1
 53
120.0
 43
-29158.85100424278
 44
8498.765609247609
 45
-2.749630657015592
 46
-1.587499999999999
 79
     0
 47
0.5385165309736958
 98
        1
 10
1.710575047486827
 20
136.1455866385748
  0
LINE
  5
BAA
330
1F
100
AcDbEntity
  8
izolace
  6
IZOLACE
 48
0.6
100
AcDbLine
 10
-113.7289564396203
 20
125.9461174419142
 30
0.0
 11
-113.7289564396203
 21
61.94611744191423
 31
0.0
  0
LWPOLYLINE
  5
BAB
330
1F
100
AcDbEntity
  8
izolace
100
AcDbPolyline
 90
        4
 70
     1
 43
0.0
 10
-122.7298070944714
 20
58.94611744191514
 10
-119.7298070944714
 20
58.94611744191514
 10
-119.7298070944714
 20
127.4461174419137
 10
-122.7298070944714
 20
127.4461174419137
  0
HATCH
  5
BAC
330
1F
100
AcDbEntity
  8
izolace
100
AcDbHatch
 10
0.0
 20
0.0
 30
0.0
210
0.0
220
0.0
230
1.0
  2
SOLID
 70
     1
 71
     0
 91
        1
 92
        7
 72
     0
 73
     1
 93
        4
 10
-122.7298070944714
 20
127.4461174419174
 10
-122.7298070944714
 20
103.8043847320822
 10
-119.7298070944714
 20
103.8043847320785
 10
-119.7298070944714
 20
127.4461174419174
 97
        0
 75
     0
 76
     1
 47
0.1901250437635136
 98
        1
 10
-121.9129955433916
 20
113.162179490422
  0
LWPOLYLINE
  5
BAD
330
1F
100
AcDbEntity
  8
izolace
100
AcDbPolyline
 90
        4
 70
     1
 43
0.0
 10
-122.7298070944714
 20
127.4461174419137
 10
-122.7298070944714
 20
103.8043847320785
 10
-119.7298070944714
 20
103.8043847320785
 10
-119.7298070944714
 20
127.4461174419137
  0
HATCH
  5
BAE
330
1F
100
AcDbEntity
  8
STAVBA OBRYS
100
AcDbHatch
 10
0.0
 20
0.0
 30
0.0
210
0.0
220
0.0
230
1.0
  2
AR-CONC
 70
     0
 71
     0
 91
        2
 92
        7
 72
     0
 73
     1
 93
        4
 10
-122.7298070944714
 20
334.3669974436632
 10
-132.7298070944714
 20
334.3669974436632
 10
-132.7298070944714
 20
86.37754615985967
 10
-122.7298070944714
 20
81.49548686566584
 97
        0
 92
        7
 72
     0
 73
     1
 93
        4
 10
-371.8104029229659
 20
334.3669974436605
 10
-381.8104029229696
 20
334.3669974436596
 10
-381.810402922966
 20
-261.4082215474137
 10
-371.8104029229659
 20
-260.9219696127166
 97
        0
 75
     0
 76
     1
 52
90.0
 41
0.1
 77
     0
 78
    13
 53
140.0
 43
-27820.12127422066
 44
2985.665347436707
 45
1.593908553890309
 46
18.2184668996004
 79
     2
 49
1.905
 49
-20.955
 53
85.00000000000001
 43
-27820.12127422066
 44
2985.665347436707
 45
-19.10566428821799
 46
-3.524282597566697
 79
     2
 49
1.524
 49
-16.764
 53
190.4509999999999
 43
-27819.98844922066
 44
2987.183547436707
 45
-17.51166878202918
 46
14.69425016659592
 79
     2
 49
1.619
 49
-17.809
 53
136.1841999999999
 43
-27825.20127422066
 44
2985.665347436707
 45
4.204232793272717
 46
27.10790408921299
 79
     2
 49
2.857499999999999
 49
-31.4325
 53
186.6355999999999
 43
-27824.85092422066
 44
2987.924337436707
 45
-24.74255558900492
 46
23.74042344662371
 79
     2
 49
2.4285
 49
-26.7135
 53
81.18400000000004
 43
-27825.20127422066
 44
2985.665347436707
 45
-24.74251178605976
 46
23.74046058139339
 79
     2
 49
2.286
 49
-25.146
 53
111.0
 43
-27823.93127422067
 44
2988.205347436707
 45
10.22655185167625
 46
15.16148798353833
 79
     2
 49
1.905
 49
-20.955
 53
56.00000000000004
 43
-27823.93127422067
 44
2988.205347436707
 45
-18.41879661223192
 46
6.180202834764708
 79
     2
 49
1.524
 49
-16.764
 53
161.4514
 43
-27823.07906422066
 44
2989.468797436706
 45
-8.192285771605742
 46
21.34164907701245
 79
     2
 49
1.618999999999997
 49
-17.80899999999996
 53
127.5
 43
-27820.12127422066
 44
2985.665347436707
 45
-8.455503887315311
 46
0.3088603250591822
 79
     6
 49
0.0
 49
-16.5608
 49
0.0
 49
-17.018
 49
0.0
 49
-16.8275
 53
97.49999999999987
 43
-27820.12127422066
 44
2985.665347436707
 45
-10.01805748181195
 46
6.681966251030575
 79
     6
 49
0.0
 49
-9.702799999999998
 49
0.0
 49
-16.17979999999999
 49
0.0
 49
-6.413499999999999
 53
57.5
 43
-27820.12127422066
 44
2980.001147436707
 45
0.5728743992673473
 46
13.55905951668713
 79
     6
 49
0.0
 49
-6.35
 49
0.0
 49
-19.812
 49
0.0
 49
-26.289
 53
47.5
 43
-27820.12127422066
 44
2977.461147436707
 45
-2.5426491033333
 46
14.8129181386018
 79
     6
 49
0.0
 49
-8.255
 49
0.0
 49
-13.1572
 49
0.0
 49
-18.669
 47
1.255134839913078
 98
        2
 10
-128.8471853187736
 20
182.934941750971
 10
-376.2606006527282
 20
131.4744020836059
  0
HATCH
  5
BAF
330
1F
100
AcDbEntity
  8
STAVBA OBRYS
100
AcDbHatch
 10
0.0
 20
0.0
 30
0.0
210
0.0
220
0.0
230
1.0
  2
BRICK
 70
     0
 71
     0
 91
        3
 92
        7
 72
     0
 73
     1
 93
        4
 10
-132.7298070944714
 20
334.3669974436632
 10
-371.8104029229659
 20
334.3669974436605
 10
-371.8104029229659
 20
58.94611744191559
 10
-132.7298070944641
 20
58.94611744191559
 97
        0
 92
        7
 72
     0
 73
     1
 93
        4
 10
-132.7298070944714
 20
-154.6655726425943
 10
-371.8104029229659
 20
-154.6655726425925
 10
-371.8104029229659
 20
-260.9219696127148
 10
-132.7298070944677
 20
-249.2966293856899
 97
        0
 92
       24
 93
        4
 72
     1
 10
-233.8660115989375
 20
95.75539444056074
 11
-193.0345825402698
 21
95.75539444056074
 72
     1
 10
-193.0345825402698
 20
95.75539444056074
 11
-193.0345825402698
 21
134.0483685196876
 72
     1
 10
-193.0345825402698
 20
134.0483685196885
 11
-233.8660115989375
 21
134.0483685196885
 72
     1
 10
-233.8660115989375
 20
134.0483685196885
 11
-233.8660115989375
 21
95.75539444056255
 97
        0
 75
     0
 76
     1
 52
0.0
 41
10.0
 77
     0
 78
     3
 53
0.0
 43
-27820.12127422066
 44
2985.665347436707
 45
0.0
 46
63.5
 79
     0
 53
90.0
 43
-27820.12127422066
 44
2985.665347436707
 45
-127.0
 46
0.0000000000000078
 79
     2
 49
63.5
 49
-63.5
 53
90.0
 43
-27756.62127422066
 44
2985.665347436707
 45
-127.0
 46
0.0000000000000078
 79
     2
 49
-63.5
 49
63.5
 47
3.017070218097292
 98
        2
 10
-208.621734787878
 20
191.0661682294902
 10
-238.810972173859
 20
-204.1700326271985
  0
TEXT
  5
BB0
330
1F
100
AcDbEntity
  8
POPIS
100
AcDbText
 10
-227.4838492524147
 20
102.5638869371504
 30
0.0
 40
25.0
  1
06
 41
0.85
  7
SIMPLEX7
100
AcDbText
  0
LINE
  5
BB1
330
1F
100
AcDbEntity
  8
STAVBA OBRYS
100
AcDbLine
 10
-132.7298070944714
 20
58.94611744191377
 30
0.0
 11
-132.729807094475
 21
334.3669974436632
 31
0.0
  0
LINE
  5
BB2
330
1F
100
AcDbEntity
  8
STAVBA OBRYS
100
AcDbLine
 10
-371.8104029229659
 20
-261.4082215474137
 30
0.0
 11
-371.8104029229696
 21
334.3669974436605
 31
0.0
  0
LINE
  5
BB3
330
1F
100
AcDbEntity
  8
STAVBA OBRYS
100
AcDbLine
 10
-381.810402922966
 20
-261.4082215474137
 30
0.0
 11
-381.8104029229696
 21
334.3669974436605
 31
0.0
  0
LINE
  5
BB4
330
1F
100
AcDbEntity
  8
CETRIS
100
AcDbLine
 10
-107.729807094475
 20
125.9461174419137
 30
0.0
 11
-107.729807094475
 21
113.9461174419137
 31
0.0
  0
LINE
  5
BB5
330
1F
100
AcDbEntity
  8
STAVBA OBRYS
100
AcDbLine
 10
-122.7298070944714
 20
58.94611744191377
 30
0.0
 11
-122.729807094475
 21
334.3669974436632
 31
0.0
  0
LINE
  5
BB6
330
1F
100
AcDbEntity
  8
SPOJOVACÍ
  6
DASHED
100
AcDbLine
 10
-79.8444120278225
 20
119.4785121162475
 30
0.0
 11
-79.62198839475672
 21
120.9716675106081
 31
0.0
  0
LINE
  5
BB7
330
1F
100
AcDbEntity
  8
SPOJOVACÍ
  6
DASHED
100
AcDbLine
 10
-82.55451641958712
 20
120.2497022649075
 30
0.0
 11
-82.48979478730394
 21
119.4785121162475
 31
0.0
  0
LWPOLYLINE
  5
BB8
330
1F
100
AcDbEntity
  8
izolace
100
AcDbPolyline
 90
        4
 70
     1
 43
0.0
 10
-122.729807094475
 20
125.9461174419137
 10
-107.729807094475
 20
125.9461174419137
 10
-107.729807094475
 20
61.94611744191377
 10
-122.729807094475
 20
61.94611744191377
  0
LINE
  5
BB9
330
1F
100
AcDbEntity
  8
STAVBA OBRYS
100
AcDbLine
 10
-132.7298070944714
 20
-154.6655726425943
 30
0.0
 11
-371.8104029229659
 21
-154.6655726425943
 31
0.0
  0
LINE
  5
BBA
330
1F
100
AcDbEntity
  8
izolace
  6
IZOLACE
 48
2.1
100
AcDbLine
 10
-349.4296888182004
 20
-154.6655726425943
 30
0.0
 11
-349.4296888182004
 21
58.94611744191377
 31
0.0
  0
LINE
  5
BBB
330
1F
100
AcDbEntity
  8
STAVBA OBRYS
100
AcDbLine
 10
-328.1091908908426
 20
-154.6655726425943
 30
0.0
 11
-328.1091908908426
 21
58.94611744191377
 31
0.0
  0
LINE
  5
BBC
330
1F
100
AcDbEntity
  8
STAVBA OBRYS
100
AcDbLine
 10
-132.7298070944714
 20
-61.05388255808623
 30
0.0
 11
-132.7298070944714
 21
-248.810377450991
 31
0.0
  0
LINE
  5
BBD
330
1F
100
AcDbEntity
  8
STAVBA OBRYS
100
AcDbLine
 10
-122.729807094475
 20
-71.05388255808623
 30
0.0
 11
-122.729807094475
 21
-248.810377450991
 31
0.0
  0
HATCH
  5
BBE
330
1F
100
AcDbEntity
  8
STAVBA OBRYS
100
AcDbHatch
 10
0.0
 20
0.0
 30
0.0
210
0.0
220
0.0
230
1.0
  2
AR-CONC
 70
     0
 71
     0
 91
        1
 92
        7
 72
     0
 73
     1
 93
        5
 10
-132.7298070944714
 20
58.94611744191377
 10
-122.729807094475
 20
58.94611744191377
 10
-122.729807094475
 20
61.94611744191377
 10
-122.7298070944786
 20
81.49548686567039
 10
-132.7298070944787
 20
86.37754615985874
 97
        0
 75
     0
 76
     1
 52
90.0
 41
0.1
 77
     0
 78
    13
 53
140.0
 43
-27820.12127422066
 44
2985.665347436707
 45
1.593908553890309
 46
18.2184668996004
 79
     2
 49
1.905
 49
-20.955
 53
85.00000000000001
 43
-27820.12127422066
 44
2985.665347436707
 45
-19.10566428821799
 46
-3.524282597566697
 79
     2
 49
1.524
 49
-16.764
 53
190.4509999999999
 43
-27819.98844922066
 44
2987.183547436707
 45
-17.51166878202918
 46
14.69425016659592
 79
     2
 49
1.619
 49
-17.809
 53
136.1841999999999
 43
-27825.20127422066
 44
2985.665347436707
 45
4.204232793272717
 46
27.10790408921299
 79
     2
 49
2.857499999999999
 49
-31.4325
 53
186.6355999999999
 43
-27824.85092422066
 44
2987.924337436707
 45
-24.74255558900492
 46
23.74042344662371
 79
     2
 49
2.4285
 49
-26.7135
 53
81.18400000000004
 43
-27825.20127422066
 44
2985.665347436707
 45
-24.74251178605976
 46
23.74046058139339
 79
     2
 49
2.286
 49
-25.146
 53
111.0
 43
-27823.93127422067
 44
2988.205347436707
 45
10.22655185167625
 46
15.16148798353833
 79
     2
 49
1.905
 49
-20.955
 53
56.00000000000004
 43
-27823.93127422067
 44
2988.205347436707
 45
-18.41879661223192
 46
6.180202834764708
 79
     2
 49
1.524
 49
-16.764
 53
161.4514
 43
-27823.07906422066
 44
2989.468797436706
 45
-8.192285771605742
 46
21.34164907701245
 79
     2
 49
1.618999999999997
 49
-17.80899999999996
 53
127.5
 43
-27820.12127422066
 44
2985.665347436707
 45
-8.455503887315311
 46
0.3088603250591822
 79
     6
 49
0.0
 49
-16.5608
 49
0.0
 49
-17.018
 49
0.0
 49
-16.8275
 53
97.49999999999987
 43
-27820.12127422066
 44
2985.665347436707
 45
-10.01805748181195
 46
6.681966251030575
 79
     6
 49
0.0
 49
-9.702799999999998
 49
0.0
 49
-16.17979999999999
 49
0.0
 49
-6.413499999999999
 53
57.5
 43
-27820.12127422066
 44
2980.001147436707
 45
0.5728743992673473
 46
13.55905951668713
 79
     6
 49
0.0
 49
-6.35
 49
0.0
 49
-19.812
 49
0.0
 49
-26.289
 53
47.5
 43
-27820.12127422066
 44
2977.461147436707
 45
-2.5426491033333
 46
14.8129181386018
 79
     6
 49
0.0
 49
-8.255
 49
0.0
 49
-13.1572
 49
0.0
 49
-18.669
 47
0.415434097446913
 98
        1
 10
-130.1443237108767
 20
66.84622684168232
  0
LINE
  5
BBF
330
1F
100
AcDbEntity
  8
POPIS
100
AcDbLine
 10
-118.155763857904
 20
79.26241183615627
 30
0.0
 11
-189.2754533169907
 21
113.9834659285278
 31
0.0
  0
HATCH
  5
BC0
330
1F
100
AcDbEntity
  8
izolace
100
AcDbHatch
 10
0.0
 20
0.0
 30
0.0
210
0.0
220
0.0
230
1.0
  2
SOLID
 70
     1
 71
     0
 91
        1
 92
        7
 72
     0
 73
     1
 93
        4
 10
-122.7298070944714
 20
82.58785015175396
 10
-122.7298070944714
 20
58.94611744191877
 10
-119.7298070944714
 20
58.94611744191514
 10
-119.7298070944714
 20
82.58785015175396
 97
        0
 75
     0
 76
     1
 47
0.1901250437635136
 98
        1
 10
-121.9129955433916
 20
68.30391220025865
  0
INSERT
  5
BC1
330
1F
100
AcDbEntity
  8
POPIS
100
AcDbBlockReference
  2
E_PUNKT
 10
-114.8727656674861
 20
79.34384870826204
 30
0.0
 50
270.0
  0
LWPOLYLINE
  5
BC2
330
1F
100
AcDbEntity
  8
izolace
100
AcDbPolyline
 90
        4
 70
     1
 43
0.0
 10
-4.521143545299082
 20
61.94611744191377
 10
-28.16287625513428
 20
61.94611744191377
 10
-28.16287625513428
 20
58.94611744191377
 10
-4.521143545299082
 20
58.94611744191377
  0
HATCH
  5
BC3
330
1F
100
AcDbEntity
  8
izolace
100
AcDbHatch
 10
0.0
 20
0.0
 30
0.0
210
0.0
220
0.0
230
1.0
  2
SOLID
 70
     1
 71
     0
 91
        1
 92
        7
 72
     0
 73
     1
 93
        4
 10
-4.521143545295444
 20
61.94611744191377
 10
-28.16287625513064
 20
61.94611744191377
 10
-28.16287625513428
 20
58.94611744191377
 10
-4.521143545295444
 20
58.94611744191377
 97
        0
 75
     0
 76
     1
 47
0.1901250437635136
 98
        1
 10
-18.80508149679076
 20
61.12930589083396
  0
HATCH
  5
BC4
330
1F
100
AcDbEntity
  8
izolace
100
AcDbHatch
 10
0.0
 20
0.0
 30
0.0
210
0.0
220
0.0
230
1.0
  2
SOLID
 70
     1
 71
     0
 91
        1
 92
        7
 72
     0
 73
     1
 93
        4
 10
-51.80460896496583
 20
61.94611744191377
 10
-75.44634167480103
 20
61.94611744191377
 10
-75.44634167480467
 20
58.94611744191377
 10
-51.80460896496583
 20
58.94611744191377
 97
        0
 75
     0
 76
     1
 47
0.1901250437635136
 98
        1
 10
-66.08854691646115
 20
61.12930589083396
  0
HATCH
  5
BC5
330
1F
100
AcDbEntity
  8
izolace
100
AcDbHatch
 10
0.0
 20
0.0
 30
0.0
210
0.0
220
0.0
230
1.0
  2
SOLID
 70
     1
 71
     0
 91
        1
 92
        7
 72
     0
 73
     1
 93
        4
 10
-99.08807438463988
 20
61.94611744191377
 10
-122.7298070944714
 20
61.94611744191377
 10
-122.729807094475
 20
58.94611744191377
 10
-99.08807438463623
 20
58.94611744191377
 97
        0
 75
     0
 76
     1
 47
0.1901250437635136
 98
        3
 10
-70.84458412045274
 20
60.17867251252562
 10
-107.1807749477927
 20
59.98854583686432
 10
-111.1758471370201
 20
60.55892586384823
  0
LWPOLYLINE
  5
BC6
330
1F
100
AcDbEntity
  8
izolace
100
AcDbPolyline
 90
        4
 70
     1
 43
0.0
 10
-51.80460896496947
 20
61.94611744191377
 10
-75.44634167480467
 20
61.94611744191377
 10
-75.44634167480467
 20
58.94611744191377
 10
-51.80460896496947
 20
58.94611744191377
  0
LWPOLYLINE
  5
BC7
330
1F
100
AcDbEntity
  8
izolace
100
AcDbPolyline
 90
        4
 70
     1
 43
0.0
 10
-99.08807438463988
 20
61.94611744191377
 10
-122.729807094475
 20
61.94611744191377
 10
-122.729807094475
 20
58.94611744191377
 10
-99.08807438463988
 20
58.94611744191377
  0
LINE
  5
BC8
330
1F
100
AcDbEntity
  8
CETRIS
100
AcDbLine
 10
-107.729807094475
 20
113.9461174419137
 30
0.0
 11
-107.729807094475
 21
101.9461174419137
 31
0.0
  0
LINE
  5
BC9
330
1F
100
AcDbEntity
  8
SPOJOVACÍ
  6
DASHED
100
AcDbLine
 10
-79.8444120278225
 20
119.4785121162475
 30
0.0
 11
-79.8444120278225
 21
114.6344170208975
 31
0.0
  0
LINE
  5
BCA
330
1F
100
AcDbEntity
  8
SPOJOVACÍ
  6
DASHED
100
AcDbLine
 10
-82.48979478730394
 20
119.4785121162475
 30
0.0
 11
-82.48979478730394
 21
115.5213768491611
 31
0.0
  0
LINE
  5
BCB
330
1F
100
AcDbEntity
  8
SPOJOVACÍ
  6
DASHED
100
AcDbLine
 10
-82.48979478730394
 20
114.9379705901682
 30
0.0
 11
-82.48979478730394
 21
112.4694328562399
 31
0.0
  0
LINE
  5
BCC
330
1F
100
AcDbEntity
  8
SPOJOVACÍ
  6
DASHED
100
AcDbLine
 10
-82.48979478730394
 20
111.8778224467513
 30
0.0
 11
-82.48979478730394
 21
109.4074615681764
 31
0.0
  0
LINE
  5
BCD
330
1F
100
AcDbEntity
  8
SPOJOVACÍ
  6
DASHED
100
AcDbLine
 10
-82.48979478730394
 20
108.8249668813713
 30
0.0
 11
-82.48979478730394
 21
106.3473134247595
 31
0.0
  0
LINE
  5
BCE
330
1F
100
AcDbEntity
  8
SPOJOVACÍ
  6
DASHED
100
AcDbLine
 10
-79.8444120278225
 20
114.0428066114089
 30
0.0
 11
-79.8444120278225
 21
111.5742688774806
 31
0.0
  0
LINE
  5
BCF
330
1F
100
AcDbEntity
  8
SPOJOVACÍ
  6
DASHED
100
AcDbLine
 10
-79.8444120278225
 20
110.9899510460289
 30
0.0
 11
-79.8444120278225
 21
108.5122975894172
 31
0.0
  0
LINE
  5
BD0
330
1F
100
AcDbEntity
  8
SPOJOVACÍ
  6
DASHED
100
AcDbLine
 10
-79.8444120278225
 20
107.929802902612
 30
0.0
 11
-79.8444120278225
 21
105.4594420240372
 31
0.0
  0
LINE
  5
BD1
330
1F
100
AcDbEntity
  8
SPOJOVACÍ
  6
DASHED
100
AcDbLine
 10
-82.48979478730394
 20
105.7547914428195
 30
0.0
 11
-82.48979478730394
 21
103.2871652810789
 31
0.0
  0
LINE
  5
BD2
330
1F
100
AcDbEntity
  8
SPOJOVACÍ
  6
DASHED
100
AcDbLine
 10
-82.48979478730394
 20
102.7028474496272
 30
0.0
 11
-82.48979478730394
 21
101.4804290225764
 31
0.0
  0
LINE
  5
BD3
330
1F
100
AcDbEntity
  8
SPOJOVACÍ
  6
DASHED
100
AcDbLine
 10
-79.8444120278225
 20
104.8705663313829
 30
0.0
 11
-79.8444120278225
 21
102.4020285974546
 31
0.0
  0
LINE
  5
BD4
330
1F
100
AcDbEntity
  8
SPOJOVACÍ
  6
DASHED
100
AcDbLine
 10
-79.8444120278225
 20
101.8104181877023
 30
0.0
 11
-79.8444120278225
 21
101.4804290225764
 31
0.0
  0
LINE
  5
BD5
330
1F
100
AcDbEntity
  8
SPOJOVACÍ
  6
DASHED
100
AcDbLine
 10
-82.48979478730394
 20
101.4804290225764
 30
0.0
 11
-82.34303165063534
 21
100.3072354982067
 31
0.0
  0
LINE
  5
BD6
330
1F
100
AcDbEntity
  8
SPOJOVACÍ
  6
DASHED
100
AcDbLine
 10
-81.16710340970234
 20
90.89616328092223
 30
0.0
 11
-80.81979436819597
 21
93.67554716216535
 31
0.0
  0
LINE
  5
BD7
330
1F
100
AcDbEntity
  8
SPOJOVACÍ
  6
DASHED
100
AcDbLine
 10
-82.26737114995989
 20
99.6992167874704
 30
0.0
 11
-81.98296059743075
 21
97.42393237712702
 31
0.0
  0
LINE
  5
BD8
330
1F
100
AcDbEntity
  8
SPOJOVACÍ
  6
DASHED
100
AcDbLine
 10
-81.90547695344935
 20
96.80588637125573
 30
0.0
 11
-81.62106640519846
 21
94.53151353310738
 31
0.0
  0
LINE
  5
BD9
330
1F
100
AcDbEntity
  8
SPOJOVACÍ
  6
DASHED
100
AcDbLine
 10
-81.54540590452302
 20
93.92349482237102
 30
0.0
 11
-81.16710340970234
 21
90.89616328092223
 31
0.0
  0
LINE
  5
BDA
330
1F
100
AcDbEntity
  8
SPOJOVACÍ
  6
DASHED
100
AcDbLine
 10
-80.74960330171666
 20
94.2334293974908
 30
0.0
 11
-80.48707048597202
 21
96.33551507477557
 31
0.0
  0
LINE
  5
BDB
330
1F
100
AcDbEntity
  8
SPOJOVACÍ
  6
DASHED
100
AcDbLine
 10
-80.41687942377098
 20
96.89613202693534
 30
0.0
 11
-80.15525817754019
 21
98.99001355373172
 31
0.0
  0
LINE
  5
BDC
330
1F
100
AcDbEntity
  8
SPOJOVACÍ
  6
DASHED
100
AcDbLine
 10
-80.08506711106088
 20
99.54880736151597
 30
0.0
 11
-79.8444120278225
 21
101.4804290225764
 31
0.0
  0
LINE
  5
BDD
330
1F
100
AcDbEntity
  8
SPOJOVACÍ
  6
DASHED
100
AcDbLine
 10
-83.51895989156833
 20
115.3618517002595
 30
0.0
 11
-78.81524692783637
 21
114.1859234593265
 31
0.0
  0
LINE
  5
BDE
330
1F
100
AcDbEntity
  8
SPOJOVACÍ
  6
DASHED
100
AcDbLine
 10
-83.51895989156833
 20
115.3618517002595
 30
0.0
 11
-83.14886154376358
 21
115.1485437869322
 31
0.0
  0
LINE
  5
BDF
330
1F
100
AcDbEntity
  8
SPOJOVACÍ
  6
DASHED
100
AcDbLine
 10
-83.51895989156833
 20
115.3618517002595
 30
0.0
 11
-83.14886154376358
 21
115.7328616181129
 31
0.0
  0
LINE
  5
BE0
330
1F
100
AcDbEntity
  8
SPOJOVACÍ
  6
DASHED
100
AcDbLine
 10
-78.81524692783637
 20
114.1859234593265
 30
0.0
 11
-79.18534527136285
 21
113.8158251136609
 31
0.0
  0
LINE
  5
BE1
330
1F
100
AcDbEntity
  8
SPOJOVACÍ
  6
DASHED
100
AcDbLine
 10
-78.81524692783637
 20
114.1859234593265
 30
0.0
 11
-79.18534527136285
 21
114.4001429451126
 31
0.0
  0
LINE
  5
BE2
330
1F
100
AcDbEntity
  8
SPOJOVACÍ
  6
DASHED
100
AcDbLine
 10
-83.14886154376358
 20
115.1485437869322
 30
0.0
 11
-79.18534527136285
 21
113.8158251136609
 31
0.0
  0
LINE
  5
BE3
330
1F
100
AcDbEntity
  8
SPOJOVACÍ
  6
DASHED
100
AcDbLine
 10
-83.14886154376358
 20
115.7328616181129
 30
0.0
 11
-79.18534527136285
 21
114.4001429451126
 31
0.0
  0
LINE
  5
BE4
330
1F
100
AcDbEntity
  8
SPOJOVACÍ
  6
DASHED
100
AcDbLine
 10
-83.51895989156833
 20
112.3044382736769
 30
0.0
 11
-78.81524692783637
 21
111.1285100324729
 31
0.0
  0
LINE
  5
BE5
330
1F
100
AcDbEntity
  8
SPOJOVACÍ
  6
DASHED
100
AcDbLine
 10
-83.51895989156833
 20
112.3044382736769
 30
0.0
 11
-83.14886154376358
 21
112.0902187878908
 31
0.0
  0
LINE
  5
BE6
330
1F
100
AcDbEntity
  8
SPOJOVACÍ
  6
DASHED
100
AcDbLine
 10
-83.51895989156833
 20
112.3044382736769
 30
0.0
 11
-83.14886154376358
 21
112.6745366193425
 31
0.0
  0
LINE
  5
BE7
330
1F
100
AcDbEntity
  8
SPOJOVACÍ
  6
DASHED
100
AcDbLine
 10
-78.81524692783637
 20
111.1285100324729
 30
0.0
 11
-79.18534527136285
 21
110.7584116870783
 31
0.0
  0
LINE
  5
BE8
330
1F
100
AcDbEntity
  8
SPOJOVACÍ
  6
DASHED
100
AcDbLine
 10
-78.81524692783637
 20
111.1285100324729
 30
0.0
 11
-79.18534527136285
 21
111.342729518259
 31
0.0
  0
LINE
  5
BE9
330
1F
100
AcDbEntity
  8
SPOJOVACÍ
  6
DASHED
100
AcDbLine
 10
-83.14886154376358
 20
112.0902187878908
 30
0.0
 11
-79.18534527136285
 21
110.7584116870783
 31
0.0
  0
LINE
  5
BEA
330
1F
100
AcDbEntity
  8
SPOJOVACÍ
  6
DASHED
100
AcDbLine
 10
-83.14886154376358
 20
112.6745366193425
 30
0.0
 11
-79.18534527136285
 21
111.342729518259
 31
0.0
  0
LINE
  5
BEB
330
1F
100
AcDbEntity
  8
SPOJOVACÍ
  6
DASHED
100
AcDbLine
 10
-83.27010065703575
 20
100.1158053195248
 30
0.0
 11
-82.89909073971717
 21
99.90158583373876
 31
0.0
  0
LINE
  5
BEC
330
1F
100
AcDbEntity
  8
SPOJOVACÍ
  6
DASHED
100
AcDbLine
 10
-83.27010065703575
 20
100.1158053195248
 30
0.0
 11
-82.89909073971717
 21
100.4859036651904
 31
0.0
  0
LINE
  5
BED
330
1F
100
AcDbEntity
  8
SPOJOVACÍ
  6
DASHED
100
AcDbLine
 10
-79.22727759734766
 20
99.16230071486632
 30
0.0
 11
-79.59737594087414
 21
98.79129079674193
 31
0.0
  0
LINE
  5
BEE
330
1F
100
AcDbEntity
  8
SPOJOVACÍ
  6
DASHED
100
AcDbLine
 10
-79.22727759734766
 20
99.16230071486632
 30
0.0
 11
-79.59737594087414
 21
99.37560862819362
 31
0.0
  0
LINE
  5
BEF
330
1F
100
AcDbEntity
  8
SPOJOVACÍ
  6
DASHED
100
AcDbLine
 10
-82.89909073971717
 20
99.90158583373876
 30
0.0
 11
-79.59737594087414
 21
98.79129079674193
 31
0.0
  0
LINE
  5
BF0
330
1F
100
AcDbEntity
  8
SPOJOVACÍ
  6
DASHED
100
AcDbLine
 10
-82.89909073971717
 20
100.4859036651904
 30
0.0
 11
-79.59737594087414
 21
99.37560862819362
 31
0.0
  0
LINE
  5
BF1
330
1F
100
AcDbEntity
  8
SPOJOVACÍ
  6
DASHED
100
AcDbLine
 10
-83.27010065703575
 20
100.1158053195248
 30
0.0
 11
-79.22727759734766
 21
99.16230071486632
 31
0.0
  0
LINE
  5
BF2
330
1F
100
AcDbEntity
  8
SPOJOVACÍ
  6
DASHED
100
AcDbLine
 10
-82.716776285052
 20
97.16139956031282
 30
0.0
 11
-82.34667793724725
 21
96.94809164698552
 31
0.0
  0
LINE
  5
BF3
330
1F
100
AcDbEntity
  8
SPOJOVACÍ
  6
DASHED
100
AcDbLine
 10
-82.716776285052
 20
97.16139956031282
 30
0.0
 11
-82.34667793724725
 21
97.53240947843721
 31
0.0
  0
LINE
  5
BF4
330
1F
100
AcDbEntity
  8
SPOJOVACÍ
  6
DASHED
100
AcDbLine
 10
-79.66300914694944
 20
96.54061883787825
 30
0.0
 11
-80.0331074904759
 21
96.16960892002488
 31
0.0
  0
LINE
  5
BF5
330
1F
100
AcDbEntity
  8
SPOJOVACÍ
  6
DASHED
100
AcDbLine
 10
-79.66300914694944
 20
96.54061883787825
 30
0.0
 11
-80.0331074904759
 21
96.75392675120555
 31
0.0
  0
LINE
  5
BF6
330
1F
100
AcDbEntity
  8
SPOJOVACÍ
  6
DASHED
100
AcDbLine
 10
-82.34667793724725
 20
96.94809164698552
 30
0.0
 11
-80.0331074904759
 21
96.16960892002488
 31
0.0
  0
LINE
  5
BF7
330
1F
100
AcDbEntity
  8
SPOJOVACÍ
  6
DASHED
100
AcDbLine
 10
-82.34667793724725
 20
97.53240947843721
 30
0.0
 11
-80.0331074904759
 21
96.75392675120555
 31
0.0
  0
LINE
  5
BF8
330
1F
100
AcDbEntity
  8
SPOJOVACÍ
  6
DASHED
100
AcDbLine
 10
-82.716776285052
 20
97.16139956031282
 30
0.0
 11
-79.66300914694944
 21
96.54061883787825
 31
0.0
  0
LINE
  5
BF9
330
1F
100
AcDbEntity
  8
SPOJOVACÍ
  6
DASHED
100
AcDbLine
 10
-82.16345190878996
 20
94.20790537355959
 30
0.0
 11
-81.79335356526349
 21
93.99368588778077
 31
0.0
  0
LINE
  5
BFA
330
1F
100
AcDbEntity
  8
SPOJOVACÍ
  6
DASHED
100
AcDbLine
 10
-82.16345190878996
 20
94.20790537355959
 30
0.0
 11
-81.79335356526349
 21
94.5780037192252
 31
0.0
  0
LINE
  5
BFB
330
1F
100
AcDbEntity
  8
SPOJOVACÍ
  6
DASHED
100
AcDbLine
 10
-80.05225051016237
 20
93.90344023210117
 30
0.0
 11
-80.42234885368884
 21
93.5324303142478
 31
0.0
  0
LINE
  5
BFC
330
1F
100
AcDbEntity
  8
SPOJOVACÍ
  6
DASHED
100
AcDbLine
 10
-80.05225051016237
 20
93.90344023210117
 30
0.0
 11
-80.42234885368884
 21
94.11674814569222
 31
0.0
  0
LINE
  5
BFD
330
1F
100
AcDbEntity
  8
SPOJOVACÍ
  6
DASHED
100
AcDbLine
 10
-81.79335356526349
 20
93.99368588778077
 30
0.0
 11
-80.42234885368884
 21
93.5324303142478
 31
0.0
  0
LINE
  5
BFE
330
1F
100
AcDbEntity
  8
SPOJOVACÍ
  6
DASHED
100
AcDbLine
 10
-81.79335356526349
 20
94.5780037192252
 30
0.0
 11
-80.42234885368884
 21
94.11674814569222
 31
0.0
  0
LINE
  5
BFF
330
1F
100
AcDbEntity
  8
SPOJOVACÍ
  6
DASHED
100
AcDbLine
 10
-82.16345190878996
 20
94.20790537355959
 30
0.0
 11
-80.05225051016237
 21
93.90344023210117
 31
0.0
  0
LINE
  5
C00
330
1F
100
AcDbEntity
  8
SPOJOVACÍ
  6
DASHED
100
AcDbLine
 10
-83.51895989156833
 20
109.2470248468233
 30
0.0
 11
-78.81524692783637
 21
108.0710966058903
 31
0.0
  0
LINE
  5
C01
330
1F
100
AcDbEntity
  8
SPOJOVACÍ
  6
DASHED
100
AcDbLine
 10
-83.51895989156833
 20
109.2470248468233
 30
0.0
 11
-83.14886154376358
 21
109.0328053610372
 31
0.0
  0
LINE
  5
C02
330
1F
100
AcDbEntity
  8
SPOJOVACÍ
  6
DASHED
100
AcDbLine
 10
-83.51895989156833
 20
109.2470248468233
 30
0.0
 11
-83.14886154376358
 21
109.6171231924889
 31
0.0
  0
LINE
  5
C03
330
1F
100
AcDbEntity
  8
SPOJOVACÍ
  6
DASHED
100
AcDbLine
 10
-78.81524692783637
 20
108.0710966058903
 30
0.0
 11
-79.18534527136285
 21
107.700086688037
 31
0.0
  0
LINE
  5
C04
330
1F
100
AcDbEntity
  8
SPOJOVACÍ
  6
DASHED
100
AcDbLine
 10
-78.81524692783637
 20
108.0710966058903
 30
0.0
 11
-79.18534527136285
 21
108.2844045194814
 31
0.0
  0
LINE
  5
C05
330
1F
100
AcDbEntity
  8
SPOJOVACÍ
  6
DASHED
100
AcDbLine
 10
-83.14886154376358
 20
109.0328053610372
 30
0.0
 11
-79.18534527136285
 21
107.700086688037
 31
0.0
  0
LINE
  5
C06
330
1F
100
AcDbEntity
  8
SPOJOVACÍ
  6
DASHED
100
AcDbLine
 10
-83.14886154376358
 20
109.6171231924889
 30
0.0
 11
-79.18534527136285
 21
108.2844045194814
 31
0.0
  0
LINE
  5
C07
330
1F
100
AcDbEntity
  8
SPOJOVACÍ
  6
DASHED
100
AcDbLine
 10
-83.51895989156833
 20
106.1896114202335
 30
0.0
 11
-78.81524692783637
 21
105.0136831793005
 31
0.0
  0
LINE
  5
C08
330
1F
100
AcDbEntity
  8
SPOJOVACÍ
  6
DASHED
100
AcDbLine
 10
-83.51895989156833
 20
106.1896114202335
 30
0.0
 11
-83.14886154376358
 21
105.9753919344547
 31
0.0
  0
LINE
  5
C09
330
1F
100
AcDbEntity
  8
SPOJOVACÍ
  6
DASHED
100
AcDbLine
 10
-83.51895989156833
 20
106.1896114202335
 30
0.0
 11
-83.14886154376358
 21
106.5597097658991
 31
0.0
  0
LINE
  5
C0A
330
1F
100
AcDbEntity
  8
SPOJOVACÍ
  6
DASHED
100
AcDbLine
 10
-78.81524692783637
 20
105.0136831793005
 30
0.0
 11
-79.18534527136285
 21
104.6426732614471
 31
0.0
  0
LINE
  5
C0B
330
1F
100
AcDbEntity
  8
SPOJOVACÍ
  6
DASHED
100
AcDbLine
 10
-78.81524692783637
 20
105.0136831793005
 30
0.0
 11
-79.18534527136285
 21
105.2269910926278
 31
0.0
  0
LINE
  5
C0C
330
1F
100
AcDbEntity
  8
SPOJOVACÍ
  6
DASHED
100
AcDbLine
 10
-83.14886154376358
 20
105.9753919344547
 30
0.0
 11
-79.18534527136285
 21
104.6426732614471
 31
0.0
  0
LINE
  5
C0D
330
1F
100
AcDbEntity
  8
SPOJOVACÍ
  6
DASHED
100
AcDbLine
 10
-83.14886154376358
 20
106.5597097658991
 30
0.0
 11
-79.18534527136285
 21
105.2269910926278
 31
0.0
  0
LINE
  5
C0E
330
1F
100
AcDbEntity
  8
SPOJOVACÍ
  6
DASHED
100
AcDbLine
 10
-83.51895989156833
 20
103.1312864211921
 30
0.0
 11
-78.81524692783637
 21
101.9553581802591
 31
0.0
  0
LINE
  5
C0F
330
1F
100
AcDbEntity
  8
SPOJOVACÍ
  6
DASHED
100
AcDbLine
 10
-83.51895989156833
 20
103.1312864211921
 30
0.0
 11
-83.14886154376358
 21
102.9179785078648
 31
0.0
  0
LINE
  5
C10
330
1F
100
AcDbEntity
  8
SPOJOVACÍ
  6
DASHED
100
AcDbLine
 10
-83.51895989156833
 20
103.1312864211921
 30
0.0
 11
-83.14886154376358
 21
103.5022963393165
 31
0.0
  0
LINE
  5
C11
330
1F
100
AcDbEntity
  8
SPOJOVACÍ
  6
DASHED
100
AcDbLine
 10
-78.81524692783637
 20
101.9553581802591
 30
0.0
 11
-79.18534527136285
 21
101.5852598345935
 31
0.0
  0
LINE
  5
C12
330
1F
100
AcDbEntity
  8
SPOJOVACÍ
  6
DASHED
100
AcDbLine
 10
-78.81524692783637
 20
101.9553581802591
 30
0.0
 11
-79.18534527136285
 21
102.1695776660452
 31
0.0
  0
LINE
  5
C13
330
1F
100
AcDbEntity
  8
SPOJOVACÍ
  6
DASHED
100
AcDbLine
 10
-83.14886154376358
 20
102.9179785078648
 30
0.0
 11
-79.18534527136285
 21
101.5852598345935
 31
0.0
  0
LINE
  5
C14
330
1F
100
AcDbEntity
  8
SPOJOVACÍ
  6
DASHED
100
AcDbLine
 10
-83.14886154376358
 20
103.5022963393165
 30
0.0
 11
-79.18534527136285
 21
102.1695776660452
 31
0.0
  0
TEXT
  5
C15
330
1F
100
AcDbEntity
  8
POPIS
100
AcDbText
 10
-391.0726565278134
 20
393.9815754861409
 30
0.0
 40
35.0
  1
SVISLÝ ŘEZ
 41
0.85
  7
SIMPLEX7
100
AcDbText
  0
INSERT
  5
C16
330
1F
100
AcDbEntity
  8
POPIS
100
AcDbBlockReference
  2
E_PUNKT
 10
-118.7440472433015
 20
154.5672557206797
 30
0.0
 50
270.0
  0
LINE
  5
C17
330
1F
100
AcDbEntity
  8
POPIS
100
AcDbLine
 10
-118.7149789124275
 20
153.2896453450538
 30
0.0
 11
-42.50693161626327
 21
198.239576195101
 31
0.0
  0
TEXT
  5
C18
330
1F
100
AcDbEntity
  8
POPIS
100
AcDbText
 10
-57.35141553795324
 20
207.0889372678247
 30
0.0
 40
25.0
  1
01
 41
0.85
  7
SIMPLEX7
100
AcDbText
  0
LINE
  5
C19
330
1F
100
AcDbEntity
  8
SPOJOVACÍ
  6
DASHED
100
AcDbLine
 10
-79.02126226259202
 20
122.3572573761174
 30
0.0
 11
-78.08234281400723
 21
123.5404781953583
 31
0.0
  0
LINE
  5
C1A
330
1F
100
AcDbEntity
  8
SPOJOVACÍ
  6
DASHED
100
AcDbLine
 10
-79.62198839475672
 20
120.9716675106081
 30
0.0
 11
-79.02126226259202
 21
122.3572573761174
 31
0.0
  0
LINE
  5
C1B
330
1F
100
AcDbEntity
  8
SPOJOVACÍ
  6
DASHED
100
AcDbLine
 10
-76.16895259884109
 20
125.9461174419137
 30
0.0
 11
-76.16895259884109
 21
124.770189200717
 31
0.0
  0
LINE
  5
C1C
330
1F
100
AcDbEntity
  8
SPOJOVACÍ
  6
DASHED
100
AcDbLine
 10
-86.1652542205636
 20
125.9461174419137
 30
0.0
 11
-76.16895259884109
 21
125.9461174419137
 31
0.0
  0
LINE
  5
C1D
330
1F
100
AcDbEntity
  8
SPOJOVACÍ
  6
DASHED
100
AcDbLine
 10
-86.1652542205636
 20
125.9461174419137
 30
0.0
 11
-86.1652542205636
 21
124.770189200717
 31
0.0
  0
LINE
  5
C1E
330
1F
100
AcDbEntity
  8
SPOJOVACÍ
  6
DASHED
100
AcDbLine
 10
-86.1652542205636
 20
124.770189200717
 30
0.0
 11
-76.16895259884109
 21
124.770189200717
 31
0.0
  0
LINE
  5
C1F
330
1F
100
AcDbEntity
  8
SPOJOVACÍ
  6
DASHED
100
AcDbLine
 10
-76.86995168128555
 20
124.4402000355911
 30
0.0
 11
-76.16895259884109
 21
124.770189200717
 31
0.0
  0
LINE
  5
C20
330
1F
100
AcDbEntity
  8
SPOJOVACÍ
  6
DASHED
100
AcDbLine
 10
-78.08234281400723
 20
123.5404781953583
 30
0.0
 11
-76.86995168128555
 21
124.4402000355911
 31
0.0
  0
LINE
  5
C21
330
1F
100
AcDbEntity
  8
SPOJOVACÍ
  6
DASHED
100
AcDbLine
 10
-82.97383966660049
 20
121.7009253346167
 30
0.0
 11
-82.55451641958712
 21
120.2497022649075
 31
0.0
  0
LINE
  5
C22
330
1F
100
AcDbEntity
  8
SPOJOVACÍ
  6
DASHED
100
AcDbLine
 10
-83.75414553633232
 20
122.9935348273482
 30
0.0
 11
-82.97383966660049
 21
121.7009253346167
 31
0.0
  0
LINE
  5
C23
330
1F
100
AcDbEntity
  8
SPOJOVACÍ
  6
DASHED
100
AcDbLine
 10
-84.84256283868376
 20
124.0409313769722
 30
0.0
 11
-83.75414553633232
 21
122.9935348273482
 31
0.0
  0
LINE
  5
C24
330
1F
100
AcDbEntity
  8
SPOJOVACÍ
  6
DASHED
100
AcDbLine
 10
-86.1652542205636
 20
124.770189200717
 30
0.0
 11
-84.84256283868376
 21
124.0409313769722
 31
0.0
  0
LWPOLYLINE
  5
C25
330
1F
100
AcDbEntity
  8
nášlap_vrstvy
100
AcDbPolyline
 90
        4
 70
     1
 43
0.0
 10
-110.9089407395556
 20
127.4461174419137
 10
-122.7298070944714
 20
127.4461174419137
 10
-122.7298070944714
 20
125.9461174419137
 10
-110.9089407395556
 20
125.9461174419137
  0
LWPOLYLINE
  5
C26
330
1F
100
AcDbEntity
  8
nášlap_vrstvy
100
AcDbPolyline
 90
        4
 70
     1
 43
0.0
 10
-87.26720802971682
 20
127.4461174419137
 10
-99.08807438463623
 20
127.4461174419137
 10
-99.08807438463623
 20
125.9461174419137
 10
-87.26720802971682
 20
125.9461174419137
  0
HATCH
  5
C27
330
1F
100
AcDbEntity
  8
nášlap_vrstvy
100
AcDbHatch
 10
0.0
 20
0.0
 30
0.0
210
0.0
220
0.0
230
1.0
  2
SOLID
 70
     1
 71
     0
 91
        1
 92
        7
 72
     0
 73
     1
 93
        4
 10
-110.9089407395556
 20
127.4461174419137
 10
-122.7298070944714
 20
127.4461174419137
 10
-122.7298070944714
 20
125.9461174419137
 10
-110.908940739552
 20
125.9461174419137
 97
        0
 75
     0
 76
     1
 47
0.1901250437635136
 98
        3
 10
-96.78719560746026
 20
126.5623949772197
 10
-114.9552910211321
 20
126.467331639389
 10
-116.9528271157439
 20
126.752521652881
  0
HATCH
  5
C28
330
1F
100
AcDbEntity
  8
nášlap_vrstvy
100
AcDbHatch
 10
0.0
 20
0.0
 30
0.0
210
0.0
220
0.0
230
1.0
  2
SOLID
 70
     1
 71
     0
 91
        1
 92
        7
 72
     0
 73
     1
 93
        4
 10
-87.26720802971682
 20
127.4461174419137
 10
-99.08807438463259
 20
127.4461174419137
 10
-99.08807438463623
 20
125.9461174419137
 10
-87.26720802971682
 20
125.9461174419137
 97
        0
 75
     0
 76
     1
 47
0.1901250437635136
 98
        1
 10
-94.40917700546265
 20
127.0377116663747
  0
HATCH
  5
C29
330
1F
100
AcDbEntity
  8
nášlap_vrstvy
100
AcDbHatch
 10
0.0
 20
0.0
 30
0.0
210
0.0
220
0.0
230
1.0
  2
SOLID
 70
     1
 71
     0
 91
        1
 92
        7
 72
     0
 73
     1
 93
        4
 10
-63.62547531988162
 20
127.4461174419137
 10
-75.44634167480103
 20
127.4461174419137
 10
-75.44634167480103
 20
125.9461174419137
 10
-63.62547531988162
 20
125.9461174419137
 97
        0
 75
     0
 76
     1
 47
0.1901250437635136
 98
        1
 10
-70.7674442956311
 20
127.0377116663747
  0
LWPOLYLINE
  5
C2A
330
1F
100
AcDbEntity
  8
nášlap_vrstvy
100
AcDbPolyline
 90
        4
 70
     1
 43
0.0
 10
-63.62547531988525
 20
127.4461174419137
 10
-75.44634167480103
 20
127.4461174419137
 10
-75.44634167480103
 20
125.9461174419137
 10
-63.62547531988525
 20
125.9461174419137
  0
HATCH
  5
C2B
330
1F
100
AcDbEntity
  8
nášlap_vrstvy
100
AcDbHatch
 10
0.0
 20
0.0
 30
0.0
210
0.0
220
0.0
230
1.0
  2
SOLID
 70
     1
 71
     0
 91
        1
 92
        7
 72
     0
 73
     1
 93
        4
 10
-39.98374261004641
 20
127.4461174419137
 10
-51.8046089649622
 20
127.4461174419137
 10
-51.80460896496583
 20
125.9461174419137
 10
-39.98374261004641
 20
125.9461174419137
 97
        0
 75
     0
 76
     1
 47
0.1901250437635136
 98
        1
 10
-47.12571158579225
 20
127.0377116663747
  0
LWPOLYLINE
  5
C2C
330
1F
100
AcDbEntity
  8
nášlap_vrstvy
100
AcDbPolyline
 90
        4
 70
     1
 43
0.0
 10
-39.98374261004641
 20
127.4461174419137
 10
-51.80460896496583
 20
127.4461174419137
 10
-51.80460896496583
 20
125.9461174419137
 10
-39.98374261004641
 20
125.9461174419137
  0
HATCH
  5
C2D
330
1F
100
AcDbEntity
  8
nášlap_vrstvy
100
AcDbHatch
 10
0.0
 20
0.0
 30
0.0
210
0.0
220
0.0
230
1.0
  2
SOLID
 70
     1
 71
     0
 91
        1
 92
        7
 72
     0
 73
     1
 93
        4
 10
-16.34200990021122
 20
127.4461174419137
 10
-28.16287625513064
 20
127.4461174419137
 10
-28.16287625513064
 20
125.9461174419137
 10
-16.34200990021122
 20
125.9461174419137
 97
        0
 75
     0
 76
     1
 47
0.1901250437635136
 98
        1
 10
-23.4839788759607
 20
127.0377116663747
  0
LWPOLYLINE
  5
C2E
330
1F
100
AcDbEntity
  8
nášlap_vrstvy
100
AcDbPolyline
 90
        4
 70
     1
 43
0.0
 10
-16.34200990021486
 20
127.4461174419137
 10
-28.16287625513064
 20
127.4461174419137
 10
-28.16287625513064
 20
125.9461174419137
 10
-16.34200990021486
 20
125.9461174419137
  0
HATCH
  5
C2F
330
1F
100
AcDbEntity
  8
nášlap_vrstvy
100
AcDbHatch
 10
0.0
 20
0.0
 30
0.0
210
0.0
220
0.0
230
1.0
  2
SOLID
 70
     1
 71
     0
 91
        1
 92
        7
 72
     0
 73
     1
 93
        4
 10
7.299722809623972
 20
127.4461174419137
 10
-4.521143545291806
 20
127.4461174419137
 10
-4.521143545295444
 20
125.9461174419137
 10
7.299722809623972
 20
125.9461174419137
 97
        0
 75
     0
 76
     1
 47
0.1901250437635136
 98
        1
 10
0.1577538338781323
 20
127.0377116663747
  0
LWPOLYLINE
  5
C30
330
1F
100
AcDbEntity
  8
nášlap_vrstvy
100
AcDbPolyline
 90
        4
 70
     1
 43
0.0
 10
7.299722809623972
 20
127.4461174419137
 10
-4.521143545295444
 20
127.4461174419137
 10
-4.521143545295444
 20
125.9461174419137
 10
7.299722809623972
 20
125.9461174419137
  0
LINE
  5
C31
330
1F
100
AcDbEntity
  8
nášlap_vrstvy
100
AcDbLine
 10
-122.2205053648365
 20
173.1582271511523
 30
0.0
 11
-122.2205053648365
 21
143.1582271511523
 31
0.0
  0
LINE
  5
C32
330
1F
100
AcDbEntity
  8
nášlap_vrstvy
100
AcDbLine
 10
-122.2205053648365
 20
143.1582271511523
 30
0.0
 11
-92.22050536483653
 21
143.1582271511523
 31
0.0
  0
LINE
  5
C33
330
1F
100
AcDbEntity
  8
nášlap_vrstvy
100
AcDbLine
 10
-92.22050536483653
 20
143.1582271511523
 30
0.0
 11
-92.22050536484379
 21
145.0307302632589
 31
0.0
  0
LINE
  5
C34
330
1F
100
AcDbEntity
  8
nášlap_vrstvy
100
AcDbLine
 10
-122.2205053648365
 20
173.1582271511523
 30
0.0
 11
-120.4999393404584
 21
173.1582271511523
 31
0.0
  0
LINE
  5
C35
330
1F
100
AcDbEntity
  8
nášlap_vrstvy
100
AcDbLine
 10
-115.9999393404584
 20
168.6582271511523
 30
0.0
 11
-115.9999393404584
 21
164.5307302632553
 31
0.0
  0
LINE
  5
C36
330
1F
100
AcDbEntity
  8
nášlap_vrstvy
100
AcDbLine
 10
-100.9999393404511
 20
149.5307302632553
 30
0.0
 11
-96.7205053648438
 21
149.5307302632589
 31
0.0
  0
ARC
  5
C37
330
1F
100
AcDbEntity
  8
nášlap_vrstvy
100
AcDbCircle
 10
-96.7205053648438
 20
145.0307302632589
 30
0.0
 40
4.5
100
AcDbArc
 50
0.0
 51
90.0
  0
ARC
  5
C38
330
1F
100
AcDbEntity
  8
nášlap_vrstvy
100
AcDbCircle
 10
-120.4999393404584
 20
168.6582271511523
 30
0.0
 40
4.5
100
AcDbArc
 50
0.0
 51
90.0
  0
ARC
  5
C39
330
1F
100
AcDbEntity
  8
nášlap_vrstvy
100
AcDbCircle
 10
-100.9999393404584
 20
164.5307302632553
 30
0.0
 40
15.0
100
AcDbArc
 50
180.0
 51
270.0
  0
LINE
  5
C3A
330
1F
100
AcDbEntity
  8
nášlap_vrstvy
100
AcDbLine
 10
-111.9863797200566
 20
136.2853705109245
 30
0.0
 11
-111.9863797200494
 21
141.6331122894752
 31
0.0
  0
LINE
  5
C3B
330
1F
100
AcDbEntity
  8
nášlap_vrstvy
100
AcDbLine
 10
-119.5701178596143
 20
131.8602086767367
 30
0.0
 11
-111.9863797200566
 21
131.8602086767367
 31
0.0
  0
LINE
  5
C3C
330
1F
100
AcDbEntity
  8
nášlap_vrstvy
100
AcDbLine
 10
-119.5701178596143
 20
136.2853705109245
 30
0.0
 11
-119.5701178596143
 21
131.8602086767367
 31
0.0
  0
LINE
  5
C3D
330
1F
100
AcDbEntity
  8
nášlap_vrstvy
100
AcDbLine
 10
-111.9863797200603
 20
136.2853705109245
 30
0.0
 11
-119.5701178596143
 21
136.2853705109245
 31
0.0
  0
LINE
  5
C3E
330
1F
100
AcDbEntity
  8
nášlap_vrstvy
100
AcDbLine
 10
-111.9863797200566
 20
127.4461174418682
 30
0.0
 11
-111.9863797200603
 21
131.8602086767367
 31
0.0
  0
HATCH
  5
C3F
330
1F
100
AcDbEntity
  8
nášlap_vrstvy
100
AcDbHatch
 10
0.0
 20
0.0
 30
0.0
210
0.0
220
0.0
230
1.0
  2
ANSI31
 70
     0
 71
     0
 91
        1
 92
        7
 72
     1
 73
     1
 93
       14
 10
-113.5598977008164
 20
156.3302762522824
 42
0.0
 10
-117.6209972966578
 20
153.9349105069994
 42
-1.75082344709543
 10
-118.7149789124275
 20
155.7896453450529
 42
-0.5711598172042837
 10
-117.6209972966578
 20
153.9349105069994
 42
0.0
 10
-113.5598977008164
 20
156.3302762522833
 42
-0.1456199930207341
 10
-115.9999393404584
 20
164.5307302632553
 42
0.0
 10
-115.9999393404584
 20
168.6582271511523
 42
0.4142135623730951
 10
-120.4999393404584
 20
173.1582271511523
 42
0.0
 10
-122.2205053648328
 20
173.1582271511523
 42
0.0
 10
-122.2205053648365
 20
143.1582271511523
 42
0.0
 10
-92.22050536483653
 20
143.1582271511523
 42
0.0
 10
-92.22050536484379
 20
145.0307302632762
 42
0.4142135623722072
 10
-96.72050536484745
 20
149.5307302632589
 42
0.0
 10
-100.9999393404439
 20
149.5307302632553
 42
-0.2533142190166848
 97
        0
 75
     0
 76
     1
 52
0.0
 41
1.0
 77
     0
 78
     1
 53
45.0
 43
-29158.85100424278
 44
8498.765609247609
 45
-2.245064030267287
 46
2.245064030267288
 79
     0
 47
0.0967580026128457
 98
        1
 10
-112.4731114424218
 20
148.6646623187133
  0
LINE
  5
C40
330
1F
100
AcDbEntity
  8
CETRIS
100
AcDbLine
 10
221.8149217178772
 20
125.9461174419142
 30
0.0
 11
221.8149217178772
 21
113.9461174419142
 31
0.0
  0
LINE
  5
C41
330
1F
100
AcDbEntity
  8
POPIS
100
AcDbLine
 10
371.4178720955016
 20
198.239576195101
 30
0.0
 11
371.4178720955016
 21
61.94611744191377
 31
0.0
  0
LINE
  5
C42
330
1F
100
AcDbEntity
  8
POPIS
100
AcDbLine
 10
420.5063875597873
 20
198.239576195101
 30
0.0
 11
420.5063875597873
 21
3.493833656550009
 31
0.0
  0
LINE
  5
C43
330
1F
100
AcDbEntity
  8
POPIS
100
AcDbLine
 10
296.3139019172697
 20
198.239576195101
 30
0.0
 11
296.3139019172697
 21
108.5008200062219
 31
0.0
  0
LINE
  5
C44
330
1F
100
AcDbEntity
  8
SPOJOVACÍ
  6
DASHED
100
AcDbLine
 10
517.4454835804128
 20
120.2497022649075
 30
0.0
 11
517.510205212696
 21
119.4785121162475
 31
0.0
  0
LINE
  5
C45
330
1F
100
AcDbEntity
  8
SPOJOVACÍ
  6
DASHED
100
AcDbLine
 10
520.1555879721775
 20
119.4785121162475
 30
0.0
 11
520.3780116052432
 21
120.9716675106081
 31
0.0
  0
LINE
  5
C46
330
1F
100
AcDbEntity
  8
SPOJOVACÍ
  6
DASHED
100
AcDbLine
 10
270.1555879721774
 20
119.4785121162475
 30
0.0
 11
270.3780116052432
 21
120.9716675106081
 31
0.0
  0
LINE
  5
C47
330
1F
100
AcDbEntity
  8
SPOJOVACÍ
  6
DASHED
100
AcDbLine
 10
267.4454835804128
 20
120.2497022649075
 30
0.0
 11
267.510205212696
 21
119.4785121162475
 31
0.0
  0
LINE
  5
C48
330
1F
100
AcDbEntity
  8
SPOJOVACÍ
  6
DASHED
100
AcDbLine
 10
167.4454835804128
 20
120.2497022649075
 30
0.0
 11
167.510205212696
 21
119.4785121162475
 31
0.0
  0
LINE
  5
C49
330
1F
100
AcDbEntity
  8
SPOJOVACÍ
  6
DASHED
100
AcDbLine
 10
170.1555879721775
 20
119.4785121162475
 30
0.0
 11
170.3780116052432
 21
120.9716675106081
 31
0.0
  0
LWPOLYLINE
  5
C4A
330
1F
100
AcDbEntity
  8
izolace
100
AcDbPolyline
 90
        4
 70
     1
 43
0.0
 10
326.4631143923936
 20
61.94611744191377
 10
302.8213816825584
 20
61.94611744191377
 10
302.8213816825584
 20
58.94611744191377
 10
326.4631143923936
 20
58.94611744191377
  0
HATCH
  5
C4B
330
1F
100
AcDbEntity
  8
izolace
100
AcDbHatch
 10
0.0
 20
0.0
 30
0.0
210
0.0
220
0.0
230
1.0
  2
SOLID
 70
     1
 71
     0
 91
        1
 92
        7
 72
     0
 73
     1
 93
        4
 10
326.4631143923973
 20
61.94611744191377
 10
302.821381682562
 20
61.94611744191377
 10
302.8213816825584
 20
58.94611744191377
 10
326.4631143923973
 20
58.94611744191377
 97
        0
 75
     0
 76
     1
 47
0.1901250437635136
 98
        1
 10
312.179176440902
 20
61.12930589083396
  0
LWPOLYLINE
  5
C4C
330
1F
100
AcDbEntity
  8
izolace
100
AcDbPolyline
 90
        4
 70
     1
 43
0.0
 10
184.6127181333825
 20
61.94611744191377
 10
160.9709854235472
 20
61.94611744191377
 10
160.9709854235472
 20
58.94611744191377
 10
184.6127181333825
 20
58.94611744191377
  0
HATCH
  5
C4D
330
1F
100
AcDbEntity
  8
izolace
100
AcDbHatch
 10
0.0
 20
0.0
 30
0.0
210
0.0
220
0.0
230
1.0
  2
SOLID
 70
     1
 71
     0
 91
        1
 92
        7
 72
     0
 73
     1
 93
        4
 10
184.6127181333861
 20
61.94611744191377
 10
160.9709854235509
 20
61.94611744191377
 10
160.9709854235472
 20
58.94611744191377
 10
184.6127181333861
 20
58.94611744191377
 97
        0
 75
     0
 76
     1
 47
0.1901250437635136
 98
        1
 10
170.3287801818908
 20
61.12930589083396
  0
LINE
  5
C4E
330
1F
100
AcDbEntity
  8
SPOJOVACÍ
  6
DASHED
100
AcDbLine
 10
166.8511384562364
 20
103.5022963393165
 30
0.0
 11
170.8146547286371
 21
102.1695776660452
 31
0.0
  0
LINE
  5
C4F
330
1F
100
AcDbEntity
  8
SPOJOVACÍ
  6
DASHED
100
AcDbLine
 10
166.8511384562364
 20
102.9179785078648
 30
0.0
 11
170.8146547286371
 21
101.5852598345935
 31
0.0
  0
LINE
  5
C50
330
1F
100
AcDbEntity
  8
SPOJOVACÍ
  6
DASHED
100
AcDbLine
 10
166.4810401084316
 20
103.1312864211921
 30
0.0
 11
171.1847530721636
 21
101.9553581802591
 31
0.0
  0
LINE
  5
C51
330
1F
100
AcDbEntity
  8
SPOJOVACÍ
  6
DASHED
100
AcDbLine
 10
166.8511384562364
 20
106.5597097658991
 30
0.0
 11
170.8146547286371
 21
105.2269910926278
 31
0.0
  0
LINE
  5
C52
330
1F
100
AcDbEntity
  8
SPOJOVACÍ
  6
DASHED
100
AcDbLine
 10
166.8511384562364
 20
105.9753919344547
 30
0.0
 11
170.8146547286371
 21
104.6426732614471
 31
0.0
  0
LINE
  5
C53
330
1F
100
AcDbEntity
  8
SPOJOVACÍ
  6
DASHED
100
AcDbLine
 10
166.4810401084316
 20
106.1896114202335
 30
0.0
 11
171.1847530721636
 21
105.0136831793005
 31
0.0
  0
LINE
  5
C54
330
1F
100
AcDbEntity
  8
SPOJOVACÍ
  6
DASHED
100
AcDbLine
 10
166.8511384562364
 20
109.6171231924889
 30
0.0
 11
170.8146547286371
 21
108.2844045194814
 31
0.0
  0
LINE
  5
C55
330
1F
100
AcDbEntity
  8
SPOJOVACÍ
  6
DASHED
100
AcDbLine
 10
166.8511384562364
 20
109.0328053610372
 30
0.0
 11
170.8146547286371
 21
107.700086688037
 31
0.0
  0
LINE
  5
C56
330
1F
100
AcDbEntity
  8
SPOJOVACÍ
  6
DASHED
100
AcDbLine
 10
166.4810401084316
 20
109.2470248468233
 30
0.0
 11
171.1847530721636
 21
108.0710966058903
 31
0.0
  0
LINE
  5
C57
330
1F
100
AcDbEntity
  8
SPOJOVACÍ
  6
DASHED
100
AcDbLine
 10
167.83654809121
 20
94.20790537355959
 30
0.0
 11
169.9477494898376
 21
93.90344023210117
 31
0.0
  0
LINE
  5
C58
330
1F
100
AcDbEntity
  8
SPOJOVACÍ
  6
DASHED
100
AcDbLine
 10
168.2066464347365
 20
94.5780037192252
 30
0.0
 11
169.5776511463111
 21
94.11674814569222
 31
0.0
  0
LINE
  5
C59
330
1F
100
AcDbEntity
  8
SPOJOVACÍ
  6
DASHED
100
AcDbLine
 10
168.2066464347365
 20
93.99368588778077
 30
0.0
 11
169.5776511463111
 21
93.5324303142478
 31
0.0
  0
LINE
  5
C5A
330
1F
100
AcDbEntity
  8
SPOJOVACÍ
  6
DASHED
100
AcDbLine
 10
167.283223714948
 20
97.16139956031282
 30
0.0
 11
170.3369908530505
 21
96.54061883787825
 31
0.0
  0
LINE
  5
C5B
330
1F
100
AcDbEntity
  8
SPOJOVACÍ
  6
DASHED
100
AcDbLine
 10
167.6533220627527
 20
97.53240947843721
 30
0.0
 11
169.966892509524
 21
96.75392675120555
 31
0.0
  0
LINE
  5
C5C
330
1F
100
AcDbEntity
  8
SPOJOVACÍ
  6
DASHED
100
AcDbLine
 10
167.6533220627527
 20
96.94809164698552
 30
0.0
 11
169.966892509524
 21
96.16960892002488
 31
0.0
  0
LINE
  5
C5D
330
1F
100
AcDbEntity
  8
SPOJOVACÍ
  6
DASHED
100
AcDbLine
 10
166.7298993429642
 20
100.1158053195248
 30
0.0
 11
170.7727224026523
 21
99.16230071486632
 31
0.0
  0
LINE
  5
C5E
330
1F
100
AcDbEntity
  8
SPOJOVACÍ
  6
DASHED
100
AcDbLine
 10
167.1009092602828
 20
100.4859036651904
 30
0.0
 11
170.4026240591258
 21
99.37560862819362
 31
0.0
  0
LINE
  5
C5F
330
1F
100
AcDbEntity
  8
SPOJOVACÍ
  6
DASHED
100
AcDbLine
 10
167.1009092602828
 20
99.90158583373876
 30
0.0
 11
170.4026240591258
 21
98.79129079674193
 31
0.0
  0
LINE
  5
C60
330
1F
100
AcDbEntity
  8
SPOJOVACÍ
  6
DASHED
100
AcDbLine
 10
166.8511384562364
 20
112.6745366193425
 30
0.0
 11
170.8146547286371
 21
111.342729518259
 31
0.0
  0
LINE
  5
C61
330
1F
100
AcDbEntity
  8
SPOJOVACÍ
  6
DASHED
100
AcDbLine
 10
166.8511384562364
 20
112.0902187878908
 30
0.0
 11
170.8146547286371
 21
110.7584116870783
 31
0.0
  0
LINE
  5
C62
330
1F
100
AcDbEntity
  8
SPOJOVACÍ
  6
DASHED
100
AcDbLine
 10
166.4810401084316
 20
112.3044382736769
 30
0.0
 11
171.1847530721636
 21
111.1285100324729
 31
0.0
  0
LINE
  5
C63
330
1F
100
AcDbEntity
  8
SPOJOVACÍ
  6
DASHED
100
AcDbLine
 10
166.8511384562364
 20
115.7328616181129
 30
0.0
 11
170.8146547286371
 21
114.4001429451126
 31
0.0
  0
LINE
  5
C64
330
1F
100
AcDbEntity
  8
SPOJOVACÍ
  6
DASHED
100
AcDbLine
 10
166.8511384562364
 20
115.1485437869322
 30
0.0
 11
170.8146547286371
 21
113.8158251136609
 31
0.0
  0
LINE
  5
C65
330
1F
100
AcDbEntity
  8
SPOJOVACÍ
  6
DASHED
100
AcDbLine
 10
166.4810401084316
 20
115.3618517002595
 30
0.0
 11
171.1847530721636
 21
114.1859234593265
 31
0.0
  0
LINE
  5
C66
330
1F
100
AcDbEntity
  8
SPOJOVACÍ
  6
DASHED
100
AcDbLine
 10
168.4545940954769
 20
93.92349482237102
 30
0.0
 11
168.8328965902976
 21
90.89616328092223
 31
0.0
  0
LWPOLYLINE
  5
C67
330
1F
100
AcDbEntity
  8
izolace
100
AcDbPolyline
 90
        4
 70
     1
 43
0.0
 10
137.3292527137121
 20
61.94611744191377
 10
113.6875200038768
 20
61.94611744191377
 10
113.6875200038768
 20
58.94611744191377
 10
137.3292527137121
 20
58.94611744191377
  0
HATCH
  5
C68
330
1F
100
AcDbEntity
  8
izolace
100
AcDbHatch
 10
0.0
 20
0.0
 30
0.0
210
0.0
220
0.0
230
1.0
  2
SOLID
 70
     1
 71
     0
 91
        1
 92
        7
 72
     0
 73
     1
 93
        4
 10
137.3292527137157
 20
61.94611744191377
 10
113.6875200038805
 20
61.94611744191377
 10
113.6875200038768
 20
58.94611744191377
 10
137.3292527137157
 20
58.94611744191377
 97
        0
 75
     0
 76
     1
 47
0.1901250437635136
 98
        1
 10
123.0453147622204
 20
61.12930589083396
  0
LWPOLYLINE
  5
C69
330
1F
100
AcDbEntity
  8
izolace
100
AcDbPolyline
 90
        4
 70
     1
 43
0.0
 10
90.04578729404171
 20
61.94611744191377
 10
66.40405458420651
 20
61.94611744191377
 10
66.40405458420651
 20
58.94611744191377
 10
90.04578729404171
 20
58.94611744191377
  0
HATCH
  5
C6A
330
1F
100
AcDbEntity
  8
izolace
100
AcDbHatch
 10
0.0
 20
0.0
 30
0.0
210
0.0
220
0.0
230
1.0
  2
SOLID
 70
     1
 71
     0
 91
        1
 92
        7
 72
     0
 73
     1
 93
        4
 10
90.04578729404533
 20
61.94611744191377
 10
66.40405458421014
 20
61.94611744191377
 10
66.40405458420651
 20
58.94611744191377
 10
90.04578729404533
 20
58.94611744191377
 97
        0
 75
     0
 76
     1
 47
0.1901250437635136
 98
        1
 10
75.76184934255002
 20
61.12930589083396
  0
LWPOLYLINE
  5
C6B
330
1F
100
AcDbEntity
  8
izolace
100
AcDbPolyline
 90
        4
 70
     1
 43
0.0
 10
42.7623218743713
 20
61.94611744191377
 10
19.12058916453611
 20
61.94611744191377
 10
19.12058916453611
 20
58.94611744191377
 10
42.7623218743713
 20
58.94611744191377
  0
HATCH
  5
C6C
330
1F
100
AcDbEntity
  8
izolace
100
AcDbHatch
 10
0.0
 20
0.0
 30
0.0
210
0.0
220
0.0
230
1.0
  2
SOLID
 70
     1
 71
     0
 91
        1
 92
        7
 72
     0
 73
     1
 93
        4
 10
42.76232187437495
 20
61.94611744191377
 10
19.12058916453975
 20
61.94611744191377
 10
19.12058916453611
 20
58.94611744191377
 10
42.76232187437495
 20
58.94611744191377
 97
        0
 75
     0
 76
     1
 47
0.1901250437635136
 98
        1
 10
28.47838392287963
 20
61.12930589083396
  0
LINE
  5
C6D
330
1F
100
AcDbEntity
  8
SPOJOVACÍ
  6
DASHED
100
AcDbLine
 10
166.4810401084316
 20
103.1312864211921
 30
0.0
 11
166.8511384562364
 21
103.5022963393165
 31
0.0
  0
LINE
  5
C6E
330
1F
100
AcDbEntity
  8
SPOJOVACÍ
  6
DASHED
100
AcDbLine
 10
166.4810401084316
 20
103.1312864211921
 30
0.0
 11
166.8511384562364
 21
102.9179785078648
 31
0.0
  0
LINE
  5
C6F
330
1F
100
AcDbEntity
  8
SPOJOVACÍ
  6
DASHED
100
AcDbLine
 10
166.4810401084316
 20
106.1896114202335
 30
0.0
 11
166.8511384562364
 21
106.5597097658991
 31
0.0
  0
LINE
  5
C70
330
1F
100
AcDbEntity
  8
SPOJOVACÍ
  6
DASHED
100
AcDbLine
 10
166.4810401084316
 20
106.1896114202335
 30
0.0
 11
166.8511384562364
 21
105.9753919344547
 31
0.0
  0
LINE
  5
C71
330
1F
100
AcDbEntity
  8
SPOJOVACÍ
  6
DASHED
100
AcDbLine
 10
166.4810401084316
 20
109.2470248468233
 30
0.0
 11
166.8511384562364
 21
109.6171231924889
 31
0.0
  0
LINE
  5
C72
330
1F
100
AcDbEntity
  8
SPOJOVACÍ
  6
DASHED
100
AcDbLine
 10
166.4810401084316
 20
109.2470248468233
 30
0.0
 11
166.8511384562364
 21
109.0328053610372
 31
0.0
  0
LINE
  5
C73
330
1F
100
AcDbEntity
  8
SPOJOVACÍ
  6
DASHED
100
AcDbLine
 10
167.83654809121
 20
94.20790537355959
 30
0.0
 11
168.2066464347365
 21
94.5780037192252
 31
0.0
  0
LINE
  5
C74
330
1F
100
AcDbEntity
  8
SPOJOVACÍ
  6
DASHED
100
AcDbLine
 10
167.83654809121
 20
94.20790537355959
 30
0.0
 11
168.2066464347365
 21
93.99368588778077
 31
0.0
  0
LINE
  5
C75
330
1F
100
AcDbEntity
  8
SPOJOVACÍ
  6
DASHED
100
AcDbLine
 10
167.283223714948
 20
97.16139956031282
 30
0.0
 11
167.6533220627527
 21
97.53240947843721
 31
0.0
  0
LINE
  5
C76
330
1F
100
AcDbEntity
  8
SPOJOVACÍ
  6
DASHED
100
AcDbLine
 10
167.283223714948
 20
97.16139956031282
 30
0.0
 11
167.6533220627527
 21
96.94809164698552
 31
0.0
  0
LINE
  5
C77
330
1F
100
AcDbEntity
  8
SPOJOVACÍ
  6
DASHED
100
AcDbLine
 10
166.7298993429642
 20
100.1158053195248
 30
0.0
 11
167.1009092602828
 21
100.4859036651904
 31
0.0
  0
LINE
  5
C78
330
1F
100
AcDbEntity
  8
SPOJOVACÍ
  6
DASHED
100
AcDbLine
 10
166.7298993429642
 20
100.1158053195248
 30
0.0
 11
167.1009092602828
 21
99.90158583373876
 31
0.0
  0
LINE
  5
C79
330
1F
100
AcDbEntity
  8
SPOJOVACÍ
  6
DASHED
100
AcDbLine
 10
166.4810401084316
 20
112.3044382736769
 30
0.0
 11
166.8511384562364
 21
112.6745366193425
 31
0.0
  0
LINE
  5
C7A
330
1F
100
AcDbEntity
  8
SPOJOVACÍ
  6
DASHED
100
AcDbLine
 10
166.4810401084316
 20
112.3044382736769
 30
0.0
 11
166.8511384562364
 21
112.0902187878908
 31
0.0
  0
LINE
  5
C7B
330
1F
100
AcDbEntity
  8
SPOJOVACÍ
  6
DASHED
100
AcDbLine
 10
166.4810401084316
 20
115.3618517002595
 30
0.0
 11
166.8511384562364
 21
115.7328616181129
 31
0.0
  0
LINE
  5
C7C
330
1F
100
AcDbEntity
  8
SPOJOVACÍ
  6
DASHED
100
AcDbLine
 10
166.4810401084316
 20
115.3618517002595
 30
0.0
 11
166.8511384562364
 21
115.1485437869322
 31
0.0
  0
LINE
  5
C7D
330
1F
100
AcDbEntity
  8
SPOJOVACÍ
  6
DASHED
100
AcDbLine
 10
168.0945230465506
 20
96.80588637125573
 30
0.0
 11
168.3789335948015
 21
94.53151353310738
 31
0.0
  0
LINE
  5
C7E
330
1F
100
AcDbEntity
  8
SPOJOVACÍ
  6
DASHED
100
AcDbLine
 10
167.7326288500401
 20
99.6992167874704
 30
0.0
 11
168.0170394025692
 21
97.42393237712702
 31
0.0
  0
LINE
  5
C7F
330
1F
100
AcDbEntity
  8
SPOJOVACÍ
  6
DASHED
100
AcDbLine
 10
167.510205212696
 20
101.4804290225764
 30
0.0
 11
167.6569683493646
 21
100.3072354982067
 31
0.0
  0
LINE
  5
C80
330
1F
100
AcDbEntity
  8
SPOJOVACÍ
  6
DASHED
100
AcDbLine
 10
167.510205212696
 20
102.7028474496272
 30
0.0
 11
167.510205212696
 21
101.4804290225764
 31
0.0
  0
LINE
  5
C81
330
1F
100
AcDbEntity
  8
SPOJOVACÍ
  6
DASHED
100
AcDbLine
 10
167.510205212696
 20
105.7547914428195
 30
0.0
 11
167.510205212696
 21
103.2871652810789
 31
0.0
  0
LINE
  5
C82
330
1F
100
AcDbEntity
  8
SPOJOVACÍ
  6
DASHED
100
AcDbLine
 10
167.510205212696
 20
108.8249668813713
 30
0.0
 11
167.510205212696
 21
106.3473134247595
 31
0.0
  0
LINE
  5
C83
330
1F
100
AcDbEntity
  8
SPOJOVACÍ
  6
DASHED
100
AcDbLine
 10
167.510205212696
 20
111.8778224467513
 30
0.0
 11
167.510205212696
 21
109.4074615681764
 31
0.0
  0
LINE
  5
C84
330
1F
100
AcDbEntity
  8
SPOJOVACÍ
  6
DASHED
100
AcDbLine
 10
167.510205212696
 20
114.9379705901682
 30
0.0
 11
167.510205212696
 21
112.4694328562399
 31
0.0
  0
LINE
  5
C85
330
1F
100
AcDbEntity
  8
SPOJOVACÍ
  6
DASHED
100
AcDbLine
 10
167.510205212696
 20
119.4785121162475
 30
0.0
 11
167.510205212696
 21
115.5213768491611
 31
0.0
  0
INSERT
  5
C86
330
1F
100
AcDbEntity
  8
POPIS
100
AcDbBlockReference
  2
E_PUNKT
 10
296.2848335863957
 20
107.2784303818497
 30
0.0
 50
270.0
  0
LWPOLYLINE
  5
C87
330
1F
100
AcDbEntity
  8
izolace
100
AcDbPolyline
 90
        4
 70
     1
 43
0.0
 10
279.1796489727232
 20
61.94611744191377
 10
255.537916262888
 20
61.94611744191377
 10
255.537916262888
 20
58.94611744191377
 10
279.1796489727232
 20
58.94611744191377
  0
HATCH
  5
C88
330
1F
100
AcDbEntity
  8
izolace
100
AcDbHatch
 10
0.0
 20
0.0
 30
0.0
210
0.0
220
0.0
230
1.0
  2
SOLID
 70
     1
 71
     0
 91
        1
 92
        7
 72
     0
 73
     1
 93
        4
 10
279.1796489727269
 20
61.94611744191377
 10
255.5379162628917
 20
61.94611744191377
 10
255.537916262888
 20
58.94611744191377
 10
279.1796489727269
 20
58.94611744191377
 97
        0
 75
     0
 76
     1
 47
0.1901250437635136
 98
        1
 10
264.8957110212315
 20
61.12930589083396
  0
LWPOLYLINE
  5
C89
330
1F
100
AcDbEntity
  8
izolace
100
AcDbPolyline
 90
        4
 70
     1
 43
0.0
 10
231.8961835530529
 20
61.94611744191377
 10
208.2544508432176
 20
61.94611744191377
 10
208.2544508432176
 20
58.94611744191377
 10
231.8961835530529
 20
58.94611744191377
  0
HATCH
  5
C8A
330
1F
100
AcDbEntity
  8
izolace
100
AcDbHatch
 10
0.0
 20
0.0
 30
0.0
210
0.0
220
0.0
230
1.0
  2
SOLID
 70
     1
 71
     0
 91
        1
 92
        7
 72
     0
 73
     1
 93
        4
 10
231.8961835530565
 20
61.94611744191377
 10
208.2544508432213
 20
61.94611744191377
 10
208.2544508432176
 20
58.94611744191377
 10
231.8961835530565
 20
58.94611744191377
 97
        0
 75
     0
 76
     1
 47
0.1901250437635136
 98
        1
 10
217.6122456015611
 20
61.12930589083396
  0
LINE
  5
C8B
330
1F
100
AcDbEntity
  8
SPOJOVACÍ
  6
DASHED
100
AcDbLine
 10
270.1555879721774
 20
119.4785121162475
 30
0.0
 11
270.1555879721774
 21
114.6344170208975
 31
0.0
  0
LINE
  5
C8C
330
1F
100
AcDbEntity
  8
SPOJOVACÍ
  6
DASHED
100
AcDbLine
 10
267.510205212696
 20
119.4785121162475
 30
0.0
 11
267.510205212696
 21
115.5213768491611
 31
0.0
  0
LINE
  5
C8D
330
1F
100
AcDbEntity
  8
SPOJOVACÍ
  6
DASHED
100
AcDbLine
 10
267.510205212696
 20
114.9379705901682
 30
0.0
 11
267.510205212696
 21
112.4694328562399
 31
0.0
  0
LINE
  5
C8E
330
1F
100
AcDbEntity
  8
SPOJOVACÍ
  6
DASHED
100
AcDbLine
 10
267.510205212696
 20
111.8778224467513
 30
0.0
 11
267.510205212696
 21
109.4074615681764
 31
0.0
  0
LINE
  5
C8F
330
1F
100
AcDbEntity
  8
SPOJOVACÍ
  6
DASHED
100
AcDbLine
 10
267.510205212696
 20
108.8249668813713
 30
0.0
 11
267.510205212696
 21
106.3473134247595
 31
0.0
  0
LINE
  5
C90
330
1F
100
AcDbEntity
  8
SPOJOVACÍ
  6
DASHED
100
AcDbLine
 10
270.1555879721774
 20
114.0428066114089
 30
0.0
 11
270.1555879721774
 21
111.5742688774806
 31
0.0
  0
LINE
  5
C91
330
1F
100
AcDbEntity
  8
SPOJOVACÍ
  6
DASHED
100
AcDbLine
 10
270.1555879721774
 20
110.9899510460289
 30
0.0
 11
270.1555879721774
 21
108.5122975894172
 31
0.0
  0
LINE
  5
C92
330
1F
100
AcDbEntity
  8
SPOJOVACÍ
  6
DASHED
100
AcDbLine
 10
270.1555879721774
 20
107.929802902612
 30
0.0
 11
270.1555879721774
 21
105.4594420240372
 31
0.0
  0
LINE
  5
C93
330
1F
100
AcDbEntity
  8
SPOJOVACÍ
  6
DASHED
100
AcDbLine
 10
267.510205212696
 20
105.7547914428195
 30
0.0
 11
267.510205212696
 21
103.2871652810789
 31
0.0
  0
LINE
  5
C94
330
1F
100
AcDbEntity
  8
SPOJOVACÍ
  6
DASHED
100
AcDbLine
 10
267.510205212696
 20
102.7028474496272
 30
0.0
 11
267.510205212696
 21
101.4804290225764
 31
0.0
  0
LINE
  5
C95
330
1F
100
AcDbEntity
  8
SPOJOVACÍ
  6
DASHED
100
AcDbLine
 10
270.1555879721774
 20
104.8705663313829
 30
0.0
 11
270.1555879721774
 21
102.4020285974546
 31
0.0
  0
LINE
  5
C96
330
1F
100
AcDbEntity
  8
SPOJOVACÍ
  6
DASHED
100
AcDbLine
 10
270.1555879721774
 20
101.8104181877023
 30
0.0
 11
270.1555879721774
 21
101.4804290225764
 31
0.0
  0
LINE
  5
C97
330
1F
100
AcDbEntity
  8
SPOJOVACÍ
  6
DASHED
100
AcDbLine
 10
267.510205212696
 20
101.4804290225764
 30
0.0
 11
267.6569683493646
 21
100.3072354982067
 31
0.0
  0
LINE
  5
C98
330
1F
100
AcDbEntity
  8
SPOJOVACÍ
  6
DASHED
100
AcDbLine
 10
268.8328965902976
 20
90.89616328092223
 30
0.0
 11
269.180205631804
 21
93.67554716216535
 31
0.0
  0
LINE
  5
C99
330
1F
100
AcDbEntity
  8
SPOJOVACÍ
  6
DASHED
100
AcDbLine
 10
267.7326288500401
 20
99.6992167874704
 30
0.0
 11
268.0170394025692
 21
97.42393237712702
 31
0.0
  0
LINE
  5
C9A
330
1F
100
AcDbEntity
  8
SPOJOVACÍ
  6
DASHED
100
AcDbLine
 10
268.0945230465506
 20
96.80588637125573
 30
0.0
 11
268.3789335948015
 21
94.53151353310738
 31
0.0
  0
LINE
  5
C9B
330
1F
100
AcDbEntity
  8
SPOJOVACÍ
  6
DASHED
100
AcDbLine
 10
268.4545940954769
 20
93.92349482237102
 30
0.0
 11
268.8328965902976
 21
90.89616328092223
 31
0.0
  0
LINE
  5
C9C
330
1F
100
AcDbEntity
  8
SPOJOVACÍ
  6
DASHED
100
AcDbLine
 10
269.2503966982833
 20
94.2334293974908
 30
0.0
 11
269.5129295140279
 21
96.33551507477557
 31
0.0
  0
LINE
  5
C9D
330
1F
100
AcDbEntity
  8
SPOJOVACÍ
  6
DASHED
100
AcDbLine
 10
269.583120576229
 20
96.89613202693534
 30
0.0
 11
269.8447418224598
 21
98.99001355373172
 31
0.0
  0
LINE
  5
C9E
330
1F
100
AcDbEntity
  8
SPOJOVACÍ
  6
DASHED
100
AcDbLine
 10
269.9149328889391
 20
99.54880736151597
 30
0.0
 11
270.1555879721774
 21
101.4804290225764
 31
0.0
  0
LINE
  5
C9F
330
1F
100
AcDbEntity
  8
SPOJOVACÍ
  6
DASHED
100
AcDbLine
 10
266.4810401084316
 20
115.3618517002595
 30
0.0
 11
271.1847530721636
 21
114.1859234593265
 31
0.0
  0
LINE
  5
CA0
330
1F
100
AcDbEntity
  8
SPOJOVACÍ
  6
DASHED
100
AcDbLine
 10
266.4810401084316
 20
115.3618517002595
 30
0.0
 11
266.8511384562364
 21
115.1485437869322
 31
0.0
  0
LINE
  5
CA1
330
1F
100
AcDbEntity
  8
SPOJOVACÍ
  6
DASHED
100
AcDbLine
 10
266.4810401084316
 20
115.3618517002595
 30
0.0
 11
266.8511384562364
 21
115.7328616181129
 31
0.0
  0
LINE
  5
CA2
330
1F
100
AcDbEntity
  8
SPOJOVACÍ
  6
DASHED
100
AcDbLine
 10
271.1847530721636
 20
114.1859234593265
 30
0.0
 11
270.8146547286371
 21
113.8158251136609
 31
0.0
  0
LINE
  5
CA3
330
1F
100
AcDbEntity
  8
SPOJOVACÍ
  6
DASHED
100
AcDbLine
 10
271.1847530721636
 20
114.1859234593265
 30
0.0
 11
270.8146547286371
 21
114.4001429451126
 31
0.0
  0
LINE
  5
CA4
330
1F
100
AcDbEntity
  8
SPOJOVACÍ
  6
DASHED
100
AcDbLine
 10
266.8511384562364
 20
115.1485437869322
 30
0.0
 11
270.8146547286371
 21
113.8158251136609
 31
0.0
  0
LINE
  5
CA5
330
1F
100
AcDbEntity
  8
SPOJOVACÍ
  6
DASHED
100
AcDbLine
 10
266.8511384562364
 20
115.7328616181129
 30
0.0
 11
270.8146547286371
 21
114.4001429451126
 31
0.0
  0
LINE
  5
CA6
330
1F
100
AcDbEntity
  8
SPOJOVACÍ
  6
DASHED
100
AcDbLine
 10
266.4810401084316
 20
112.3044382736769
 30
0.0
 11
271.1847530721636
 21
111.1285100324729
 31
0.0
  0
LINE
  5
CA7
330
1F
100
AcDbEntity
  8
SPOJOVACÍ
  6
DASHED
100
AcDbLine
 10
266.4810401084316
 20
112.3044382736769
 30
0.0
 11
266.8511384562364
 21
112.0902187878908
 31
0.0
  0
LINE
  5
CA8
330
1F
100
AcDbEntity
  8
SPOJOVACÍ
  6
DASHED
100
AcDbLine
 10
266.4810401084316
 20
112.3044382736769
 30
0.0
 11
266.8511384562364
 21
112.6745366193425
 31
0.0
  0
LINE
  5
CA9
330
1F
100
AcDbEntity
  8
SPOJOVACÍ
  6
DASHED
100
AcDbLine
 10
271.1847530721636
 20
111.1285100324729
 30
0.0
 11
270.8146547286371
 21
110.7584116870783
 31
0.0
  0
LINE
  5
CAA
330
1F
100
AcDbEntity
  8
SPOJOVACÍ
  6
DASHED
100
AcDbLine
 10
271.1847530721636
 20
111.1285100324729
 30
0.0
 11
270.8146547286371
 21
111.342729518259
 31
0.0
  0
LINE
  5
CAB
330
1F
100
AcDbEntity
  8
SPOJOVACÍ
  6
DASHED
100
AcDbLine
 10
266.8511384562364
 20
112.0902187878908
 30
0.0
 11
270.8146547286371
 21
110.7584116870783
 31
0.0
  0
LINE
  5
CAC
330
1F
100
AcDbEntity
  8
SPOJOVACÍ
  6
DASHED
100
AcDbLine
 10
266.8511384562364
 20
112.6745366193425
 30
0.0
 11
270.8146547286371
 21
111.342729518259
 31
0.0
  0
LINE
  5
CAD
330
1F
100
AcDbEntity
  8
SPOJOVACÍ
  6
DASHED
100
AcDbLine
 10
266.7298993429642
 20
100.1158053195248
 30
0.0
 11
267.1009092602828
 21
99.90158583373876
 31
0.0
  0
LINE
  5
CAE
330
1F
100
AcDbEntity
  8
SPOJOVACÍ
  6
DASHED
100
AcDbLine
 10
266.7298993429642
 20
100.1158053195248
 30
0.0
 11
267.1009092602828
 21
100.4859036651904
 31
0.0
  0
LINE
  5
CAF
330
1F
100
AcDbEntity
  8
SPOJOVACÍ
  6
DASHED
100
AcDbLine
 10
270.7727224026523
 20
99.16230071486632
 30
0.0
 11
270.4026240591258
 21
98.79129079674193
 31
0.0
  0
LINE
  5
CB0
330
1F
100
AcDbEntity
  8
SPOJOVACÍ
  6
DASHED
100
AcDbLine
 10
270.7727224026523
 20
99.16230071486632
 30
0.0
 11
270.4026240591258
 21
99.37560862819362
 31
0.0
  0
LINE
  5
CB1
330
1F
100
AcDbEntity
  8
SPOJOVACÍ
  6
DASHED
100
AcDbLine
 10
267.1009092602828
 20
99.90158583373876
 30
0.0
 11
270.4026240591258
 21
98.79129079674193
 31
0.0
  0
LINE
  5
CB2
330
1F
100
AcDbEntity
  8
SPOJOVACÍ
  6
DASHED
100
AcDbLine
 10
267.1009092602828
 20
100.4859036651904
 30
0.0
 11
270.4026240591258
 21
99.37560862819362
 31
0.0
  0
LINE
  5
CB3
330
1F
100
AcDbEntity
  8
SPOJOVACÍ
  6
DASHED
100
AcDbLine
 10
266.7298993429642
 20
100.1158053195248
 30
0.0
 11
270.7727224026523
 21
99.16230071486632
 31
0.0
  0
LINE
  5
CB4
330
1F
100
AcDbEntity
  8
SPOJOVACÍ
  6
DASHED
100
AcDbLine
 10
267.283223714948
 20
97.16139956031282
 30
0.0
 11
267.6533220627527
 21
96.94809164698552
 31
0.0
  0
LINE
  5
CB5
330
1F
100
AcDbEntity
  8
SPOJOVACÍ
  6
DASHED
100
AcDbLine
 10
267.283223714948
 20
97.16139956031282
 30
0.0
 11
267.6533220627527
 21
97.53240947843721
 31
0.0
  0
LINE
  5
CB6
330
1F
100
AcDbEntity
  8
SPOJOVACÍ
  6
DASHED
100
AcDbLine
 10
270.3369908530505
 20
96.54061883787825
 30
0.0
 11
269.966892509524
 21
96.16960892002488
 31
0.0
  0
LINE
  5
CB7
330
1F
100
AcDbEntity
  8
SPOJOVACÍ
  6
DASHED
100
AcDbLine
 10
270.3369908530505
 20
96.54061883787825
 30
0.0
 11
269.966892509524
 21
96.75392675120555
 31
0.0
  0
LINE
  5
CB8
330
1F
100
AcDbEntity
  8
SPOJOVACÍ
  6
DASHED
100
AcDbLine
 10
267.6533220627527
 20
96.94809164698552
 30
0.0
 11
269.966892509524
 21
96.16960892002488
 31
0.0
  0
LINE
  5
CB9
330
1F
100
AcDbEntity
  8
SPOJOVACÍ
  6
DASHED
100
AcDbLine
 10
267.6533220627527
 20
97.53240947843721
 30
0.0
 11
269.966892509524
 21
96.75392675120555
 31
0.0
  0
LINE
  5
CBA
330
1F
100
AcDbEntity
  8
SPOJOVACÍ
  6
DASHED
100
AcDbLine
 10
267.283223714948
 20
97.16139956031282
 30
0.0
 11
270.3369908530505
 21
96.54061883787825
 31
0.0
  0
LINE
  5
CBB
330
1F
100
AcDbEntity
  8
SPOJOVACÍ
  6
DASHED
100
AcDbLine
 10
267.83654809121
 20
94.20790537355959
 30
0.0
 11
268.2066464347365
 21
93.99368588778077
 31
0.0
  0
LINE
  5
CBC
330
1F
100
AcDbEntity
  8
SPOJOVACÍ
  6
DASHED
100
AcDbLine
 10
267.83654809121
 20
94.20790537355959
 30
0.0
 11
268.2066464347365
 21
94.5780037192252
 31
0.0
  0
LINE
  5
CBD
330
1F
100
AcDbEntity
  8
SPOJOVACÍ
  6
DASHED
100
AcDbLine
 10
269.9477494898376
 20
93.90344023210117
 30
0.0
 11
269.5776511463111
 21
93.5324303142478
 31
0.0
  0
LINE
  5
CBE
330
1F
100
AcDbEntity
  8
SPOJOVACÍ
  6
DASHED
100
AcDbLine
 10
269.9477494898376
 20
93.90344023210117
 30
0.0
 11
269.5776511463111
 21
94.11674814569222
 31
0.0
  0
LINE
  5
CBF
330
1F
100
AcDbEntity
  8
SPOJOVACÍ
  6
DASHED
100
AcDbLine
 10
268.2066464347365
 20
93.99368588778077
 30
0.0
 11
269.5776511463111
 21
93.5324303142478
 31
0.0
  0
LINE
  5
CC0
330
1F
100
AcDbEntity
  8
SPOJOVACÍ
  6
DASHED
100
AcDbLine
 10
268.2066464347365
 20
94.5780037192252
 30
0.0
 11
269.5776511463111
 21
94.11674814569222
 31
0.0
  0
LINE
  5
CC1
330
1F
100
AcDbEntity
  8
SPOJOVACÍ
  6
DASHED
100
AcDbLine
 10
267.83654809121
 20
94.20790537355959
 30
0.0
 11
269.9477494898376
 21
93.90344023210117
 31
0.0
  0
LINE
  5
CC2
330
1F
100
AcDbEntity
  8
SPOJOVACÍ
  6
DASHED
100
AcDbLine
 10
266.4810401084316
 20
109.2470248468233
 30
0.0
 11
271.1847530721636
 21
108.0710966058903
 31
0.0
  0
LINE
  5
CC3
330
1F
100
AcDbEntity
  8
SPOJOVACÍ
  6
DASHED
100
AcDbLine
 10
266.4810401084316
 20
109.2470248468233
 30
0.0
 11
266.8511384562364
 21
109.0328053610372
 31
0.0
  0
LINE
  5
CC4
330
1F
100
AcDbEntity
  8
SPOJOVACÍ
  6
DASHED
100
AcDbLine
 10
266.4810401084316
 20
109.2470248468233
 30
0.0
 11
266.8511384562364
 21
109.6171231924889
 31
0.0
  0
LINE
  5
CC5
330
1F
100
AcDbEntity
  8
SPOJOVACÍ
  6
DASHED
100
AcDbLine
 10
271.1847530721636
 20
108.0710966058903
 30
0.0
 11
270.8146547286371
 21
107.700086688037
 31
0.0
  0
LINE
  5
CC6
330
1F
100
AcDbEntity
  8
SPOJOVACÍ
  6
DASHED
100
AcDbLine
 10
271.1847530721636
 20
108.0710966058903
 30
0.0
 11
270.8146547286371
 21
108.2844045194814
 31
0.0
  0
LINE
  5
CC7
330
1F
100
AcDbEntity
  8
SPOJOVACÍ
  6
DASHED
100
AcDbLine
 10
266.8511384562364
 20
109.0328053610372
 30
0.0
 11
270.8146547286371
 21
107.700086688037
 31
0.0
  0
LINE
  5
CC8
330
1F
100
AcDbEntity
  8
SPOJOVACÍ
  6
DASHED
100
AcDbLine
 10
266.8511384562364
 20
109.6171231924889
 30
0.0
 11
270.8146547286371
 21
108.2844045194814
 31
0.0
  0
LINE
  5
CC9
330
1F
100
AcDbEntity
  8
SPOJOVACÍ
  6
DASHED
100
AcDbLine
 10
266.4810401084316
 20
106.1896114202335
 30
0.0
 11
271.1847530721636
 21
105.0136831793005
 31
0.0
  0
LINE
  5
CCA
330
1F
100
AcDbEntity
  8
SPOJOVACÍ
  6
DASHED
100
AcDbLine
 10
266.4810401084316
 20
106.1896114202335
 30
0.0
 11
266.8511384562364
 21
105.9753919344547
 31
0.0
  0
LINE
  5
CCB
330
1F
100
AcDbEntity
  8
SPOJOVACÍ
  6
DASHED
100
AcDbLine
 10
266.4810401084316
 20
106.1896114202335
 30
0.0
 11
266.8511384562364
 21
106.5597097658991
 31
0.0
  0
LINE
  5
CCC
330
1F
100
AcDbEntity
  8
SPOJOVACÍ
  6
DASHED
100
AcDbLine
 10
271.1847530721636
 20
105.0136831793005
 30
0.0
 11
270.8146547286371
 21
104.6426732614471
 31
0.0
  0
LINE
  5
CCD
330
1F
100
AcDbEntity
  8
SPOJOVACÍ
  6
DASHED
100
AcDbLine
 10
271.1847530721636
 20
105.0136831793005
 30
0.0
 11
270.8146547286371
 21
105.2269910926278
 31
0.0
  0
LINE
  5
CCE
330
1F
100
AcDbEntity
  8
SPOJOVACÍ
  6
DASHED
100
AcDbLine
 10
266.8511384562364
 20
105.9753919344547
 30
0.0
 11
270.8146547286371
 21
104.6426732614471
 31
0.0
  0
LINE
  5
CCF
330
1F
100
AcDbEntity
  8
SPOJOVACÍ
  6
DASHED
100
AcDbLine
 10
266.8511384562364
 20
106.5597097658991
 30
0.0
 11
270.8146547286371
 21
105.2269910926278
 31
0.0
  0
LINE
  5
CD0
330
1F
100
AcDbEntity
  8
SPOJOVACÍ
  6
DASHED
100
AcDbLine
 10
266.4810401084316
 20
103.1312864211921
 30
0.0
 11
271.1847530721636
 21
101.9553581802591
 31
0.0
  0
LINE
  5
CD1
330
1F
100
AcDbEntity
  8
SPOJOVACÍ
  6
DASHED
100
AcDbLine
 10
266.4810401084316
 20
103.1312864211921
 30
0.0
 11
266.8511384562364
 21
102.9179785078648
 31
0.0
  0
LINE
  5
CD2
330
1F
100
AcDbEntity
  8
SPOJOVACÍ
  6
DASHED
100
AcDbLine
 10
266.4810401084316
 20
103.1312864211921
 30
0.0
 11
266.8511384562364
 21
103.5022963393165
 31
0.0
  0
LINE
  5
CD3
330
1F
100
AcDbEntity
  8
SPOJOVACÍ
  6
DASHED
100
AcDbLine
 10
271.1847530721636
 20
101.9553581802591
 30
0.0
 11
270.8146547286371
 21
101.5852598345935
 31
0.0
  0
LINE
  5
CD4
330
1F
100
AcDbEntity
  8
SPOJOVACÍ
  6
DASHED
100
AcDbLine
 10
271.1847530721636
 20
101.9553581802591
 30
0.0
 11
270.8146547286371
 21
102.1695776660452
 31
0.0
  0
LINE
  5
CD5
330
1F
100
AcDbEntity
  8
SPOJOVACÍ
  6
DASHED
100
AcDbLine
 10
266.8511384562364
 20
102.9179785078648
 30
0.0
 11
270.8146547286371
 21
101.5852598345935
 31
0.0
  0
LINE
  5
CD6
330
1F
100
AcDbEntity
  8
SPOJOVACÍ
  6
DASHED
100
AcDbLine
 10
266.8511384562364
 20
103.5022963393165
 30
0.0
 11
270.8146547286371
 21
102.1695776660452
 31
0.0
  0
LINE
  5
CD7
330
1F
100
AcDbEntity
  8
SPOJOVACÍ
  6
DASHED
100
AcDbLine
 10
171.1847530721636
 20
101.9553581802591
 30
0.0
 11
170.8146547286371
 21
102.1695776660452
 31
0.0
  0
LINE
  5
CD8
330
1F
100
AcDbEntity
  8
SPOJOVACÍ
  6
DASHED
100
AcDbLine
 10
171.1847530721636
 20
101.9553581802591
 30
0.0
 11
170.8146547286371
 21
101.5852598345935
 31
0.0
  0
LINE
  5
CD9
330
1F
100
AcDbEntity
  8
SPOJOVACÍ
  6
DASHED
100
AcDbLine
 10
171.1847530721636
 20
105.0136831793005
 30
0.0
 11
170.8146547286371
 21
105.2269910926278
 31
0.0
  0
LINE
  5
CDA
330
1F
100
AcDbEntity
  8
SPOJOVACÍ
  6
DASHED
100
AcDbLine
 10
171.1847530721636
 20
105.0136831793005
 30
0.0
 11
170.8146547286371
 21
104.6426732614471
 31
0.0
  0
LINE
  5
CDB
330
1F
100
AcDbEntity
  8
SPOJOVACÍ
  6
DASHED
100
AcDbLine
 10
171.1847530721636
 20
108.0710966058903
 30
0.0
 11
170.8146547286371
 21
108.2844045194814
 31
0.0
  0
LINE
  5
CDC
330
1F
100
AcDbEntity
  8
SPOJOVACÍ
  6
DASHED
100
AcDbLine
 10
171.1847530721636
 20
108.0710966058903
 30
0.0
 11
170.8146547286371
 21
107.700086688037
 31
0.0
  0
LINE
  5
CDD
330
1F
100
AcDbEntity
  8
SPOJOVACÍ
  6
DASHED
100
AcDbLine
 10
169.9477494898376
 20
93.90344023210117
 30
0.0
 11
169.5776511463111
 21
94.11674814569222
 31
0.0
  0
LINE
  5
CDE
330
1F
100
AcDbEntity
  8
SPOJOVACÍ
  6
DASHED
100
AcDbLine
 10
169.9477494898376
 20
93.90344023210117
 30
0.0
 11
169.5776511463111
 21
93.5324303142478
 31
0.0
  0
LINE
  5
CDF
330
1F
100
AcDbEntity
  8
SPOJOVACÍ
  6
DASHED
100
AcDbLine
 10
170.3369908530505
 20
96.54061883787825
 30
0.0
 11
169.966892509524
 21
96.75392675120555
 31
0.0
  0
LINE
  5
CE0
330
1F
100
AcDbEntity
  8
SPOJOVACÍ
  6
DASHED
100
AcDbLine
 10
170.3369908530505
 20
96.54061883787825
 30
0.0
 11
169.966892509524
 21
96.16960892002488
 31
0.0
  0
LINE
  5
CE1
330
1F
100
AcDbEntity
  8
SPOJOVACÍ
  6
DASHED
100
AcDbLine
 10
170.7727224026523
 20
99.16230071486632
 30
0.0
 11
170.4026240591258
 21
99.37560862819362
 31
0.0
  0
LINE
  5
CE2
330
1F
100
AcDbEntity
  8
SPOJOVACÍ
  6
DASHED
100
AcDbLine
 10
170.7727224026523
 20
99.16230071486632
 30
0.0
 11
170.4026240591258
 21
98.79129079674193
 31
0.0
  0
LINE
  5
CE3
330
1F
100
AcDbEntity
  8
SPOJOVACÍ
  6
DASHED
100
AcDbLine
 10
171.1847530721636
 20
111.1285100324729
 30
0.0
 11
170.8146547286371
 21
111.342729518259
 31
0.0
  0
LINE
  5
CE4
330
1F
100
AcDbEntity
  8
SPOJOVACÍ
  6
DASHED
100
AcDbLine
 10
171.1847530721636
 20
111.1285100324729
 30
0.0
 11
170.8146547286371
 21
110.7584116870783
 31
0.0
  0
LINE
  5
CE5
330
1F
100
AcDbEntity
  8
SPOJOVACÍ
  6
DASHED
100
AcDbLine
 10
171.1847530721636
 20
114.1859234593265
 30
0.0
 11
170.8146547286371
 21
114.4001429451126
 31
0.0
  0
LINE
  5
CE6
330
1F
100
AcDbEntity
  8
SPOJOVACÍ
  6
DASHED
100
AcDbLine
 10
171.1847530721636
 20
114.1859234593265
 30
0.0
 11
170.8146547286371
 21
113.8158251136609
 31
0.0
  0
LINE
  5
CE7
330
1F
100
AcDbEntity
  8
SPOJOVACÍ
  6
DASHED
100
AcDbLine
 10
169.9149328889391
 20
99.54880736151597
 30
0.0
 11
170.1555879721775
 21
101.4804290225764
 31
0.0
  0
LINE
  5
CE8
330
1F
100
AcDbEntity
  8
SPOJOVACÍ
  6
DASHED
100
AcDbLine
 10
169.583120576229
 20
96.89613202693534
 30
0.0
 11
169.8447418224598
 21
98.99001355373172
 31
0.0
  0
LINE
  5
CE9
330
1F
100
AcDbEntity
  8
SPOJOVACÍ
  6
DASHED
100
AcDbLine
 10
169.2503966982833
 20
94.2334293974908
 30
0.0
 11
169.5129295140279
 21
96.33551507477557
 31
0.0
  0
LINE
  5
CEA
330
1F
100
AcDbEntity
  8
SPOJOVACÍ
  6
DASHED
100
AcDbLine
 10
168.8328965902976
 20
90.89616328092223
 30
0.0
 11
169.180205631804
 21
93.67554716216535
 31
0.0
  0
LINE
  5
CEB
330
1F
100
AcDbEntity
  8
SPOJOVACÍ
  6
DASHED
100
AcDbLine
 10
170.1555879721775
 20
101.8104181877023
 30
0.0
 11
170.1555879721775
 21
101.4804290225764
 31
0.0
  0
LINE
  5
CEC
330
1F
100
AcDbEntity
  8
SPOJOVACÍ
  6
DASHED
100
AcDbLine
 10
170.1555879721775
 20
104.8705663313829
 30
0.0
 11
170.1555879721775
 21
102.4020285974546
 31
0.0
  0
LINE
  5
CED
330
1F
100
AcDbEntity
  8
SPOJOVACÍ
  6
DASHED
100
AcDbLine
 10
170.1555879721775
 20
107.929802902612
 30
0.0
 11
170.1555879721775
 21
105.4594420240372
 31
0.0
  0
LINE
  5
CEE
330
1F
100
AcDbEntity
  8
SPOJOVACÍ
  6
DASHED
100
AcDbLine
 10
170.1555879721775
 20
110.9899510460289
 30
0.0
 11
170.1555879721775
 21
108.5122975894172
 31
0.0
  0
LINE
  5
CEF
330
1F
100
AcDbEntity
  8
SPOJOVACÍ
  6
DASHED
100
AcDbLine
 10
170.1555879721775
 20
114.0428066114089
 30
0.0
 11
170.1555879721775
 21
111.5742688774806
 31
0.0
  0
LINE
  5
CF0
330
1F
100
AcDbEntity
  8
SPOJOVACÍ
  6
DASHED
100
AcDbLine
 10
170.1555879721775
 20
119.4785121162475
 30
0.0
 11
170.1555879721775
 21
114.6344170208975
 31
0.0
  0
LINE
  5
CF1
330
1F
100
AcDbEntity
  8
CETRIS
100
AcDbLine
 10
395.5296338361833
 20
113.9461174419142
 30
0.0
 11
395.5296338361833
 21
101.9461174419142
 31
0.0
  0
INSERT
  5
CF2
330
1F
100
AcDbEntity
  8
POPIS
100
AcDbBlockReference
  2
E_PUNKT
 10
420.4773192289133
 20
3.521444032177782
 30
0.0
 50
270.0
  0
INSERT
  5
CF3
330
1F
100
AcDbEntity
  8
POPIS
100
AcDbBlockReference
  2
E_PUNKT
 10
371.3888037646277
 20
61.97372781753973
 30
0.0
 50
270.0
  0
LWPOLYLINE
  5
CF4
330
1F
100
AcDbEntity
  8
STAVBA OBRYS
100
AcDbPolyline
 90
        4
 70
     1
 43
0.0
 10
468.3135106514048
 20
61.94611744191377
 10
444.6717779415696
 20
61.94611744191377
 10
444.6717779415696
 20
58.94611744191377
 10
468.3135106514048
 20
58.94611744191377
  0
HATCH
  5
CF5
330
1F
100
AcDbEntity
  8
izolace
100
AcDbHatch
 10
0.0
 20
0.0
 30
0.0
210
0.0
220
0.0
230
1.0
  2
SOLID
 70
     1
 71
     0
 91
        1
 92
        7
 72
     0
 73
     1
 93
        4
 10
468.3135106514084
 20
61.94611744191377
 10
444.6717779415733
 20
61.94611744191377
 10
444.6717779415696
 20
58.94611744191377
 10
468.3135106514084
 20
58.94611744191377
 97
        0
 75
     0
 76
     1
 47
0.1901250437635136
 98
        1
 10
454.0295726999131
 20
61.12930589083396
  0
LWPOLYLINE
  5
CF6
330
1F
100
AcDbEntity
  8
STAVBA OBRYS
100
AcDbPolyline
 90
        4
 70
     1
 43
0.0
 10
421.0300452317344
 20
61.94611744191377
 10
397.3883125218992
 20
61.94611744191377
 10
397.3883125218992
 20
58.94611744191377
 10
421.0300452317344
 20
58.94611744191377
  0
HATCH
  5
CF7
330
1F
100
AcDbEntity
  8
izolace
100
AcDbHatch
 10
0.0
 20
0.0
 30
0.0
210
0.0
220
0.0
230
1.0
  2
SOLID
 70
     1
 71
     0
 91
        1
 92
        7
 72
     0
 73
     1
 93
        4
 10
421.0300452317381
 20
61.94611744191377
 10
397.3883125219029
 20
61.94611744191377
 10
397.3883125218992
 20
58.94611744191377
 10
421.0300452317381
 20
58.94611744191377
 97
        0
 75
     0
 76
     1
 47
0.1901250437635136
 98
        1
 10
406.7461072802427
 20
61.12930589083396
  0
LWPOLYLINE
  5
CF8
330
1F
100
AcDbEntity
  8
STAVBA OBRYS
100
AcDbPolyline
 90
        4
 70
     1
 43
0.0
 10
373.746579812064
 20
61.94611744191377
 10
350.1048471022288
 20
61.94611744191377
 10
350.1048471022288
 20
58.94611744191377
 10
373.746579812064
 20
58.94611744191377
  0
HATCH
  5
CF9
330
1F
100
AcDbEntity
  8
izolace
100
AcDbHatch
 10
0.0
 20
0.0
 30
0.0
210
0.0
220
0.0
230
1.0
  2
SOLID
 70
     1
 71
     0
 91
        1
 92
        7
 72
     0
 73
     1
 93
        4
 10
373.7465798120676
 20
61.94611744191377
 10
350.1048471022325
 20
61.94611744191377
 10
350.1048471022288
 20
58.94611744191377
 10
373.7465798120676
 20
58.94611744191377
 97
        0
 75
     0
 76
     1
 47
0.1901250437635136
 98
        1
 10
359.4626418605723
 20
61.12930589083396
  0
LWPOLYLINE
  5
CFA
330
1F
100
AcDbEntity
  8
izolace
100
AcDbPolyline
 90
        4
 70
     1
 43
0.0
 10
562.8804414907456
 20
61.94611744191377
 10
539.2387087809104
 20
61.94611744191377
 10
539.2387087809104
 20
58.94611744191377
 10
562.8804414907456
 20
58.94611744191377
  0
HATCH
  5
CFB
330
1F
100
AcDbEntity
  8
izolace
100
AcDbHatch
 10
0.0
 20
0.0
 30
0.0
210
0.0
220
0.0
230
1.0
  2
SOLID
 70
     1
 71
     0
 91
        1
 92
        7
 72
     0
 73
     1
 93
        4
 10
562.8804414907492
 20
61.94611744191377
 10
539.238708780914
 20
61.94611744191377
 10
539.2387087809104
 20
58.94611744191377
 10
562.8804414907492
 20
58.94611744191377
 97
        0
 75
     0
 76
     1
 47
0.1901250437635136
 98
        1
 10
548.5965035392539
 20
61.12930589083396
  0
LWPOLYLINE
  5
CFC
330
1F
100
AcDbEntity
  8
izolace
100
AcDbPolyline
 90
        4
 70
     1
 43
0.0
 10
515.5969760710752
 20
61.94611744191377
 10
491.95524336124
 20
61.94611744191377
 10
491.95524336124
 20
58.94611744191377
 10
515.5969760710752
 20
58.94611744191377
  0
HATCH
  5
CFD
330
1F
100
AcDbEntity
  8
izolace
100
AcDbHatch
 10
0.0
 20
0.0
 30
0.0
210
0.0
220
0.0
230
1.0
  2
SOLID
 70
     1
 71
     0
 91
        1
 92
        7
 72
     0
 73
     1
 93
        4
 10
515.5969760710788
 20
61.94611744191377
 10
491.9552433612436
 20
61.94611744191377
 10
491.95524336124
 20
58.94611744191377
 10
515.5969760710788
 20
58.94611744191377
 97
        0
 75
     0
 76
     1
 47
0.1901250437635136
 98
        1
 10
501.3130381195835
 20
61.12930589083396
  0
LINE
  5
CFE
330
1F
100
AcDbEntity
  8
SPOJOVACÍ
  6
DASHED
100
AcDbLine
 10
516.8511384562363
 20
103.5022963393165
 30
0.0
 11
520.8146547286371
 21
102.1695776660452
 31
0.0
  0
LINE
  5
CFF
330
1F
100
AcDbEntity
  8
SPOJOVACÍ
  6
DASHED
100
AcDbLine
 10
516.8511384562363
 20
102.9179785078648
 30
0.0
 11
520.8146547286371
 21
101.5852598345935
 31
0.0
  0
LINE
  5
D00
330
1F
100
AcDbEntity
  8
SPOJOVACÍ
  6
DASHED
100
AcDbLine
 10
521.1847530721636
 20
101.9553581802591
 30
0.0
 11
520.8146547286371
 21
102.1695776660452
 31
0.0
  0
LINE
  5
D01
330
1F
100
AcDbEntity
  8
SPOJOVACÍ
  6
DASHED
100
AcDbLine
 10
521.1847530721636
 20
101.9553581802591
 30
0.0
 11
520.8146547286371
 21
101.5852598345935
 31
0.0
  0
LINE
  5
D02
330
1F
100
AcDbEntity
  8
SPOJOVACÍ
  6
DASHED
100
AcDbLine
 10
516.4810401084316
 20
103.1312864211921
 30
0.0
 11
516.8511384562363
 21
103.5022963393165
 31
0.0
  0
LINE
  5
D03
330
1F
100
AcDbEntity
  8
SPOJOVACÍ
  6
DASHED
100
AcDbLine
 10
516.4810401084316
 20
103.1312864211921
 30
0.0
 11
516.8511384562363
 21
102.9179785078648
 31
0.0
  0
LINE
  5
D04
330
1F
100
AcDbEntity
  8
SPOJOVACÍ
  6
DASHED
100
AcDbLine
 10
516.4810401084316
 20
103.1312864211921
 30
0.0
 11
521.1847530721636
 21
101.9553581802591
 31
0.0
  0
LINE
  5
D05
330
1F
100
AcDbEntity
  8
SPOJOVACÍ
  6
DASHED
100
AcDbLine
 10
516.8511384562363
 20
106.5597097658991
 30
0.0
 11
520.8146547286371
 21
105.2269910926278
 31
0.0
  0
LINE
  5
D06
330
1F
100
AcDbEntity
  8
SPOJOVACÍ
  6
DASHED
100
AcDbLine
 10
516.8511384562363
 20
105.9753919344547
 30
0.0
 11
520.8146547286371
 21
104.6426732614471
 31
0.0
  0
LINE
  5
D07
330
1F
100
AcDbEntity
  8
SPOJOVACÍ
  6
DASHED
100
AcDbLine
 10
521.1847530721636
 20
105.0136831793005
 30
0.0
 11
520.8146547286371
 21
105.2269910926278
 31
0.0
  0
LINE
  5
D08
330
1F
100
AcDbEntity
  8
SPOJOVACÍ
  6
DASHED
100
AcDbLine
 10
521.1847530721636
 20
105.0136831793005
 30
0.0
 11
520.8146547286371
 21
104.6426732614471
 31
0.0
  0
LINE
  5
D09
330
1F
100
AcDbEntity
  8
SPOJOVACÍ
  6
DASHED
100
AcDbLine
 10
516.4810401084316
 20
106.1896114202335
 30
0.0
 11
516.8511384562363
 21
106.5597097658991
 31
0.0
  0
LINE
  5
D0A
330
1F
100
AcDbEntity
  8
SPOJOVACÍ
  6
DASHED
100
AcDbLine
 10
516.4810401084316
 20
106.1896114202335
 30
0.0
 11
516.8511384562363
 21
105.9753919344547
 31
0.0
  0
LINE
  5
D0B
330
1F
100
AcDbEntity
  8
SPOJOVACÍ
  6
DASHED
100
AcDbLine
 10
516.4810401084316
 20
106.1896114202335
 30
0.0
 11
521.1847530721636
 21
105.0136831793005
 31
0.0
  0
LINE
  5
D0C
330
1F
100
AcDbEntity
  8
SPOJOVACÍ
  6
DASHED
100
AcDbLine
 10
516.8511384562363
 20
109.6171231924889
 30
0.0
 11
520.8146547286371
 21
108.2844045194814
 31
0.0
  0
LINE
  5
D0D
330
1F
100
AcDbEntity
  8
SPOJOVACÍ
  6
DASHED
100
AcDbLine
 10
516.8511384562363
 20
109.0328053610372
 30
0.0
 11
520.8146547286371
 21
107.700086688037
 31
0.0
  0
LINE
  5
D0E
330
1F
100
AcDbEntity
  8
SPOJOVACÍ
  6
DASHED
100
AcDbLine
 10
521.1847530721636
 20
108.0710966058903
 30
0.0
 11
520.8146547286371
 21
108.2844045194814
 31
0.0
  0
LINE
  5
D0F
330
1F
100
AcDbEntity
  8
SPOJOVACÍ
  6
DASHED
100
AcDbLine
 10
521.1847530721636
 20
108.0710966058903
 30
0.0
 11
520.8146547286371
 21
107.700086688037
 31
0.0
  0
LINE
  5
D10
330
1F
100
AcDbEntity
  8
SPOJOVACÍ
  6
DASHED
100
AcDbLine
 10
516.4810401084316
 20
109.2470248468233
 30
0.0
 11
516.8511384562363
 21
109.6171231924889
 31
0.0
  0
LINE
  5
D11
330
1F
100
AcDbEntity
  8
SPOJOVACÍ
  6
DASHED
100
AcDbLine
 10
516.4810401084316
 20
109.2470248468233
 30
0.0
 11
516.8511384562363
 21
109.0328053610372
 31
0.0
  0
LINE
  5
D12
330
1F
100
AcDbEntity
  8
SPOJOVACÍ
  6
DASHED
100
AcDbLine
 10
516.4810401084316
 20
109.2470248468233
 30
0.0
 11
521.1847530721636
 21
108.0710966058903
 31
0.0
  0
LINE
  5
D13
330
1F
100
AcDbEntity
  8
SPOJOVACÍ
  6
DASHED
100
AcDbLine
 10
517.83654809121
 20
94.20790537355959
 30
0.0
 11
519.9477494898376
 21
93.90344023210117
 31
0.0
  0
LINE
  5
D14
330
1F
100
AcDbEntity
  8
SPOJOVACÍ
  6
DASHED
100
AcDbLine
 10
518.2066464347364
 20
94.5780037192252
 30
0.0
 11
519.5776511463111
 21
94.11674814569222
 31
0.0
  0
LINE
  5
D15
330
1F
100
AcDbEntity
  8
SPOJOVACÍ
  6
DASHED
100
AcDbLine
 10
518.2066464347364
 20
93.99368588778077
 30
0.0
 11
519.5776511463111
 21
93.5324303142478
 31
0.0
  0
LINE
  5
D16
330
1F
100
AcDbEntity
  8
SPOJOVACÍ
  6
DASHED
100
AcDbLine
 10
519.9477494898376
 20
93.90344023210117
 30
0.0
 11
519.5776511463111
 21
94.11674814569222
 31
0.0
  0
LINE
  5
D17
330
1F
100
AcDbEntity
  8
SPOJOVACÍ
  6
DASHED
100
AcDbLine
 10
519.9477494898376
 20
93.90344023210117
 30
0.0
 11
519.5776511463111
 21
93.5324303142478
 31
0.0
  0
LINE
  5
D18
330
1F
100
AcDbEntity
  8
SPOJOVACÍ
  6
DASHED
100
AcDbLine
 10
517.83654809121
 20
94.20790537355959
 30
0.0
 11
518.2066464347364
 21
94.5780037192252
 31
0.0
  0
LINE
  5
D19
330
1F
100
AcDbEntity
  8
SPOJOVACÍ
  6
DASHED
100
AcDbLine
 10
517.83654809121
 20
94.20790537355959
 30
0.0
 11
518.2066464347364
 21
93.99368588778077
 31
0.0
  0
LINE
  5
D1A
330
1F
100
AcDbEntity
  8
SPOJOVACÍ
  6
DASHED
100
AcDbLine
 10
517.283223714948
 20
97.16139956031282
 30
0.0
 11
520.3369908530505
 21
96.54061883787825
 31
0.0
  0
LINE
  5
D1B
330
1F
100
AcDbEntity
  8
SPOJOVACÍ
  6
DASHED
100
AcDbLine
 10
517.6533220627527
 20
97.53240947843721
 30
0.0
 11
519.9668925095241
 21
96.75392675120555
 31
0.0
  0
LINE
  5
D1C
330
1F
100
AcDbEntity
  8
SPOJOVACÍ
  6
DASHED
100
AcDbLine
 10
517.6533220627527
 20
96.94809164698552
 30
0.0
 11
519.9668925095241
 21
96.16960892002488
 31
0.0
  0
LINE
  5
D1D
330
1F
100
AcDbEntity
  8
SPOJOVACÍ
  6
DASHED
100
AcDbLine
 10
520.3369908530505
 20
96.54061883787825
 30
0.0
 11
519.9668925095241
 21
96.75392675120555
 31
0.0
  0
LINE
  5
D1E
330
1F
100
AcDbEntity
  8
SPOJOVACÍ
  6
DASHED
100
AcDbLine
 10
520.3369908530505
 20
96.54061883787825
 30
0.0
 11
519.9668925095241
 21
96.16960892002488
 31
0.0
  0
LINE
  5
D1F
330
1F
100
AcDbEntity
  8
SPOJOVACÍ
  6
DASHED
100
AcDbLine
 10
517.283223714948
 20
97.16139956031282
 30
0.0
 11
517.6533220627527
 21
97.53240947843721
 31
0.0
  0
LINE
  5
D20
330
1F
100
AcDbEntity
  8
SPOJOVACÍ
  6
DASHED
100
AcDbLine
 10
517.283223714948
 20
97.16139956031282
 30
0.0
 11
517.6533220627527
 21
96.94809164698552
 31
0.0
  0
LINE
  5
D21
330
1F
100
AcDbEntity
  8
SPOJOVACÍ
  6
DASHED
100
AcDbLine
 10
516.7298993429642
 20
100.1158053195248
 30
0.0
 11
520.7727224026523
 21
99.16230071486632
 31
0.0
  0
LINE
  5
D22
330
1F
100
AcDbEntity
  8
SPOJOVACÍ
  6
DASHED
100
AcDbLine
 10
517.1009092602828
 20
100.4859036651904
 30
0.0
 11
520.4026240591258
 21
99.37560862819362
 31
0.0
  0
LINE
  5
D23
330
1F
100
AcDbEntity
  8
SPOJOVACÍ
  6
DASHED
100
AcDbLine
 10
517.1009092602828
 20
99.90158583373876
 30
0.0
 11
520.4026240591258
 21
98.79129079674193
 31
0.0
  0
LINE
  5
D24
330
1F
100
AcDbEntity
  8
SPOJOVACÍ
  6
DASHED
100
AcDbLine
 10
520.7727224026523
 20
99.16230071486632
 30
0.0
 11
520.4026240591258
 21
99.37560862819362
 31
0.0
  0
LINE
  5
D25
330
1F
100
AcDbEntity
  8
SPOJOVACÍ
  6
DASHED
100
AcDbLine
 10
520.7727224026523
 20
99.16230071486632
 30
0.0
 11
520.4026240591258
 21
98.79129079674193
 31
0.0
  0
LINE
  5
D26
330
1F
100
AcDbEntity
  8
SPOJOVACÍ
  6
DASHED
100
AcDbLine
 10
516.7298993429642
 20
100.1158053195248
 30
0.0
 11
517.1009092602828
 21
100.4859036651904
 31
0.0
  0
LINE
  5
D27
330
1F
100
AcDbEntity
  8
SPOJOVACÍ
  6
DASHED
100
AcDbLine
 10
516.7298993429642
 20
100.1158053195248
 30
0.0
 11
517.1009092602828
 21
99.90158583373876
 31
0.0
  0
LINE
  5
D28
330
1F
100
AcDbEntity
  8
SPOJOVACÍ
  6
DASHED
100
AcDbLine
 10
516.8511384562363
 20
112.6745366193425
 30
0.0
 11
520.8146547286371
 21
111.342729518259
 31
0.0
  0
LINE
  5
D29
330
1F
100
AcDbEntity
  8
SPOJOVACÍ
  6
DASHED
100
AcDbLine
 10
516.8511384562363
 20
112.0902187878908
 30
0.0
 11
520.8146547286371
 21
110.7584116870783
 31
0.0
  0
LINE
  5
D2A
330
1F
100
AcDbEntity
  8
SPOJOVACÍ
  6
DASHED
100
AcDbLine
 10
521.1847530721636
 20
111.1285100324729
 30
0.0
 11
520.8146547286371
 21
111.342729518259
 31
0.0
  0
LINE
  5
D2B
330
1F
100
AcDbEntity
  8
SPOJOVACÍ
  6
DASHED
100
AcDbLine
 10
521.1847530721636
 20
111.1285100324729
 30
0.0
 11
520.8146547286371
 21
110.7584116870783
 31
0.0
  0
LINE
  5
D2C
330
1F
100
AcDbEntity
  8
SPOJOVACÍ
  6
DASHED
100
AcDbLine
 10
516.4810401084316
 20
112.3044382736769
 30
0.0
 11
516.8511384562363
 21
112.6745366193425
 31
0.0
  0
LINE
  5
D2D
330
1F
100
AcDbEntity
  8
SPOJOVACÍ
  6
DASHED
100
AcDbLine
 10
516.4810401084316
 20
112.3044382736769
 30
0.0
 11
516.8511384562363
 21
112.0902187878908
 31
0.0
  0
LINE
  5
D2E
330
1F
100
AcDbEntity
  8
SPOJOVACÍ
  6
DASHED
100
AcDbLine
 10
516.4810401084316
 20
112.3044382736769
 30
0.0
 11
521.1847530721636
 21
111.1285100324729
 31
0.0
  0
LINE
  5
D2F
330
1F
100
AcDbEntity
  8
SPOJOVACÍ
  6
DASHED
100
AcDbLine
 10
516.8511384562363
 20
115.7328616181129
 30
0.0
 11
520.8146547286371
 21
114.4001429451126
 31
0.0
  0
LINE
  5
D30
330
1F
100
AcDbEntity
  8
SPOJOVACÍ
  6
DASHED
100
AcDbLine
 10
516.8511384562363
 20
115.1485437869322
 30
0.0
 11
520.8146547286371
 21
113.8158251136609
 31
0.0
  0
LINE
  5
D31
330
1F
100
AcDbEntity
  8
SPOJOVACÍ
  6
DASHED
100
AcDbLine
 10
521.1847530721636
 20
114.1859234593265
 30
0.0
 11
520.8146547286371
 21
114.4001429451126
 31
0.0
  0
LINE
  5
D32
330
1F
100
AcDbEntity
  8
SPOJOVACÍ
  6
DASHED
100
AcDbLine
 10
521.1847530721636
 20
114.1859234593265
 30
0.0
 11
520.8146547286371
 21
113.8158251136609
 31
0.0
  0
LINE
  5
D33
330
1F
100
AcDbEntity
  8
SPOJOVACÍ
  6
DASHED
100
AcDbLine
 10
516.4810401084316
 20
115.3618517002595
 30
0.0
 11
516.8511384562363
 21
115.7328616181129
 31
0.0
  0
LINE
  5
D34
330
1F
100
AcDbEntity
  8
SPOJOVACÍ
  6
DASHED
100
AcDbLine
 10
516.4810401084316
 20
115.3618517002595
 30
0.0
 11
516.8511384562363
 21
115.1485437869322
 31
0.0
  0
LINE
  5
D35
330
1F
100
AcDbEntity
  8
SPOJOVACÍ
  6
DASHED
100
AcDbLine
 10
516.4810401084316
 20
115.3618517002595
 30
0.0
 11
521.1847530721636
 21
114.1859234593265
 31
0.0
  0
LINE
  5
D36
330
1F
100
AcDbEntity
  8
SPOJOVACÍ
  6
DASHED
100
AcDbLine
 10
519.9149328889391
 20
99.54880736151597
 30
0.0
 11
520.1555879721775
 21
101.4804290225764
 31
0.0
  0
LINE
  5
D37
330
1F
100
AcDbEntity
  8
SPOJOVACÍ
  6
DASHED
100
AcDbLine
 10
519.5831205762289
 20
96.89613202693534
 30
0.0
 11
519.8447418224597
 21
98.99001355373172
 31
0.0
  0
LINE
  5
D38
330
1F
100
AcDbEntity
  8
SPOJOVACÍ
  6
DASHED
100
AcDbLine
 10
519.2503966982833
 20
94.2334293974908
 30
0.0
 11
519.5129295140279
 21
96.33551507477557
 31
0.0
  0
LINE
  5
D39
330
1F
100
AcDbEntity
  8
SPOJOVACÍ
  6
DASHED
100
AcDbLine
 10
518.454594095477
 20
93.92349482237102
 30
0.0
 11
518.8328965902976
 21
90.89616328092223
 31
0.0
  0
LINE
  5
D3A
330
1F
100
AcDbEntity
  8
SPOJOVACÍ
  6
DASHED
100
AcDbLine
 10
518.0945230465506
 20
96.80588637125573
 30
0.0
 11
518.3789335948015
 21
94.53151353310738
 31
0.0
  0
LINE
  5
D3B
330
1F
100
AcDbEntity
  8
SPOJOVACÍ
  6
DASHED
100
AcDbLine
 10
517.7326288500401
 20
99.6992167874704
 30
0.0
 11
518.0170394025692
 21
97.42393237712702
 31
0.0
  0
LINE
  5
D3C
330
1F
100
AcDbEntity
  8
SPOJOVACÍ
  6
DASHED
100
AcDbLine
 10
518.8328965902976
 20
90.89616328092223
 30
0.0
 11
519.180205631804
 21
93.67554716216535
 31
0.0
  0
LINE
  5
D3D
330
1F
100
AcDbEntity
  8
SPOJOVACÍ
  6
DASHED
100
AcDbLine
 10
517.510205212696
 20
101.4804290225764
 30
0.0
 11
517.6569683493646
 21
100.3072354982067
 31
0.0
  0
LINE
  5
D3E
330
1F
100
AcDbEntity
  8
SPOJOVACÍ
  6
DASHED
100
AcDbLine
 10
520.1555879721775
 20
101.8104181877023
 30
0.0
 11
520.1555879721775
 21
101.4804290225764
 31
0.0
  0
LINE
  5
D3F
330
1F
100
AcDbEntity
  8
SPOJOVACÍ
  6
DASHED
100
AcDbLine
 10
520.1555879721775
 20
104.8705663313829
 30
0.0
 11
520.1555879721775
 21
102.4020285974546
 31
0.0
  0
LINE
  5
D40
330
1F
100
AcDbEntity
  8
SPOJOVACÍ
  6
DASHED
100
AcDbLine
 10
517.510205212696
 20
102.7028474496272
 30
0.0
 11
517.510205212696
 21
101.4804290225764
 31
0.0
  0
LINE
  5
D41
330
1F
100
AcDbEntity
  8
SPOJOVACÍ
  6
DASHED
100
AcDbLine
 10
517.510205212696
 20
105.7547914428195
 30
0.0
 11
517.510205212696
 21
103.2871652810789
 31
0.0
  0
LINE
  5
D42
330
1F
100
AcDbEntity
  8
SPOJOVACÍ
  6
DASHED
100
AcDbLine
 10
520.1555879721775
 20
107.929802902612
 30
0.0
 11
520.1555879721775
 21
105.4594420240372
 31
0.0
  0
LINE
  5
D43
330
1F
100
AcDbEntity
  8
SPOJOVACÍ
  6
DASHED
100
AcDbLine
 10
520.1555879721775
 20
110.9899510460289
 30
0.0
 11
520.1555879721775
 21
108.5122975894172
 31
0.0
  0
LINE
  5
D44
330
1F
100
AcDbEntity
  8
SPOJOVACÍ
  6
DASHED
100
AcDbLine
 10
520.1555879721775
 20
114.0428066114089
 30
0.0
 11
520.1555879721775
 21
111.5742688774806
 31
0.0
  0
LINE
  5
D45
330
1F
100
AcDbEntity
  8
SPOJOVACÍ
  6
DASHED
100
AcDbLine
 10
517.510205212696
 20
108.8249668813713
 30
0.0
 11
517.510205212696
 21
106.3473134247595
 31
0.0
  0
LINE
  5
D46
330
1F
100
AcDbEntity
  8
SPOJOVACÍ
  6
DASHED
100
AcDbLine
 10
517.510205212696
 20
111.8778224467513
 30
0.0
 11
517.510205212696
 21
109.4074615681764
 31
0.0
  0
LINE
  5
D47
330
1F
100
AcDbEntity
  8
SPOJOVACÍ
  6
DASHED
100
AcDbLine
 10
517.510205212696
 20
114.9379705901682
 30
0.0
 11
517.510205212696
 21
112.4694328562399
 31
0.0
  0
LINE
  5
D48
330
1F
100
AcDbEntity
  8
SPOJOVACÍ
  6
DASHED
100
AcDbLine
 10
517.510205212696
 20
119.4785121162475
 30
0.0
 11
517.510205212696
 21
115.5213768491611
 31
0.0
  0
LINE
  5
D49
330
1F
100
AcDbEntity
  8
SPOJOVACÍ
  6
DASHED
100
AcDbLine
 10
520.1555879721775
 20
119.4785121162475
 30
0.0
 11
520.1555879721775
 21
114.6344170208975
 31
0.0
  0
LWPOLYLINE
  5
D4A
330
1F
100
AcDbEntity
  8
nášlap_vrstvy
100
AcDbPolyline
 90
        4
 70
     1
 43
0.0
 10
577.0120726884299
 20
125.9461174419137
 10
227.1411327969792
 20
125.9461174419137
 10
227.1411327969792
 20
127.4461174419137
 10
577.0120726884299
 20
127.4461174419137
  0
HATCH
  5
D4B
330
1F
100
AcDbEntity
  8
nášlap_vrstvy
100
AcDbHatch
 10
0.0
 20
0.0
 30
0.0
210
0.0
220
0.0
230
1.0
  2
ANSI31
 70
     0
 71
     0
 91
        5
 92
        7
 72
     0
 73
     1
 93
        8
 10
296.3139019172697
 20
127.4461174419137
 10
296.3139019172733
 20
141.6331122894779
 10
243.3549736426132
 20
141.633112289477
 10
243.3549736426095
 20
136.2853705109245
 10
235.7712355030519
 20
136.2853705109245
 10
235.7712355030519
 20
131.8602086767358
 10
243.3549736426059
 20
131.8602086767367
 10
243.3549736426095
 20
127.4461174419146
 97
        0
 92
        7
 72
     0
 73
     1
 93
        4
 10
296.3139019172697
 20
141.6331122894788
 10
296.3139019172697
 20
127.4461174419137
 10
371.4178720954944
 20
127.4461174419146
 10
371.4178720954908
 20
141.6331122894779
 97
        0
 92
        7
 72
     0
 73
     1
 93
        9
 10
420.5063875597836
 20
127.4461174419146
 10
420.50638755978
 20
131.8602086767367
 10
415.7712355030518
 20
131.8602086767367
 10
415.7712355030591
 20
136.2853705109245
 10
420.5063875597873
 20
136.2853705109245
 10
420.5063875597873
 20
141.6331122894797
 10
371.4178720955016
 20
141.6331122894797
 10
371.4178720955016
 20
127.4461174419137
 10
380.8123954109062
 20
127.4461174419137
 97
        0
 92
        7
 72
     0
 73
     1
 93
        4
 10
420.5063875597873
 20
127.4461174419128
 10
423.3549736426096
 20
127.4461174419128
 10
423.3549736426023
 20
131.8602086767358
 10
420.5063875597836
 20
131.8602086767367
 97
        0
 92
        7
 72
     0
 73
     1
 93
        4
 10
420.50638755978
 20
136.2853705109245
 10
423.3549736426132
 20
136.2853705109245
 10
423.3549736426132
 20
141.6331122894788
 10
420.5063875597836
 20
141.6331122894788
 97
        0
 75
     0
 76
     1
 52
75.0
 41
1.0
 77
     0
 78
     1
 53
120.0
 43
-29158.85100424278
 44
8498.765609247609
 45
-2.749630657015592
 46
-1.587499999999999
 79
     0
 47
0.1626038495349096
 98
        5
 10
283.5791554100717
 20
133.7860990189309
 10
312.6491075504957
 20
135.3151688730303
 10
391.4440264970683
 20
133.7860990189309
 10
422.0624664322379
 20
129.4684344571304
 10
421.4116206868268
 20
138.5742712841327
  0
LINE
  5
D4C
330
1F
100
AcDbEntity
  8
SPOJOVACÍ
  6
DASHED
100
AcDbLine
 10
163.8347457794363
 20
124.770189200717
 30
0.0
 11
173.8310474011589
 21
124.770189200717
 31
0.0
  0
LINE
  5
D4D
330
1F
100
AcDbEntity
  8
SPOJOVACÍ
  6
DASHED
100
AcDbLine
 10
163.8347457794363
 20
125.9461174419137
 30
0.0
 11
173.8310474011589
 21
125.9461174419137
 31
0.0
  0
HATCH
  5
D4E
330
1F
100
AcDbEntity
  8
nášlap_vrstvy
100
AcDbHatch
 10
0.0
 20
0.0
 30
0.0
210
0.0
220
0.0
230
1.0
  2
SOLID
 70
     1
 71
     0
 91
        1
 92
        7
 72
     0
 73
     1
 93
        4
 10
172.7918517784703
 20
127.4461174419137
 10
160.9709854235509
 20
127.4461174419137
 10
160.9709854235509
 20
125.9461174419137
 10
172.7918517784703
 20
125.9461174419137
 97
        0
 75
     0
 76
     1
 47
0.1901250437635136
 98
        1
 10
165.6498828027208
 20
127.0377116663747
  0
LWPOLYLINE
  5
D4F
330
1F
100
AcDbEntity
  8
nášlap_vrstvy
100
AcDbPolyline
 90
        4
 70
     1
 43
0.0
 10
172.7918517784667
 20
127.4461174419137
 10
160.9709854235509
 20
127.4461174419137
 10
160.9709854235509
 20
125.9461174419137
 10
172.7918517784667
 20
125.9461174419137
  0
HATCH
  5
D50
330
1F
100
AcDbEntity
  8
nášlap_vrstvy
100
AcDbHatch
 10
0.0
 20
0.0
 30
0.0
210
0.0
220
0.0
230
1.0
  2
ANSI31
 70
     0
 71
     0
 91
        2
 92
        7
 72
     1
 73
     1
 93
       14
 10
215.0608135229988
 20
127.4461174419137
 42
-0.2477181387933361
 10
216.0928521680064
 20
127.9908542036727
 42
0.0
 10
216.09285216801
 20
141.6331122894779
 42
0.0
 10
133.2927831980516
 20
141.633112289477
 42
0.0
 10
133.292783198048
 20
136.4322503948032
 42
-1.0
 10
133.2927831980443
 20
133.9322503948031
 42
-1.0
 10
133.2927831980443
 20
136.4322503948032
 42
0.0
 10
133.2927831980443
 20
141.6331122894761
 42
0.0
 10
63.35497364260959
 20
141.6331122894761
 42
0.0
 10
63.35497364260596
 20
136.2853705109254
 42
0.0
 10
55.77123550305555
 20
136.2853705109245
 42
0.0
 10
55.77123550305191
 20
131.8602086767358
 42
0.0
 10
63.35497364260596
 20
131.8602086767358
 42
0.0
 10
63.35497364260959
 20
127.4461174419146
 42
0.0
 97
        0
 92
        7
 72
     1
 73
     1
 93
       12
 10
238.961999151895
 20
127.4461174419137
 42
0.0
 10
243.3549736426059
 20
127.4461174419128
 42
0.0
 10
243.3549736426095
 20
131.8602086767358
 42
0.0
 10
235.7712355030519
 20
131.8602086767358
 42
0.0
 10
235.7712355030482
 20
136.2853705109245
 42
0.0
 10
243.3549736426059
 20
136.2853705109254
 42
0.0
 10
243.3549736426095
 20
141.6331122894779
 42
0.0
 10
216.0928521680027
 20
141.6331122894779
 42
0.0
 10
216.0928521680064
 20
127.9908542036727
 42
-0.2477181387933361
 10
217.1248908130139
 20
127.4461174419137
 42
0.0
 10
220.0753171981371
 20
127.4461174419137
 42
0.0
 10
227.1411327969792
 20
127.4461174419137
 42
0.0
 97
        0
 75
     0
 76
     1
 52
15.0
 41
1.0
 77
     0
 78
     1
 53
60.0
 43
-29158.85100424278
 44
8498.765609247609
 45
-2.749630657015592
 46
1.5875
 79
     0
 47
0.5385165309736958
 98
        2
 10
110.0188765252089
 20
132.9144944565795
 10
228.5652774991315
 20
134.5300539112375
  0
LINE
  5
D51
330
1F
100
AcDbEntity
  8
SPOJOVACÍ
  6
DASHED
100
AcDbLine
 10
163.8347457794363
 20
124.770189200717
 30
0.0
 11
165.1574371613162
 21
124.0409313769722
 31
0.0
  0
LINE
  5
D52
330
1F
100
AcDbEntity
  8
SPOJOVACÍ
  6
DASHED
100
AcDbLine
 10
165.1574371613162
 20
124.0409313769722
 30
0.0
 11
166.2458544636676
 21
122.9935348273482
 31
0.0
  0
LINE
  5
D53
330
1F
100
AcDbEntity
  8
SPOJOVACÍ
  6
DASHED
100
AcDbLine
 10
166.2458544636676
 20
122.9935348273482
 30
0.0
 11
167.0261603333995
 21
121.7009253346167
 31
0.0
  0
LINE
  5
D54
330
1F
100
AcDbEntity
  8
SPOJOVACÍ
  6
DASHED
100
AcDbLine
 10
167.0261603333995
 20
121.7009253346167
 30
0.0
 11
167.4454835804128
 21
120.2497022649075
 31
0.0
  0
LINE
  5
D55
330
1F
100
AcDbEntity
  8
SPOJOVACÍ
  6
DASHED
100
AcDbLine
 10
163.8347457794363
 20
125.9461174419137
 30
0.0
 11
163.8347457794363
 21
124.770189200717
 31
0.0
  0
HATCH
  5
D56
330
1F
100
AcDbEntity
  8
nášlap_vrstvy
100
AcDbHatch
 10
0.0
 20
0.0
 30
0.0
210
0.0
220
0.0
230
1.0
  2
SOLID
 70
     1
 71
     0
 91
        1
 92
        7
 72
     0
 73
     1
 93
        4
 10
30.94145551945917
 20
127.4461174419137
 10
19.12058916453975
 20
127.4461174419137
 10
19.12058916453975
 20
125.9461174419137
 10
30.94145551945917
 20
125.9461174419137
 97
        0
 75
     0
 76
     1
 47
0.1901250437635136
 98
        1
 10
23.79948654370969
 20
127.0377116663747
  0
LWPOLYLINE
  5
D57
330
1F
100
AcDbEntity
  8
nášlap_vrstvy
100
AcDbPolyline
 90
        4
 70
     1
 43
0.0
 10
30.94145551945553
 20
127.4461174419137
 10
19.12058916453975
 20
127.4461174419137
 10
19.12058916453975
 20
125.9461174419137
 10
30.94145551945553
 20
125.9461174419137
  0
HATCH
  5
D58
330
1F
100
AcDbEntity
  8
nášlap_vrstvy
100
AcDbHatch
 10
0.0
 20
0.0
 30
0.0
210
0.0
220
0.0
230
1.0
  2
SOLID
 70
     1
 71
     0
 91
        1
 92
        7
 72
     0
 73
     1
 93
        4
 10
54.58318822929436
 20
127.4461174419137
 10
42.76232187437858
 20
127.4461174419137
 10
42.76232187437495
 20
125.9461174419137
 10
54.58318822929436
 20
125.9461174419137
 97
        0
 75
     0
 76
     1
 47
0.1901250437635136
 98
        1
 10
47.44121925354852
 20
127.0377116663747
  0
LWPOLYLINE
  5
D59
330
1F
100
AcDbEntity
  8
nášlap_vrstvy
100
AcDbPolyline
 90
        4
 70
     1
 43
0.0
 10
54.58318822929436
 20
127.4461174419137
 10
42.76232187437495
 20
127.4461174419137
 10
42.76232187437495
 20
125.9461174419137
 10
54.58318822929436
 20
125.9461174419137
  0
HATCH
  5
D5A
330
1F
100
AcDbEntity
  8
nášlap_vrstvy
100
AcDbHatch
 10
0.0
 20
0.0
 30
0.0
210
0.0
220
0.0
230
1.0
  2
SOLID
 70
     1
 71
     0
 91
        1
 92
        7
 72
     0
 73
     1
 93
        4
 10
78.22492093912956
 20
127.4461174419137
 10
66.40405458421014
 20
127.4461174419137
 10
66.40405458421014
 20
125.9461174419137
 10
78.22492093912956
 20
125.9461174419137
 97
        0
 75
     0
 76
     1
 47
0.1901250437635136
 98
        1
 10
71.08295196338008
 20
127.0377116663747
  0
LWPOLYLINE
  5
D5B
330
1F
100
AcDbEntity
  8
nášlap_vrstvy
100
AcDbPolyline
 90
        4
 70
     1
 43
0.0
 10
78.22492093912592
 20
127.4461174419137
 10
66.40405458421014
 20
127.4461174419137
 10
66.40405458421014
 20
125.9461174419137
 10
78.22492093912592
 20
125.9461174419137
  0
HATCH
  5
D5C
330
1F
100
AcDbEntity
  8
nášlap_vrstvy
100
AcDbHatch
 10
0.0
 20
0.0
 30
0.0
210
0.0
220
0.0
230
1.0
  2
SOLID
 70
     1
 71
     0
 91
        1
 92
        7
 72
     0
 73
     1
 93
        4
 10
101.8666536489647
 20
127.4461174419137
 10
90.04578729404897
 20
127.4461174419137
 10
90.04578729404533
 20
125.9461174419137
 10
101.8666536489647
 20
125.9461174419137
 97
        0
 75
     0
 76
     1
 47
0.1901250437635136
 98
        1
 10
94.72468467321892
 20
127.0377116663747
  0
LWPOLYLINE
  5
D5D
330
1F
100
AcDbEntity
  8
nášlap_vrstvy
100
AcDbPolyline
 90
        4
 70
     1
 43
0.0
 10
101.8666536489647
 20
127.4461174419137
 10
90.04578729404533
 20
127.4461174419137
 10
90.04578729404533
 20
125.9461174419137
 10
101.8666536489647
 20
125.9461174419137
  0
HATCH
  5
D5E
330
1F
100
AcDbEntity
  8
nášlap_vrstvy
100
AcDbHatch
 10
0.0
 20
0.0
 30
0.0
210
0.0
220
0.0
230
1.0
  2
SOLID
 70
     1
 71
     0
 91
        1
 92
        7
 72
     0
 73
     1
 93
        4
 10
125.5083863587999
 20
127.4461174419137
 10
113.6875200038805
 20
127.4461174419137
 10
113.6875200038805
 20
125.9461174419137
 10
125.5083863587999
 20
125.9461174419137
 97
        0
 75
     0
 76
     1
 47
0.1901250437635136
 98
        1
 10
118.3664173830504
 20
127.0377116663747
  0
HATCH
  5
D5F
330
1F
100
AcDbEntity
  8
nášlap_vrstvy
100
AcDbHatch
 10
0.0
 20
0.0
 30
0.0
210
0.0
220
0.0
230
1.0
  2
SOLID
 70
     1
 71
     0
 91
        1
 92
        7
 72
     0
 73
     1
 93
        4
 10
149.1501190686351
 20
127.4461174419137
 10
137.3292527137193
 20
127.4461174419137
 10
137.3292527137157
 20
125.9461174419137
 10
149.1501190686351
 20
125.9461174419137
 97
        0
 75
     0
 76
     1
 47
0.1901250437635136
 98
        1
 10
142.0081500928893
 20
127.0377116663747
  0
LWPOLYLINE
  5
D60
330
1F
100
AcDbEntity
  8
nášlap_vrstvy
100
AcDbPolyline
 90
        4
 70
     1
 43
0.0
 10
149.1501190686351
 20
127.4461174419137
 10
137.3292527137157
 20
127.4461174419137
 10
137.3292527137157
 20
125.9461174419137
 10
149.1501190686351
 20
125.9461174419137
  0
TEXT
  5
D61
330
1F
100
AcDbEntity
  8
POPIS
100
AcDbText
 10
114.4971897863317
 20
207.0889372678247
 30
0.0
 40
25.0
  1
02
 41
0.85
  7
SIMPLEX7
100
AcDbText
  0
LINE
  5
D62
330
1F
100
AcDbEntity
  8
POPIS
100
AcDbLine
 10
133.2927831980443
 20
198.239576195101
 30
0.0
 11
133.2927831980443
 21
132.8275203937208
 31
0.0
  0
INSERT
  5
D63
330
1F
100
AcDbEntity
  8
POPIS
100
AcDbBlockReference
  2
E_PUNKT
 10
133.2637148671703
 20
135.20986077043
 30
0.0
 50
270.0
  0
LINE
  5
D64
330
1F
100
AcDbEntity
  8
nášlap_vrstvy
100
AcDbLine
 10
63.35497364260959
 20
127.4461174418682
 30
0.0
 11
63.35497364260596
 21
131.8602086767367
 31
0.0
  0
LINE
  5
D65
330
1F
100
AcDbEntity
  8
nášlap_vrstvy
100
AcDbLine
 10
63.35497364260596
 20
136.2853705109245
 30
0.0
 11
55.77123550305191
 21
136.2853705109245
 31
0.0
  0
LINE
  5
D66
330
1F
100
AcDbEntity
  8
nášlap_vrstvy
100
AcDbLine
 10
55.77123550305191
 20
136.2853705109245
 30
0.0
 11
55.77123550305191
 21
131.8602086767367
 31
0.0
  0
LINE
  5
D67
330
1F
100
AcDbEntity
  8
nášlap_vrstvy
100
AcDbLine
 10
55.77123550305191
 20
131.8602086767367
 30
0.0
 11
63.35497364260959
 21
131.8602086767367
 31
0.0
  0
LINE
  5
D68
330
1F
100
AcDbEntity
  8
nášlap_vrstvy
100
AcDbLine
 10
63.35497364260959
 20
136.2853705109245
 30
0.0
 11
63.35497364261323
 21
141.6331122894297
 31
0.0
  0
TEXT
  5
D69
330
1F
100
AcDbEntity
  8
POPIS
100
AcDbText
 10
279.4162309854648
 20
207.0889372678247
 30
0.0
 40
25.0
  1
04
 41
0.85
  7
SIMPLEX7
100
AcDbText
  0
TEXT
  5
D6A
330
1F
100
AcDbEntity
  8
POPIS
100
AcDbText
 10
199.1951812362015
 20
207.0889372678247
 30
0.0
 40
25.0
  1
03
 41
0.85
  7
SIMPLEX7
100
AcDbText
  0
INSERT
  5
D6B
330
1F
100
AcDbEntity
  8
POPIS
100
AcDbBlockReference
  2
E_PUNKT
 10
216.0637838371324
 20
126.7684645792995
 30
0.0
 50
270.0
  0
LINE
  5
D6C
330
1F
100
AcDbEntity
  8
POPIS
100
AcDbLine
 10
216.0928521680064
 20
198.239576195101
 30
0.0
 11
216.0928521680064
 21
125.9461174419137
 31
0.0
  0
LINE
  5
D6D
330
1F
100
AcDbEntity
  8
SPOJOVACÍ
  6
DASHED
100
AcDbLine
 10
270.9787377374079
 20
122.3572573761174
 30
0.0
 11
271.9176571859927
 21
123.5404781953583
 31
0.0
  0
LINE
  5
D6E
330
1F
100
AcDbEntity
  8
SPOJOVACÍ
  6
DASHED
100
AcDbLine
 10
270.3780116052432
 20
120.9716675106081
 30
0.0
 11
270.9787377374079
 21
122.3572573761174
 31
0.0
  0
LINE
  5
D6F
330
1F
100
AcDbEntity
  8
SPOJOVACÍ
  6
DASHED
100
AcDbLine
 10
273.8310474011589
 20
125.9461174419137
 30
0.0
 11
273.8310474011589
 21
124.770189200717
 31
0.0
  0
LINE
  5
D70
330
1F
100
AcDbEntity
  8
SPOJOVACÍ
  6
DASHED
100
AcDbLine
 10
263.8347457794363
 20
125.9461174419137
 30
0.0
 11
273.8310474011589
 21
125.9461174419137
 31
0.0
  0
LINE
  5
D71
330
1F
100
AcDbEntity
  8
SPOJOVACÍ
  6
DASHED
100
AcDbLine
 10
263.8347457794363
 20
125.9461174419137
 30
0.0
 11
263.8347457794363
 21
124.770189200717
 31
0.0
  0
LINE
  5
D72
330
1F
100
AcDbEntity
  8
SPOJOVACÍ
  6
DASHED
100
AcDbLine
 10
263.8347457794363
 20
124.770189200717
 30
0.0
 11
273.8310474011589
 21
124.770189200717
 31
0.0
  0
LINE
  5
D73
330
1F
100
AcDbEntity
  8
SPOJOVACÍ
  6
DASHED
100
AcDbLine
 10
273.1300483187144
 20
124.4402000355911
 30
0.0
 11
273.8310474011589
 21
124.770189200717
 31
0.0
  0
LINE
  5
D74
330
1F
100
AcDbEntity
  8
SPOJOVACÍ
  6
DASHED
100
AcDbLine
 10
271.9176571859927
 20
123.5404781953583
 30
0.0
 11
273.1300483187144
 21
124.4402000355911
 31
0.0
  0
LINE
  5
D75
330
1F
100
AcDbEntity
  8
SPOJOVACÍ
  6
DASHED
100
AcDbLine
 10
267.0261603333995
 20
121.7009253346167
 30
0.0
 11
267.4454835804128
 21
120.2497022649075
 31
0.0
  0
LINE
  5
D76
330
1F
100
AcDbEntity
  8
SPOJOVACÍ
  6
DASHED
100
AcDbLine
 10
266.2458544636677
 20
122.9935348273482
 30
0.0
 11
267.0261603333995
 21
121.7009253346167
 31
0.0
  0
LINE
  5
D77
330
1F
100
AcDbEntity
  8
SPOJOVACÍ
  6
DASHED
100
AcDbLine
 10
265.1574371613162
 20
124.0409313769722
 30
0.0
 11
266.2458544636677
 21
122.9935348273482
 31
0.0
  0
LINE
  5
D78
330
1F
100
AcDbEntity
  8
SPOJOVACÍ
  6
DASHED
100
AcDbLine
 10
263.8347457794363
 20
124.770189200717
 30
0.0
 11
265.1574371613162
 21
124.0409313769722
 31
0.0
  0
LINE
  5
D79
330
1F
100
AcDbEntity
  8
SPOJOVACÍ
  6
DASHED
100
AcDbLine
 10
171.9176571859927
 20
123.5404781953583
 30
0.0
 11
173.1300483187144
 21
124.4402000355911
 31
0.0
  0
LINE
  5
D7A
330
1F
100
AcDbEntity
  8
SPOJOVACÍ
  6
DASHED
100
AcDbLine
 10
173.1300483187144
 20
124.4402000355911
 30
0.0
 11
173.8310474011589
 21
124.770189200717
 31
0.0
  0
LINE
  5
D7B
330
1F
100
AcDbEntity
  8
SPOJOVACÍ
  6
DASHED
100
AcDbLine
 10
173.8310474011589
 20
125.9461174419137
 30
0.0
 11
173.8310474011589
 21
124.770189200717
 31
0.0
  0
LINE
  5
D7C
330
1F
100
AcDbEntity
  8
SPOJOVACÍ
  6
DASHED
100
AcDbLine
 10
170.3780116052432
 20
120.9716675106081
 30
0.0
 11
170.9787377374079
 21
122.3572573761174
 31
0.0
  0
LINE
  5
D7D
330
1F
100
AcDbEntity
  8
SPOJOVACÍ
  6
DASHED
100
AcDbLine
 10
170.9787377374079
 20
122.3572573761174
 30
0.0
 11
171.9176571859927
 21
123.5404781953583
 31
0.0
  0
HATCH
  5
D7E
330
1F
100
AcDbEntity
  8
nášlap_vrstvy
100
AcDbHatch
 10
0.0
 20
0.0
 30
0.0
210
0.0
220
0.0
230
1.0
  2
SOLID
 70
     1
 71
     0
 91
        1
 92
        7
 72
     0
 73
     1
 93
        4
 10
196.4335844883055
 20
127.4461174419137
 10
184.6127181333897
 20
127.4461174419137
 10
184.6127181333861
 20
125.9461174419137
 10
196.4335844883055
 20
125.9461174419137
 97
        0
 75
     0
 76
     1
 47
0.1901250437635136
 98
        1
 10
189.2916155125597
 20
127.0377116663747
  0
LWPOLYLINE
  5
D7F
330
1F
100
AcDbEntity
  8
nášlap_vrstvy
100
AcDbPolyline
 90
        4
 70
     1
 43
0.0
 10
196.4335844883055
 20
127.4461174419137
 10
184.6127181333861
 20
127.4461174419137
 10
184.6127181333861
 20
125.9461174419137
 10
196.4335844883055
 20
125.9461174419137
  0
HATCH
  5
D80
330
1F
100
AcDbEntity
  8
nášlap_vrstvy
100
AcDbHatch
 10
0.0
 20
0.0
 30
0.0
210
0.0
220
0.0
230
1.0
  2
SOLID
 70
     1
 71
     0
 91
        1
 92
        7
 72
     0
 73
     1
 93
        4
 10
220.0753171981407
 20
127.4461174419137
 10
208.2544508432213
 20
127.4461174419137
 10
208.2544508432213
 20
125.9461174419137
 10
220.0753171981407
 20
125.9461174419137
 97
        0
 75
     0
 76
     1
 47
0.1901250437635136
 98
        1
 10
212.9333482223912
 20
127.0377116663747
  0
LWPOLYLINE
  5
D81
330
1F
100
AcDbEntity
  8
nášlap_vrstvy
100
AcDbPolyline
 90
        4
 70
     1
 43
0.0
 10
220.0753171981371
 20
127.4461174419137
 10
208.2544508432213
 20
127.4461174419137
 10
208.2544508432213
 20
125.9461174419137
 10
220.0753171981371
 20
125.9461174419137
  0
LWPOLYLINE
  5
D82
330
1F
100
AcDbEntity
  8
nášlap_vrstvy
100
AcDbPolyline
 90
        4
 70
     1
 43
0.0
 10
286.2454645715654
 20
127.4461174419137
 10
274.4245982166496
 20
127.4461174419137
 10
274.4245982166496
 20
125.9461174419137
 10
286.2454645715654
 20
125.9461174419137
  0
HATCH
  5
D83
330
1F
100
AcDbEntity
  8
nášlap_vrstvy
100
AcDbHatch
 10
0.0
 20
0.0
 30
0.0
210
0.0
220
0.0
230
1.0
  2
SOLID
 70
     1
 71
     0
 91
        1
 92
        7
 72
     0
 73
     1
 93
        4
 10
286.245464571569
 20
127.4461174419137
 10
274.4245982166496
 20
127.4461174419137
 10
274.4245982166496
 20
125.9461174419137
 10
286.245464571569
 20
125.9461174419137
 97
        0
 75
     0
 76
     1
 47
0.1901250437635136
 98
        1
 10
279.1034955958195
 20
127.0377116663747
  0
HATCH
  5
D84
330
1F
100
AcDbEntity
  8
nášlap_vrstvy
100
AcDbHatch
 10
0.0
 20
0.0
 30
0.0
210
0.0
220
0.0
230
1.0
  2
SOLID
 70
     1
 71
     0
 91
        1
 92
        7
 72
     0
 73
     1
 93
        4
 10
262.6037318617338
 20
127.4461174419137
 10
250.782865506818
 20
127.4461174419137
 10
250.7828655068144
 20
125.9461174419137
 10
262.6037318617338
 20
125.9461174419137
 97
        0
 75
     0
 76
     1
 47
0.1901250437635136
 98
        1
 10
255.461762885988
 20
127.0377116663747
  0
HATCH
  5
D85
330
1F
100
AcDbEntity
  8
nášlap_vrstvy
100
AcDbHatch
 10
0.0
 20
0.0
 30
0.0
210
0.0
220
0.0
230
1.0
  2
SOLID
 70
     1
 71
     0
 91
        1
 92
        7
 72
     0
 73
     1
 93
        4
 10
238.961999151895
 20
127.4461174419137
 10
227.1411327969792
 20
127.4461174419137
 10
227.1411327969792
 20
125.9461174419137
 10
238.9619991518987
 20
125.9461174419137
 97
        0
 75
     0
 76
     1
 47
0.1901250437635136
 98
        3
 10
253.0837442839904
 20
126.5623949772197
 10
234.9156488703186
 20
126.467331639389
 10
232.9181127757067
 20
126.752521652881
  0
LWPOLYLINE
  5
D86
330
1F
100
AcDbEntity
  8
nášlap_vrstvy
100
AcDbPolyline
 90
        4
 70
     1
 43
0.0
 10
262.6037318617338
 20
127.4461174419137
 10
250.7828655068144
 20
127.4461174419137
 10
250.7828655068144
 20
125.9461174419137
 10
262.6037318617338
 20
125.9461174419137
  0
LWPOLYLINE
  5
D87
330
1F
100
AcDbEntity
  8
nášlap_vrstvy
100
AcDbPolyline
 90
        4
 70
     1
 43
0.0
 10
238.961999151895
 20
127.4461174419137
 10
227.1411327969792
 20
127.4461174419137
 10
227.1411327969792
 20
125.9461174419137
 10
238.961999151895
 20
125.9461174419137
  0
LWPOLYLINE
  5
D88
330
1F
100
AcDbEntity
  8
nášlap_vrstvy
100
AcDbPolyline
 90
        4
 70
     1
 43
0.0
 10
309.8871972814042
 20
127.4461174419137
 10
298.0663309264848
 20
127.4461174419137
 10
298.0663309264848
 20
125.9461174419137
 10
309.8871972814042
 20
125.9461174419137
  0
HATCH
  5
D89
330
1F
100
AcDbEntity
  8
nášlap_vrstvy
100
AcDbHatch
 10
0.0
 20
0.0
 30
0.0
210
0.0
220
0.0
230
1.0
  2
SOLID
 70
     1
 71
     0
 91
        1
 92
        7
 72
     0
 73
     1
 93
        4
 10
309.8871972814042
 20
127.4461174419137
 10
298.0663309264885
 20
127.4461174419137
 10
298.0663309264848
 20
125.9461174419137
 10
309.8871972814042
 20
125.9461174419137
 97
        0
 75
     0
 76
     1
 47
0.1901250437635136
 98
        1
 10
302.7452283056584
 20
127.0377116663747
  0
LINE
  5
D8A
330
1F
100
AcDbEntity
  8
nášlap_vrstvy
100
AcDbLine
 10
243.3549736426095
 20
136.2853705109245
 30
0.0
 11
243.3549736426132
 21
141.6331122894297
 31
0.0
  0
LINE
  5
D8B
330
1F
100
AcDbEntity
  8
nášlap_vrstvy
100
AcDbLine
 10
235.7712355030519
 20
131.8602086767367
 30
0.0
 11
243.3549736426095
 21
131.8602086767367
 31
0.0
  0
LINE
  5
D8C
330
1F
100
AcDbEntity
  8
nášlap_vrstvy
100
AcDbLine
 10
235.7712355030519
 20
136.2853705109245
 30
0.0
 11
235.7712355030519
 21
131.8602086767367
 31
0.0
  0
LINE
  5
D8D
330
1F
100
AcDbEntity
  8
nášlap_vrstvy
100
AcDbLine
 10
243.3549736426059
 20
136.2853705109245
 30
0.0
 11
235.7712355030519
 21
136.2853705109245
 31
0.0
  0
LINE
  5
D8E
330
1F
100
AcDbEntity
  8
nášlap_vrstvy
100
AcDbLine
 10
243.3549736426095
 20
127.4461174418682
 30
0.0
 11
243.3549736426059
 21
131.8602086767367
 31
0.0
  0
HATCH
  5
D8F
330
1F
100
AcDbEntity
  8
nášlap_vrstvy
100
AcDbHatch
 10
0.0
 20
0.0
 30
0.0
210
0.0
220
0.0
230
1.0
  2
SOLID
 70
     1
 71
     0
 91
        1
 92
        7
 72
     0
 73
     1
 93
        4
 10
475.3793262502506
 20
127.4461174419137
 10
463.5584598953312
 20
127.4461174419137
 10
463.5584598953312
 20
125.9461174419137
 10
475.3793262502506
 20
125.9461174419137
 97
        0
 75
     0
 76
     1
 47
0.1901250437635136
 98
        1
 10
468.2373572745011
 20
127.0377116663747
  0
HATCH
  5
D90
330
1F
100
AcDbEntity
  8
nášlap_vrstvy
100
AcDbHatch
 10
0.0
 20
0.0
 30
0.0
210
0.0
220
0.0
230
1.0
  2
ANSI31
 70
     0
 71
     0
 91
        1
 92
        7
 72
     0
 73
     1
 93
        9
 10
577.0120726884263
 20
127.4461174419137
 10
577.0120726884263
 20
141.6331122894797
 10
423.3549736426168
 20
141.6331122894779
 10
423.3549736426096
 20
136.2853705109245
 10
420.5063875597836
 20
136.2853705109245
 10
420.5063875597836
 20
131.8602086767367
 10
423.3549736426096
 20
131.8602086767367
 10
423.3549736426096
 20
127.4461174419137
 10
428.0958608305765
 20
127.4461174419137
 97
        0
 75
     0
 76
     1
 52
15.0
 41
1.0
 77
     0
 78
     1
 53
60.0
 43
-29158.85100424278
 44
8498.765609247609
 45
-2.749630657015592
 46
1.5875
 79
     0
 47
0.764529734544115
 98
        1
 10
489.3639673767095
 20
133.7860990189309
  0
TEXT
  5
D91
330
1F
100
AcDbEntity
  8
POPIS
100
AcDbText
 10
354.5202011636968
 20
207.0889372678247
 30
0.0
 40
25.0
  1
05
 41
0.85
  7
SIMPLEX7
100
AcDbText
  0
TEXT
  5
D92
330
1F
100
AcDbEntity
  8
POPIS
100
AcDbText
 10
403.6087166279823
 20
207.0889372678247
 30
0.0
 40
25.0
  1
07
 41
0.85
  7
SIMPLEX7
100
AcDbText
  0
LWPOLYLINE
  5
D93
330
1F
100
AcDbEntity
  8
nášlap_vrstvy
100
AcDbPolyline
 90
        4
 70
     1
 43
0.0
 10
380.8123954109062
 20
127.4461174419137
 10
368.9915290559904
 20
127.4461174419137
 10
368.9915290559904
 20
125.9461174419137
 10
380.8123954109062
 20
125.9461174419137
  0
HATCH
  5
D94
330
1F
100
AcDbEntity
  8
nášlap_vrstvy
100
AcDbHatch
 10
0.0
 20
0.0
 30
0.0
210
0.0
220
0.0
230
1.0
  2
SOLID
 70
     1
 71
     0
 91
        1
 92
        7
 72
     0
 73
     1
 93
        4
 10
380.8123954109098
 20
127.4461174419137
 10
368.9915290559904
 20
127.4461174419137
 10
368.9915290559904
 20
125.9461174419137
 10
380.8123954109098
 20
125.9461174419137
 97
        0
 75
     0
 76
     1
 47
0.1901250437635136
 98
        1
 10
373.6704264351603
 20
127.0377116663747
  0
LWPOLYLINE
  5
D95
330
1F
100
AcDbEntity
  8
nášlap_vrstvy
100
AcDbPolyline
 90
        4
 70
     1
 43
0.0
 10
357.1706627010746
 20
127.4461174419137
 10
345.3497963461552
 20
127.4461174419137
 10
345.3497963461552
 20
125.9461174419137
 10
357.1706627010746
 20
125.9461174419137
  0
HATCH
  5
D96
330
1F
100
AcDbEntity
  8
nášlap_vrstvy
100
AcDbHatch
 10
0.0
 20
0.0
 30
0.0
210
0.0
220
0.0
230
1.0
  2
SOLID
 70
     1
 71
     0
 91
        1
 92
        7
 72
     0
 73
     1
 93
        4
 10
357.1706627010746
 20
127.4461174419137
 10
345.3497963461588
 20
127.4461174419137
 10
345.3497963461552
 20
125.9461174419137
 10
357.1706627010746
 20
125.9461174419137
 97
        0
 75
     0
 76
     1
 47
0.1901250437635136
 98
        1
 10
350.0286937253288
 20
127.0377116663747
  0
LWPOLYLINE
  5
D97
330
1F
100
AcDbEntity
  8
nášlap_vrstvy
100
AcDbPolyline
 90
        4
 70
     1
 43
0.0
 10
333.5289299912358
 20
127.4461174419137
 10
321.70806363632
 20
127.4461174419137
 10
321.70806363632
 20
125.9461174419137
 10
333.5289299912358
 20
125.9461174419137
  0
HATCH
  5
D98
330
1F
100
AcDbEntity
  8
nášlap_vrstvy
100
AcDbHatch
 10
0.0
 20
0.0
 30
0.0
210
0.0
220
0.0
230
1.0
  2
SOLID
 70
     1
 71
     0
 91
        1
 92
        7
 72
     0
 73
     1
 93
        4
 10
333.5289299912394
 20
127.4461174419137
 10
321.70806363632
 20
127.4461174419137
 10
321.70806363632
 20
125.9461174419137
 10
333.5289299912394
 20
125.9461174419137
 97
        0
 75
     0
 76
     1
 47
0.1901250437635136
 98
        1
 10
326.38696101549
 20
127.0377116663747
  0
LWPOLYLINE
  5
D99
330
1F
100
AcDbEntity
  8
nášlap_vrstvy
100
AcDbPolyline
 90
        4
 70
     1
 43
0.0
 10
451.7375935404154
 20
127.4461174419137
 10
439.916727185496
 20
127.4461174419137
 10
439.916727185496
 20
125.9461174419137
 10
451.7375935404154
 20
125.9461174419137
  0
HATCH
  5
D9A
330
1F
100
AcDbEntity
  8
nášlap_vrstvy
100
AcDbHatch
 10
0.0
 20
0.0
 30
0.0
210
0.0
220
0.0
230
1.0
  2
SOLID
 70
     1
 71
     0
 91
        1
 92
        7
 72
     0
 73
     1
 93
        4
 10
451.7375935404154
 20
127.4461174419137
 10
439.9167271854996
 20
127.4461174419137
 10
439.916727185496
 20
125.9461174419137
 10
451.7375935404154
 20
125.9461174419137
 97
        0
 75
     0
 76
     1
 47
0.1901250437635136
 98
        1
 10
444.5956245646696
 20
127.0377116663747
  0
LWPOLYLINE
  5
D9B
330
1F
100
AcDbEntity
  8
nášlap_vrstvy
100
AcDbPolyline
 90
        4
 70
     1
 43
0.0
 10
428.0958608305765
 20
127.4461174419137
 10
416.2749944756608
 20
127.4461174419137
 10
416.2749944756608
 20
125.9461174419137
 10
428.0958608305765
 20
125.9461174419137
  0
HATCH
  5
D9C
330
1F
100
AcDbEntity
  8
nášlap_vrstvy
100
AcDbHatch
 10
0.0
 20
0.0
 30
0.0
210
0.0
220
0.0
230
1.0
  2
SOLID
 70
     1
 71
     0
 91
        1
 92
        7
 72
     0
 73
     1
 93
        4
 10
428.0958608305802
 20
127.4461174419137
 10
416.2749944756608
 20
127.4461174419137
 10
416.2749944756608
 20
125.9461174419137
 10
428.0958608305802
 20
125.9461174419137
 97
        0
 75
     0
 76
     1
 47
0.1901250437635136
 98
        1
 10
420.9538918548307
 20
127.0377116663747
  0
LWPOLYLINE
  5
D9D
330
1F
100
AcDbEntity
  8
nášlap_vrstvy
100
AcDbPolyline
 90
        4
 70
     1
 43
0.0
 10
404.454128120745
 20
127.4461174419137
 10
392.6332617658256
 20
127.4461174419137
 10
392.6332617658256
 20
125.9461174419137
 10
404.454128120745
 20
125.9461174419137
  0
HATCH
  5
D9E
330
1F
100
AcDbEntity
  8
nášlap_vrstvy
100
AcDbHatch
 10
0.0
 20
0.0
 30
0.0
210
0.0
220
0.0
230
1.0
  2
SOLID
 70
     1
 71
     0
 91
        1
 92
        7
 72
     0
 73
     1
 93
        4
 10
404.454128120745
 20
127.4461174419137
 10
392.6332617658292
 20
127.4461174419137
 10
392.6332617658256
 20
125.9461174419137
 10
404.454128120745
 20
125.9461174419137
 97
        0
 75
     0
 76
     1
 47
0.1901250437635136
 98
        1
 10
397.3121591449992
 20
127.0377116663747
  0
LINE
  5
D9F
330
1F
100
AcDbEntity
  8
nášlap_vrstvy
100
AcDbLine
 10
423.3549736426096
 20
127.4461174418682
 30
0.0
 11
423.3549736426059
 21
131.8602086767367
 31
0.0
  0
LINE
  5
DA0
330
1F
100
AcDbEntity
  8
nášlap_vrstvy
100
AcDbLine
 10
423.3549736426059
 20
136.2853705109245
 30
0.0
 11
415.7712355030518
 21
136.2853705109245
 31
0.0
  0
LINE
  5
DA1
330
1F
100
AcDbEntity
  8
nášlap_vrstvy
100
AcDbLine
 10
415.7712355030518
 20
136.2853705109245
 30
0.0
 11
415.7712355030518
 21
131.8602086767367
 31
0.0
  0
LINE
  5
DA2
330
1F
100
AcDbEntity
  8
nášlap_vrstvy
100
AcDbLine
 10
415.7712355030518
 20
131.8602086767367
 30
0.0
 11
423.3549736426096
 21
131.8602086767367
 31
0.0
  0
LINE
  5
DA3
330
1F
100
AcDbEntity
  8
nášlap_vrstvy
100
AcDbLine
 10
423.3549736426096
 20
136.2853705109245
 30
0.0
 11
423.3549736426132
 21
141.6331122894297
 31
0.0
  0
LINE
  5
DA4
330
1F
100
AcDbEntity
  8
SPOJOVACÍ
  6
DASHED
100
AcDbLine
 10
513.8347457794363
 20
124.770189200717
 30
0.0
 11
515.1574371613162
 21
124.0409313769722
 31
0.0
  0
LINE
  5
DA5
330
1F
100
AcDbEntity
  8
SPOJOVACÍ
  6
DASHED
100
AcDbLine
 10
515.1574371613162
 20
124.0409313769722
 30
0.0
 11
516.2458544636677
 21
122.9935348273482
 31
0.0
  0
LINE
  5
DA6
330
1F
100
AcDbEntity
  8
SPOJOVACÍ
  6
DASHED
100
AcDbLine
 10
516.2458544636677
 20
122.9935348273482
 30
0.0
 11
517.0261603333995
 21
121.7009253346167
 31
0.0
  0
LINE
  5
DA7
330
1F
100
AcDbEntity
  8
SPOJOVACÍ
  6
DASHED
100
AcDbLine
 10
517.0261603333995
 20
121.7009253346167
 30
0.0
 11
517.4454835804128
 21
120.2497022649075
 31
0.0
  0
LINE
  5
DA8
330
1F
100
AcDbEntity
  8
SPOJOVACÍ
  6
DASHED
100
AcDbLine
 10
521.9176571859927
 20
123.5404781953583
 30
0.0
 11
523.1300483187144
 21
124.4402000355911
 31
0.0
  0
LINE
  5
DA9
330
1F
100
AcDbEntity
  8
SPOJOVACÍ
  6
DASHED
100
AcDbLine
 10
523.1300483187144
 20
124.4402000355911
 30
0.0
 11
523.8310474011589
 21
124.770189200717
 31
0.0
  0
LINE
  5
DAA
330
1F
100
AcDbEntity
  8
SPOJOVACÍ
  6
DASHED
100
AcDbLine
 10
513.8347457794363
 20
124.770189200717
 30
0.0
 11
523.8310474011589
 21
124.770189200717
 31
0.0
  0
LINE
  5
DAB
330
1F
100
AcDbEntity
  8
SPOJOVACÍ
  6
DASHED
100
AcDbLine
 10
513.8347457794363
 20
125.9461174419137
 30
0.0
 11
513.8347457794363
 21
124.770189200717
 31
0.0
  0
LINE
  5
DAC
330
1F
100
AcDbEntity
  8
SPOJOVACÍ
  6
DASHED
100
AcDbLine
 10
513.8347457794363
 20
125.9461174419137
 30
0.0
 11
523.8310474011589
 21
125.9461174419137
 31
0.0
  0
LINE
  5
DAD
330
1F
100
AcDbEntity
  8
SPOJOVACÍ
  6
DASHED
100
AcDbLine
 10
523.8310474011589
 20
125.9461174419137
 30
0.0
 11
523.8310474011589
 21
124.770189200717
 31
0.0
  0
LINE
  5
DAE
330
1F
100
AcDbEntity
  8
SPOJOVACÍ
  6
DASHED
100
AcDbLine
 10
520.3780116052432
 20
120.9716675106081
 30
0.0
 11
520.9787377374079
 21
122.3572573761174
 31
0.0
  0
LINE
  5
DAF
330
1F
100
AcDbEntity
  8
SPOJOVACÍ
  6
DASHED
100
AcDbLine
 10
520.9787377374079
 20
122.3572573761174
 30
0.0
 11
521.9176571859927
 21
123.5404781953583
 31
0.0
  0
LWPOLYLINE
  5
DB0
330
1F
100
AcDbEntity
  8
nášlap_vrstvy
100
AcDbPolyline
 90
        4
 70
     1
 43
0.0
 10
499.0210589600858
 20
127.4461174419137
 10
487.2001926051664
 20
127.4461174419137
 10
487.2001926051664
 20
125.9461174419137
 10
499.0210589600858
 20
125.9461174419137
  0
HATCH
  5
DB1
330
1F
100
AcDbEntity
  8
nášlap_vrstvy
100
AcDbHatch
 10
0.0
 20
0.0
 30
0.0
210
0.0
220
0.0
230
1.0
  2
SOLID
 70
     1
 71
     0
 91
        1
 92
        7
 72
     0
 73
     1
 93
        4
 10
499.0210589600858
 20
127.4461174419137
 10
487.2001926051701
 20
127.4461174419137
 10
487.2001926051664
 20
125.9461174419137
 10
499.0210589600858
 20
125.9461174419137
 97
        0
 75
     0
 76
     1
 47
0.1901250437635136
 98
        1
 10
491.87908998434
 20
127.0377116663747
  0
LWPOLYLINE
  5
DB2
330
1F
100
AcDbEntity
  8
nášlap_vrstvy
100
AcDbPolyline
 90
        4
 70
     1
 43
0.0
 10
522.6627916699174
 20
127.4461174419137
 10
510.8419253150016
 20
127.4461174419137
 10
510.8419253150016
 20
125.9461174419137
 10
522.6627916699174
 20
125.9461174419137
  0
HATCH
  5
DB3
330
1F
100
AcDbEntity
  8
nášlap_vrstvy
100
AcDbHatch
 10
0.0
 20
0.0
 30
0.0
210
0.0
220
0.0
230
1.0
  2
SOLID
 70
     1
 71
     0
 91
        1
 92
        7
 72
     0
 73
     1
 93
        4
 10
569.9462570895914
 20
127.4461174419137
 10
558.1253907346719
 20
127.4461174419137
 10
558.1253907346719
 20
125.9461174419137
 10
569.9462570895914
 20
125.9461174419137
 97
        0
 75
     0
 76
     1
 47
0.1901250437635136
 98
        1
 10
562.8042881138419
 20
127.0377116663747
  0
HATCH
  5
DB4
330
1F
100
AcDbEntity
  8
nášlap_vrstvy
100
AcDbHatch
 10
0.0
 20
0.0
 30
0.0
210
0.0
220
0.0
230
1.0
  2
SOLID
 70
     1
 71
     0
 91
        1
 92
        7
 72
     0
 73
     1
 93
        4
 10
546.3045243797562
 20
127.4461174419137
 10
534.4836580248404
 20
127.4461174419137
 10
534.4836580248368
 20
125.9461174419137
 10
546.3045243797562
 20
125.9461174419137
 97
        0
 75
     0
 76
     1
 47
0.1901250437635136
 98
        1
 10
539.1625554040103
 20
127.0377116663747
  0
HATCH
  5
DB5
330
1F
100
AcDbEntity
  8
nášlap_vrstvy
100
AcDbHatch
 10
0.0
 20
0.0
 30
0.0
210
0.0
220
0.0
230
1.0
  2
SOLID
 70
     1
 71
     0
 91
        1
 92
        7
 72
     0
 73
     1
 93
        4
 10
522.662791669921
 20
127.4461174419137
 10
510.8419253150016
 20
127.4461174419137
 10
510.8419253150016
 20
125.9461174419137
 10
522.662791669921
 20
125.9461174419137
 97
        0
 75
     0
 76
     1
 47
0.1901250437635136
 98
        1
 10
515.5208226941716
 20
127.0377116663747
  0
TEXT
  5
DB6
330
1F
100
AcDbEntity
  8
POPIS
100
AcDbText
 10
687.1109504824191
 20
103.8279537451379
 30
0.0
 40
25.0
  1
Měkčená PE fólie MIRELON
 41
0.7
  7
SIMPLEX7
100
AcDbText
  0
TEXT
  5
DB7
330
1F
100
AcDbEntity
  8
POPIS
100
AcDbText
 10
632.7672473226769
 20
103.0185723364373
 30
0.0
 40
25.0
  1
03
 41
0.85
  7
SIMPLEX7
100
AcDbText
  0
TEXT
  5
DB8
330
1F
100
AcDbEntity
  8
POPIS
100
AcDbText
 10
687.1109504824191
 20
-3.226762743315816
 30
0.0
 40
25.0
  1
Dilatační spára tl. 15 mm
 41
0.7
  7
SIMPLEX7
100
AcDbText
  0
TEXT
  5
DB9
330
1F
100
AcDbEntity
  8
POPIS
100
AcDbText
 10
687.1109504824191
 20
67.32718471250326
 30
0.0
 40
25.0
  1
Montovaná podlaha IZOCET
 41
0.7
  7
SIMPLEX7
100
AcDbText
  0
TEXT
  5
DBA
330
1F
100
AcDbEntity
  8
POPIS
100
AcDbText
 10
687.1109504824191
 20
-35.00992312905703
 30
0.0
 40
25.0
  1
Stropní konstrukce
 41
0.7
  7
SIMPLEX7
100
AcDbText
  0
TEXT
  5
DBB
330
1F
100
AcDbEntity
  8
POPIS
100
AcDbText
 10
687.1109504824191
 20
30.87407155981043
 30
0.0
 40
25.0
  1
Parozábrana
 41
0.7
  7
SIMPLEX7
100
AcDbText
  0
TEXT
  5
DBC
330
1F
100
AcDbEntity
  8
POPIS
100
AcDbText
 10
633.6500183227101
 20
-35.64109629052484
 30
0.0
 40
25.0
  1
07
 41
0.85
  7
SIMPLEX7
100
AcDbText
  0
TEXT
  5
DBD
330
1F
100
AcDbEntity
  8
POPIS
100
AcDbText
 10
633.6500183227101
 20
-3.882189687896357
 30
0.0
 40
25.0
  1
06
 41
0.85
  7
SIMPLEX7
100
AcDbText
  0
TEXT
  5
DBE
330
1F
100
AcDbEntity
  8
POPIS
100
AcDbText
 10
632.7672473226769
 20
31.05674103545231
 30
0.0
 40
25.0
  1
05
 41
0.85
  7
SIMPLEX7
100
AcDbText
  0
TEXT
  5
DBF
330
1F
100
AcDbEntity
  8
POPIS
100
AcDbText
 10
632.7672473226769
 20
66.18303233354516
 30
0.0
 40
25.0
  1
04
 41
0.85
  7
SIMPLEX7
100
AcDbText
  0
TEXT
  5
DC0
330
1F
100
AcDbEntity
  8
POPIS
100
AcDbText
 10
687.1109504824191
 20
139.2321149633006
 30
0.0
 40
25.0
  1
Laminátová podlaha (dřevěné parkety-plovoucí)
 41
0.7
  7
SIMPLEX7
100
AcDbText
  0
TEXT
  5
DC1
330
1F
100
AcDbEntity
  8
POPIS
100
AcDbText
 10
687.1109504824191
 20
174.1370733543061
 30
0.0
 40
25.0
  1
Rohový profil (přilepen ke stěně)
 41
0.7
  7
SIMPLEX7
100
AcDbText
  0
TEXT
  5
DC2
330
1F
100
AcDbEntity
  8
POPIS
100
AcDbText
 10
632.7672473226769
 20
137.8586140220066
 30
0.0
 40
25.0
  1
02
 41
0.85
  7
SIMPLEX7
100
AcDbText
  0
TEXT
  5
DC3
330
1F
100
AcDbEntity
  8
POPIS
100
AcDbText
 10
632.7672473226769
 20
173.2627752401693
 30
0.0
 40
25.0
  1
01
 41
0.85
  7
SIMPLEX7
100
AcDbText
  0
ENDSEC
  0
SECTION
  2
OBJECTS
  0
DICTIONARY
  5
C
330
0
100
AcDbDictionary
281
     1
  3
ACAD_GROUP
350
D
  3
ACAD_LAYOUT
350
1A
  3
ACAD_MLINESTYLE
350
17
  3
ACAD_PLOTSETTINGS
350
19
  3
ACAD_PLOTSTYLENAME
350
E
  0
DICTIONARY
  5
D
102
{ACAD_REACTORS
330
C
102
}
330
C
100
AcDbDictionary
281
     1
  0
DICTIONARY
  5
1A
102
{ACAD_REACTORS
330
C
102
}
330
C
100
AcDbDictionary
281
     1
  3
Model
350
22
  3
Rozvržení1
350
1E
  3
Rozvržení2
350
26
  0
DICTIONARY
  5
17
102
{ACAD_REACTORS
330
C
102
}
330
C
100
AcDbDictionary
281
     1
  3
Standard
350
18
  0
DICTIONARY
  5
19
102
{ACAD_REACTORS
330
C
102
}
330
C
100
AcDbDictionary
281
     1
  0
ACDBDICTIONARYWDFLT
  5
E
102
{ACAD_REACTORS
330
C
102
}
330
C
100
AcDbDictionary
281
     1
  3
Normal
350
F
100
AcDbDictionaryWithDefault
340
F
  0
LAYOUT
  5
22
102
{ACAD_REACTORS
330
1A
102
}
330
1A
100
AcDbPlotSettings
  1

  2
HP DeskJet 690C
  4

  6

 40
0.0
 41
0.0
 42
0.0
 43
0.0
 44
0.0
 45
0.0
 46
0.0
 47
0.0
 48
0.0
 49
0.0
140
0.0
141
0.0
142
1.0
143
1.0
 70
  1712
 72
     0
 73
     0
 74
     0
  7
monochrome.ctb
 75
     0
147
1.0
148
0.0
149
0.0
100
AcDbLayout
  1
Model
 70
     1
 71
     0
 10
0.0
 20
0.0
 11
12.0
 21
9.0
 12
0.0
 22
0.0
 32
0.0
 14
0.0
 24
0.0
 34
0.0
 15
0.0
 25
0.0
 35
0.0
146
0.0
 13
0.0
 23
0.0
 33
0.0
 16
1.0
 26
0.0
 36
0.0
 17
0.0
 27
1.0
 37
0.0
 76
     0
330
1F
  0
LAYOUT
  5
1E
102
{ACAD_REACTORS
330
1A
102
}
330
1A
100
AcDbPlotSettings
  1

  2
HP DeskJet 690C
  4

  6

 40
0.0
 41
0.0
 42
0.0
 43
0.0
 44
0.0
 45
0.0
 46
0.0
 47
0.0
 48
0.0
 49
0.0
140
0.0
141
0.0
142
1.0
143
1.0
 70
   688
 72
     0
 73
     0
 74
     5
  7
monochrome.ctb
 75
    16
147
1.0
148
0.0
149
0.0
100
AcDbLayout
  1
Rozvržení1
 70
     1
 71
     1
 10
0.0
 20
0.0
 11
420.0
 21
297.0
 12
0.0
 22
0.0
 32
0.0
 14
1.000000000000000E+20
 24
1.000000000000000E+20
 34
1.000000000000000E+20
 15
-1.000000000000000E+20
 25
-1.000000000000000E+20
 35
-1.000000000000000E+20
146
0.0
 13
0.0
 23
0.0
 33
0.0
 16
1.0
 26
0.0
 36
0.0
 17
0.0
 27
1.0
 37
0.0
 76
     0
330
1B
  0
LAYOUT
  5
26
102
{ACAD_REACTORS
330
1A
102
}
330
1A
100
AcDbPlotSettings
  1

  2
HP DeskJet 690C
  4

  6

 40
0.0
 41
0.0
 42
0.0
 43
0.0
 44
0.0
 45
0.0
 46
0.0
 47
0.0
 48
0.0
 49
0.0
140
0.0
141
0.0
142
1.0
143
1.0
 70
   688
 72
     0
 73
     0
 74
     5
  7
monochrome.ctb
 75
    16
147
1.0
148
0.0
149
0.0
100
AcDbLayout
  1
Rozvržení2
 70
     1
 71
     2
 10
0.0
 20
0.0
 11
12.0
 21
9.0
 12
0.0
 22
0.0
 32
0.0
 14
0.0
 24
0.0
 34
0.0
 15
0.0
 25
0.0
 35
0.0
146
0.0
 13
0.0
 23
0.0
 33
0.0
 16
1.0
 26
0.0
 36
0.0
 17
0.0
 27
1.0
 37
0.0
 76
     0
330
23
  0
MLINESTYLE
  5
18
102
{ACAD_REACTORS
330
17
102
}
330
17
100
AcDbMlineStyle
  2
STANDARD
 70
     0
  3

 62
   256
 51
90.0
 52
90.0
 71
     2
 49
0.5
 62
   256
  6
BYLAYER
 49
-0.5
 62
   256
  6
BYLAYER
  0
ACDBPLACEHOLDER
  5
F
102
{ACAD_REACTORS
330
E
102
}
330
E
  0
ENDSEC
  0
EOF
