  0
SECTION
  2
HEADER
  9
$ACADVER
  1
AC1015
  9
$ACADMAINTVER
 70
    14
  9
$DWGCODEPAGE
  3
ANSI_1250
  9
$INSBASE
 10
0.0
 20
0.0
 30
0.0
  9
$EXTMIN
 10
-400.8916081634295
 20
-519.1144925060164
 30
0.0
  9
$EXTMAX
 10
2434.595070855374
 20
571.4523290678055
 30
0.0
  9
$LIMMIN
 10
0.0
 20
0.0
  9
$LIMMAX
 10
420.0
 20
297.0
  9
$ORTHOMODE
 70
     1
  9
$REGENMODE
 70
     1
  9
$FILLMODE
 70
     1
  9
$QTEXTMODE
 70
     0
  9
$MIRRTEXT
 70
     1
  9
$LTSCALE
 40
1.0
  9
$ATTMODE
 70
     1
  9
$TEXTSIZE
 40
2.5
  9
$TRACEWID
 40
1.0
  9
$TEXTSTYLE
  7
Standard
  9
$CLAYER
  8
0
  9
$CELTYPE
  6
ByLayer
  9
$CECOLOR
 62
   256
  9
$CELTSCALE
 40
1.0
  9
$DISPSILH
 70
     0
  9
$DIMSCALE
 40
1.0
  9
$DIMASZ
 40
2.5
  9
$DIMEXO
 40
0.625
  9
$DIMDLI
 40
3.75
  9
$DIMRND
 40
0.0
  9
$DIMDLE
 40
0.0
  9
$DIMEXE
 40
1.25
  9
$DIMTP
 40
0.0
  9
$DIMTM
 40
0.0
  9
$DIMTXT
 40
2.5
  9
$DIMCEN
 40
2.5
  9
$DIMTSZ
 40
0.0
  9
$DIMTOL
 70
     0
  9
$DIMLIM
 70
     0
  9
$DIMTIH
 70
     0
  9
$DIMTOH
 70
     0
  9
$DIMSE1
 70
     0
  9
$DIMSE2
 70
     0
  9
$DIMTAD
 70
     1
  9
$DIMZIN
 70
     8
  9
$DIMBLK
  1

  9
$DIMASO
 70
     1
  9
$DIMSHO
 70
     1
  9
$DIMPOST
  1

  9
$DIMAPOST
  1

  9
$DIMALT
 70
     0
  9
$DIMALTD
 70
     3
  9
$DIMALTF
 40
0.03937007874016
  9
$DIMLFAC
 40
1.0
  9
$DIMTOFL
 70
     1
  9
$DIMTVP
 40
0.0
  9
$DIMTIX
 70
     0
  9
$DIMSOXD
 70
     0
  9
$DIMSAH
 70
     0
  9
$DIMBLK1
  1

  9
$DIMBLK2
  1

  9
$DIMSTYLE
  2
ISO-25
  9
$DIMCLRD
 70
     0
  9
$DIMCLRE
 70
     0
  9
$DIMCLRT
 70
     0
  9
$DIMTFAC
 40
1.0
  9
$DIMGAP
 40
0.625
  9
$DIMJUST
 70
     0
  9
$DIMSD1
 70
     0
  9
$DIMSD2
 70
     0
  9
$DIMTOLJ
 70
     0
  9
$DIMTZIN
 70
     8
  9
$DIMALTZ
 70
     0
  9
$DIMALTTZ
 70
     0
  9
$DIMUPT
 70
     0
  9
$DIMDEC
 70
     2
  9
$DIMTDEC
 70
     2
  9
$DIMALTU
 70
     2
  9
$DIMALTTD
 70
     3
  9
$DIMTXSTY
  7
Standard
  9
$DIMAUNIT
 70
     0
  9
$DIMADEC
 70
     0
  9
$DIMALTRND
 40
0.0
  9
$DIMAZIN
 70
     0
  9
$DIMDSEP
 70
    44
  9
$DIMATFIT
 70
     3
  9
$DIMFRAC
 70
     0
  9
$DIMLDRBLK
  1

  9
$DIMLUNIT
 70
     2
  9
$DIMLWD
 70
    -2
  9
$DIMLWE
 70
    -2
  9
$DIMTMOVE
 70
     0
  9
$LUNITS
 70
     2
  9
$LUPREC
 70
     4
  9
$SKETCHINC
 40
1.0
  9
$FILLETRAD
 40
10.0
  9
$AUNITS
 70
     0
  9
$AUPREC
 70
     0
  9
$MENU
  1
.
  9
$ELEVATION
 40
0.0
  9
$PELEVATION
 40
0.0
  9
$THICKNESS
 40
0.0
  9
$LIMCHECK
 70
     0
  9
$CHAMFERA
 40
10.0
  9
$CHAMFERB
 40
10.0
  9
$CHAMFERC
 40
20.0
  9
$CHAMFERD
 40
0.0
  9
$SKPOLY
 70
     0
  9
$TDCREATE
 40
2452332.468649768
  9
$TDUCREATE
 40
2452332.426983101
  9
$TDUPDATE
 40
2455595.595813148
  9
$TDUUPDATE
 40
2455595.554146481
  9
$TDINDWG
 40
0.0486266088
  9
$TDUSRTIMER
 40
0.0486238773
  9
$USRTIMER
 70
     1
  9
$ANGBASE
 50
0.0
  9
$ANGDIR
 70
     0
  9
$PDMODE
 70
     0
  9
$PDSIZE
 40
0.0
  9
$PLINEWID
 40
0.0
  9
$SPLFRAME
 70
     0
  9
$SPLINETYPE
 70
     6
  9
$SPLINESEGS
 70
     8
  9
$HANDSEED
  5
982
  9
$SURFTAB1
 70
     6
  9
$SURFTAB2
 70
     6
  9
$SURFTYPE
 70
     6
  9
$SURFU
 70
     6
  9
$SURFV
 70
     6
  9
$UCSBASE
  2

  9
$UCSNAME
  2

  9
$UCSORG
 10
0.0
 20
0.0
 30
0.0
  9
$UCSXDIR
 10
1.0
 20
0.0
 30
0.0
  9
$UCSYDIR
 10
0.0
 20
1.0
 30
0.0
  9
$UCSORTHOREF
  2

  9
$UCSORTHOVIEW
 70
     0
  9
$UCSORGTOP
 10
0.0
 20
0.0
 30
0.0
  9
$UCSORGBOTTOM
 10
0.0
 20
0.0
 30
0.0
  9
$UCSORGLEFT
 10
0.0
 20
0.0
 30
0.0
  9
$UCSORGRIGHT
 10
0.0
 20
0.0
 30
0.0
  9
$UCSORGFRONT
 10
0.0
 20
0.0
 30
0.0
  9
$UCSORGBACK
 10
0.0
 20
0.0
 30
0.0
  9
$PUCSBASE
  2

  9
$PUCSNAME
  2

  9
$PUCSORG
 10
0.0
 20
0.0
 30
0.0
  9
$PUCSXDIR
 10
1.0
 20
0.0
 30
0.0
  9
$PUCSYDIR
 10
0.0
 20
1.0
 30
0.0
  9
$PUCSORTHOREF
  2

  9
$PUCSORTHOVIEW
 70
     0
  9
$PUCSORGTOP
 10
0.0
 20
0.0
 30
0.0
  9
$PUCSORGBOTTOM
 10
0.0
 20
0.0
 30
0.0
  9
$PUCSORGLEFT
 10
0.0
 20
0.0
 30
0.0
  9
$PUCSORGRIGHT
 10
0.0
 20
0.0
 30
0.0
  9
$PUCSORGFRONT
 10
0.0
 20
0.0
 30
0.0
  9
$PUCSORGBACK
 10
0.0
 20
0.0
 30
0.0
  9
$USERI1
 70
     0
  9
$USERI2
 70
     0
  9
$USERI3
 70
     0
  9
$USERI4
 70
     0
  9
$USERI5
 70
     0
  9
$USERR1
 40
0.0
  9
$USERR2
 40
0.0
  9
$USERR3
 40
0.0
  9
$USERR4
 40
0.0
  9
$USERR5
 40
0.0
  9
$WORLDVIEW
 70
     1
  9
$SHADEDGE
 70
     3
  9
$SHADEDIF
 70
    70
  9
$TILEMODE
 70
     1
  9
$MAXACTVP
 70
    64
  9
$PINSBASE
 10
0.0
 20
0.0
 30
0.0
  9
$PLIMCHECK
 70
     0
  9
$PEXTMIN
 10
1.000000000000000E+20
 20
1.000000000000000E+20
 30
1.000000000000000E+20
  9
$PEXTMAX
 10
-1.000000000000000E+20
 20
-1.000000000000000E+20
 30
-1.000000000000000E+20
  9
$PLIMMIN
 10
0.0
 20
0.0
  9
$PLIMMAX
 10
420.0
 20
297.0
  9
$UNITMODE
 70
     0
  9
$VISRETAIN
 70
     1
  9
$PLINEGEN
 70
     0
  9
$PSLTSCALE
 70
     1
  9
$TREEDEPTH
 70
  3020
  9
$CMLSTYLE
  2
Standard
  9
$CMLJUST
 70
     0
  9
$CMLSCALE
 40
20.0
  9
$PROXYGRAPHICS
 70
     1
  9
$MEASUREMENT
 70
     1
  9
$CELWEIGHT
370
    -1
  9
$ENDCAPS
280
     0
  9
$JOINSTYLE
280
     0
  9
$LWDISPLAY
290
     0
  9
$INSUNITS
 70
     4
  9
$HYPERLINKBASE
  1

  9
$STYLESHEET
  1

  9
$XEDIT
290
     1
  9
$CEPSNTYPE
380
     0
  9
$PSTYLEMODE
290
     1
  9
$FINGERPRINTGUID
  2
{A3477950-F6EC-44A0-8776-592C40033ABE}
  9
$VERSIONGUID
  2
{E7F76B33-8AED-4D0C-9AA3-344DCACB33FF}
  9
$EXTNAMES
290
     1
  9
$PSVPSCALE
 40
0.0
  9
$OLESTARTUP
290
     0
  0
ENDSEC
  0
SECTION
  2
CLASSES
  0
CLASS
  1
ACDBDICTIONARYWDFLT
  2
AcDbDictionaryWithDefault
  3
AutoCAD 2000
 90
        0
280
     0
281
     0
  0
CLASS
  1
ACDBPLACEHOLDER
  2
AcDbPlaceHolder
  3
AutoCAD 2000
 90
        0
280
     0
281
     0
  0
CLASS
  1
LAYOUT
  2
AcDbLayout
  3
AutoCAD 2000
 90
        0
280
     0
281
     0
  0
CLASS
  1
DICTIONARYVAR
  2
AcDbDictionaryVar
  3
AutoCAD 2000
 90
        0
280
     0
281
     0
  0
ENDSEC
  0
SECTION
  2
TABLES
  0
TABLE
  2
VPORT
  5
8
330
0
100
AcDbSymbolTable
 70
     3
  0
VPORT
  5
981
330
8
100
AcDbSymbolTableRecord
100
AcDbViewportTableRecord
  2
*Active
 70
     0
 10
0.0
 20
0.0
 11
1.0
 21
1.0
 12
1616.656052033102
 22
155.2887751095231
 13
0.0
 23
0.0
 14
10.0
 24
10.0
 15
10.0
 25
10.0
 16
0.0
 26
0.0
 36
1.0
 17
0.0
 27
0.0
 37
0.0
 40
924.9268358380232
 41
2.031862745098039
 42
50.0
 43
0.0
 44
0.0
 50
0.0
 51
0.0
 71
     0
 72
   100
 73
     1
 74
     3
 75
     0
 76
     0
 77
     0
 78
     0
281
     0
 65
     1
110
0.0
120
0.0
130
0.0
111
1.0
121
0.0
131
0.0
112
0.0
122
1.0
132
0.0
 79
     0
146
0.0
  0
ENDTAB
  0
TABLE
  2
LTYPE
  5
5
330
0
100
AcDbSymbolTable
 70
     4
  0
LTYPE
  5
14
330
5
100
AcDbSymbolTableRecord
100
AcDbLinetypeTableRecord
  2
ByBlock
 70
     0
  3

 72
    65
 73
     0
 40
0.0
  0
LTYPE
  5
15
330
5
100
AcDbSymbolTableRecord
100
AcDbLinetypeTableRecord
  2
ByLayer
 70
     0
  3

 72
    65
 73
     0
 40
0.0
  0
LTYPE
  5
16
330
5
100
AcDbSymbolTableRecord
100
AcDbLinetypeTableRecord
  2
Continuous
 70
     0
  3
Solid line
 72
    65
 73
     0
 40
0.0
  0
LTYPE
  5
4E8
330
5
100
AcDbSymbolTableRecord
100
AcDbLinetypeTableRecord
  2
DASHED
 70
     0
  3
Dashed __ __ __ __ __ __ __ __ __ __ __ __ __ _
 72
    65
 73
     2
 40
19.04999999999998
 49
12.7
 74
     0
 49
-6.349999999999998
 74
     0
  0
LTYPE
  5
4E9
330
5
100
AcDbSymbolTableRecord
100
AcDbLinetypeTableRecord
  2
CIKCAK
 70
     0
  3
Cik-cak /\/\/\/\/\/\/\/\/\/\/\/\/\/\/\/\/\/\/\/
 72
    65
 73
     4
 40
20.32254
 49
0.00254
 74
     0
 49
-5.08
 74
     4
 75
   131
340
4F2
 46
5.08
 50
0.0
 44
-5.08
 45
0.0
 49
-10.16
 74
     4
 75
   131
340
4F2
 46
5.08
 50
180.0
 44
5.08
 45
0.0
 49
-5.08
 74
     0
  0
LTYPE
  5
4EA
330
5
100
AcDbSymbolTableRecord
100
AcDbLinetypeTableRecord
  2
IZOLACE
 70
     0
  3
Izolace SSSSSSSSSSSSSSSSSSSSSSSSSSSSSSSSSSSSSSS
 72
    65
 73
     4
 40
10.16253999999999
 49
0.00254
 74
     0
 49
-2.54
 74
     4
 75
   134
340
4F2
 46
2.54
 50
0.0
 44
-2.54
 45
0.0
 49
-5.08
 74
     4
 75
   134
340
4F2
 46
2.54
 50
180.0
 44
2.54
 45
0.0
 49
-2.54
 74
     0
  0
ENDTAB
  0
TABLE
  2
LAYER
  5
2
330
0
100
AcDbSymbolTable
 70
     7
  0
LAYER
  5
10
330
2
100
AcDbSymbolTableRecord
100
AcDbLayerTableRecord
  2
0
 70
     0
 62
     7
  6
Continuous
370
    -3
390
F
  0
LAYER
  5
4EB
330
2
100
AcDbSymbolTableRecord
100
AcDbLayerTableRecord
  2
POPIS
 70
     0
 62
    30
  6
Continuous
370
    -3
390
F
  0
LAYER
  5
4EC
330
2
100
AcDbSymbolTableRecord
100
AcDbLayerTableRecord
  2
SPOJOVACÍ
 70
     0
 62
   180
  6
Continuous
370
    -3
390
F
  0
LAYER
  5
4ED
330
2
100
AcDbSymbolTableRecord
100
AcDbLayerTableRecord
  2
CETRIS
 70
     0
 62
     1
  6
Continuous
370
    -3
390
F
  0
LAYER
  5
4EE
330
2
100
AcDbSymbolTableRecord
100
AcDbLayerTableRecord
  2
izolace
 70
     0
 62
    33
  6
Continuous
370
    -3
390
F
  0
LAYER
  5
4EF
330
2
100
AcDbSymbolTableRecord
100
AcDbLayerTableRecord
  2
nášlap_vrstvy
 70
     0
 62
    73
  6
Continuous
370
    -3
390
F
  0
LAYER
  5
4F0
330
2
100
AcDbSymbolTableRecord
100
AcDbLayerTableRecord
  2
STAVBA OBRYS
 70
     0
 62
     6
  6
Continuous
370
    -3
390
F
  0
ENDTAB
  0
TABLE
  2
STYLE
  5
3
330
0
100
AcDbSymbolTable
 70
     3
  0
STYLE
  5
11
330
3
100
AcDbSymbolTableRecord
100
AcDbTextStyleTableRecord
  2
Standard
 70
     0
 40
0.0
 41
1.0
 50
0.0
 71
     0
 42
2.5
  3
txt
  4

  0
STYLE
  5
4F1
330
3
100
AcDbSymbolTableRecord
100
AcDbTextStyleTableRecord
  2
SIMPLEX7
 70
     0
 40
0.0
 41
0.85
 50
0.0
 71
     0
 42
102.0
  3
ARIAL.TTF
  4

1001
ACAD
1000
Arial CE
1071
    60962
  0
STYLE
  5
4F2
330
3
100
AcDbSymbolTableRecord
100
AcDbTextStyleTableRecord
  2

 70
     1
 40
0.0
 41
1.0
 50
0.0
 71
     0
 42
2.5
  3
ltypeshp.shx
  4

  0
ENDTAB
  0
TABLE
  2
VIEW
  5
6
330
0
100
AcDbSymbolTable
 70
     0
  0
ENDTAB
  0
TABLE
  2
UCS
  5
7
330
0
100
AcDbSymbolTable
 70
     0
  0
ENDTAB
  0
TABLE
  2
APPID
  5
9
330
0
100
AcDbSymbolTable
 70
     1
  0
APPID
  5
12
330
9
100
AcDbSymbolTableRecord
100
AcDbRegAppTableRecord
  2
ACAD
 70
     0
  0
ENDTAB
  0
TABLE
  2
DIMSTYLE
  5
A
330
0
100
AcDbSymbolTable
 70
     1
100
AcDbDimStyleTable
 71
     0
  0
DIMSTYLE
105
27
330
A
100
AcDbSymbolTableRecord
100
AcDbDimStyleTableRecord
  2
ISO-25
 70
     0
 41
2.5
 42
0.625
 43
3.75
 44
1.25
 73
     0
 74
     0
 77
     1
 78
     8
140
2.5
141
2.5
143
0.03937007874016
147
0.625
171
     3
172
     1
271
     2
272
     2
274
     3
278
    44
283
     0
284
     8
340
11
  0
ENDTAB
  0
TABLE
  2
BLOCK_RECORD
  5
1
330
0
100
AcDbSymbolTable
 70
     2
  0
BLOCK_RECORD
  5
1F
330
1
100
AcDbSymbolTableRecord
100
AcDbBlockTableRecord
  2
*Model_Space
340
22
  0
BLOCK_RECORD
  5
1B
330
1
100
AcDbSymbolTableRecord
100
AcDbBlockTableRecord
  2
*Paper_Space
340
1E
  0
BLOCK_RECORD
  5
23
330
1
100
AcDbSymbolTableRecord
100
AcDbBlockTableRecord
  2
*Paper_Space0
340
26
  0
BLOCK_RECORD
  5
4E4
330
1
100
AcDbSymbolTableRecord
100
AcDbBlockTableRecord
  2
E_PUNKT
340
0
102
{BLKREFS
331
8BF
331
8C0
331
8C2
331
8D8
331
8D9
331
755
331
7C7
331
7CF
331
7E5
102
}
  0
ENDTAB
  0
ENDSEC
  0
SECTION
  2
BLOCKS
  0
BLOCK
  5
20
330
1F
100
AcDbEntity
  8
0
100
AcDbBlockBegin
  2
*Model_Space
 70
     0
 10
0.0
 20
0.0
 30
0.0
  3
*Model_Space
  1

  0
ENDBLK
  5
21
330
1F
100
AcDbEntity
  8
0
100
AcDbBlockEnd
  0
BLOCK
  5
1C
330
1B
100
AcDbEntity
 67
     1
  8
0
100
AcDbBlockBegin
  2
*Paper_Space
 70
     0
 10
0.0
 20
0.0
 30
0.0
  3
*Paper_Space
  1

  0
ENDBLK
  5
1D
330
1B
100
AcDbEntity
 67
     1
  8
0
100
AcDbBlockEnd
  0
BLOCK
  5
24
330
23
100
AcDbEntity
  8
0
100
AcDbBlockBegin
  2
*Paper_Space0
 70
     0
 10
0.0
 20
0.0
 30
0.0
  3
*Paper_Space0
  1

  0
ENDBLK
  5
25
330
23
100
AcDbEntity
  8
0
100
AcDbBlockEnd
  0
BLOCK
  5
4E6
330
4E4
100
AcDbEntity
  8
0
100
AcDbBlockBegin
  2
E_PUNKT
 70
     0
 10
0.0
 20
0.0
 30
0.0
  3
E_PUNKT
  1

  0
LWPOLYLINE
  5
4E5
330
4E4
100
AcDbEntity
  8
POPIS
100
AcDbPolyline
 90
        2
 70
     1
 43
2.5
 10
1.27761037562675
 20
0.0290683308725193
 42
-1.0
 10
-1.222389624373249
 20
0.0290683308725193
 42
-1.0
  0
ENDBLK
  5
4E7
330
4E4
100
AcDbEntity
  8
0
100
AcDbBlockEnd
  0
ENDSEC
  0
SECTION
  2
ENTITIES
  0
TEXT
  5
730
330
1F
100
AcDbEntity
  8
POPIS
100
AcDbText
 10
1427.181736250331
 20
266.701659965571
 30
0.0
 40
25.0
  1
02
 41
0.85
  7
SIMPLEX7
100
AcDbText
  0
LWPOLYLINE
  5
731
330
1F
100
AcDbEntity
  8
nášlap_vrstvy
100
AcDbPolyline
 90
        4
 70
     1
 43
0.0
 10
1663.433234070344
 20
185.5588401396602
 10
1313.562294178893
 20
185.5588401396602
 10
1313.562294178893
 20
187.0588401396601
 10
1663.433234070344
 20
187.0588401396601
  0
LINE
  5
732
330
1F
100
AcDbEntity
  8
STAVBA OBRYS
100
AcDbLine
 10
1312.745176731271
 20
118.5588401396602
 30
0.0
 11
1524.17285662311
 21
118.5588401396602
 31
0.0
  0
LINE
  5
733
330
1F
100
AcDbEntity
  8
STAVBA OBRYS
100
AcDbLine
 10
1064.481698350395
 20
118.558840139661
 30
0.0
 11
2013.304173961791
 21
118.5588401396602
 31
0.0
  0
LINE
  5
734
330
1F
100
AcDbEntity
  8
CETRIS
100
AcDbLine
 10
1328.56229417889
 20
185.5588401396602
 30
0.0
 11
2013.304173961791
 21
185.5588401396602
 31
0.0
  0
LINE
  5
735
330
1F
100
AcDbEntity
  8
CETRIS
100
AcDbLine
 10
1328.56229417889
 20
161.5588401396601
 30
0.0
 11
2013.304173961791
 21
161.5588401396601
 31
0.0
  0
LINE
  5
736
330
1F
100
AcDbEntity
  8
izolace
  6
IZOLACE
 48
1.9
100
AcDbLine
 10
1328.56229417889
 20
141.5588401396601
 30
0.0
 11
2013.304173961791
 21
141.5588401396601
 31
0.0
  0
LINE
  5
737
330
1F
100
AcDbEntity
  8
CETRIS
100
AcDbLine
 10
1328.56229417889
 20
173.5588401396601
 30
0.0
 11
2013.304173961791
 21
173.5588401396601
 31
0.0
  0
LINE
  5
738
330
1F
100
AcDbEntity
  8
STAVBA OBRYS
100
AcDbLine
 10
1303.562294178893
 20
-1.44115986033978
 30
0.0
 11
2013.304173961791
 21
-1.44115986033978
 31
0.0
  0
LINE
  5
739
330
1F
100
AcDbEntity
  8
STAVBA OBRYS
100
AcDbLine
 10
1313.56229417889
 20
-11.44115986033978
 30
0.0
 11
2013.304173961791
 21
-11.44115986033978
 31
0.0
  0
HATCH
  5
73A
330
1F
100
AcDbEntity
  8
CETRIS
100
AcDbHatch
 10
0.0
 20
0.0
 30
0.0
210
0.0
220
0.0
230
1.0
  2
ANSI31
 70
     0
 71
     0
 91
        1
 92
        1
 93
        4
 72
     1
 10
2013.304173961791
 20
185.5588401396602
 11
2013.304173961791
 21
173.5588401396601
 72
     1
 10
2013.304173961791
 20
173.5588401396601
 11
1328.562294178889
 21
173.5588401396601
 72
     1
 10
1328.56229417889
 20
173.5588401396601
 11
1328.56229417889
 21
185.5588401396602
 72
     1
 10
1328.56229417889
 20
185.5588401396602
 11
2013.304173961791
 21
185.5588401396602
 97
        0
 75
     0
 76
     1
 52
0.0
 41
1.0
 77
     0
 78
     1
 53
45.0
 43
-23829.95701596346
 44
3277.047060787249
 45
-2.245064030267287
 46
2.245064030267287
 79
     0
 98
        1
 10
-23829.95701596346
 20
3277.047060787249
  0
HATCH
  5
73B
330
1F
100
AcDbEntity
  8
CETRIS
100
AcDbHatch
 10
0.0
 20
0.0
 30
0.0
210
0.0
220
0.0
230
1.0
  2
ANSI31
 70
     0
 71
     0
 91
        1
 92
        1
 93
        4
 72
     1
 10
2013.304173961791
 20
173.5588401396601
 11
2013.304173961791
 21
161.5588401396601
 72
     1
 10
2013.304173961791
 20
161.5588401396601
 11
1328.562294178889
 21
161.5588401396601
 72
     1
 10
1328.56229417889
 20
161.5588401396601
 11
1328.56229417889
 21
173.5588401396601
 72
     1
 10
1328.56229417889
 20
173.5588401396601
 11
2013.304173961791
 21
173.5588401396601
 97
        0
 75
     0
 76
     1
 52
90.0
 41
1.0
 77
     0
 78
     1
 53
135.0
 43
-23829.95701596346
 44
3277.047060787249
 45
-2.245064030267287
 46
-2.245064030267287
 79
     0
 98
        1
 10
-23829.95701596346
 20
3277.047060787249
  0
LWPOLYLINE
  5
73C
330
1F
100
AcDbEntity
  8
izolace
100
AcDbPolyline
 90
        4
 70
     1
 43
0.0
 10
2013.304173961791
 20
118.5588401396602
 10
1313.56229417889
 20
118.5588401396602
 10
1313.56229417889
 20
121.5588401396602
 10
2013.304173961791
 20
121.5588401396602
  0
HATCH
  5
73D
330
1F
100
AcDbEntity
  8
STAVBA OBRYS
100
AcDbHatch
 10
0.0
 20
0.0
 30
0.0
210
0.0
220
0.0
230
1.0
  2
ANSI35
 70
     0
 71
     0
 91
        1
 92
        7
 72
     1
 73
     1
 93
       13
 10
2013.304173961791
 20
118.5588401396602
 42
0.0
 10
1856.798488833152
 20
118.5588401396602
 42
0.0
 10
1856.798488833152
 20
64.35655635429646
 42
-1.0
 10
1856.798488833152
 20
61.85655635429647
 42
-1.0
 10
1856.798488833152
 20
64.35655635429646
 42
0.0
 10
1856.798488833155
 20
118.5588401396602
 42
0.0
 10
1833.680413795264
 20
118.5588401396602
 42
0.0
 10
1313.56229417889
 20
118.5588401396602
 42
0.0
 10
1108.182910382522
 20
118.5588401396602
 42
0.0
 10
1108.182910382518
 20
-95.05284994484794
 42
0.0
 10
1303.562294178893
 20
-95.05284994484794
 42
0.0
 10
1303.562294178897
 20
-1.44115986033978
 42
0.0
 10
2013.304173961795
 20
-1.44115986033978
 42
0.0
 97
        0
 75
     0
 76
     1
 52
0.0
 41
3.0
 77
     0
 78
     2
 53
45.0
 43
-26383.82917294729
 44
3045.278070134453
 45
-13.47038418160372
 46
13.47038418160373
 79
     0
 53
45.0
 43
-26370.35878294729
 44
3045.278070134453
 45
-13.47038418160372
 46
13.47038418160373
 79
     4
 49
23.8125
 49
-4.762499999999998
 49
0.0
 49
-4.762499999999998
 47
3.017070218097292
 98
        1
 10
1345.408370014062
 20
48.53517607767606
  0
HATCH
  5
73E
330
1F
100
AcDbEntity
  8
STAVBA OBRYS
100
AcDbHatch
 10
0.0
 20
0.0
 30
0.0
210
0.0
220
0.0
230
1.0
  2
AR-CONC
 70
     0
 71
     0
 91
        1
 92
        7
 72
     0
 73
     1
 93
        6
 10
2013.304173961791
 20
-1.44115986033978
 10
1303.562294178897
 20
-1.44115986033887
 10
1303.56229417889
 20
-189.6839066879415
 10
1313.562294178886
 20
-189.1976547532444
 10
1313.562294178893
 20
-11.44115986033978
 10
2013.304173961791
 20
-11.44115986033978
 97
        0
 75
     0
 76
     1
 52
90.0
 41
0.1
 77
     0
 78
    13
 53
140.0
 43
-26383.82917294729
 44
3045.278070134453
 45
1.593908553890309
 46
18.21846689960039
 79
     2
 49
1.905
 49
-20.95499999999999
 53
85.00000000000001
 43
-26383.82917294729
 44
3045.278070134453
 45
-19.10566428821798
 46
-3.524282597566696
 79
     2
 49
1.524
 49
-16.764
 53
190.4509999999999
 43
-26383.6963479473
 44
3046.796270134453
 45
-17.51166878202917
 46
14.69425016659592
 79
     2
 49
1.618999999999999
 49
-17.809
 53
136.1841999999998
 43
-26388.90917294729
 44
3045.278070134453
 45
4.204232793272717
 46
27.10790408921299
 79
     2
 49
2.857499999999998
 49
-31.4325
 53
186.6355999999999
 43
-26388.55882294729
 44
3047.537060134454
 45
-24.74255558900492
 46
23.74042344662371
 79
     2
 49
2.428499999999999
 49
-26.71349999999999
 53
81.18400000000006
 43
-26388.90917294729
 44
3045.278070134453
 45
-24.74251178605976
 46
23.74046058139338
 79
     2
 49
2.286
 49
-25.146
 53
111.0
 43
-26387.63917294729
 44
3047.818070134453
 45
10.22655185167625
 46
15.16148798353833
 79
     2
 49
1.905
 49
-20.95499999999999
 53
56.00000000000004
 43
-26387.63917294729
 44
3047.818070134453
 45
-18.41879661223192
 46
6.180202834764706
 79
     2
 49
1.523999999999999
 49
-16.76399999999999
 53
161.4514
 43
-26386.78696294729
 44
3049.081520134452
 45
-8.192285771605741
 46
21.34164907701245
 79
     2
 49
1.618999999999997
 49
-17.80899999999996
 53
127.5
 43
-26383.82917294729
 44
3045.278070134453
 45
-8.455503887315311
 46
0.3088603250591822
 79
     6
 49
0.0
 49
-16.5608
 49
0.0
 49
-17.018
 49
0.0
 49
-16.8275
 53
97.49999999999992
 43
-26383.82917294729
 44
3045.278070134453
 45
-10.01805748181195
 46
6.681966251030575
 79
     6
 49
0.0
 49
-9.702799999999999
 49
0.0
 49
-16.1798
 49
0.0
 49
-6.413499999999999
 53
57.5
 43
-26383.82917294729
 44
3039.613870134453
 45
0.5728743992673473
 46
13.55905951668713
 79
     6
 49
0.0
 49
-6.349999999999999
 49
0.0
 49
-19.812
 49
0.0
 49
-26.289
 53
47.5
 43
-26383.82917294729
 44
3037.073870134453
 45
-2.542649103333299
 46
14.8129181386018
 79
     6
 49
0.0
 49
-8.255
 49
0.0
 49
-13.1572
 49
0.0
 49
-18.669
 47
1.255134839913077
 98
        1
 10
1487.160642590745
 20
-5.113333440967494
  0
TEXT
  5
73F
330
1F
100
AcDbEntity
  8
POPIS
100
AcDbText
 10
1045.219444745551
 20
508.2190412096882
 30
0.0
 40
50.0
  1
Podlahová krytina - PVC, koberec
 41
0.85
  7
SIMPLEX7
100
AcDbText
  0
LINE
  5
740
330
1F
100
AcDbEntity
  8
nášlap_vrstvy
100
AcDbLine
 10
1313.56229417889
 20
189.3965009058114
 30
0.0
 11
2013.304173961791
 21
189.3965009058176
 31
0.0
  0
LINE
  5
741
330
1F
100
AcDbEntity
  8
nášlap_vrstvy
  6
CIKCAK
 48
0.2
100
AcDbLine
 10
1344.213996820141
 20
194.2458349872253
 30
0.0
 11
2013.304173961791
 21
194.2458349872253
 31
0.0
  0
LINE
  5
742
330
1F
100
AcDbEntity
  8
nášlap_vrstvy
100
AcDbLine
 10
1313.56229417889
 20
191.9364825065306
 30
0.0
 11
2013.304173961791
 21
191.936482506537
 31
0.0
  0
LINE
  5
744
330
1F
100
AcDbEntity
  8
STAVBA OBRYS
100
AcDbLine
 10
1313.562294178893
 20
118.5588401396602
 30
0.0
 11
1313.56229417889
 21
393.9797201414096
 31
0.0
  0
LINE
  5
745
330
1F
100
AcDbEntity
  8
STAVBA OBRYS
100
AcDbLine
 10
1054.481698350399
 20
-201.7954988496672
 30
0.0
 11
1054.481698350395
 21
393.979720141407
 31
0.0
  0
LINE
  5
746
330
1F
100
AcDbEntity
  8
STAVBA OBRYS
100
AcDbLine
 10
1064.481698350399
 20
-201.7954988496672
 30
0.0
 11
1064.481698350395
 21
393.979720141407
 31
0.0
  0
LINE
  5
747
330
1F
100
AcDbEntity
  8
STAVBA OBRYS
100
AcDbLine
 10
1303.562294178893
 20
118.5588401396602
 30
0.0
 11
1303.56229417889
 21
393.9797201414096
 31
0.0
  0
HATCH
  5
748
330
1F
100
AcDbEntity
  8
STAVBA OBRYS
100
AcDbHatch
 10
0.0
 20
0.0
 30
0.0
210
0.0
220
0.0
230
1.0
  2
BRICK
 70
     0
 71
     0
 91
        3
 92
        7
 72
     0
 73
     1
 93
        4
 10
1303.562294178893
 20
393.9797201414096
 10
1064.481698350399
 20
393.979720141407
 10
1064.481698350399
 20
118.558840139662
 10
1303.562294178901
 20
118.558840139662
 97
        0
 92
        7
 72
     0
 73
     1
 93
        4
 10
1303.562294178893
 20
-95.05284994484794
 10
1064.481698350399
 20
-95.05284994484613
 10
1064.481698350399
 20
-201.3092469149684
 10
1303.562294178897
 20
-189.6839066879424
 97
        0
 92
       24
 93
        4
 72
     1
 10
1202.426089674427
 20
155.3681171383079
 11
1243.257518733095
 21
155.3681171383079
 72
     1
 10
1243.257518733095
 20
155.3681171383079
 11
1243.257518733095
 21
193.661091217435
 72
     1
 10
1243.257518733095
 20
193.661091217435
 11
1202.426089674427
 21
193.661091217435
 72
     1
 10
1202.426089674427
 20
193.661091217435
 11
1202.426089674427
 21
155.368117138309
 97
        0
 75
     0
 76
     1
 52
0.0
 41
10.0
 77
     0
 78
     3
 53
0.0
 43
-26383.82917294729
 44
3045.278070134453
 45
0.0
 46
63.5
 79
     0
 53
90.0
 43
-26383.82917294729
 44
3045.278070134453
 45
-127.0
 46
0.0000000000000078
 79
     2
 49
63.5
 49
-63.5
 53
90.0
 43
-26320.3291729473
 44
3045.278070134453
 45
-127.0
 46
0.0000000000000078
 79
     2
 49
-63.5
 49
63.5
 47
3.017070218097292
 98
        2
 10
1227.670366485487
 20
250.6788909272366
 10
1197.481129099505
 20
-144.557309929452
  0
HATCH
  5
749
330
1F
100
AcDbEntity
  8
STAVBA OBRYS
100
AcDbHatch
 10
0.0
 20
0.0
 30
0.0
210
0.0
220
0.0
230
1.0
  2
AR-CONC
 70
     0
 71
     0
 91
        2
 92
        7
 72
     0
 73
     1
 93
        4
 10
1313.562294178893
 20
393.9797201414096
 10
1303.562294178893
 20
393.9797201414096
 10
1303.562294178893
 20
145.990268857606
 10
1313.562294178893
 20
141.108209563413
 97
        0
 92
        7
 72
     0
 73
     1
 93
        4
 10
1064.481698350399
 20
393.979720141407
 10
1054.481698350395
 20
393.9797201414061
 10
1054.481698350399
 20
-201.7954988496672
 10
1064.481698350399
 20
-201.3092469149693
 97
        0
 75
     0
 76
     1
 52
90.0
 41
0.1
 77
     0
 78
    13
 53
140.0
 43
-26383.82917294729
 44
3045.278070134453
 45
1.593908553890309
 46
18.21846689960039
 79
     2
 49
1.905
 49
-20.95499999999999
 53
85.00000000000001
 43
-26383.82917294729
 44
3045.278070134453
 45
-19.10566428821798
 46
-3.524282597566696
 79
     2
 49
1.524
 49
-16.764
 53
190.4509999999999
 43
-26383.6963479473
 44
3046.796270134453
 45
-17.51166878202917
 46
14.69425016659592
 79
     2
 49
1.618999999999999
 49
-17.809
 53
136.1841999999998
 43
-26388.90917294729
 44
3045.278070134453
 45
4.204232793272717
 46
27.10790408921299
 79
     2
 49
2.857499999999998
 49
-31.4325
 53
186.6355999999999
 43
-26388.55882294729
 44
3047.537060134454
 45
-24.74255558900492
 46
23.74042344662371
 79
     2
 49
2.428499999999999
 49
-26.71349999999999
 53
81.18400000000006
 43
-26388.90917294729
 44
3045.278070134453
 45
-24.74251178605976
 46
23.74046058139338
 79
     2
 49
2.286
 49
-25.146
 53
111.0
 43
-26387.63917294729
 44
3047.818070134453
 45
10.22655185167625
 46
15.16148798353833
 79
     2
 49
1.905
 49
-20.95499999999999
 53
56.00000000000004
 43
-26387.63917294729
 44
3047.818070134453
 45
-18.41879661223192
 46
6.180202834764706
 79
     2
 49
1.523999999999999
 49
-16.76399999999999
 53
161.4514
 43
-26386.78696294729
 44
3049.081520134452
 45
-8.192285771605741
 46
21.34164907701245
 79
     2
 49
1.618999999999997
 49
-17.80899999999996
 53
127.5
 43
-26383.82917294729
 44
3045.278070134453
 45
-8.455503887315311
 46
0.3088603250591822
 79
     6
 49
0.0
 49
-16.5608
 49
0.0
 49
-17.018
 49
0.0
 49
-16.8275
 53
97.49999999999992
 43
-26383.82917294729
 44
3045.278070134453
 45
-10.01805748181195
 46
6.681966251030575
 79
     6
 49
0.0
 49
-9.702799999999999
 49
0.0
 49
-16.1798
 49
0.0
 49
-6.413499999999999
 53
57.5
 43
-26383.82917294729
 44
3039.613870134453
 45
0.5728743992673473
 46
13.55905951668713
 79
     6
 49
0.0
 49
-6.349999999999999
 49
0.0
 49
-19.812
 49
0.0
 49
-26.289
 53
47.5
 43
-26383.82917294729
 44
3037.073870134453
 45
-2.542649103333299
 46
14.8129181386018
 79
     6
 49
0.0
 49
-8.255
 49
0.0
 49
-13.1572
 49
0.0
 49
-18.669
 47
1.255134839913077
 98
        2
 10
1307.444915954591
 20
242.5476644487174
 10
1060.031500620637
 20
191.0871247813523
  0
LINE
  5
74A
330
1F
100
AcDbEntity
  8
STAVBA OBRYS
100
AcDbLine
 10
1303.562294178893
 20
-95.05284994484794
 30
0.0
 11
1064.481698350399
 21
-95.05284994484885
 31
0.0
  0
LINE
  5
74B
330
1F
100
AcDbEntity
  8
STAVBA OBRYS
100
AcDbLine
 10
1108.182910382522
 20
-95.05284994484794
 30
0.0
 11
1108.182910382522
 21
118.5588401396602
 31
0.0
  0
LINE
  5
74C
330
1F
100
AcDbEntity
  8
izolace
  6
IZOLACE
 48
2.1
100
AcDbLine
 10
1086.862412455164
 20
-95.05284994484794
 30
0.0
 11
1086.862412455164
 21
118.5588401396602
 31
0.0
  0
LINE
  5
74D
330
1F
100
AcDbEntity
  8
STAVBA OBRYS
100
AcDbLine
 10
1313.56229417889
 20
-11.44115986033978
 30
0.0
 11
1313.56229417889
 21
-189.1976547532445
 31
0.0
  0
LINE
  5
74E
330
1F
100
AcDbEntity
  8
STAVBA OBRYS
100
AcDbLine
 10
1303.562294178893
 20
-1.44115986033978
 30
0.0
 11
1303.562294178893
 21
-189.1976547532445
 31
0.0
  0
LINE
  5
74F
330
1F
100
AcDbEntity
  8
POPIS
100
AcDbLine
 10
1322.139582819067
 20
138.9289610303807
 30
0.0
 11
1247.016647956374
 21
173.5961886262741
 31
0.0
  0
TEXT
  5
750
330
1F
100
AcDbEntity
  8
POPIS
100
AcDbText
 10
1208.80825202095
 20
162.1766096348968
 30
0.0
 40
25.0
  1
08
 41
0.85
  7
SIMPLEX7
100
AcDbText
  0
LINE
  5
751
330
1F
100
AcDbEntity
  8
izolace
  6
IZOLACE
 48
0.6
100
AcDbLine
 10
1322.563144833744
 20
185.5588401396606
 30
0.0
 11
1322.563144833744
 21
121.5588401396605
 31
0.0
  0
HATCH
  5
752
330
1F
100
AcDbEntity
  8
izolace
100
AcDbHatch
 10
0.0
 20
0.0
 30
0.0
210
0.0
220
0.0
230
1.0
  2
SOLID
 70
     1
 71
     0
 91
        1
 92
        7
 72
     0
 73
     1
 93
        4
 10
1313.562294178893
 20
142.2005728495004
 10
1313.562294178893
 20
118.5588401396652
 10
1316.562294178893
 20
118.5588401396614
 10
1316.562294178893
 20
142.2005728495004
 97
        0
 75
     0
 76
     1
 47
0.1901250437635136
 98
        1
 10
1314.379105729973
 20
127.916634898005
  0
LWPOLYLINE
  5
753
330
1F
100
AcDbEntity
  8
izolace
100
AcDbPolyline
 90
        4
 70
     1
 43
0.0
 10
1313.562294178893
 20
118.5588401396614
 10
1316.562294178893
 20
118.5588401396614
 10
1316.562294178893
 20
187.0588401396601
 10
1313.562294178892
 20
187.0588401396601
  0
HATCH
  5
754
330
1F
100
AcDbEntity
  8
izolace
100
AcDbHatch
 10
0.0
 20
0.0
 30
0.0
210
0.0
220
0.0
230
1.0
  2
SOLID
 70
     1
 71
     0
 91
        1
 92
        7
 72
     0
 73
     1
 93
        4
 10
1313.562294178893
 20
186.9609842163024
 10
1313.562294178893
 20
163.3192515064673
 10
1316.562294178893
 20
163.3192515064636
 10
1316.562294178893
 20
186.9609842163024
 97
        0
 75
     0
 76
     1
 47
0.1901250437635136
 98
        1
 10
1314.379105729973
 20
172.6770462648072
  0
INSERT
  5
755
330
1F
100
AcDbEntity
  8
POPIS
100
AcDbBlockReference
  2
E_PUNKT
 10
1445.935193039048
 20
195.7308931212404
 30
0.0
 50
270.0
  0
LINE
  5
756
330
1F
100
AcDbEntity
  8
POPIS
100
AcDbLine
 10
1445.977329662044
 20
257.8522988928473
 30
0.0
 11
1445.977329662044
 21
194.2458349872253
 31
0.0
  0
LWPOLYLINE
  5
757
330
1F
100
AcDbEntity
  8
nášlap_vrstvy
100
AcDbPolyline
 90
        4
 70
     1
 43
0.0
 10
1443.591824082989
 20
187.0588401396601
 10
1431.770957728069
 20
187.0588401396601
 10
1431.770957728069
 20
185.5588401396602
 10
1443.591824082989
 20
185.5588401396602
  0
HATCH
  5
758
330
1F
100
AcDbEntity
  8
nášlap_vrstvy
100
AcDbHatch
 10
0.0
 20
0.0
 30
0.0
210
0.0
220
0.0
230
1.0
  2
SOLID
 70
     1
 71
     0
 91
        1
 92
        7
 72
     0
 73
     1
 93
        4
 10
1443.591824082989
 20
187.0588401396601
 10
1431.770957728073
 20
187.0588401396601
 10
1431.770957728069
 20
185.5588401396602
 10
1443.591824082989
 20
185.5588401396602
 97
        0
 75
     0
 76
     1
 47
0.1901250437635136
 98
        1
 10
1436.449855107243
 20
186.6504343641203
  0
LWPOLYLINE
  5
759
330
1F
100
AcDbEntity
  8
nášlap_vrstvy
100
AcDbPolyline
 90
        4
 70
     1
 43
0.0
 10
1419.95009137315
 20
187.0588401396601
 10
1408.129225018234
 20
187.0588401396601
 10
1408.129225018234
 20
185.5588401396602
 10
1419.95009137315
 20
185.5588401396602
  0
HATCH
  5
75A
330
1F
100
AcDbEntity
  8
nášlap_vrstvy
100
AcDbHatch
 10
0.0
 20
0.0
 30
0.0
210
0.0
220
0.0
230
1.0
  2
SOLID
 70
     1
 71
     0
 91
        1
 92
        7
 72
     0
 73
     1
 93
        4
 10
1419.950091373153
 20
187.0588401396601
 10
1408.129225018234
 20
187.0588401396601
 10
1408.129225018234
 20
185.5588401396602
 10
1419.950091373153
 20
185.5588401396602
 97
        0
 75
     0
 76
     1
 47
0.1901250437635136
 98
        1
 10
1412.808122397404
 20
186.6504343641203
  0
LWPOLYLINE
  5
75B
330
1F
100
AcDbEntity
  8
nášlap_vrstvy
100
AcDbPolyline
 90
        4
 70
     1
 43
0.0
 10
1396.308358663318
 20
187.0588401396601
 10
1384.487492308399
 20
187.0588401396601
 10
1384.487492308399
 20
185.5588401396602
 10
1396.308358663318
 20
185.5588401396602
  0
HATCH
  5
75C
330
1F
100
AcDbEntity
  8
nášlap_vrstvy
100
AcDbHatch
 10
0.0
 20
0.0
 30
0.0
210
0.0
220
0.0
230
1.0
  2
SOLID
 70
     1
 71
     0
 91
        1
 92
        7
 72
     0
 73
     1
 93
        4
 10
1396.308358663318
 20
187.0588401396601
 10
1384.487492308402
 20
187.0588401396601
 10
1384.487492308399
 20
185.5588401396602
 10
1396.308358663318
 20
185.5588401396602
 97
        0
 75
     0
 76
     1
 47
0.1901250437635136
 98
        1
 10
1389.166389687572
 20
186.6504343641203
  0
LWPOLYLINE
  5
75D
330
1F
100
AcDbEntity
  8
nášlap_vrstvy
100
AcDbPolyline
 90
        4
 70
     1
 43
0.0
 10
1372.666625953479
 20
187.0588401396601
 10
1360.845759598564
 20
187.0588401396601
 10
1360.845759598564
 20
185.5588401396602
 10
1372.666625953479
 20
185.5588401396602
  0
HATCH
  5
75E
330
1F
100
AcDbEntity
  8
nášlap_vrstvy
100
AcDbHatch
 10
0.0
 20
0.0
 30
0.0
210
0.0
220
0.0
230
1.0
  2
SOLID
 70
     1
 71
     0
 91
        1
 92
        7
 72
     0
 73
     1
 93
        4
 10
1372.666625953483
 20
187.0588401396601
 10
1360.845759598564
 20
187.0588401396601
 10
1360.845759598564
 20
185.5588401396602
 10
1372.666625953483
 20
185.5588401396602
 97
        0
 75
     0
 76
     1
 47
0.1901250437635136
 98
        1
 10
1365.524656977734
 20
186.6504343641203
  0
HATCH
  5
75F
330
1F
100
AcDbEntity
  8
nášlap_vrstvy
100
AcDbHatch
 10
0.0
 20
0.0
 30
0.0
210
0.0
220
0.0
230
1.0
  2
SOLID
 70
     1
 71
     0
 91
        1
 92
        7
 72
     0
 73
     1
 93
        4
 10
1349.024893243648
 20
187.0588401396601
 10
1337.204026888732
 20
187.0588401396601
 10
1337.204026888728
 20
185.5588401396602
 10
1349.024893243648
 20
185.5588401396602
 97
        0
 75
     0
 76
     1
 47
0.1901250437635136
 98
        1
 10
1341.882924267902
 20
186.6504343641203
  0
HATCH
  5
760
330
1F
100
AcDbEntity
  8
nášlap_vrstvy
100
AcDbHatch
 10
0.0
 20
0.0
 30
0.0
210
0.0
220
0.0
230
1.0
  2
SOLID
 70
     1
 71
     0
 91
        1
 92
        7
 72
     0
 73
     1
 93
        4
 10
1325.383160533809
 20
187.0588401396601
 10
1313.562294178893
 20
187.0588401396601
 10
1313.562294178893
 20
185.5588401396602
 10
1325.383160533813
 20
185.5588401396602
 97
        0
 75
     0
 76
     1
 47
0.1901250437635136
 98
        3
 10
1339.504905665904
 20
186.175117674966
 10
1321.336810252232
 20
186.0800543371355
 10
1319.339274157621
 20
186.3652443506273
  0
LWPOLYLINE
  5
761
330
1F
100
AcDbEntity
  8
nášlap_vrstvy
100
AcDbPolyline
 90
        4
 70
     1
 43
0.0
 10
1349.024893243648
 20
187.0588401396601
 10
1337.204026888728
 20
187.0588401396601
 10
1337.204026888728
 20
185.5588401396602
 10
1349.024893243648
 20
185.5588401396602
  0
LWPOLYLINE
  5
762
330
1F
100
AcDbEntity
  8
nášlap_vrstvy
100
AcDbPolyline
 90
        4
 70
     1
 43
0.0
 10
1325.383160533809
 20
187.0588401396601
 10
1313.562294178893
 20
187.0588401396601
 10
1313.562294178893
 20
185.5588401396602
 10
1325.383160533809
 20
185.5588401396602
  0
LWPOLYLINE
  5
763
330
1F
100
AcDbEntity
  8
izolace
100
AcDbPolyline
 90
        4
 70
     1
 43
0.0
 10
1313.56229417889
 20
185.5588401396602
 10
1328.56229417889
 20
185.5588401396602
 10
1328.56229417889
 20
121.5588401396602
 10
1313.56229417889
 20
121.5588401396602
  0
LINE
  5
764
330
1F
100
AcDbEntity
  8
SPOJOVACÍ
  6
DASHED
100
AcDbLine
 10
1353.143239729601
 20
163.115019037063
 30
0.0
 11
1357.106756002002
 21
161.7823003637917
 31
0.0
  0
LINE
  5
765
330
1F
100
AcDbEntity
  8
SPOJOVACÍ
  6
DASHED
100
AcDbLine
 10
1353.143239729601
 20
162.5307012056113
 30
0.0
 11
1357.106756002002
 21
161.19798253234
 31
0.0
  0
LINE
  5
766
330
1F
100
AcDbEntity
  8
SPOJOVACÍ
  6
DASHED
100
AcDbLine
 10
1357.476854345528
 20
161.5680808780055
 30
0.0
 11
1357.106756002002
 21
161.7823003637917
 31
0.0
  0
LINE
  5
767
330
1F
100
AcDbEntity
  8
SPOJOVACÍ
  6
DASHED
100
AcDbLine
 10
1357.476854345528
 20
161.5680808780055
 30
0.0
 11
1357.106756002002
 21
161.19798253234
 31
0.0
  0
LINE
  5
768
330
1F
100
AcDbEntity
  8
SPOJOVACÍ
  6
DASHED
100
AcDbLine
 10
1352.773141381796
 20
162.7440091189384
 30
0.0
 11
1353.143239729601
 21
163.115019037063
 31
0.0
  0
LINE
  5
769
330
1F
100
AcDbEntity
  8
SPOJOVACÍ
  6
DASHED
100
AcDbLine
 10
1352.773141381796
 20
162.7440091189384
 30
0.0
 11
1353.143239729601
 21
162.5307012056113
 31
0.0
  0
LINE
  5
76A
330
1F
100
AcDbEntity
  8
SPOJOVACÍ
  6
DASHED
100
AcDbLine
 10
1352.773141381796
 20
162.7440091189384
 30
0.0
 11
1357.476854345528
 21
161.5680808780055
 31
0.0
  0
LINE
  5
76B
330
1F
100
AcDbEntity
  8
SPOJOVACÍ
  6
DASHED
100
AcDbLine
 10
1353.143239729601
 20
166.1724324636455
 30
0.0
 11
1357.106756002002
 21
164.8397137903741
 31
0.0
  0
LINE
  5
76C
330
1F
100
AcDbEntity
  8
SPOJOVACÍ
  6
DASHED
100
AcDbLine
 10
1353.143239729601
 20
165.5881146322011
 30
0.0
 11
1357.106756002002
 21
164.2553959591935
 31
0.0
  0
LINE
  5
76D
330
1F
100
AcDbEntity
  8
SPOJOVACÍ
  6
DASHED
100
AcDbLine
 10
1357.476854345528
 20
164.6264058770469
 30
0.0
 11
1357.106756002002
 21
164.8397137903741
 31
0.0
  0
LINE
  5
76E
330
1F
100
AcDbEntity
  8
SPOJOVACÍ
  6
DASHED
100
AcDbLine
 10
1357.476854345528
 20
164.6264058770469
 30
0.0
 11
1357.106756002002
 21
164.2553959591935
 31
0.0
  0
LINE
  5
76F
330
1F
100
AcDbEntity
  8
SPOJOVACÍ
  6
DASHED
100
AcDbLine
 10
1352.773141381796
 20
165.8023341179799
 30
0.0
 11
1353.143239729601
 21
166.1724324636455
 31
0.0
  0
LINE
  5
770
330
1F
100
AcDbEntity
  8
SPOJOVACÍ
  6
DASHED
100
AcDbLine
 10
1352.773141381796
 20
165.8023341179799
 30
0.0
 11
1353.143239729601
 21
165.5881146322011
 31
0.0
  0
LINE
  5
771
330
1F
100
AcDbEntity
  8
SPOJOVACÍ
  6
DASHED
100
AcDbLine
 10
1352.773141381796
 20
165.8023341179799
 30
0.0
 11
1357.476854345528
 21
164.6264058770469
 31
0.0
  0
LINE
  5
772
330
1F
100
AcDbEntity
  8
SPOJOVACÍ
  6
DASHED
100
AcDbLine
 10
1353.143239729601
 20
169.2298458902353
 30
0.0
 11
1357.106756002002
 21
167.8971272172278
 31
0.0
  0
LINE
  5
773
330
1F
100
AcDbEntity
  8
SPOJOVACÍ
  6
DASHED
100
AcDbLine
 10
1353.143239729601
 20
168.6455280587837
 30
0.0
 11
1357.106756002002
 21
167.3128093857833
 31
0.0
  0
LINE
  5
774
330
1F
100
AcDbEntity
  8
SPOJOVACÍ
  6
DASHED
100
AcDbLine
 10
1357.476854345528
 20
167.6838193036368
 30
0.0
 11
1357.106756002002
 21
167.8971272172278
 31
0.0
  0
LINE
  5
775
330
1F
100
AcDbEntity
  8
SPOJOVACÍ
  6
DASHED
100
AcDbLine
 10
1357.476854345528
 20
167.6838193036368
 30
0.0
 11
1357.106756002002
 21
167.3128093857833
 31
0.0
  0
LINE
  5
776
330
1F
100
AcDbEntity
  8
SPOJOVACÍ
  6
DASHED
100
AcDbLine
 10
1352.773141381796
 20
168.8597475445698
 30
0.0
 11
1353.143239729601
 21
169.2298458902353
 31
0.0
  0
LINE
  5
777
330
1F
100
AcDbEntity
  8
SPOJOVACÍ
  6
DASHED
100
AcDbLine
 10
1352.773141381796
 20
168.8597475445698
 30
0.0
 11
1353.143239729601
 21
168.6455280587837
 31
0.0
  0
LINE
  5
778
330
1F
100
AcDbEntity
  8
SPOJOVACÍ
  6
DASHED
100
AcDbLine
 10
1352.773141381796
 20
168.8597475445698
 30
0.0
 11
1357.476854345528
 21
167.6838193036368
 31
0.0
  0
LINE
  5
779
330
1F
100
AcDbEntity
  8
SPOJOVACÍ
  6
DASHED
100
AcDbLine
 10
1354.128649364575
 20
153.820628071306
 30
0.0
 11
1356.239850763202
 21
153.5161629298476
 31
0.0
  0
LINE
  5
77A
330
1F
100
AcDbEntity
  8
SPOJOVACÍ
  6
DASHED
100
AcDbLine
 10
1354.498747708101
 20
154.1907264169715
 30
0.0
 11
1355.869752419676
 21
153.7294708434385
 31
0.0
  0
LINE
  5
77B
330
1F
100
AcDbEntity
  8
SPOJOVACÍ
  6
DASHED
100
AcDbLine
 10
1354.498747708101
 20
153.6064085855271
 30
0.0
 11
1355.869752419676
 21
153.1451530119941
 31
0.0
  0
LINE
  5
77C
330
1F
100
AcDbEntity
  8
SPOJOVACÍ
  6
DASHED
100
AcDbLine
 10
1356.239850763202
 20
153.5161629298476
 30
0.0
 11
1355.869752419676
 21
153.7294708434385
 31
0.0
  0
LINE
  5
77D
330
1F
100
AcDbEntity
  8
SPOJOVACÍ
  6
DASHED
100
AcDbLine
 10
1356.239850763202
 20
153.5161629298476
 30
0.0
 11
1355.869752419676
 21
153.1451530119941
 31
0.0
  0
LINE
  5
77E
330
1F
100
AcDbEntity
  8
SPOJOVACÍ
  6
DASHED
100
AcDbLine
 10
1354.128649364575
 20
153.820628071306
 30
0.0
 11
1354.498747708101
 21
154.1907264169715
 31
0.0
  0
LINE
  5
77F
330
1F
100
AcDbEntity
  8
SPOJOVACÍ
  6
DASHED
100
AcDbLine
 10
1354.128649364575
 20
153.820628071306
 30
0.0
 11
1354.498747708101
 21
153.6064085855271
 31
0.0
  0
LINE
  5
780
330
1F
100
AcDbEntity
  8
SPOJOVACÍ
  6
DASHED
100
AcDbLine
 10
1353.575324988313
 20
156.7741222580592
 30
0.0
 11
1356.629092126415
 21
156.1533415356247
 31
0.0
  0
LINE
  5
781
330
1F
100
AcDbEntity
  8
SPOJOVACÍ
  6
DASHED
100
AcDbLine
 10
1353.945423336117
 20
157.1451321761835
 30
0.0
 11
1356.258993782889
 21
156.3666494489519
 31
0.0
  0
LINE
  5
782
330
1F
100
AcDbEntity
  8
SPOJOVACÍ
  6
DASHED
100
AcDbLine
 10
1353.945423336117
 20
156.5608143447319
 30
0.0
 11
1356.258993782889
 21
155.7823316177713
 31
0.0
  0
LINE
  5
783
330
1F
100
AcDbEntity
  8
SPOJOVACÍ
  6
DASHED
100
AcDbLine
 10
1356.629092126415
 20
156.1533415356247
 30
0.0
 11
1356.258993782889
 21
156.3666494489519
 31
0.0
  0
LINE
  5
784
330
1F
100
AcDbEntity
  8
SPOJOVACÍ
  6
DASHED
100
AcDbLine
 10
1356.629092126415
 20
156.1533415356247
 30
0.0
 11
1356.258993782889
 21
155.7823316177713
 31
0.0
  0
LINE
  5
785
330
1F
100
AcDbEntity
  8
SPOJOVACÍ
  6
DASHED
100
AcDbLine
 10
1353.575324988313
 20
156.7741222580592
 30
0.0
 11
1353.945423336117
 21
157.1451321761835
 31
0.0
  0
LINE
  5
786
330
1F
100
AcDbEntity
  8
SPOJOVACÍ
  6
DASHED
100
AcDbLine
 10
1353.575324988313
 20
156.7741222580592
 30
0.0
 11
1353.945423336117
 21
156.5608143447319
 31
0.0
  0
LINE
  5
787
330
1F
100
AcDbEntity
  8
SPOJOVACÍ
  6
DASHED
100
AcDbLine
 10
1353.022000616329
 20
159.7285280172711
 30
0.0
 11
1357.064823676017
 21
158.7750234126126
 31
0.0
  0
LINE
  5
788
330
1F
100
AcDbEntity
  8
SPOJOVACÍ
  6
DASHED
100
AcDbLine
 10
1353.393010533648
 20
160.0986263629368
 30
0.0
 11
1356.694725332491
 21
158.98833132594
 31
0.0
  0
LINE
  5
789
330
1F
100
AcDbEntity
  8
SPOJOVACÍ
  6
DASHED
100
AcDbLine
 10
1353.393010533648
 20
159.5143085314852
 30
0.0
 11
1356.694725332491
 21
158.4040134944883
 31
0.0
  0
LINE
  5
78A
330
1F
100
AcDbEntity
  8
SPOJOVACÍ
  6
DASHED
100
AcDbLine
 10
1357.064823676017
 20
158.7750234126126
 30
0.0
 11
1356.694725332491
 21
158.98833132594
 31
0.0
  0
LINE
  5
78B
330
1F
100
AcDbEntity
  8
SPOJOVACÍ
  6
DASHED
100
AcDbLine
 10
1357.064823676017
 20
158.7750234126126
 30
0.0
 11
1356.694725332491
 21
158.4040134944883
 31
0.0
  0
LINE
  5
78C
330
1F
100
AcDbEntity
  8
SPOJOVACÍ
  6
DASHED
100
AcDbLine
 10
1353.022000616329
 20
159.7285280172711
 30
0.0
 11
1353.393010533648
 21
160.0986263629368
 31
0.0
  0
LINE
  5
78D
330
1F
100
AcDbEntity
  8
SPOJOVACÍ
  6
DASHED
100
AcDbLine
 10
1353.022000616329
 20
159.7285280172711
 30
0.0
 11
1353.393010533648
 21
159.5143085314852
 31
0.0
  0
LINE
  5
78E
330
1F
100
AcDbEntity
  8
SPOJOVACÍ
  6
DASHED
100
AcDbLine
 10
1353.143239729601
 20
172.2872593170889
 30
0.0
 11
1357.106756002002
 21
170.9554522160054
 31
0.0
  0
LINE
  5
78F
330
1F
100
AcDbEntity
  8
SPOJOVACÍ
  6
DASHED
100
AcDbLine
 10
1353.143239729601
 20
171.7029414856373
 30
0.0
 11
1357.106756002002
 21
170.3711343848248
 31
0.0
  0
LINE
  5
790
330
1F
100
AcDbEntity
  8
SPOJOVACÍ
  6
DASHED
100
AcDbLine
 10
1357.476854345528
 20
170.7412327302193
 30
0.0
 11
1357.106756002002
 21
170.9554522160054
 31
0.0
  0
LINE
  5
791
330
1F
100
AcDbEntity
  8
SPOJOVACÍ
  6
DASHED
100
AcDbLine
 10
1357.476854345528
 20
170.7412327302193
 30
0.0
 11
1357.106756002002
 21
170.3711343848248
 31
0.0
  0
LINE
  5
792
330
1F
100
AcDbEntity
  8
SPOJOVACÍ
  6
DASHED
100
AcDbLine
 10
1352.773141381796
 20
171.9171609714234
 30
0.0
 11
1353.143239729601
 21
172.2872593170889
 31
0.0
  0
LINE
  5
793
330
1F
100
AcDbEntity
  8
SPOJOVACÍ
  6
DASHED
100
AcDbLine
 10
1352.773141381796
 20
171.9171609714234
 30
0.0
 11
1353.143239729601
 21
171.7029414856373
 31
0.0
  0
LINE
  5
794
330
1F
100
AcDbEntity
  8
SPOJOVACÍ
  6
DASHED
100
AcDbLine
 10
1352.773141381796
 20
171.9171609714234
 30
0.0
 11
1357.476854345528
 21
170.7412327302193
 31
0.0
  0
LINE
  5
795
330
1F
100
AcDbEntity
  8
SPOJOVACÍ
  6
DASHED
100
AcDbLine
 10
1353.143239729601
 20
175.3455843158592
 30
0.0
 11
1357.106756002002
 21
174.012865642859
 31
0.0
  0
LINE
  5
796
330
1F
100
AcDbEntity
  8
SPOJOVACÍ
  6
DASHED
100
AcDbLine
 10
1353.143239729601
 20
174.7612664846785
 30
0.0
 11
1357.106756002002
 21
173.4285478114073
 31
0.0
  0
LINE
  5
797
330
1F
100
AcDbEntity
  8
SPOJOVACÍ
  6
DASHED
100
AcDbLine
 10
1357.476854345528
 20
173.7986461570729
 30
0.0
 11
1357.106756002002
 21
174.012865642859
 31
0.0
  0
LINE
  5
798
330
1F
100
AcDbEntity
  8
SPOJOVACÍ
  6
DASHED
100
AcDbLine
 10
1357.476854345528
 20
173.7986461570729
 30
0.0
 11
1357.106756002002
 21
173.4285478114073
 31
0.0
  0
LINE
  5
799
330
1F
100
AcDbEntity
  8
SPOJOVACÍ
  6
DASHED
100
AcDbLine
 10
1352.773141381796
 20
174.9745743980058
 30
0.0
 11
1353.143239729601
 21
175.3455843158592
 31
0.0
  0
LINE
  5
79A
330
1F
100
AcDbEntity
  8
SPOJOVACÍ
  6
DASHED
100
AcDbLine
 10
1352.773141381796
 20
174.9745743980058
 30
0.0
 11
1353.143239729601
 21
174.7612664846785
 31
0.0
  0
LINE
  5
79B
330
1F
100
AcDbEntity
  8
SPOJOVACÍ
  6
DASHED
100
AcDbLine
 10
1352.773141381796
 20
174.9745743980058
 30
0.0
 11
1357.476854345528
 21
173.7986461570729
 31
0.0
  0
LINE
  5
79C
330
1F
100
AcDbEntity
  8
SPOJOVACÍ
  6
DASHED
100
AcDbLine
 10
1356.207034162304
 20
159.1615300592624
 30
0.0
 11
1356.447689245542
 21
161.0931517203229
 31
0.0
  0
LINE
  5
79D
330
1F
100
AcDbEntity
  8
SPOJOVACÍ
  6
DASHED
100
AcDbLine
 10
1355.875221849593
 20
156.5088547246816
 30
0.0
 11
1356.136843095824
 21
158.602736251478
 31
0.0
  0
LINE
  5
79E
330
1F
100
AcDbEntity
  8
SPOJOVACÍ
  6
DASHED
100
AcDbLine
 10
1355.542497971648
 20
153.8461520952371
 30
0.0
 11
1355.805030787393
 21
155.948237772522
 31
0.0
  0
LINE
  5
79F
330
1F
100
AcDbEntity
  8
SPOJOVACÍ
  6
DASHED
100
AcDbLine
 10
1354.746695368842
 20
153.5362175201173
 30
0.0
 11
1355.124997863662
 21
150.5088859786685
 31
0.0
  0
LINE
  5
7A0
330
1F
100
AcDbEntity
  8
SPOJOVACÍ
  6
DASHED
100
AcDbLine
 10
1354.386624319915
 20
156.418609069002
 30
0.0
 11
1354.671034868166
 21
154.1442362308537
 31
0.0
  0
LINE
  5
7A1
330
1F
100
AcDbEntity
  8
SPOJOVACÍ
  6
DASHED
100
AcDbLine
 10
1354.024730123405
 20
159.3119394852168
 30
0.0
 11
1354.309140675934
 21
157.0366550748734
 31
0.0
  0
LINE
  5
7A2
330
1F
100
AcDbEntity
  8
SPOJOVACÍ
  6
DASHED
100
AcDbLine
 10
1355.124997863662
 20
150.5088859786685
 30
0.0
 11
1355.472306905169
 21
153.2882698599116
 31
0.0
  0
LINE
  5
7A3
330
1F
100
AcDbEntity
  8
SPOJOVACÍ
  6
DASHED
100
AcDbLine
 10
1353.802306486061
 20
161.0931517203229
 30
0.0
 11
1353.949069622729
 21
159.9199581959531
 31
0.0
  0
LINE
  5
7A4
330
1F
100
AcDbEntity
  8
SPOJOVACÍ
  6
DASHED
100
AcDbLine
 10
1356.447689245542
 20
161.4231408854488
 30
0.0
 11
1356.447689245542
 21
161.0931517203229
 31
0.0
  0
LINE
  5
7A5
330
1F
100
AcDbEntity
  8
SPOJOVACÍ
  6
DASHED
100
AcDbLine
 10
1356.447689245542
 20
164.4832890291294
 30
0.0
 11
1356.447689245542
 21
162.014751295201
 31
0.0
  0
LINE
  5
7A6
330
1F
100
AcDbEntity
  8
SPOJOVACÍ
  6
DASHED
100
AcDbLine
 10
1353.802306486061
 20
162.3155701473737
 30
0.0
 11
1353.802306486061
 21
161.0931517203229
 31
0.0
  0
LINE
  5
7A7
330
1F
100
AcDbEntity
  8
SPOJOVACÍ
  6
DASHED
100
AcDbLine
 10
1353.802306486061
 20
165.3675141405658
 30
0.0
 11
1353.802306486061
 21
162.8998879788253
 31
0.0
  0
LINE
  5
7A8
330
1F
100
AcDbEntity
  8
SPOJOVACÍ
  6
DASHED
100
AcDbLine
 10
1356.447689245542
 20
167.5425256003585
 30
0.0
 11
1356.447689245542
 21
165.0721647217835
 31
0.0
  0
LINE
  5
7A9
330
1F
100
AcDbEntity
  8
SPOJOVACÍ
  6
DASHED
100
AcDbLine
 10
1356.447689245542
 20
170.6026737437754
 30
0.0
 11
1356.447689245542
 21
168.1250202871637
 31
0.0
  0
LINE
  5
7AA
330
1F
100
AcDbEntity
  8
SPOJOVACÍ
  6
DASHED
100
AcDbLine
 10
1356.447689245542
 20
173.6555293091553
 30
0.0
 11
1356.447689245542
 21
171.186991575227
 31
0.0
  0
LINE
  5
7AB
330
1F
100
AcDbEntity
  8
SPOJOVACÍ
  6
DASHED
100
AcDbLine
 10
1353.802306486061
 20
168.4376895791176
 30
0.0
 11
1353.802306486061
 21
165.960036122506
 31
0.0
  0
LINE
  5
7AC
330
1F
100
AcDbEntity
  8
SPOJOVACÍ
  6
DASHED
100
AcDbLine
 10
1353.802306486061
 20
171.4905451444978
 30
0.0
 11
1353.802306486061
 21
169.0201842659229
 31
0.0
  0
LINE
  5
7AD
330
1F
100
AcDbEntity
  8
SPOJOVACÍ
  6
DASHED
100
AcDbLine
 10
1353.802306486061
 20
174.5506932879145
 30
0.0
 11
1353.802306486061
 21
172.0821555539863
 31
0.0
  0
LINE
  5
7AE
330
1F
100
AcDbEntity
  8
SPOJOVACÍ
  6
DASHED
100
AcDbLine
 10
1353.802306486061
 20
179.091234813994
 30
0.0
 11
1353.802306486061
 21
175.1340995469075
 31
0.0
  0
LINE
  5
7AF
330
1F
100
AcDbEntity
  8
SPOJOVACÍ
  6
DASHED
100
AcDbLine
 10
1356.447689245542
 20
179.091234813994
 30
0.0
 11
1356.447689245542
 21
174.2471397186439
 31
0.0
  0
LINE
  5
7B0
330
1F
100
AcDbEntity
  8
SPOJOVACÍ
  6
DASHED
100
AcDbLine
 10
1350.126847052801
 20
184.3829118984633
 30
0.0
 11
1351.449538434681
 21
183.6536540747187
 31
0.0
  0
LINE
  5
7B1
330
1F
100
AcDbEntity
  8
SPOJOVACÍ
  6
DASHED
100
AcDbLine
 10
1351.449538434681
 20
183.6536540747187
 30
0.0
 11
1352.537955737032
 21
182.6062575250946
 31
0.0
  0
LINE
  5
7B2
330
1F
100
AcDbEntity
  8
SPOJOVACÍ
  6
DASHED
100
AcDbLine
 10
1352.537955737032
 20
182.6062575250946
 30
0.0
 11
1353.318261606764
 21
181.313648032363
 31
0.0
  0
LINE
  5
7B3
330
1F
100
AcDbEntity
  8
SPOJOVACÍ
  6
DASHED
100
AcDbLine
 10
1353.318261606764
 20
181.313648032363
 30
0.0
 11
1353.737584853778
 21
179.8624249626539
 31
0.0
  0
LINE
  5
7B4
330
1F
100
AcDbEntity
  8
SPOJOVACÍ
  6
DASHED
100
AcDbLine
 10
1353.737584853778
 20
179.8624249626539
 30
0.0
 11
1353.802306486061
 21
179.091234813994
 31
0.0
  0
LINE
  5
7B5
330
1F
100
AcDbEntity
  8
SPOJOVACÍ
  6
DASHED
100
AcDbLine
 10
1358.209758459357
 20
183.1532008931046
 30
0.0
 11
1359.422149592079
 21
184.0529227333376
 31
0.0
  0
LINE
  5
7B6
330
1F
100
AcDbEntity
  8
SPOJOVACÍ
  6
DASHED
100
AcDbLine
 10
1359.422149592079
 20
184.0529227333376
 30
0.0
 11
1360.123148674523
 21
184.3829118984633
 31
0.0
  0
LINE
  5
7B7
330
1F
100
AcDbEntity
  8
SPOJOVACÍ
  6
DASHED
100
AcDbLine
 10
1350.126847052801
 20
184.3829118984633
 30
0.0
 11
1360.123148674523
 21
184.3829118984633
 31
0.0
  0
LINE
  5
7B8
330
1F
100
AcDbEntity
  8
SPOJOVACÍ
  6
DASHED
100
AcDbLine
 10
1350.126847052801
 20
185.5588401396602
 30
0.0
 11
1350.126847052801
 21
184.3829118984633
 31
0.0
  0
LINE
  5
7B9
330
1F
100
AcDbEntity
  8
SPOJOVACÍ
  6
DASHED
100
AcDbLine
 10
1350.126847052801
 20
185.5588401396602
 30
0.0
 11
1360.123148674523
 21
185.5588401396602
 31
0.0
  0
LINE
  5
7BA
330
1F
100
AcDbEntity
  8
SPOJOVACÍ
  6
DASHED
100
AcDbLine
 10
1360.123148674523
 20
185.5588401396602
 30
0.0
 11
1360.123148674523
 21
184.3829118984633
 31
0.0
  0
LINE
  5
7BB
330
1F
100
AcDbEntity
  8
SPOJOVACÍ
  6
DASHED
100
AcDbLine
 10
1356.447689245542
 20
179.091234813994
 30
0.0
 11
1356.670112878608
 21
180.5843902083546
 31
0.0
  0
LINE
  5
7BC
330
1F
100
AcDbEntity
  8
SPOJOVACÍ
  6
DASHED
100
AcDbLine
 10
1356.670112878608
 20
180.5843902083546
 30
0.0
 11
1357.270839010773
 21
181.9699800738638
 31
0.0
  0
LINE
  5
7BD
330
1F
100
AcDbEntity
  8
SPOJOVACÍ
  6
DASHED
100
AcDbLine
 10
1357.270839010773
 20
181.9699800738638
 30
0.0
 11
1358.209758459357
 21
183.1532008931046
 31
0.0
  0
LINE
  5
7BE
330
1F
100
AcDbEntity
  8
CETRIS
100
AcDbLine
 10
1328.56229417889
 20
185.5588401396602
 30
0.0
 11
1328.56229417889
 21
173.5588401396601
 31
0.0
  0
LINE
  5
7BF
330
1F
100
AcDbEntity
  8
CETRIS
100
AcDbLine
 10
1328.56229417889
 20
173.5588401396601
 30
0.0
 11
1328.56229417889
 21
161.5588401396601
 31
0.0
  0
LWPOLYLINE
  5
7C0
330
1F
100
AcDbEntity
  8
izolace
100
AcDbPolyline
 90
        4
 70
     1
 43
0.0
 10
1337.204026888725
 20
121.5588401396602
 10
1313.56229417889
 20
121.5588401396602
 10
1313.56229417889
 20
118.5588401396602
 10
1337.204026888725
 20
118.5588401396602
  0
LWPOLYLINE
  5
7C1
330
1F
100
AcDbEntity
  8
izolace
100
AcDbPolyline
 90
        4
 70
     1
 43
0.0
 10
1384.487492308395
 20
121.5588401396602
 10
1360.84575959856
 20
121.5588401396602
 10
1360.84575959856
 20
118.5588401396602
 10
1384.487492308395
 20
118.5588401396602
  0
HATCH
  5
7C2
330
1F
100
AcDbEntity
  8
izolace
100
AcDbHatch
 10
0.0
 20
0.0
 30
0.0
210
0.0
220
0.0
230
1.0
  2
SOLID
 70
     1
 71
     0
 91
        1
 92
        7
 72
     0
 73
     1
 93
        4
 10
1337.204026888725
 20
121.5588401396602
 10
1313.562294178893
 20
121.5588401396602
 10
1313.56229417889
 20
118.5588401396602
 10
1337.204026888728
 20
118.5588401396602
 97
        0
 75
     0
 76
     1
 47
0.1901250437635136
 98
        3
 10
1365.447517152912
 20
119.791395210272
 10
1329.111326325572
 20
119.6012685346107
 10
1325.116254136345
 20
120.1716485615945
  0
HATCH
  5
7C3
330
1F
100
AcDbEntity
  8
izolace
100
AcDbHatch
 10
0.0
 20
0.0
 30
0.0
210
0.0
220
0.0
230
1.0
  2
SOLID
 70
     1
 71
     0
 91
        1
 92
        7
 72
     0
 73
     1
 93
        4
 10
1384.487492308399
 20
121.5588401396602
 10
1360.845759598564
 20
121.5588401396602
 10
1360.84575959856
 20
118.5588401396602
 10
1384.487492308399
 20
118.5588401396602
 97
        0
 75
     0
 76
     1
 47
0.1901250437635136
 98
        1
 10
1370.203554356903
 20
120.7420285885804
  0
HATCH
  5
7C4
330
1F
100
AcDbEntity
  8
izolace
100
AcDbHatch
 10
0.0
 20
0.0
 30
0.0
210
0.0
220
0.0
230
1.0
  2
SOLID
 70
     1
 71
     0
 91
        1
 92
        7
 72
     0
 73
     1
 93
        4
 10
1431.770957728069
 20
121.5588401396602
 10
1408.129225018234
 20
121.5588401396602
 10
1408.12922501823
 20
118.5588401396602
 10
1431.770957728069
 20
118.5588401396602
 97
        0
 75
     0
 76
     1
 47
0.1901250437635136
 98
        1
 10
1417.487019776574
 20
120.7420285885804
  0
LWPOLYLINE
  5
7C5
330
1F
100
AcDbEntity
  8
izolace
100
AcDbPolyline
 90
        4
 70
     1
 43
0.0
 10
1431.770957728065
 20
121.5588401396602
 10
1408.12922501823
 20
121.5588401396602
 10
1408.12922501823
 20
118.5588401396602
 10
1431.770957728065
 20
118.5588401396602
  0
LINE
  5
7C6
330
1F
100
AcDbEntity
  8
POPIS
100
AcDbLine
 10
1318.092656077533
 20
207.6008602119129
 30
0.0
 11
1393.785169657101
 21
257.8522988928473
 31
0.0
  0
INSERT
  5
7C7
330
1F
100
AcDbEntity
  8
POPIS
100
AcDbBlockReference
  2
E_PUNKT
 10
1322.110514488195
 20
138.9565714060075
 30
0.0
 50
270.0
  0
HATCH
  5
7C8
330
1F
100
AcDbEntity
  8
STAVBA OBRYS
100
AcDbHatch
 10
0.0
 20
0.0
 30
0.0
210
0.0
220
0.0
230
1.0
  2
AR-CONC
 70
     0
 71
     0
 91
        1
 92
        7
 72
     0
 73
     1
 93
        5
 10
1303.562294178893
 20
118.558840139661
 10
1313.56229417889
 20
118.558840139661
 10
1313.56229417889
 20
121.5588401396602
 10
1313.562294178893
 20
141.1082095634168
 10
1303.562294178893
 20
145.990268857605
 97
        0
 75
     0
 76
     1
 52
90.0
 41
0.1
 77
     0
 78
    13
 53
140.0
 43
-26383.82917294729
 44
3045.278070134453
 45
1.593908553890309
 46
18.21846689960039
 79
     2
 49
1.905
 49
-20.95499999999999
 53
85.00000000000001
 43
-26383.82917294729
 44
3045.278070134453
 45
-19.10566428821798
 46
-3.524282597566696
 79
     2
 49
1.524
 49
-16.764
 53
190.4509999999999
 43
-26383.6963479473
 44
3046.796270134453
 45
-17.51166878202917
 46
14.69425016659592
 79
     2
 49
1.618999999999999
 49
-17.809
 53
136.1841999999998
 43
-26388.90917294729
 44
3045.278070134453
 45
4.204232793272717
 46
27.10790408921299
 79
     2
 49
2.857499999999998
 49
-31.4325
 53
186.6355999999999
 43
-26388.55882294729
 44
3047.537060134454
 45
-24.74255558900492
 46
23.74042344662371
 79
     2
 49
2.428499999999999
 49
-26.71349999999999
 53
81.18400000000006
 43
-26388.90917294729
 44
3045.278070134453
 45
-24.74251178605976
 46
23.74046058139338
 79
     2
 49
2.286
 49
-25.146
 53
111.0
 43
-26387.63917294729
 44
3047.818070134453
 45
10.22655185167625
 46
15.16148798353833
 79
     2
 49
1.905
 49
-20.95499999999999
 53
56.00000000000004
 43
-26387.63917294729
 44
3047.818070134453
 45
-18.41879661223192
 46
6.180202834764706
 79
     2
 49
1.523999999999999
 49
-16.76399999999999
 53
161.4514
 43
-26386.78696294729
 44
3049.081520134452
 45
-8.192285771605741
 46
21.34164907701245
 79
     2
 49
1.618999999999997
 49
-17.80899999999996
 53
127.5
 43
-26383.82917294729
 44
3045.278070134453
 45
-8.455503887315311
 46
0.3088603250591822
 79
     6
 49
0.0
 49
-16.5608
 49
0.0
 49
-17.018
 49
0.0
 49
-16.8275
 53
97.49999999999992
 43
-26383.82917294729
 44
3045.278070134453
 45
-10.01805748181195
 46
6.681966251030575
 79
     6
 49
0.0
 49
-9.702799999999999
 49
0.0
 49
-16.1798
 49
0.0
 49
-6.413499999999999
 53
57.5
 43
-26383.82917294729
 44
3039.613870134453
 45
0.5728743992673473
 46
13.55905951668713
 79
     6
 49
0.0
 49
-6.349999999999999
 49
0.0
 49
-19.812
 49
0.0
 49
-26.289
 53
47.5
 43
-26383.82917294729
 44
3037.073870134453
 45
-2.542649103333299
 46
14.8129181386018
 79
     6
 49
0.0
 49
-8.255
 49
0.0
 49
-13.1572
 49
0.0
 49
-18.669
 47
0.415434097446913
 98
        1
 10
1306.147777562488
 20
126.4589495394287
  0
LINE
  5
7C9
330
1F
100
AcDbEntity
  8
nášlap_vrstvy
100
AcDbLine
 10
1314.213996820141
 20
193.627660614606
 30
0.0
 11
1344.213996820141
 21
193.627660614606
 31
0.0
  0
LINE
  5
7CA
330
1F
100
AcDbEntity
  8
nášlap_vrstvy
100
AcDbLine
 10
1344.213996820141
 20
193.627660614606
 30
0.0
 11
1344.213996820141
 21
195.627660614606
 31
0.0
  0
LINE
  5
7CB
330
1F
100
AcDbEntity
  8
nášlap_vrstvy
100
AcDbLine
 10
1344.213996820141
 20
195.627660614606
 30
0.0
 11
1316.213996820141
 21
195.627660614606
 31
0.0
  0
LINE
  5
7CC
330
1F
100
AcDbEntity
  8
nášlap_vrstvy
100
AcDbLine
 10
1316.213996820141
 20
195.627660614606
 30
0.0
 11
1316.213996820141
 21
223.627660614606
 31
0.0
  0
LINE
  5
7CD
330
1F
100
AcDbEntity
  8
nášlap_vrstvy
100
AcDbLine
 10
1316.213996820141
 20
223.627660614606
 30
0.0
 11
1314.213996820141
 21
223.627660614606
 31
0.0
  0
LINE
  5
7CE
330
1F
100
AcDbEntity
  8
nášlap_vrstvy
100
AcDbLine
 10
1314.213996820141
 20
223.627660614606
 30
0.0
 11
1314.213996820141
 21
193.627660614606
 31
0.0
  0
INSERT
  5
7CF
330
1F
100
AcDbEntity
  8
POPIS
100
AcDbBlockReference
  2
E_PUNKT
 10
1317.548054030063
 20
207.179978418427
 30
0.0
 50
270.0
  0
TEXT
  5
7D0
330
1F
100
AcDbEntity
  8
POPIS
100
AcDbText
 10
1045.219444745551
 20
453.5942981838874
 30
0.0
 40
35.0
  1
SVISLÝ ŘEZ
 41
0.85
  7
SIMPLEX7
100
AcDbText
  0
TEXT
  5
7D1
330
1F
100
AcDbEntity
  8
POPIS
100
AcDbText
 10
1378.940685735411
 20
266.701659965571
 30
0.0
 40
25.0
  1
01
 41
0.85
  7
SIMPLEX7
100
AcDbText
  0
LWPOLYLINE
  5
7DC
330
1F
100
AcDbEntity
  8
nášlap_vrstvy
100
AcDbPolyline
 90
        4
 70
     1
 43
0.0
 10
2013.304173961795
 20
185.5588401396602
 10
1663.433234070344
 20
185.5588401396602
 10
1663.433234070344
 20
187.0588401396601
 10
2013.304173961795
 20
187.0588401396601
  0
HATCH
  5
7DD
330
1F
100
AcDbEntity
  8
izolace
100
AcDbHatch
 10
0.0
 20
0.0
 30
0.0
210
0.0
220
0.0
230
1.0
  2
SOLID
 70
     1
 71
     0
 91
        1
 92
        7
 72
     0
 73
     1
 93
        4
 10
1762.755215665762
 20
121.5588401396602
 10
1739.113482955927
 20
121.5588401396602
 10
1739.113482955923
 20
118.5588401396602
 10
1762.755215665762
 20
118.5588401396602
 97
        0
 75
     0
 76
     1
 47
0.1901250437635136
 98
        1
 10
1748.471277714267
 20
120.7420285885804
  0
LWPOLYLINE
  5
7DE
330
1F
100
AcDbEntity
  8
STAVBA OBRYS
100
AcDbPolyline
 90
        4
 70
     1
 43
0.0
 10
1762.755215665758
 20
121.5588401396602
 10
1739.113482955923
 20
121.5588401396602
 10
1739.113482955923
 20
118.5588401396602
 10
1762.755215665758
 20
118.5588401396602
  0
LWPOLYLINE
  5
7E1
330
1F
100
AcDbEntity
  8
STAVBA OBRYS
100
AcDbPolyline
 90
        4
 70
     1
 43
0.0
 10
1609.083953051831
 20
187.0588401396601
 10
1597.263086696916
 20
187.0588401396601
 10
1597.263086696916
 20
185.5588401396602
 10
1609.083953051831
 20
185.5588401396602
  0
HATCH
  5
7E2
330
1F
100
AcDbEntity
  8
nášlap_vrstvy
100
AcDbHatch
 10
0.0
 20
0.0
 30
0.0
210
0.0
220
0.0
230
1.0
  2
SOLID
 70
     1
 71
     0
 91
        1
 92
        7
 72
     0
 73
     1
 93
        4
 10
1609.083953051835
 20
187.0588401396601
 10
1597.263086696916
 20
187.0588401396601
 10
1597.263086696916
 20
185.5588401396602
 10
1609.083953051835
 20
185.5588401396602
 97
        0
 75
     0
 76
     1
 47
0.1901250437635136
 98
        1
 10
1601.941984076085
 20
186.6504343641203
  0
HATCH
  5
7E3
330
1F
100
AcDbEntity
  8
izolace
100
AcDbHatch
 10
0.0
 20
0.0
 30
0.0
210
0.0
220
0.0
230
1.0
  2
SOLID
 70
     1
 71
     0
 91
        1
 92
        7
 72
     0
 73
     1
 93
        4
 10
1620.904819406751
 20
121.5588401396602
 10
1597.263086696916
 20
121.5588401396602
 10
1597.263086696912
 20
118.5588401396602
 10
1620.904819406751
 20
118.5588401396602
 97
        0
 75
     0
 76
     1
 47
0.1901250437635136
 98
        1
 10
1606.620881455256
 20
120.7420285885804
  0
LWPOLYLINE
  5
7E4
330
1F
100
AcDbEntity
  8
izolace
100
AcDbPolyline
 90
        4
 70
     1
 43
0.0
 10
1620.904819406747
 20
121.5588401396602
 10
1597.263086696912
 20
121.5588401396602
 10
1597.263086696912
 20
118.5588401396602
 10
1620.904819406747
 20
118.5588401396602
  0
INSERT
  5
7E5
330
1F
100
AcDbEntity
  8
POPIS
100
AcDbBlockReference
  2
E_PUNKT
 10
1569.555816140535
 20
190.8195796194062
 30
0.0
 50
270.0
  0
LINE
  5
7E6
330
1F
100
AcDbEntity
  8
POPIS
100
AcDbLine
 10
1569.584884471409
 20
257.8522988928473
 30
0.0
 11
1569.584884471409
 21
192.4402430914673
 31
0.0
  0
LWPOLYLINE
  5
7E7
330
1F
100
AcDbEntity
  8
nášlap_vrstvy
100
AcDbPolyline
 90
        4
 70
     1
 43
0.0
 10
1585.442220342
 20
187.0588401396601
 10
1573.62135398708
 20
187.0588401396601
 10
1573.62135398708
 20
185.5588401396602
 10
1585.442220342
 20
185.5588401396602
  0
HATCH
  5
7E8
330
1F
100
AcDbEntity
  8
nášlap_vrstvy
100
AcDbHatch
 10
0.0
 20
0.0
 30
0.0
210
0.0
220
0.0
230
1.0
  2
SOLID
 70
     1
 71
     0
 91
        1
 92
        7
 72
     0
 73
     1
 93
        4
 10
1585.442220342
 20
187.0588401396601
 10
1573.621353987084
 20
187.0588401396601
 10
1573.62135398708
 20
185.5588401396602
 10
1585.442220342
 20
185.5588401396602
 97
        0
 75
     0
 76
     1
 47
0.1901250437635136
 98
        1
 10
1578.300251366254
 20
186.6504343641203
  0
HATCH
  5
7E9
330
1F
100
AcDbEntity
  8
nášlap_vrstvy
100
AcDbHatch
 10
0.0
 20
0.0
 30
0.0
210
0.0
220
0.0
230
1.0
  2
SOLID
 70
     1
 71
     0
 91
        1
 92
        7
 72
     0
 73
     1
 93
        4
 10
1561.800487632165
 20
187.0588401396601
 10
1549.979621277245
 20
187.0588401396601
 10
1549.979621277245
 20
185.5588401396602
 10
1561.800487632165
 20
185.5588401396602
 97
        0
 75
     0
 76
     1
 47
0.1901250437635136
 98
        1
 10
1554.658518656415
 20
186.6504343641203
  0
LWPOLYLINE
  5
7EA
330
1F
100
AcDbEntity
  8
nášlap_vrstvy
100
AcDbPolyline
 90
        4
 70
     1
 43
0.0
 10
1538.158754922329
 20
187.0588401396601
 10
1526.33788856741
 20
187.0588401396601
 10
1526.33788856741
 20
185.5588401396602
 10
1538.158754922329
 20
185.5588401396602
  0
HATCH
  5
7EB
330
1F
100
AcDbEntity
  8
nášlap_vrstvy
100
AcDbHatch
 10
0.0
 20
0.0
 30
0.0
210
0.0
220
0.0
230
1.0
  2
SOLID
 70
     1
 71
     0
 91
        1
 92
        7
 72
     0
 73
     1
 93
        4
 10
1538.158754922329
 20
187.0588401396601
 10
1526.337888567414
 20
187.0588401396601
 10
1526.33788856741
 20
185.5588401396602
 10
1538.158754922329
 20
185.5588401396602
 97
        0
 75
     0
 76
     1
 47
0.1901250437635136
 98
        1
 10
1531.016785946583
 20
186.6504343641203
  0
LWPOLYLINE
  5
7EC
330
1F
100
AcDbEntity
  8
nášlap_vrstvy
100
AcDbPolyline
 90
        4
 70
     1
 43
0.0
 10
1514.517022212491
 20
187.0588401396601
 10
1502.696155857575
 20
187.0588401396601
 10
1502.696155857575
 20
185.5588401396602
 10
1514.517022212491
 20
185.5588401396602
  0
HATCH
  5
7ED
330
1F
100
AcDbEntity
  8
nášlap_vrstvy
100
AcDbHatch
 10
0.0
 20
0.0
 30
0.0
210
0.0
220
0.0
230
1.0
  2
SOLID
 70
     1
 71
     0
 91
        1
 92
        7
 72
     0
 73
     1
 93
        4
 10
1514.517022212494
 20
187.0588401396601
 10
1502.696155857575
 20
187.0588401396601
 10
1502.696155857575
 20
185.5588401396602
 10
1514.517022212494
 20
185.5588401396602
 97
        0
 75
     0
 76
     1
 47
0.1901250437635136
 98
        1
 10
1507.375053236745
 20
186.6504343641203
  0
LWPOLYLINE
  5
7EE
330
1F
100
AcDbEntity
  8
nášlap_vrstvy
100
AcDbPolyline
 90
        4
 70
     1
 43
0.0
 10
1490.875289502659
 20
187.0588401396601
 10
1479.05442314774
 20
187.0588401396601
 10
1479.05442314774
 20
185.5588401396602
 10
1490.875289502659
 20
185.5588401396602
  0
HATCH
  5
7EF
330
1F
100
AcDbEntity
  8
nášlap_vrstvy
100
AcDbHatch
 10
0.0
 20
0.0
 30
0.0
210
0.0
220
0.0
230
1.0
  2
SOLID
 70
     1
 71
     0
 91
        1
 92
        7
 72
     0
 73
     1
 93
        4
 10
1490.875289502659
 20
187.0588401396601
 10
1479.054423147743
 20
187.0588401396601
 10
1479.05442314774
 20
185.5588401396602
 10
1490.875289502659
 20
185.5588401396602
 97
        0
 75
     0
 76
     1
 47
0.1901250437635136
 98
        1
 10
1483.733320526913
 20
186.6504343641203
  0
LWPOLYLINE
  5
7F0
330
1F
100
AcDbEntity
  8
nášlap_vrstvy
100
AcDbPolyline
 90
        4
 70
     1
 43
0.0
 10
1467.23355679282
 20
187.0588401396601
 10
1455.412690437904
 20
187.0588401396601
 10
1455.412690437904
 20
185.5588401396602
 10
1467.23355679282
 20
185.5588401396602
  0
HATCH
  5
7F1
330
1F
100
AcDbEntity
  8
nášlap_vrstvy
100
AcDbHatch
 10
0.0
 20
0.0
 30
0.0
210
0.0
220
0.0
230
1.0
  2
SOLID
 70
     1
 71
     0
 91
        1
 92
        7
 72
     0
 73
     1
 93
        4
 10
1467.233556792824
 20
187.0588401396601
 10
1455.412690437904
 20
187.0588401396601
 10
1455.412690437904
 20
185.5588401396602
 10
1467.233556792824
 20
185.5588401396602
 97
        0
 75
     0
 76
     1
 47
0.1901250437635136
 98
        1
 10
1460.091587817074
 20
186.6504343641203
  0
HATCH
  5
7F2
330
1F
100
AcDbEntity
  8
izolace
100
AcDbHatch
 10
0.0
 20
0.0
 30
0.0
210
0.0
220
0.0
230
1.0
  2
SOLID
 70
     1
 71
     0
 91
        1
 92
        7
 72
     0
 73
     1
 93
        4
 10
1479.05442314774
 20
121.5588401396602
 10
1455.412690437904
 20
121.5588401396602
 10
1455.412690437901
 20
118.5588401396602
 10
1479.05442314774
 20
118.5588401396602
 97
        0
 75
     0
 76
     1
 47
0.1901250437635136
 98
        1
 10
1464.770485196244
 20
120.7420285885804
  0
LWPOLYLINE
  5
7F3
330
1F
100
AcDbEntity
  8
izolace
100
AcDbPolyline
 90
        4
 70
     1
 43
0.0
 10
1479.054423147736
 20
121.5588401396602
 10
1455.412690437901
 20
121.5588401396602
 10
1455.412690437901
 20
118.5588401396602
 10
1479.054423147736
 20
118.5588401396602
  0
HATCH
  5
7F4
330
1F
100
AcDbEntity
  8
izolace
100
AcDbHatch
 10
0.0
 20
0.0
 30
0.0
210
0.0
220
0.0
230
1.0
  2
SOLID
 70
     1
 71
     0
 91
        1
 92
        7
 72
     0
 73
     1
 93
        4
 10
1526.33788856741
 20
121.5588401396602
 10
1502.696155857575
 20
121.5588401396602
 10
1502.696155857571
 20
118.5588401396602
 10
1526.33788856741
 20
118.5588401396602
 97
        0
 75
     0
 76
     1
 47
0.1901250437635136
 98
        1
 10
1512.053950615915
 20
120.7420285885804
  0
LWPOLYLINE
  5
7F5
330
1F
100
AcDbEntity
  8
izolace
100
AcDbPolyline
 90
        4
 70
     1
 43
0.0
 10
1526.337888567406
 20
121.5588401396602
 10
1502.696155857571
 20
121.5588401396602
 10
1502.696155857571
 20
118.5588401396602
 10
1526.337888567406
 20
118.5588401396602
  0
HATCH
  5
7F6
330
1F
100
AcDbEntity
  8
izolace
100
AcDbHatch
 10
0.0
 20
0.0
 30
0.0
210
0.0
220
0.0
230
1.0
  2
SOLID
 70
     1
 71
     0
 91
        1
 92
        7
 72
     0
 73
     1
 93
        4
 10
1573.62135398708
 20
121.5588401396602
 10
1549.979621277245
 20
121.5588401396602
 10
1549.979621277242
 20
118.5588401396602
 10
1573.62135398708
 20
118.5588401396602
 97
        0
 75
     0
 76
     1
 47
0.1901250437635136
 98
        1
 10
1559.337416035585
 20
120.7420285885804
  0
LWPOLYLINE
  5
7F7
330
1F
100
AcDbEntity
  8
izolace
100
AcDbPolyline
 90
        4
 70
     1
 43
0.0
 10
1573.621353987077
 20
121.5588401396602
 10
1549.979621277242
 20
121.5588401396602
 10
1549.979621277242
 20
118.5588401396602
 10
1573.621353987077
 20
118.5588401396602
  0
LINE
  5
7F8
330
1F
100
AcDbEntity
  8
CETRIS
100
AcDbLine
 10
1658.107022991242
 20
185.5588401396606
 30
0.0
 11
1658.107022991242
 21
173.5588401396606
 31
0.0
  0
HATCH
  5
7F9
330
1F
100
AcDbEntity
  8
nášlap_vrstvy
100
AcDbHatch
 10
0.0
 20
0.0
 30
0.0
210
0.0
220
0.0
230
1.0
  2
SOLID
 70
     1
 71
     0
 91
        1
 92
        7
 72
     0
 73
     1
 93
        4
 10
1746.179298554769
 20
187.0588401396601
 10
1734.358432199853
 20
187.0588401396601
 10
1734.358432199849
 20
185.5588401396602
 10
1746.179298554769
 20
185.5588401396602
 97
        0
 75
     0
 76
     1
 47
0.1901250437635136
 98
        1
 10
1739.037329579023
 20
186.6504343641203
  0
LWPOLYLINE
  5
7FA
330
1F
100
AcDbEntity
  8
nášlap_vrstvy
100
AcDbPolyline
 90
        4
 70
     1
 43
0.0
 10
1746.179298554769
 20
187.0588401396601
 10
1734.358432199849
 20
187.0588401396601
 10
1734.358432199849
 20
185.5588401396602
 10
1746.179298554769
 20
185.5588401396602
  0
LWPOLYLINE
  5
7FB
330
1F
100
AcDbEntity
  8
nášlap_vrstvy
100
AcDbPolyline
 90
        4
 70
     1
 43
0.0
 10
1675.254100425259
 20
187.0588401396601
 10
1663.433234070344
 20
187.0588401396601
 10
1663.433234070344
 20
185.5588401396602
 10
1675.254100425259
 20
185.5588401396602
  0
LWPOLYLINE
  5
7FC
330
1F
100
AcDbEntity
  8
nášlap_vrstvy
100
AcDbPolyline
 90
        4
 70
     1
 43
0.0
 10
1698.895833135098
 20
187.0588401396601
 10
1687.074966780179
 20
187.0588401396601
 10
1687.074966780179
 20
185.5588401396602
 10
1698.895833135098
 20
185.5588401396602
  0
HATCH
  5
7FD
330
1F
100
AcDbEntity
  8
nášlap_vrstvy
100
AcDbHatch
 10
0.0
 20
0.0
 30
0.0
210
0.0
220
0.0
230
1.0
  2
SOLID
 70
     1
 71
     0
 91
        1
 92
        7
 72
     0
 73
     1
 93
        4
 10
1675.254100425259
 20
187.0588401396601
 10
1663.433234070344
 20
187.0588401396601
 10
1663.433234070344
 20
185.5588401396602
 10
1675.254100425263
 20
185.5588401396602
 97
        0
 75
     0
 76
     1
 47
0.1901250437635136
 98
        3
 10
1689.375845557355
 20
186.175117674966
 10
1671.207750143683
 20
186.0800543371355
 10
1669.210214049071
 20
186.3652443506273
  0
HATCH
  5
7FE
330
1F
100
AcDbEntity
  8
nášlap_vrstvy
100
AcDbHatch
 10
0.0
 20
0.0
 30
0.0
210
0.0
220
0.0
230
1.0
  2
SOLID
 70
     1
 71
     0
 91
        1
 92
        7
 72
     0
 73
     1
 93
        4
 10
1698.895833135098
 20
187.0588401396601
 10
1687.074966780183
 20
187.0588401396601
 10
1687.074966780179
 20
185.5588401396602
 10
1698.895833135098
 20
185.5588401396602
 97
        0
 75
     0
 76
     1
 47
0.1901250437635136
 98
        1
 10
1691.753864159353
 20
186.6504343641203
  0
HATCH
  5
7FF
330
1F
100
AcDbEntity
  8
nášlap_vrstvy
100
AcDbHatch
 10
0.0
 20
0.0
 30
0.0
210
0.0
220
0.0
230
1.0
  2
SOLID
 70
     1
 71
     0
 91
        1
 92
        7
 72
     0
 73
     1
 93
        4
 10
1722.537565844934
 20
187.0588401396601
 10
1710.716699490014
 20
187.0588401396601
 10
1710.716699490014
 20
185.5588401396602
 10
1722.537565844934
 20
185.5588401396602
 97
        0
 75
     0
 76
     1
 47
0.1901250437635136
 98
        1
 10
1715.395596869184
 20
186.6504343641203
  0
LWPOLYLINE
  5
800
330
1F
100
AcDbEntity
  8
nášlap_vrstvy
100
AcDbPolyline
 90
        4
 70
     1
 43
0.0
 10
1722.53756584493
 20
187.0588401396601
 10
1710.716699490014
 20
187.0588401396601
 10
1710.716699490014
 20
185.5588401396602
 10
1722.53756584493
 20
185.5588401396602
  0
LWPOLYLINE
  5
801
330
1F
100
AcDbEntity
  8
nášlap_vrstvy
100
AcDbPolyline
 90
        4
 70
     1
 43
0.0
 10
1656.367418471502
 20
187.0588401396601
 10
1644.546552116586
 20
187.0588401396601
 10
1644.546552116586
 20
185.5588401396602
 10
1656.367418471502
 20
185.5588401396602
  0
HATCH
  5
802
330
1F
100
AcDbEntity
  8
nášlap_vrstvy
100
AcDbHatch
 10
0.0
 20
0.0
 30
0.0
210
0.0
220
0.0
230
1.0
  2
SOLID
 70
     1
 71
     0
 91
        1
 92
        7
 72
     0
 73
     1
 93
        4
 10
1656.367418471505
 20
187.0588401396601
 10
1644.546552116586
 20
187.0588401396601
 10
1644.546552116586
 20
185.5588401396602
 10
1656.367418471505
 20
185.5588401396602
 97
        0
 75
     0
 76
     1
 47
0.1901250437635136
 98
        1
 10
1649.225449495756
 20
186.6504343641203
  0
LWPOLYLINE
  5
803
330
1F
100
AcDbEntity
  8
nášlap_vrstvy
100
AcDbPolyline
 90
        4
 70
     1
 43
0.0
 10
1632.72568576167
 20
187.0588401396601
 10
1620.904819406751
 20
187.0588401396601
 10
1620.904819406751
 20
185.5588401396602
 10
1632.72568576167
 20
185.5588401396602
  0
HATCH
  5
804
330
1F
100
AcDbEntity
  8
nášlap_vrstvy
100
AcDbHatch
 10
0.0
 20
0.0
 30
0.0
210
0.0
220
0.0
230
1.0
  2
SOLID
 70
     1
 71
     0
 91
        1
 92
        7
 72
     0
 73
     1
 93
        4
 10
1632.72568576167
 20
187.0588401396601
 10
1620.904819406755
 20
187.0588401396601
 10
1620.904819406751
 20
185.5588401396602
 10
1632.72568576167
 20
185.5588401396602
 97
        0
 75
     0
 76
     1
 47
0.1901250437635136
 98
        1
 10
1625.583716785924
 20
186.6504343641203
  0
LINE
  5
805
330
1F
100
AcDbEntity
  8
SPOJOVACÍ
  6
DASHED
100
AcDbLine
 10
1607.270839010773
 20
181.9699800738638
 30
0.0
 11
1608.209758459357
 21
183.1532008931046
 31
0.0
  0
LINE
  5
806
330
1F
100
AcDbEntity
  8
SPOJOVACÍ
  6
DASHED
100
AcDbLine
 10
1606.670112878608
 20
180.5843902083546
 30
0.0
 11
1607.270839010773
 21
181.9699800738638
 31
0.0
  0
LINE
  5
807
330
1F
100
AcDbEntity
  8
SPOJOVACÍ
  6
DASHED
100
AcDbLine
 10
1606.447689245542
 20
179.091234813994
 30
0.0
 11
1606.670112878608
 21
180.5843902083546
 31
0.0
  0
LINE
  5
808
330
1F
100
AcDbEntity
  8
SPOJOVACÍ
  6
DASHED
100
AcDbLine
 10
1610.123148674523
 20
185.5588401396602
 30
0.0
 11
1610.123148674523
 21
184.3829118984633
 31
0.0
  0
LINE
  5
809
330
1F
100
AcDbEntity
  8
SPOJOVACÍ
  6
DASHED
100
AcDbLine
 10
1600.126847052801
 20
185.5588401396602
 30
0.0
 11
1610.123148674523
 21
185.5588401396602
 31
0.0
  0
LINE
  5
80A
330
1F
100
AcDbEntity
  8
SPOJOVACÍ
  6
DASHED
100
AcDbLine
 10
1600.126847052801
 20
185.5588401396602
 30
0.0
 11
1600.126847052801
 21
184.3829118984633
 31
0.0
  0
LINE
  5
80B
330
1F
100
AcDbEntity
  8
SPOJOVACÍ
  6
DASHED
100
AcDbLine
 10
1600.126847052801
 20
184.3829118984633
 30
0.0
 11
1610.123148674523
 21
184.3829118984633
 31
0.0
  0
LINE
  5
80C
330
1F
100
AcDbEntity
  8
SPOJOVACÍ
  6
DASHED
100
AcDbLine
 10
1609.422149592079
 20
184.0529227333376
 30
0.0
 11
1610.123148674523
 21
184.3829118984633
 31
0.0
  0
LINE
  5
80D
330
1F
100
AcDbEntity
  8
SPOJOVACÍ
  6
DASHED
100
AcDbLine
 10
1608.209758459357
 20
183.1532008931046
 30
0.0
 11
1609.422149592079
 21
184.0529227333376
 31
0.0
  0
LINE
  5
80E
330
1F
100
AcDbEntity
  8
SPOJOVACÍ
  6
DASHED
100
AcDbLine
 10
1603.737584853777
 20
179.8624249626539
 30
0.0
 11
1603.802306486061
 21
179.091234813994
 31
0.0
  0
LINE
  5
80F
330
1F
100
AcDbEntity
  8
SPOJOVACÍ
  6
DASHED
100
AcDbLine
 10
1603.318261606764
 20
181.313648032363
 30
0.0
 11
1603.737584853777
 21
179.8624249626539
 31
0.0
  0
LINE
  5
810
330
1F
100
AcDbEntity
  8
SPOJOVACÍ
  6
DASHED
100
AcDbLine
 10
1602.537955737032
 20
182.6062575250946
 30
0.0
 11
1603.318261606764
 21
181.313648032363
 31
0.0
  0
LINE
  5
811
330
1F
100
AcDbEntity
  8
SPOJOVACÍ
  6
DASHED
100
AcDbLine
 10
1601.449538434681
 20
183.6536540747187
 30
0.0
 11
1602.537955737032
 21
182.6062575250946
 31
0.0
  0
LINE
  5
812
330
1F
100
AcDbEntity
  8
SPOJOVACÍ
  6
DASHED
100
AcDbLine
 10
1600.126847052801
 20
184.3829118984633
 30
0.0
 11
1601.449538434681
 21
183.6536540747187
 31
0.0
  0
LINE
  5
813
330
1F
100
AcDbEntity
  8
SPOJOVACÍ
  6
DASHED
100
AcDbLine
 10
1606.447689245542
 20
179.091234813994
 30
0.0
 11
1606.447689245542
 21
174.2471397186439
 31
0.0
  0
LINE
  5
814
330
1F
100
AcDbEntity
  8
SPOJOVACÍ
  6
DASHED
100
AcDbLine
 10
1603.802306486061
 20
179.091234813994
 30
0.0
 11
1603.802306486061
 21
175.1340995469075
 31
0.0
  0
LINE
  5
815
330
1F
100
AcDbEntity
  8
SPOJOVACÍ
  6
DASHED
100
AcDbLine
 10
1603.802306486061
 20
174.5506932879145
 30
0.0
 11
1603.802306486061
 21
172.0821555539863
 31
0.0
  0
LINE
  5
816
330
1F
100
AcDbEntity
  8
SPOJOVACÍ
  6
DASHED
100
AcDbLine
 10
1603.802306486061
 20
171.4905451444978
 30
0.0
 11
1603.802306486061
 21
169.0201842659229
 31
0.0
  0
LINE
  5
817
330
1F
100
AcDbEntity
  8
SPOJOVACÍ
  6
DASHED
100
AcDbLine
 10
1603.802306486061
 20
168.4376895791176
 30
0.0
 11
1603.802306486061
 21
165.960036122506
 31
0.0
  0
LINE
  5
818
330
1F
100
AcDbEntity
  8
SPOJOVACÍ
  6
DASHED
100
AcDbLine
 10
1606.447689245542
 20
173.6555293091553
 30
0.0
 11
1606.447689245542
 21
171.186991575227
 31
0.0
  0
LINE
  5
819
330
1F
100
AcDbEntity
  8
SPOJOVACÍ
  6
DASHED
100
AcDbLine
 10
1606.447689245542
 20
170.6026737437754
 30
0.0
 11
1606.447689245542
 21
168.1250202871637
 31
0.0
  0
LINE
  5
81A
330
1F
100
AcDbEntity
  8
SPOJOVACÍ
  6
DASHED
100
AcDbLine
 10
1606.447689245542
 20
167.5425256003585
 30
0.0
 11
1606.447689245542
 21
165.0721647217835
 31
0.0
  0
LINE
  5
81B
330
1F
100
AcDbEntity
  8
SPOJOVACÍ
  6
DASHED
100
AcDbLine
 10
1603.802306486061
 20
165.3675141405658
 30
0.0
 11
1603.802306486061
 21
162.8998879788253
 31
0.0
  0
LINE
  5
81C
330
1F
100
AcDbEntity
  8
SPOJOVACÍ
  6
DASHED
100
AcDbLine
 10
1603.802306486061
 20
162.3155701473737
 30
0.0
 11
1603.802306486061
 21
161.0931517203229
 31
0.0
  0
LINE
  5
81D
330
1F
100
AcDbEntity
  8
SPOJOVACÍ
  6
DASHED
100
AcDbLine
 10
1606.447689245542
 20
164.4832890291294
 30
0.0
 11
1606.447689245542
 21
162.014751295201
 31
0.0
  0
LINE
  5
81E
330
1F
100
AcDbEntity
  8
SPOJOVACÍ
  6
DASHED
100
AcDbLine
 10
1606.447689245542
 20
161.4231408854488
 30
0.0
 11
1606.447689245542
 21
161.0931517203229
 31
0.0
  0
LINE
  5
81F
330
1F
100
AcDbEntity
  8
SPOJOVACÍ
  6
DASHED
100
AcDbLine
 10
1603.802306486061
 20
161.0931517203229
 30
0.0
 11
1603.949069622729
 21
159.9199581959531
 31
0.0
  0
LINE
  5
820
330
1F
100
AcDbEntity
  8
SPOJOVACÍ
  6
DASHED
100
AcDbLine
 10
1605.124997863662
 20
150.5088859786685
 30
0.0
 11
1605.472306905169
 21
153.2882698599116
 31
0.0
  0
LINE
  5
821
330
1F
100
AcDbEntity
  8
SPOJOVACÍ
  6
DASHED
100
AcDbLine
 10
1604.024730123405
 20
159.3119394852168
 30
0.0
 11
1604.309140675934
 21
157.0366550748734
 31
0.0
  0
LINE
  5
822
330
1F
100
AcDbEntity
  8
SPOJOVACÍ
  6
DASHED
100
AcDbLine
 10
1604.386624319915
 20
156.418609069002
 30
0.0
 11
1604.671034868166
 21
154.1442362308537
 31
0.0
  0
LINE
  5
823
330
1F
100
AcDbEntity
  8
SPOJOVACÍ
  6
DASHED
100
AcDbLine
 10
1604.746695368842
 20
153.5362175201173
 30
0.0
 11
1605.124997863662
 21
150.5088859786685
 31
0.0
  0
LINE
  5
824
330
1F
100
AcDbEntity
  8
SPOJOVACÍ
  6
DASHED
100
AcDbLine
 10
1605.542497971648
 20
153.8461520952371
 30
0.0
 11
1605.805030787393
 21
155.948237772522
 31
0.0
  0
LINE
  5
825
330
1F
100
AcDbEntity
  8
SPOJOVACÍ
  6
DASHED
100
AcDbLine
 10
1605.875221849593
 20
156.5088547246816
 30
0.0
 11
1606.136843095824
 21
158.602736251478
 31
0.0
  0
LINE
  5
826
330
1F
100
AcDbEntity
  8
SPOJOVACÍ
  6
DASHED
100
AcDbLine
 10
1606.207034162304
 20
159.1615300592624
 30
0.0
 11
1606.447689245542
 21
161.0931517203229
 31
0.0
  0
LINE
  5
827
330
1F
100
AcDbEntity
  8
SPOJOVACÍ
  6
DASHED
100
AcDbLine
 10
1602.773141381796
 20
174.9745743980058
 30
0.0
 11
1607.476854345528
 21
173.7986461570729
 31
0.0
  0
LINE
  5
828
330
1F
100
AcDbEntity
  8
SPOJOVACÍ
  6
DASHED
100
AcDbLine
 10
1602.773141381796
 20
174.9745743980058
 30
0.0
 11
1603.143239729601
 21
174.7612664846785
 31
0.0
  0
LINE
  5
829
330
1F
100
AcDbEntity
  8
SPOJOVACÍ
  6
DASHED
100
AcDbLine
 10
1602.773141381796
 20
174.9745743980058
 30
0.0
 11
1603.143239729601
 21
175.3455843158592
 31
0.0
  0
LINE
  5
82A
330
1F
100
AcDbEntity
  8
SPOJOVACÍ
  6
DASHED
100
AcDbLine
 10
1607.476854345528
 20
173.7986461570729
 30
0.0
 11
1607.106756002002
 21
173.4285478114073
 31
0.0
  0
LINE
  5
82B
330
1F
100
AcDbEntity
  8
SPOJOVACÍ
  6
DASHED
100
AcDbLine
 10
1607.476854345528
 20
173.7986461570729
 30
0.0
 11
1607.106756002002
 21
174.012865642859
 31
0.0
  0
LINE
  5
82C
330
1F
100
AcDbEntity
  8
SPOJOVACÍ
  6
DASHED
100
AcDbLine
 10
1603.143239729601
 20
174.7612664846785
 30
0.0
 11
1607.106756002002
 21
173.4285478114073
 31
0.0
  0
LINE
  5
82D
330
1F
100
AcDbEntity
  8
SPOJOVACÍ
  6
DASHED
100
AcDbLine
 10
1603.143239729601
 20
175.3455843158592
 30
0.0
 11
1607.106756002002
 21
174.012865642859
 31
0.0
  0
LINE
  5
82E
330
1F
100
AcDbEntity
  8
SPOJOVACÍ
  6
DASHED
100
AcDbLine
 10
1602.773141381796
 20
171.9171609714234
 30
0.0
 11
1607.476854345528
 21
170.7412327302193
 31
0.0
  0
LINE
  5
82F
330
1F
100
AcDbEntity
  8
SPOJOVACÍ
  6
DASHED
100
AcDbLine
 10
1602.773141381796
 20
171.9171609714234
 30
0.0
 11
1603.143239729601
 21
171.7029414856373
 31
0.0
  0
LINE
  5
830
330
1F
100
AcDbEntity
  8
SPOJOVACÍ
  6
DASHED
100
AcDbLine
 10
1602.773141381796
 20
171.9171609714234
 30
0.0
 11
1603.143239729601
 21
172.2872593170889
 31
0.0
  0
LINE
  5
831
330
1F
100
AcDbEntity
  8
SPOJOVACÍ
  6
DASHED
100
AcDbLine
 10
1607.476854345528
 20
170.7412327302193
 30
0.0
 11
1607.106756002002
 21
170.3711343848248
 31
0.0
  0
LINE
  5
832
330
1F
100
AcDbEntity
  8
SPOJOVACÍ
  6
DASHED
100
AcDbLine
 10
1607.476854345528
 20
170.7412327302193
 30
0.0
 11
1607.106756002002
 21
170.9554522160054
 31
0.0
  0
LINE
  5
833
330
1F
100
AcDbEntity
  8
SPOJOVACÍ
  6
DASHED
100
AcDbLine
 10
1603.143239729601
 20
171.7029414856373
 30
0.0
 11
1607.106756002002
 21
170.3711343848248
 31
0.0
  0
LINE
  5
834
330
1F
100
AcDbEntity
  8
SPOJOVACÍ
  6
DASHED
100
AcDbLine
 10
1603.143239729601
 20
172.2872593170889
 30
0.0
 11
1607.106756002002
 21
170.9554522160054
 31
0.0
  0
LINE
  5
835
330
1F
100
AcDbEntity
  8
SPOJOVACÍ
  6
DASHED
100
AcDbLine
 10
1603.022000616329
 20
159.7285280172711
 30
0.0
 11
1603.393010533647
 21
159.5143085314852
 31
0.0
  0
LINE
  5
836
330
1F
100
AcDbEntity
  8
SPOJOVACÍ
  6
DASHED
100
AcDbLine
 10
1603.022000616329
 20
159.7285280172711
 30
0.0
 11
1603.393010533647
 21
160.0986263629368
 31
0.0
  0
LINE
  5
837
330
1F
100
AcDbEntity
  8
SPOJOVACÍ
  6
DASHED
100
AcDbLine
 10
1607.064823676017
 20
158.7750234126126
 30
0.0
 11
1606.694725332491
 21
158.4040134944883
 31
0.0
  0
LINE
  5
838
330
1F
100
AcDbEntity
  8
SPOJOVACÍ
  6
DASHED
100
AcDbLine
 10
1607.064823676017
 20
158.7750234126126
 30
0.0
 11
1606.694725332491
 21
158.98833132594
 31
0.0
  0
LINE
  5
839
330
1F
100
AcDbEntity
  8
SPOJOVACÍ
  6
DASHED
100
AcDbLine
 10
1603.393010533647
 20
159.5143085314852
 30
0.0
 11
1606.694725332491
 21
158.4040134944883
 31
0.0
  0
LINE
  5
83A
330
1F
100
AcDbEntity
  8
SPOJOVACÍ
  6
DASHED
100
AcDbLine
 10
1603.393010533647
 20
160.0986263629368
 30
0.0
 11
1606.694725332491
 21
158.98833132594
 31
0.0
  0
LINE
  5
83B
330
1F
100
AcDbEntity
  8
SPOJOVACÍ
  6
DASHED
100
AcDbLine
 10
1603.022000616329
 20
159.7285280172711
 30
0.0
 11
1607.064823676017
 21
158.7750234126126
 31
0.0
  0
LINE
  5
83C
330
1F
100
AcDbEntity
  8
SPOJOVACÍ
  6
DASHED
100
AcDbLine
 10
1603.575324988312
 20
156.7741222580592
 30
0.0
 11
1603.945423336117
 21
156.5608143447319
 31
0.0
  0
LINE
  5
83D
330
1F
100
AcDbEntity
  8
SPOJOVACÍ
  6
DASHED
100
AcDbLine
 10
1603.575324988312
 20
156.7741222580592
 30
0.0
 11
1603.945423336117
 21
157.1451321761835
 31
0.0
  0
LINE
  5
83E
330
1F
100
AcDbEntity
  8
SPOJOVACÍ
  6
DASHED
100
AcDbLine
 10
1606.629092126415
 20
156.1533415356247
 30
0.0
 11
1606.258993782889
 21
155.7823316177713
 31
0.0
  0
LINE
  5
83F
330
1F
100
AcDbEntity
  8
SPOJOVACÍ
  6
DASHED
100
AcDbLine
 10
1606.629092126415
 20
156.1533415356247
 30
0.0
 11
1606.258993782889
 21
156.3666494489519
 31
0.0
  0
LINE
  5
840
330
1F
100
AcDbEntity
  8
SPOJOVACÍ
  6
DASHED
100
AcDbLine
 10
1603.945423336117
 20
156.5608143447319
 30
0.0
 11
1606.258993782889
 21
155.7823316177713
 31
0.0
  0
LINE
  5
841
330
1F
100
AcDbEntity
  8
SPOJOVACÍ
  6
DASHED
100
AcDbLine
 10
1603.945423336117
 20
157.1451321761835
 30
0.0
 11
1606.258993782889
 21
156.3666494489519
 31
0.0
  0
LINE
  5
842
330
1F
100
AcDbEntity
  8
SPOJOVACÍ
  6
DASHED
100
AcDbLine
 10
1603.575324988312
 20
156.7741222580592
 30
0.0
 11
1606.629092126415
 21
156.1533415356247
 31
0.0
  0
LINE
  5
843
330
1F
100
AcDbEntity
  8
SPOJOVACÍ
  6
DASHED
100
AcDbLine
 10
1604.128649364574
 20
153.820628071306
 30
0.0
 11
1604.498747708101
 21
153.6064085855271
 31
0.0
  0
LINE
  5
844
330
1F
100
AcDbEntity
  8
SPOJOVACÍ
  6
DASHED
100
AcDbLine
 10
1604.128649364574
 20
153.820628071306
 30
0.0
 11
1604.498747708101
 21
154.1907264169715
 31
0.0
  0
LINE
  5
845
330
1F
100
AcDbEntity
  8
SPOJOVACÍ
  6
DASHED
100
AcDbLine
 10
1606.239850763202
 20
153.5161629298476
 30
0.0
 11
1605.869752419676
 21
153.1451530119941
 31
0.0
  0
LINE
  5
846
330
1F
100
AcDbEntity
  8
SPOJOVACÍ
  6
DASHED
100
AcDbLine
 10
1606.239850763202
 20
153.5161629298476
 30
0.0
 11
1605.869752419676
 21
153.7294708434385
 31
0.0
  0
LINE
  5
847
330
1F
100
AcDbEntity
  8
SPOJOVACÍ
  6
DASHED
100
AcDbLine
 10
1604.498747708101
 20
153.6064085855271
 30
0.0
 11
1605.869752419676
 21
153.1451530119941
 31
0.0
  0
LINE
  5
848
330
1F
100
AcDbEntity
  8
SPOJOVACÍ
  6
DASHED
100
AcDbLine
 10
1604.498747708101
 20
154.1907264169715
 30
0.0
 11
1605.869752419676
 21
153.7294708434385
 31
0.0
  0
LINE
  5
849
330
1F
100
AcDbEntity
  8
SPOJOVACÍ
  6
DASHED
100
AcDbLine
 10
1604.128649364574
 20
153.820628071306
 30
0.0
 11
1606.239850763202
 21
153.5161629298476
 31
0.0
  0
LINE
  5
84A
330
1F
100
AcDbEntity
  8
SPOJOVACÍ
  6
DASHED
100
AcDbLine
 10
1602.773141381796
 20
168.8597475445698
 30
0.0
 11
1607.476854345528
 21
167.6838193036368
 31
0.0
  0
LINE
  5
84B
330
1F
100
AcDbEntity
  8
SPOJOVACÍ
  6
DASHED
100
AcDbLine
 10
1602.773141381796
 20
168.8597475445698
 30
0.0
 11
1603.143239729601
 21
168.6455280587837
 31
0.0
  0
LINE
  5
84C
330
1F
100
AcDbEntity
  8
SPOJOVACÍ
  6
DASHED
100
AcDbLine
 10
1602.773141381796
 20
168.8597475445698
 30
0.0
 11
1603.143239729601
 21
169.2298458902353
 31
0.0
  0
LINE
  5
84D
330
1F
100
AcDbEntity
  8
SPOJOVACÍ
  6
DASHED
100
AcDbLine
 10
1607.476854345528
 20
167.6838193036368
 30
0.0
 11
1607.106756002002
 21
167.3128093857833
 31
0.0
  0
LINE
  5
84E
330
1F
100
AcDbEntity
  8
SPOJOVACÍ
  6
DASHED
100
AcDbLine
 10
1607.476854345528
 20
167.6838193036368
 30
0.0
 11
1607.106756002002
 21
167.8971272172278
 31
0.0
  0
LINE
  5
84F
330
1F
100
AcDbEntity
  8
SPOJOVACÍ
  6
DASHED
100
AcDbLine
 10
1603.143239729601
 20
168.6455280587837
 30
0.0
 11
1607.106756002002
 21
167.3128093857833
 31
0.0
  0
LINE
  5
850
330
1F
100
AcDbEntity
  8
SPOJOVACÍ
  6
DASHED
100
AcDbLine
 10
1603.143239729601
 20
169.2298458902353
 30
0.0
 11
1607.106756002002
 21
167.8971272172278
 31
0.0
  0
LINE
  5
851
330
1F
100
AcDbEntity
  8
SPOJOVACÍ
  6
DASHED
100
AcDbLine
 10
1602.773141381796
 20
165.8023341179799
 30
0.0
 11
1607.476854345528
 21
164.6264058770469
 31
0.0
  0
LINE
  5
852
330
1F
100
AcDbEntity
  8
SPOJOVACÍ
  6
DASHED
100
AcDbLine
 10
1602.773141381796
 20
165.8023341179799
 30
0.0
 11
1603.143239729601
 21
165.5881146322011
 31
0.0
  0
LINE
  5
853
330
1F
100
AcDbEntity
  8
SPOJOVACÍ
  6
DASHED
100
AcDbLine
 10
1602.773141381796
 20
165.8023341179799
 30
0.0
 11
1603.143239729601
 21
166.1724324636455
 31
0.0
  0
LINE
  5
854
330
1F
100
AcDbEntity
  8
SPOJOVACÍ
  6
DASHED
100
AcDbLine
 10
1607.476854345528
 20
164.6264058770469
 30
0.0
 11
1607.106756002002
 21
164.2553959591935
 31
0.0
  0
LINE
  5
855
330
1F
100
AcDbEntity
  8
SPOJOVACÍ
  6
DASHED
100
AcDbLine
 10
1607.476854345528
 20
164.6264058770469
 30
0.0
 11
1607.106756002002
 21
164.8397137903741
 31
0.0
  0
LINE
  5
856
330
1F
100
AcDbEntity
  8
SPOJOVACÍ
  6
DASHED
100
AcDbLine
 10
1603.143239729601
 20
165.5881146322011
 30
0.0
 11
1607.106756002002
 21
164.2553959591935
 31
0.0
  0
LINE
  5
857
330
1F
100
AcDbEntity
  8
SPOJOVACÍ
  6
DASHED
100
AcDbLine
 10
1603.143239729601
 20
166.1724324636455
 30
0.0
 11
1607.106756002002
 21
164.8397137903741
 31
0.0
  0
LINE
  5
858
330
1F
100
AcDbEntity
  8
SPOJOVACÍ
  6
DASHED
100
AcDbLine
 10
1602.773141381796
 20
162.7440091189384
 30
0.0
 11
1607.476854345528
 21
161.5680808780055
 31
0.0
  0
LINE
  5
859
330
1F
100
AcDbEntity
  8
SPOJOVACÍ
  6
DASHED
100
AcDbLine
 10
1602.773141381796
 20
162.7440091189384
 30
0.0
 11
1603.143239729601
 21
162.5307012056113
 31
0.0
  0
LINE
  5
85A
330
1F
100
AcDbEntity
  8
SPOJOVACÍ
  6
DASHED
100
AcDbLine
 10
1602.773141381796
 20
162.7440091189384
 30
0.0
 11
1603.143239729601
 21
163.115019037063
 31
0.0
  0
LINE
  5
85B
330
1F
100
AcDbEntity
  8
SPOJOVACÍ
  6
DASHED
100
AcDbLine
 10
1607.476854345528
 20
161.5680808780055
 30
0.0
 11
1607.106756002002
 21
161.19798253234
 31
0.0
  0
LINE
  5
85C
330
1F
100
AcDbEntity
  8
SPOJOVACÍ
  6
DASHED
100
AcDbLine
 10
1607.476854345528
 20
161.5680808780055
 30
0.0
 11
1607.106756002002
 21
161.7823003637917
 31
0.0
  0
LINE
  5
85D
330
1F
100
AcDbEntity
  8
SPOJOVACÍ
  6
DASHED
100
AcDbLine
 10
1603.143239729601
 20
162.5307012056113
 30
0.0
 11
1607.106756002002
 21
161.19798253234
 31
0.0
  0
LINE
  5
85E
330
1F
100
AcDbEntity
  8
SPOJOVACÍ
  6
DASHED
100
AcDbLine
 10
1603.143239729601
 20
163.115019037063
 30
0.0
 11
1607.106756002002
 21
161.7823003637917
 31
0.0
  0
LINE
  5
85F
330
1F
100
AcDbEntity
  8
SPOJOVACÍ
  6
DASHED
100
AcDbLine
 10
1703.143239729601
 20
163.115019037063
 30
0.0
 11
1707.106756002002
 21
161.7823003637917
 31
0.0
  0
LINE
  5
860
330
1F
100
AcDbEntity
  8
SPOJOVACÍ
  6
DASHED
100
AcDbLine
 10
1703.143239729601
 20
162.5307012056113
 30
0.0
 11
1707.106756002002
 21
161.19798253234
 31
0.0
  0
LINE
  5
861
330
1F
100
AcDbEntity
  8
SPOJOVACÍ
  6
DASHED
100
AcDbLine
 10
1707.476854345529
 20
161.5680808780055
 30
0.0
 11
1707.106756002002
 21
161.7823003637917
 31
0.0
  0
LINE
  5
862
330
1F
100
AcDbEntity
  8
SPOJOVACÍ
  6
DASHED
100
AcDbLine
 10
1707.476854345529
 20
161.5680808780055
 30
0.0
 11
1707.106756002002
 21
161.19798253234
 31
0.0
  0
LINE
  5
863
330
1F
100
AcDbEntity
  8
SPOJOVACÍ
  6
DASHED
100
AcDbLine
 10
1702.773141381796
 20
162.7440091189384
 30
0.0
 11
1703.143239729601
 21
163.115019037063
 31
0.0
  0
LINE
  5
864
330
1F
100
AcDbEntity
  8
SPOJOVACÍ
  6
DASHED
100
AcDbLine
 10
1702.773141381796
 20
162.7440091189384
 30
0.0
 11
1703.143239729601
 21
162.5307012056113
 31
0.0
  0
LINE
  5
865
330
1F
100
AcDbEntity
  8
SPOJOVACÍ
  6
DASHED
100
AcDbLine
 10
1702.773141381796
 20
162.7440091189384
 30
0.0
 11
1707.476854345529
 21
161.5680808780055
 31
0.0
  0
LINE
  5
866
330
1F
100
AcDbEntity
  8
SPOJOVACÍ
  6
DASHED
100
AcDbLine
 10
1703.143239729601
 20
166.1724324636455
 30
0.0
 11
1707.106756002002
 21
164.8397137903741
 31
0.0
  0
LINE
  5
867
330
1F
100
AcDbEntity
  8
SPOJOVACÍ
  6
DASHED
100
AcDbLine
 10
1703.143239729601
 20
165.5881146322011
 30
0.0
 11
1707.106756002002
 21
164.2553959591935
 31
0.0
  0
LINE
  5
868
330
1F
100
AcDbEntity
  8
SPOJOVACÍ
  6
DASHED
100
AcDbLine
 10
1707.476854345529
 20
164.6264058770469
 30
0.0
 11
1707.106756002002
 21
164.8397137903741
 31
0.0
  0
LINE
  5
869
330
1F
100
AcDbEntity
  8
SPOJOVACÍ
  6
DASHED
100
AcDbLine
 10
1707.476854345529
 20
164.6264058770469
 30
0.0
 11
1707.106756002002
 21
164.2553959591935
 31
0.0
  0
LINE
  5
86A
330
1F
100
AcDbEntity
  8
SPOJOVACÍ
  6
DASHED
100
AcDbLine
 10
1702.773141381796
 20
165.8023341179799
 30
0.0
 11
1703.143239729601
 21
166.1724324636455
 31
0.0
  0
LINE
  5
86B
330
1F
100
AcDbEntity
  8
SPOJOVACÍ
  6
DASHED
100
AcDbLine
 10
1702.773141381796
 20
165.8023341179799
 30
0.0
 11
1703.143239729601
 21
165.5881146322011
 31
0.0
  0
LINE
  5
86C
330
1F
100
AcDbEntity
  8
SPOJOVACÍ
  6
DASHED
100
AcDbLine
 10
1702.773141381796
 20
165.8023341179799
 30
0.0
 11
1707.476854345529
 21
164.6264058770469
 31
0.0
  0
LINE
  5
86D
330
1F
100
AcDbEntity
  8
SPOJOVACÍ
  6
DASHED
100
AcDbLine
 10
1703.143239729601
 20
169.2298458902353
 30
0.0
 11
1707.106756002002
 21
167.8971272172278
 31
0.0
  0
LINE
  5
86E
330
1F
100
AcDbEntity
  8
SPOJOVACÍ
  6
DASHED
100
AcDbLine
 10
1703.143239729601
 20
168.6455280587837
 30
0.0
 11
1707.106756002002
 21
167.3128093857833
 31
0.0
  0
LINE
  5
86F
330
1F
100
AcDbEntity
  8
SPOJOVACÍ
  6
DASHED
100
AcDbLine
 10
1707.476854345529
 20
167.6838193036368
 30
0.0
 11
1707.106756002002
 21
167.8971272172278
 31
0.0
  0
LINE
  5
870
330
1F
100
AcDbEntity
  8
SPOJOVACÍ
  6
DASHED
100
AcDbLine
 10
1707.476854345529
 20
167.6838193036368
 30
0.0
 11
1707.106756002002
 21
167.3128093857833
 31
0.0
  0
LINE
  5
871
330
1F
100
AcDbEntity
  8
SPOJOVACÍ
  6
DASHED
100
AcDbLine
 10
1702.773141381796
 20
168.8597475445698
 30
0.0
 11
1703.143239729601
 21
169.2298458902353
 31
0.0
  0
LINE
  5
872
330
1F
100
AcDbEntity
  8
SPOJOVACÍ
  6
DASHED
100
AcDbLine
 10
1702.773141381796
 20
168.8597475445698
 30
0.0
 11
1703.143239729601
 21
168.6455280587837
 31
0.0
  0
LINE
  5
873
330
1F
100
AcDbEntity
  8
SPOJOVACÍ
  6
DASHED
100
AcDbLine
 10
1702.773141381796
 20
168.8597475445698
 30
0.0
 11
1707.476854345529
 21
167.6838193036368
 31
0.0
  0
LINE
  5
874
330
1F
100
AcDbEntity
  8
SPOJOVACÍ
  6
DASHED
100
AcDbLine
 10
1704.128649364575
 20
153.820628071306
 30
0.0
 11
1706.239850763202
 21
153.5161629298476
 31
0.0
  0
LINE
  5
875
330
1F
100
AcDbEntity
  8
SPOJOVACÍ
  6
DASHED
100
AcDbLine
 10
1704.498747708101
 20
154.1907264169715
 30
0.0
 11
1705.869752419676
 21
153.7294708434385
 31
0.0
  0
LINE
  5
876
330
1F
100
AcDbEntity
  8
SPOJOVACÍ
  6
DASHED
100
AcDbLine
 10
1704.498747708101
 20
153.6064085855271
 30
0.0
 11
1705.869752419676
 21
153.1451530119941
 31
0.0
  0
LINE
  5
877
330
1F
100
AcDbEntity
  8
SPOJOVACÍ
  6
DASHED
100
AcDbLine
 10
1706.239850763202
 20
153.5161629298476
 30
0.0
 11
1705.869752419676
 21
153.7294708434385
 31
0.0
  0
LINE
  5
878
330
1F
100
AcDbEntity
  8
SPOJOVACÍ
  6
DASHED
100
AcDbLine
 10
1706.239850763202
 20
153.5161629298476
 30
0.0
 11
1705.869752419676
 21
153.1451530119941
 31
0.0
  0
LINE
  5
879
330
1F
100
AcDbEntity
  8
SPOJOVACÍ
  6
DASHED
100
AcDbLine
 10
1704.128649364575
 20
153.820628071306
 30
0.0
 11
1704.498747708101
 21
154.1907264169715
 31
0.0
  0
LINE
  5
87A
330
1F
100
AcDbEntity
  8
SPOJOVACÍ
  6
DASHED
100
AcDbLine
 10
1704.128649364575
 20
153.820628071306
 30
0.0
 11
1704.498747708101
 21
153.6064085855271
 31
0.0
  0
LINE
  5
87B
330
1F
100
AcDbEntity
  8
SPOJOVACÍ
  6
DASHED
100
AcDbLine
 10
1703.575324988312
 20
156.7741222580592
 30
0.0
 11
1706.629092126415
 21
156.1533415356247
 31
0.0
  0
LINE
  5
87C
330
1F
100
AcDbEntity
  8
SPOJOVACÍ
  6
DASHED
100
AcDbLine
 10
1703.945423336117
 20
157.1451321761835
 30
0.0
 11
1706.258993782889
 21
156.3666494489519
 31
0.0
  0
LINE
  5
87D
330
1F
100
AcDbEntity
  8
SPOJOVACÍ
  6
DASHED
100
AcDbLine
 10
1703.945423336117
 20
156.5608143447319
 30
0.0
 11
1706.258993782889
 21
155.7823316177713
 31
0.0
  0
LINE
  5
87E
330
1F
100
AcDbEntity
  8
SPOJOVACÍ
  6
DASHED
100
AcDbLine
 10
1706.629092126415
 20
156.1533415356247
 30
0.0
 11
1706.258993782889
 21
156.3666494489519
 31
0.0
  0
LINE
  5
87F
330
1F
100
AcDbEntity
  8
SPOJOVACÍ
  6
DASHED
100
AcDbLine
 10
1706.629092126415
 20
156.1533415356247
 30
0.0
 11
1706.258993782889
 21
155.7823316177713
 31
0.0
  0
LINE
  5
880
330
1F
100
AcDbEntity
  8
SPOJOVACÍ
  6
DASHED
100
AcDbLine
 10
1703.575324988312
 20
156.7741222580592
 30
0.0
 11
1703.945423336117
 21
157.1451321761835
 31
0.0
  0
LINE
  5
881
330
1F
100
AcDbEntity
  8
SPOJOVACÍ
  6
DASHED
100
AcDbLine
 10
1703.575324988312
 20
156.7741222580592
 30
0.0
 11
1703.945423336117
 21
156.5608143447319
 31
0.0
  0
LINE
  5
882
330
1F
100
AcDbEntity
  8
SPOJOVACÍ
  6
DASHED
100
AcDbLine
 10
1703.022000616329
 20
159.7285280172711
 30
0.0
 11
1707.064823676017
 21
158.7750234126126
 31
0.0
  0
LINE
  5
883
330
1F
100
AcDbEntity
  8
SPOJOVACÍ
  6
DASHED
100
AcDbLine
 10
1703.393010533647
 20
160.0986263629368
 30
0.0
 11
1706.69472533249
 21
158.98833132594
 31
0.0
  0
LINE
  5
884
330
1F
100
AcDbEntity
  8
SPOJOVACÍ
  6
DASHED
100
AcDbLine
 10
1703.393010533647
 20
159.5143085314852
 30
0.0
 11
1706.69472533249
 21
158.4040134944883
 31
0.0
  0
LINE
  5
885
330
1F
100
AcDbEntity
  8
SPOJOVACÍ
  6
DASHED
100
AcDbLine
 10
1707.064823676017
 20
158.7750234126126
 30
0.0
 11
1706.69472533249
 21
158.98833132594
 31
0.0
  0
LINE
  5
886
330
1F
100
AcDbEntity
  8
SPOJOVACÍ
  6
DASHED
100
AcDbLine
 10
1707.064823676017
 20
158.7750234126126
 30
0.0
 11
1706.69472533249
 21
158.4040134944883
 31
0.0
  0
LINE
  5
887
330
1F
100
AcDbEntity
  8
SPOJOVACÍ
  6
DASHED
100
AcDbLine
 10
1703.022000616329
 20
159.7285280172711
 30
0.0
 11
1703.393010533647
 21
160.0986263629368
 31
0.0
  0
LINE
  5
888
330
1F
100
AcDbEntity
  8
SPOJOVACÍ
  6
DASHED
100
AcDbLine
 10
1703.022000616329
 20
159.7285280172711
 30
0.0
 11
1703.393010533647
 21
159.5143085314852
 31
0.0
  0
LINE
  5
889
330
1F
100
AcDbEntity
  8
SPOJOVACÍ
  6
DASHED
100
AcDbLine
 10
1703.143239729601
 20
172.2872593170889
 30
0.0
 11
1707.106756002002
 21
170.9554522160054
 31
0.0
  0
LINE
  5
88A
330
1F
100
AcDbEntity
  8
SPOJOVACÍ
  6
DASHED
100
AcDbLine
 10
1703.143239729601
 20
171.7029414856373
 30
0.0
 11
1707.106756002002
 21
170.3711343848248
 31
0.0
  0
LINE
  5
88B
330
1F
100
AcDbEntity
  8
SPOJOVACÍ
  6
DASHED
100
AcDbLine
 10
1707.476854345529
 20
170.7412327302193
 30
0.0
 11
1707.106756002002
 21
170.9554522160054
 31
0.0
  0
LINE
  5
88C
330
1F
100
AcDbEntity
  8
SPOJOVACÍ
  6
DASHED
100
AcDbLine
 10
1707.476854345529
 20
170.7412327302193
 30
0.0
 11
1707.106756002002
 21
170.3711343848248
 31
0.0
  0
LINE
  5
88D
330
1F
100
AcDbEntity
  8
SPOJOVACÍ
  6
DASHED
100
AcDbLine
 10
1702.773141381796
 20
171.9171609714234
 30
0.0
 11
1703.143239729601
 21
172.2872593170889
 31
0.0
  0
LINE
  5
88E
330
1F
100
AcDbEntity
  8
SPOJOVACÍ
  6
DASHED
100
AcDbLine
 10
1702.773141381796
 20
171.9171609714234
 30
0.0
 11
1703.143239729601
 21
171.7029414856373
 31
0.0
  0
LINE
  5
88F
330
1F
100
AcDbEntity
  8
SPOJOVACÍ
  6
DASHED
100
AcDbLine
 10
1702.773141381796
 20
171.9171609714234
 30
0.0
 11
1707.476854345529
 21
170.7412327302193
 31
0.0
  0
LINE
  5
890
330
1F
100
AcDbEntity
  8
SPOJOVACÍ
  6
DASHED
100
AcDbLine
 10
1703.143239729601
 20
175.3455843158592
 30
0.0
 11
1707.106756002002
 21
174.012865642859
 31
0.0
  0
LINE
  5
891
330
1F
100
AcDbEntity
  8
SPOJOVACÍ
  6
DASHED
100
AcDbLine
 10
1703.143239729601
 20
174.7612664846785
 30
0.0
 11
1707.106756002002
 21
173.4285478114073
 31
0.0
  0
LINE
  5
892
330
1F
100
AcDbEntity
  8
SPOJOVACÍ
  6
DASHED
100
AcDbLine
 10
1707.476854345529
 20
173.7986461570729
 30
0.0
 11
1707.106756002002
 21
174.012865642859
 31
0.0
  0
LINE
  5
893
330
1F
100
AcDbEntity
  8
SPOJOVACÍ
  6
DASHED
100
AcDbLine
 10
1707.476854345529
 20
173.7986461570729
 30
0.0
 11
1707.106756002002
 21
173.4285478114073
 31
0.0
  0
LINE
  5
894
330
1F
100
AcDbEntity
  8
SPOJOVACÍ
  6
DASHED
100
AcDbLine
 10
1702.773141381796
 20
174.9745743980058
 30
0.0
 11
1703.143239729601
 21
175.3455843158592
 31
0.0
  0
LINE
  5
895
330
1F
100
AcDbEntity
  8
SPOJOVACÍ
  6
DASHED
100
AcDbLine
 10
1702.773141381796
 20
174.9745743980058
 30
0.0
 11
1703.143239729601
 21
174.7612664846785
 31
0.0
  0
LINE
  5
896
330
1F
100
AcDbEntity
  8
SPOJOVACÍ
  6
DASHED
100
AcDbLine
 10
1702.773141381796
 20
174.9745743980058
 30
0.0
 11
1707.476854345529
 21
173.7986461570729
 31
0.0
  0
LINE
  5
897
330
1F
100
AcDbEntity
  8
SPOJOVACÍ
  6
DASHED
100
AcDbLine
 10
1706.207034162304
 20
159.1615300592624
 30
0.0
 11
1706.447689245542
 21
161.0931517203229
 31
0.0
  0
LINE
  5
898
330
1F
100
AcDbEntity
  8
SPOJOVACÍ
  6
DASHED
100
AcDbLine
 10
1705.875221849594
 20
156.5088547246816
 30
0.0
 11
1706.136843095824
 21
158.602736251478
 31
0.0
  0
LINE
  5
899
330
1F
100
AcDbEntity
  8
SPOJOVACÍ
  6
DASHED
100
AcDbLine
 10
1705.542497971648
 20
153.8461520952371
 30
0.0
 11
1705.805030787393
 21
155.948237772522
 31
0.0
  0
LINE
  5
89A
330
1F
100
AcDbEntity
  8
SPOJOVACÍ
  6
DASHED
100
AcDbLine
 10
1704.746695368842
 20
153.5362175201173
 30
0.0
 11
1705.124997863662
 21
150.5088859786685
 31
0.0
  0
LINE
  5
89B
330
1F
100
AcDbEntity
  8
SPOJOVACÍ
  6
DASHED
100
AcDbLine
 10
1704.386624319915
 20
156.418609069002
 30
0.0
 11
1704.671034868166
 21
154.1442362308537
 31
0.0
  0
LINE
  5
89C
330
1F
100
AcDbEntity
  8
SPOJOVACÍ
  6
DASHED
100
AcDbLine
 10
1704.024730123405
 20
159.3119394852168
 30
0.0
 11
1704.309140675934
 21
157.0366550748734
 31
0.0
  0
LINE
  5
89D
330
1F
100
AcDbEntity
  8
SPOJOVACÍ
  6
DASHED
100
AcDbLine
 10
1705.124997863662
 20
150.5088859786685
 30
0.0
 11
1705.472306905169
 21
153.2882698599116
 31
0.0
  0
LINE
  5
89E
330
1F
100
AcDbEntity
  8
SPOJOVACÍ
  6
DASHED
100
AcDbLine
 10
1703.802306486061
 20
161.0931517203229
 30
0.0
 11
1703.949069622729
 21
159.9199581959531
 31
0.0
  0
LINE
  5
89F
330
1F
100
AcDbEntity
  8
SPOJOVACÍ
  6
DASHED
100
AcDbLine
 10
1706.447689245542
 20
161.4231408854488
 30
0.0
 11
1706.447689245542
 21
161.0931517203229
 31
0.0
  0
LINE
  5
8A0
330
1F
100
AcDbEntity
  8
SPOJOVACÍ
  6
DASHED
100
AcDbLine
 10
1706.447689245542
 20
164.4832890291294
 30
0.0
 11
1706.447689245542
 21
162.014751295201
 31
0.0
  0
LINE
  5
8A1
330
1F
100
AcDbEntity
  8
SPOJOVACÍ
  6
DASHED
100
AcDbLine
 10
1703.802306486061
 20
162.3155701473737
 30
0.0
 11
1703.802306486061
 21
161.0931517203229
 31
0.0
  0
LINE
  5
8A2
330
1F
100
AcDbEntity
  8
SPOJOVACÍ
  6
DASHED
100
AcDbLine
 10
1703.802306486061
 20
165.3675141405658
 30
0.0
 11
1703.802306486061
 21
162.8998879788253
 31
0.0
  0
LINE
  5
8A3
330
1F
100
AcDbEntity
  8
SPOJOVACÍ
  6
DASHED
100
AcDbLine
 10
1706.447689245542
 20
167.5425256003585
 30
0.0
 11
1706.447689245542
 21
165.0721647217835
 31
0.0
  0
LINE
  5
8A4
330
1F
100
AcDbEntity
  8
SPOJOVACÍ
  6
DASHED
100
AcDbLine
 10
1706.447689245542
 20
170.6026737437754
 30
0.0
 11
1706.447689245542
 21
168.1250202871637
 31
0.0
  0
LINE
  5
8A5
330
1F
100
AcDbEntity
  8
SPOJOVACÍ
  6
DASHED
100
AcDbLine
 10
1706.447689245542
 20
173.6555293091553
 30
0.0
 11
1706.447689245542
 21
171.186991575227
 31
0.0
  0
LINE
  5
8A6
330
1F
100
AcDbEntity
  8
SPOJOVACÍ
  6
DASHED
100
AcDbLine
 10
1703.802306486061
 20
168.4376895791176
 30
0.0
 11
1703.802306486061
 21
165.960036122506
 31
0.0
  0
LINE
  5
8A7
330
1F
100
AcDbEntity
  8
SPOJOVACÍ
  6
DASHED
100
AcDbLine
 10
1703.802306486061
 20
171.4905451444978
 30
0.0
 11
1703.802306486061
 21
169.0201842659229
 31
0.0
  0
LINE
  5
8A8
330
1F
100
AcDbEntity
  8
SPOJOVACÍ
  6
DASHED
100
AcDbLine
 10
1703.802306486061
 20
174.5506932879145
 30
0.0
 11
1703.802306486061
 21
172.0821555539863
 31
0.0
  0
LINE
  5
8A9
330
1F
100
AcDbEntity
  8
SPOJOVACÍ
  6
DASHED
100
AcDbLine
 10
1703.802306486061
 20
179.091234813994
 30
0.0
 11
1703.802306486061
 21
175.1340995469075
 31
0.0
  0
LINE
  5
8AA
330
1F
100
AcDbEntity
  8
SPOJOVACÍ
  6
DASHED
100
AcDbLine
 10
1706.447689245542
 20
179.091234813994
 30
0.0
 11
1706.447689245542
 21
174.2471397186439
 31
0.0
  0
LINE
  5
8AB
330
1F
100
AcDbEntity
  8
SPOJOVACÍ
  6
DASHED
100
AcDbLine
 10
1700.126847052801
 20
184.3829118984633
 30
0.0
 11
1701.449538434681
 21
183.6536540747187
 31
0.0
  0
LINE
  5
8AC
330
1F
100
AcDbEntity
  8
SPOJOVACÍ
  6
DASHED
100
AcDbLine
 10
1701.449538434681
 20
183.6536540747187
 30
0.0
 11
1702.537955737033
 21
182.6062575250946
 31
0.0
  0
LINE
  5
8AD
330
1F
100
AcDbEntity
  8
SPOJOVACÍ
  6
DASHED
100
AcDbLine
 10
1702.537955737033
 20
182.6062575250946
 30
0.0
 11
1703.318261606764
 21
181.313648032363
 31
0.0
  0
LINE
  5
8AE
330
1F
100
AcDbEntity
  8
SPOJOVACÍ
  6
DASHED
100
AcDbLine
 10
1703.318261606764
 20
181.313648032363
 30
0.0
 11
1703.737584853777
 21
179.8624249626539
 31
0.0
  0
LINE
  5
8AF
330
1F
100
AcDbEntity
  8
SPOJOVACÍ
  6
DASHED
100
AcDbLine
 10
1703.737584853777
 20
179.8624249626539
 30
0.0
 11
1703.802306486061
 21
179.091234813994
 31
0.0
  0
LINE
  5
8B0
330
1F
100
AcDbEntity
  8
SPOJOVACÍ
  6
DASHED
100
AcDbLine
 10
1708.209758459358
 20
183.1532008931046
 30
0.0
 11
1709.422149592079
 21
184.0529227333376
 31
0.0
  0
LINE
  5
8B1
330
1F
100
AcDbEntity
  8
SPOJOVACÍ
  6
DASHED
100
AcDbLine
 10
1709.422149592079
 20
184.0529227333376
 30
0.0
 11
1710.123148674523
 21
184.3829118984633
 31
0.0
  0
LINE
  5
8B2
330
1F
100
AcDbEntity
  8
SPOJOVACÍ
  6
DASHED
100
AcDbLine
 10
1700.126847052801
 20
184.3829118984633
 30
0.0
 11
1710.123148674523
 21
184.3829118984633
 31
0.0
  0
LINE
  5
8B3
330
1F
100
AcDbEntity
  8
SPOJOVACÍ
  6
DASHED
100
AcDbLine
 10
1700.126847052801
 20
185.5588401396602
 30
0.0
 11
1700.126847052801
 21
184.3829118984633
 31
0.0
  0
LINE
  5
8B4
330
1F
100
AcDbEntity
  8
SPOJOVACÍ
  6
DASHED
100
AcDbLine
 10
1700.126847052801
 20
185.5588401396602
 30
0.0
 11
1710.123148674523
 21
185.5588401396602
 31
0.0
  0
LINE
  5
8B5
330
1F
100
AcDbEntity
  8
SPOJOVACÍ
  6
DASHED
100
AcDbLine
 10
1710.123148674523
 20
185.5588401396602
 30
0.0
 11
1710.123148674523
 21
184.3829118984633
 31
0.0
  0
LINE
  5
8B6
330
1F
100
AcDbEntity
  8
SPOJOVACÍ
  6
DASHED
100
AcDbLine
 10
1706.447689245542
 20
179.091234813994
 30
0.0
 11
1706.670112878608
 21
180.5843902083546
 31
0.0
  0
LINE
  5
8B7
330
1F
100
AcDbEntity
  8
SPOJOVACÍ
  6
DASHED
100
AcDbLine
 10
1706.670112878608
 20
180.5843902083546
 30
0.0
 11
1707.270839010773
 21
181.9699800738638
 31
0.0
  0
LINE
  5
8B8
330
1F
100
AcDbEntity
  8
SPOJOVACÍ
  6
DASHED
100
AcDbLine
 10
1707.270839010773
 20
181.9699800738638
 30
0.0
 11
1708.209758459358
 21
183.1532008931046
 31
0.0
  0
HATCH
  5
8B9
330
1F
100
AcDbEntity
  8
izolace
100
AcDbHatch
 10
0.0
 20
0.0
 30
0.0
210
0.0
220
0.0
230
1.0
  2
SOLID
 70
     1
 71
     0
 91
        1
 92
        7
 72
     0
 73
     1
 93
        4
 10
1668.188284826421
 20
121.5588401396602
 10
1644.546552116586
 20
121.5588401396602
 10
1644.546552116582
 20
118.5588401396602
 10
1668.188284826421
 20
118.5588401396602
 97
        0
 75
     0
 76
     1
 47
0.1901250437635136
 98
        1
 10
1653.904346874926
 20
120.7420285885804
  0
LWPOLYLINE
  5
8BA
330
1F
100
AcDbEntity
  8
izolace
100
AcDbPolyline
 90
        4
 70
     1
 43
0.0
 10
1668.188284826418
 20
121.5588401396602
 10
1644.546552116582
 20
121.5588401396602
 10
1644.546552116582
 20
118.5588401396602
 10
1668.188284826418
 20
118.5588401396602
  0
HATCH
  5
8BB
330
1F
100
AcDbEntity
  8
izolace
100
AcDbHatch
 10
0.0
 20
0.0
 30
0.0
210
0.0
220
0.0
230
1.0
  2
SOLID
 70
     1
 71
     0
 91
        1
 92
        7
 72
     0
 73
     1
 93
        4
 10
1715.471750246091
 20
121.5588401396602
 10
1691.830017536256
 20
121.5588401396602
 10
1691.830017536253
 20
118.5588401396602
 10
1715.471750246091
 20
118.5588401396602
 97
        0
 75
     0
 76
     1
 47
0.1901250437635136
 98
        1
 10
1701.187812294596
 20
120.7420285885804
  0
LWPOLYLINE
  5
8BC
330
1F
100
AcDbEntity
  8
izolace
100
AcDbPolyline
 90
        4
 70
     1
 43
0.0
 10
1715.471750246088
 20
121.5588401396602
 10
1691.830017536253
 20
121.5588401396602
 10
1691.830017536253
 20
118.5588401396602
 10
1715.471750246088
 20
118.5588401396602
  0
LINE
  5
8BD
330
1F
100
AcDbEntity
  8
POPIS
100
AcDbLine
 10
1616.168333898746
 20
257.8522988928473
 30
0.0
 11
1616.168333898746
 21
188.3669980419002
 31
0.0
  0
LINE
  5
8BE
330
1F
100
AcDbEntity
  8
POPIS
100
AcDbLine
 10
1668.322960409594
 20
257.8522988928473
 30
0.0
 11
1668.322960409594
 21
185.5588401396602
 31
0.0
  0
INSERT
  5
8BF
330
1F
100
AcDbEntity
  8
POPIS
100
AcDbBlockReference
  2
E_PUNKT
 10
1668.29389207872
 20
186.3811872770468
 30
0.0
 50
270.0
  0
INSERT
  5
8C0
330
1F
100
AcDbEntity
  8
POPIS
100
AcDbBlockReference
  2
E_PUNKT
 10
1616.139265567872
 20
188.394608417527
 30
0.0
 50
270.0
  0
LINE
  5
8C1
330
1F
100
AcDbEntity
  8
POPIS
100
AcDbLine
 10
1732.606003190634
 20
257.8522988928473
 30
0.0
 11
1732.606003190634
 21
168.1135427039682
 31
0.0
  0
INSERT
  5
8C2
330
1F
100
AcDbEntity
  8
POPIS
100
AcDbBlockReference
  2
E_PUNKT
 10
1732.57693485976
 20
166.8911530795951
 30
0.0
 50
270.0
  0
HATCH
  5
8C3
330
1F
100
AcDbEntity
  8
izolace
100
AcDbHatch
 10
0.0
 20
0.0
 30
0.0
210
0.0
220
0.0
230
1.0
  2
SOLID
 70
     1
 71
     0
 91
        1
 92
        7
 72
     0
 73
     1
 93
        4
 10
1904.605611924773
 20
121.5588401396602
 10
1880.963879214938
 20
121.5588401396602
 10
1880.963879214934
 20
118.5588401396602
 10
1904.605611924773
 20
118.5588401396602
 97
        0
 75
     0
 76
     1
 47
0.1901250437635136
 98
        1
 10
1890.321673973278
 20
120.7420285885804
  0
LWPOLYLINE
  5
8C4
330
1F
100
AcDbEntity
  8
izolace
100
AcDbPolyline
 90
        4
 70
     1
 43
0.0
 10
1904.605611924769
 20
121.5588401396602
 10
1880.963879214934
 20
121.5588401396602
 10
1880.963879214934
 20
118.5588401396602
 10
1904.605611924769
 20
118.5588401396602
  0
LINE
  5
8C5
330
1F
100
AcDbEntity
  8
CETRIS
100
AcDbLine
 10
1831.821735109548
 20
173.5588401396606
 30
0.0
 11
1831.821735109548
 21
161.5588401396605
 31
0.0
  0
HATCH
  5
8C6
330
1F
100
AcDbEntity
  8
nášlap_vrstvy
100
AcDbHatch
 10
0.0
 20
0.0
 30
0.0
210
0.0
220
0.0
230
1.0
  2
SOLID
 70
     1
 71
     0
 91
        1
 92
        7
 72
     0
 73
     1
 93
        4
 10
1840.74622939411
 20
187.0588401396601
 10
1828.925363039194
 20
187.0588401396601
 10
1828.92536303919
 20
185.5588401396602
 10
1840.74622939411
 20
185.5588401396602
 97
        0
 75
     0
 76
     1
 47
0.1901250437635136
 98
        1
 10
1833.604260418364
 20
186.6504343641203
  0
LWPOLYLINE
  5
8C7
330
1F
100
AcDbEntity
  8
nášlap_vrstvy
100
AcDbPolyline
 90
        4
 70
     1
 43
0.0
 10
1840.74622939411
 20
187.0588401396601
 10
1828.92536303919
 20
187.0588401396601
 10
1828.92536303919
 20
185.5588401396602
 10
1840.74622939411
 20
185.5588401396602
  0
HATCH
  5
8C8
330
1F
100
AcDbEntity
  8
nášlap_vrstvy
100
AcDbHatch
 10
0.0
 20
0.0
 30
0.0
210
0.0
220
0.0
230
1.0
  2
SOLID
 70
     1
 71
     0
 91
        1
 92
        7
 72
     0
 73
     1
 93
        4
 10
1864.387962103945
 20
187.0588401396601
 10
1852.567095749025
 20
187.0588401396601
 10
1852.567095749025
 20
185.5588401396602
 10
1864.387962103945
 20
185.5588401396602
 97
        0
 75
     0
 76
     1
 47
0.1901250437635136
 98
        1
 10
1857.245993128195
 20
186.6504343641203
  0
LWPOLYLINE
  5
8C9
330
1F
100
AcDbEntity
  8
STAVBA OBRYS
100
AcDbPolyline
 90
        4
 70
     1
 43
0.0
 10
1864.387962103941
 20
187.0588401396601
 10
1852.567095749025
 20
187.0588401396601
 10
1852.567095749025
 20
185.5588401396602
 10
1864.387962103941
 20
185.5588401396602
  0
HATCH
  5
8CA
330
1F
100
AcDbEntity
  8
nášlap_vrstvy
100
AcDbHatch
 10
0.0
 20
0.0
 30
0.0
210
0.0
220
0.0
230
1.0
  2
SOLID
 70
     1
 71
     0
 91
        1
 92
        7
 72
     0
 73
     1
 93
        4
 10
1888.02969481378
 20
187.0588401396601
 10
1876.208828458864
 20
187.0588401396601
 10
1876.208828458861
 20
185.5588401396602
 10
1888.02969481378
 20
185.5588401396602
 97
        0
 75
     0
 76
     1
 47
0.1901250437635136
 98
        1
 10
1880.887725838034
 20
186.6504343641203
  0
LWPOLYLINE
  5
8CB
330
1F
100
AcDbEntity
  8
nášlap_vrstvy
100
AcDbPolyline
 90
        4
 70
     1
 43
0.0
 10
1888.02969481378
 20
187.0588401396601
 10
1876.208828458861
 20
187.0588401396601
 10
1876.208828458861
 20
185.5588401396602
 10
1888.02969481378
 20
185.5588401396602
  0
HATCH
  5
8CC
330
1F
100
AcDbEntity
  8
nášlap_vrstvy
100
AcDbHatch
 10
0.0
 20
0.0
 30
0.0
210
0.0
220
0.0
230
1.0
  2
SOLID
 70
     1
 71
     0
 91
        1
 92
        7
 72
     0
 73
     1
 93
        4
 10
1769.821031264604
 20
187.0588401396601
 10
1758.000164909685
 20
187.0588401396601
 10
1758.000164909685
 20
185.5588401396602
 10
1769.821031264604
 20
185.5588401396602
 97
        0
 75
     0
 76
     1
 47
0.1901250437635136
 98
        1
 10
1762.679062288855
 20
186.6504343641203
  0
LWPOLYLINE
  5
8CD
330
1F
100
AcDbEntity
  8
nášlap_vrstvy
100
AcDbPolyline
 90
        4
 70
     1
 43
0.0
 10
1769.8210312646
 20
187.0588401396601
 10
1758.000164909685
 20
187.0588401396601
 10
1758.000164909685
 20
185.5588401396602
 10
1769.8210312646
 20
185.5588401396602
  0
HATCH
  5
8CE
330
1F
100
AcDbEntity
  8
nášlap_vrstvy
100
AcDbHatch
 10
0.0
 20
0.0
 30
0.0
210
0.0
220
0.0
230
1.0
  2
SOLID
 70
     1
 71
     0
 91
        1
 92
        7
 72
     0
 73
     1
 93
        4
 10
1793.46276397444
 20
187.0588401396601
 10
1781.641897619524
 20
187.0588401396601
 10
1781.64189761952
 20
185.5588401396602
 10
1793.46276397444
 20
185.5588401396602
 97
        0
 75
     0
 76
     1
 47
0.1901250437635136
 98
        1
 10
1786.320794998694
 20
186.6504343641203
  0
LWPOLYLINE
  5
8CF
330
1F
100
AcDbEntity
  8
nášlap_vrstvy
100
AcDbPolyline
 90
        4
 70
     1
 43
0.0
 10
1793.46276397444
 20
187.0588401396601
 10
1781.64189761952
 20
187.0588401396601
 10
1781.64189761952
 20
185.5588401396602
 10
1793.46276397444
 20
185.5588401396602
  0
HATCH
  5
8D0
330
1F
100
AcDbEntity
  8
nášlap_vrstvy
100
AcDbHatch
 10
0.0
 20
0.0
 30
0.0
210
0.0
220
0.0
230
1.0
  2
SOLID
 70
     1
 71
     0
 91
        1
 92
        7
 72
     0
 73
     1
 93
        4
 10
1817.104496684275
 20
187.0588401396601
 10
1805.283630329355
 20
187.0588401396601
 10
1805.283630329355
 20
185.5588401396602
 10
1817.104496684275
 20
185.5588401396602
 97
        0
 75
     0
 76
     1
 47
0.1901250437635136
 98
        1
 10
1809.962527708525
 20
186.6504343641203
  0
LWPOLYLINE
  5
8D1
330
1F
100
AcDbEntity
  8
nášlap_vrstvy
100
AcDbPolyline
 90
        4
 70
     1
 43
0.0
 10
1817.104496684271
 20
187.0588401396601
 10
1805.283630329355
 20
187.0588401396601
 10
1805.283630329355
 20
185.5588401396602
 10
1817.104496684271
 20
185.5588401396602
  0
HATCH
  5
8D2
330
1F
100
AcDbEntity
  8
izolace
100
AcDbHatch
 10
0.0
 20
0.0
 30
0.0
210
0.0
220
0.0
230
1.0
  2
SOLID
 70
     1
 71
     0
 91
        1
 92
        7
 72
     0
 73
     1
 93
        4
 10
1810.038681085432
 20
121.5588401396602
 10
1786.396948375597
 20
121.5588401396602
 10
1786.396948375593
 20
118.5588401396602
 10
1810.038681085432
 20
118.5588401396602
 97
        0
 75
     0
 76
     1
 47
0.1901250437635136
 98
        1
 10
1795.754743133937
 20
120.7420285885804
  0
LWPOLYLINE
  5
8D3
330
1F
100
AcDbEntity
  8
STAVBA OBRYS
100
AcDbPolyline
 90
        4
 70
     1
 43
0.0
 10
1810.038681085429
 20
121.5588401396602
 10
1786.396948375593
 20
121.5588401396602
 10
1786.396948375593
 20
118.5588401396602
 10
1810.038681085429
 20
118.5588401396602
  0
HATCH
  5
8D4
330
1F
100
AcDbEntity
  8
izolace
100
AcDbHatch
 10
0.0
 20
0.0
 30
0.0
210
0.0
220
0.0
230
1.0
  2
SOLID
 70
     1
 71
     0
 91
        1
 92
        7
 72
     0
 73
     1
 93
        4
 10
1857.322146505103
 20
121.5588401396602
 10
1833.680413795267
 20
121.5588401396602
 10
1833.680413795264
 20
118.5588401396602
 10
1857.322146505103
 20
118.5588401396602
 97
        0
 75
     0
 76
     1
 47
0.1901250437635136
 98
        1
 10
1843.038208553607
 20
120.7420285885804
  0
LWPOLYLINE
  5
8D5
330
1F
100
AcDbEntity
  8
izolace
100
AcDbPolyline
 90
        4
 70
     1
 43
0.0
 10
1857.322146505099
 20
121.5588401396602
 10
1833.680413795264
 20
121.5588401396602
 10
1833.680413795264
 20
118.5588401396602
 10
1857.322146505099
 20
118.5588401396602
  0
LINE
  5
8D6
330
1F
100
AcDbEntity
  8
POPIS
100
AcDbLine
 10
1856.798488833152
 20
257.8522988928473
 30
0.0
 11
1856.798488833152
 21
63.10655635429646
 31
0.0
  0
LINE
  5
8D7
330
1F
100
AcDbEntity
  8
POPIS
100
AcDbLine
 10
1807.709973368866
 20
257.8522988928473
 30
0.0
 11
1807.709973368866
 21
121.5588401396602
 31
0.0
  0
INSERT
  5
8D8
330
1F
100
AcDbEntity
  8
POPIS
100
AcDbBlockReference
  2
E_PUNKT
 10
1807.680905037992
 20
121.586450515287
 30
0.0
 50
270.0
  0
INSERT
  5
8D9
330
1F
100
AcDbEntity
  8
POPIS
100
AcDbBlockReference
  2
E_PUNKT
 10
1856.769420502278
 20
63.13416672992332
 30
0.0
 50
270.0
  0
HATCH
  5
8DA
330
1F
100
AcDbEntity
  8
nášlap_vrstvy
100
AcDbHatch
 10
0.0
 20
0.0
 30
0.0
210
0.0
220
0.0
230
1.0
  2
SOLID
 70
     1
 71
     0
 91
        1
 92
        7
 72
     0
 73
     1
 93
        4
 10
1958.954892943285
 20
187.0588401396601
 10
1947.134026588366
 20
187.0588401396601
 10
1947.134026588366
 20
185.5588401396602
 10
1958.954892943285
 20
185.5588401396602
 97
        0
 75
     0
 76
     1
 47
0.1901250437635136
 98
        1
 10
1951.812923967536
 20
186.6504343641203
  0
HATCH
  5
8DB
330
1F
100
AcDbEntity
  8
nášlap_vrstvy
100
AcDbHatch
 10
0.0
 20
0.0
 30
0.0
210
0.0
220
0.0
230
1.0
  2
SOLID
 70
     1
 71
     0
 91
        1
 92
        7
 72
     0
 73
     1
 93
        4
 10
1982.596625653121
 20
187.0588401396601
 10
1970.775759298205
 20
187.0588401396601
 10
1970.775759298201
 20
185.5588401396602
 10
1982.596625653121
 20
185.5588401396602
 97
        0
 75
     0
 76
     1
 47
0.1901250437635136
 98
        1
 10
1975.454656677375
 20
186.6504343641203
  0
HATCH
  5
8DC
330
1F
100
AcDbEntity
  8
nášlap_vrstvy
100
AcDbHatch
 10
0.0
 20
0.0
 30
0.0
210
0.0
220
0.0
230
1.0
  2
SOLID
 70
     1
 71
     0
 91
        1
 92
        7
 72
     0
 73
     1
 93
        4
 10
2006.238358362956
 20
187.0588401396601
 10
1994.417492008037
 20
187.0588401396601
 10
1994.417492008037
 20
185.5588401396602
 10
2006.238358362956
 20
185.5588401396602
 97
        0
 75
     0
 76
     1
 47
0.1901250437635136
 98
        1
 10
1999.096389387206
 20
186.6504343641203
  0
LWPOLYLINE
  5
8DD
330
1F
100
AcDbEntity
  8
nášlap_vrstvy
100
AcDbPolyline
 90
        4
 70
     1
 43
0.0
 10
1958.954892943282
 20
187.0588401396601
 10
1947.134026588366
 20
187.0588401396601
 10
1947.134026588366
 20
185.5588401396602
 10
1958.954892943282
 20
185.5588401396602
  0
HATCH
  5
8DE
330
1F
100
AcDbEntity
  8
nášlap_vrstvy
100
AcDbHatch
 10
0.0
 20
0.0
 30
0.0
210
0.0
220
0.0
230
1.0
  2
SOLID
 70
     1
 71
     0
 91
        1
 92
        7
 72
     0
 73
     1
 93
        4
 10
1911.671427523615
 20
187.0588401396601
 10
1899.850561168696
 20
187.0588401396601
 10
1899.850561168696
 20
185.5588401396602
 10
1911.671427523615
 20
185.5588401396602
 97
        0
 75
     0
 76
     1
 47
0.1901250437635136
 98
        1
 10
1904.529458547866
 20
186.6504343641203
  0
HATCH
  5
8DF
330
1F
100
AcDbEntity
  8
nášlap_vrstvy
100
AcDbHatch
 10
0.0
 20
0.0
 30
0.0
210
0.0
220
0.0
230
1.0
  2
SOLID
 70
     1
 71
     0
 91
        1
 92
        7
 72
     0
 73
     1
 93
        4
 10
1935.313160233451
 20
187.0588401396601
 10
1923.492293878535
 20
187.0588401396601
 10
1923.492293878531
 20
185.5588401396602
 10
1935.313160233451
 20
185.5588401396602
 97
        0
 75
     0
 76
     1
 47
0.1901250437635136
 98
        1
 10
1928.171191257705
 20
186.6504343641203
  0
LWPOLYLINE
  5
8E0
330
1F
100
AcDbEntity
  8
nášlap_vrstvy
100
AcDbPolyline
 90
        4
 70
     1
 43
0.0
 10
1935.313160233451
 20
187.0588401396601
 10
1923.492293878531
 20
187.0588401396601
 10
1923.492293878531
 20
185.5588401396602
 10
1935.313160233451
 20
185.5588401396602
  0
LINE
  5
8E1
330
1F
100
AcDbEntity
  8
SPOJOVACÍ
  6
DASHED
100
AcDbLine
 10
1957.270839010773
 20
181.9699800738638
 30
0.0
 11
1958.209758459357
 21
183.1532008931046
 31
0.0
  0
LINE
  5
8E2
330
1F
100
AcDbEntity
  8
SPOJOVACÍ
  6
DASHED
100
AcDbLine
 10
1956.670112878608
 20
180.5843902083546
 30
0.0
 11
1957.270839010773
 21
181.9699800738638
 31
0.0
  0
LINE
  5
8E3
330
1F
100
AcDbEntity
  8
SPOJOVACÍ
  6
DASHED
100
AcDbLine
 10
1956.447689245542
 20
179.091234813994
 30
0.0
 11
1956.670112878608
 21
180.5843902083546
 31
0.0
  0
LINE
  5
8E4
330
1F
100
AcDbEntity
  8
SPOJOVACÍ
  6
DASHED
100
AcDbLine
 10
1960.123148674523
 20
185.5588401396602
 30
0.0
 11
1960.123148674523
 21
184.3829118984633
 31
0.0
  0
LINE
  5
8E5
330
1F
100
AcDbEntity
  8
SPOJOVACÍ
  6
DASHED
100
AcDbLine
 10
1950.126847052801
 20
185.5588401396602
 30
0.0
 11
1960.123148674523
 21
185.5588401396602
 31
0.0
  0
LINE
  5
8E6
330
1F
100
AcDbEntity
  8
SPOJOVACÍ
  6
DASHED
100
AcDbLine
 10
1950.126847052801
 20
185.5588401396602
 30
0.0
 11
1950.126847052801
 21
184.3829118984633
 31
0.0
  0
LINE
  5
8E7
330
1F
100
AcDbEntity
  8
SPOJOVACÍ
  6
DASHED
100
AcDbLine
 10
1950.126847052801
 20
184.3829118984633
 30
0.0
 11
1960.123148674523
 21
184.3829118984633
 31
0.0
  0
LINE
  5
8E8
330
1F
100
AcDbEntity
  8
SPOJOVACÍ
  6
DASHED
100
AcDbLine
 10
1959.422149592079
 20
184.0529227333376
 30
0.0
 11
1960.123148674523
 21
184.3829118984633
 31
0.0
  0
LINE
  5
8E9
330
1F
100
AcDbEntity
  8
SPOJOVACÍ
  6
DASHED
100
AcDbLine
 10
1958.209758459357
 20
183.1532008931046
 30
0.0
 11
1959.422149592079
 21
184.0529227333376
 31
0.0
  0
LINE
  5
8EA
330
1F
100
AcDbEntity
  8
SPOJOVACÍ
  6
DASHED
100
AcDbLine
 10
1953.737584853777
 20
179.8624249626539
 30
0.0
 11
1953.802306486061
 21
179.091234813994
 31
0.0
  0
LINE
  5
8EB
330
1F
100
AcDbEntity
  8
SPOJOVACÍ
  6
DASHED
100
AcDbLine
 10
1953.318261606764
 20
181.313648032363
 30
0.0
 11
1953.737584853777
 21
179.8624249626539
 31
0.0
  0
LINE
  5
8EC
330
1F
100
AcDbEntity
  8
SPOJOVACÍ
  6
DASHED
100
AcDbLine
 10
1952.537955737033
 20
182.6062575250946
 30
0.0
 11
1953.318261606764
 21
181.313648032363
 31
0.0
  0
LINE
  5
8ED
330
1F
100
AcDbEntity
  8
SPOJOVACÍ
  6
DASHED
100
AcDbLine
 10
1951.449538434681
 20
183.6536540747187
 30
0.0
 11
1952.537955737033
 21
182.6062575250946
 31
0.0
  0
LINE
  5
8EE
330
1F
100
AcDbEntity
  8
SPOJOVACÍ
  6
DASHED
100
AcDbLine
 10
1950.126847052801
 20
184.3829118984633
 30
0.0
 11
1951.449538434681
 21
183.6536540747187
 31
0.0
  0
LINE
  5
8EF
330
1F
100
AcDbEntity
  8
SPOJOVACÍ
  6
DASHED
100
AcDbLine
 10
1956.447689245542
 20
179.091234813994
 30
0.0
 11
1956.447689245542
 21
174.2471397186439
 31
0.0
  0
LINE
  5
8F0
330
1F
100
AcDbEntity
  8
SPOJOVACÍ
  6
DASHED
100
AcDbLine
 10
1953.802306486061
 20
179.091234813994
 30
0.0
 11
1953.802306486061
 21
175.1340995469075
 31
0.0
  0
LINE
  5
8F1
330
1F
100
AcDbEntity
  8
SPOJOVACÍ
  6
DASHED
100
AcDbLine
 10
1953.802306486061
 20
174.5506932879145
 30
0.0
 11
1953.802306486061
 21
172.0821555539863
 31
0.0
  0
LINE
  5
8F2
330
1F
100
AcDbEntity
  8
SPOJOVACÍ
  6
DASHED
100
AcDbLine
 10
1953.802306486061
 20
171.4905451444978
 30
0.0
 11
1953.802306486061
 21
169.0201842659229
 31
0.0
  0
LINE
  5
8F3
330
1F
100
AcDbEntity
  8
SPOJOVACÍ
  6
DASHED
100
AcDbLine
 10
1953.802306486061
 20
168.4376895791176
 30
0.0
 11
1953.802306486061
 21
165.960036122506
 31
0.0
  0
LINE
  5
8F4
330
1F
100
AcDbEntity
  8
SPOJOVACÍ
  6
DASHED
100
AcDbLine
 10
1956.447689245542
 20
173.6555293091553
 30
0.0
 11
1956.447689245542
 21
171.186991575227
 31
0.0
  0
LINE
  5
8F5
330
1F
100
AcDbEntity
  8
SPOJOVACÍ
  6
DASHED
100
AcDbLine
 10
1956.447689245542
 20
170.6026737437754
 30
0.0
 11
1956.447689245542
 21
168.1250202871637
 31
0.0
  0
LINE
  5
8F6
330
1F
100
AcDbEntity
  8
SPOJOVACÍ
  6
DASHED
100
AcDbLine
 10
1956.447689245542
 20
167.5425256003585
 30
0.0
 11
1956.447689245542
 21
165.0721647217835
 31
0.0
  0
LINE
  5
8F7
330
1F
100
AcDbEntity
  8
SPOJOVACÍ
  6
DASHED
100
AcDbLine
 10
1953.802306486061
 20
165.3675141405658
 30
0.0
 11
1953.802306486061
 21
162.8998879788253
 31
0.0
  0
LINE
  5
8F8
330
1F
100
AcDbEntity
  8
SPOJOVACÍ
  6
DASHED
100
AcDbLine
 10
1953.802306486061
 20
162.3155701473737
 30
0.0
 11
1953.802306486061
 21
161.0931517203229
 31
0.0
  0
LINE
  5
8F9
330
1F
100
AcDbEntity
  8
SPOJOVACÍ
  6
DASHED
100
AcDbLine
 10
1956.447689245542
 20
164.4832890291294
 30
0.0
 11
1956.447689245542
 21
162.014751295201
 31
0.0
  0
LINE
  5
8FA
330
1F
100
AcDbEntity
  8
SPOJOVACÍ
  6
DASHED
100
AcDbLine
 10
1956.447689245542
 20
161.4231408854488
 30
0.0
 11
1956.447689245542
 21
161.0931517203229
 31
0.0
  0
LINE
  5
8FB
330
1F
100
AcDbEntity
  8
SPOJOVACÍ
  6
DASHED
100
AcDbLine
 10
1953.802306486061
 20
161.0931517203229
 30
0.0
 11
1953.949069622729
 21
159.9199581959531
 31
0.0
  0
LINE
  5
8FC
330
1F
100
AcDbEntity
  8
SPOJOVACÍ
  6
DASHED
100
AcDbLine
 10
1955.124997863662
 20
150.5088859786685
 30
0.0
 11
1955.472306905169
 21
153.2882698599116
 31
0.0
  0
LINE
  5
8FD
330
1F
100
AcDbEntity
  8
SPOJOVACÍ
  6
DASHED
100
AcDbLine
 10
1954.024730123405
 20
159.3119394852168
 30
0.0
 11
1954.309140675934
 21
157.0366550748734
 31
0.0
  0
LINE
  5
8FE
330
1F
100
AcDbEntity
  8
SPOJOVACÍ
  6
DASHED
100
AcDbLine
 10
1954.386624319915
 20
156.418609069002
 30
0.0
 11
1954.671034868166
 21
154.1442362308537
 31
0.0
  0
LINE
  5
8FF
330
1F
100
AcDbEntity
  8
SPOJOVACÍ
  6
DASHED
100
AcDbLine
 10
1954.746695368842
 20
153.5362175201173
 30
0.0
 11
1955.124997863662
 21
150.5088859786685
 31
0.0
  0
LINE
  5
900
330
1F
100
AcDbEntity
  8
SPOJOVACÍ
  6
DASHED
100
AcDbLine
 10
1955.542497971648
 20
153.8461520952371
 30
0.0
 11
1955.805030787393
 21
155.948237772522
 31
0.0
  0
LINE
  5
901
330
1F
100
AcDbEntity
  8
SPOJOVACÍ
  6
DASHED
100
AcDbLine
 10
1955.875221849593
 20
156.5088547246816
 30
0.0
 11
1956.136843095825
 21
158.602736251478
 31
0.0
  0
LINE
  5
902
330
1F
100
AcDbEntity
  8
SPOJOVACÍ
  6
DASHED
100
AcDbLine
 10
1956.207034162304
 20
159.1615300592624
 30
0.0
 11
1956.447689245542
 21
161.0931517203229
 31
0.0
  0
LINE
  5
903
330
1F
100
AcDbEntity
  8
SPOJOVACÍ
  6
DASHED
100
AcDbLine
 10
1952.773141381796
 20
174.9745743980058
 30
0.0
 11
1957.476854345529
 21
173.7986461570729
 31
0.0
  0
LINE
  5
904
330
1F
100
AcDbEntity
  8
SPOJOVACÍ
  6
DASHED
100
AcDbLine
 10
1952.773141381796
 20
174.9745743980058
 30
0.0
 11
1953.143239729601
 21
174.7612664846785
 31
0.0
  0
LINE
  5
905
330
1F
100
AcDbEntity
  8
SPOJOVACÍ
  6
DASHED
100
AcDbLine
 10
1952.773141381796
 20
174.9745743980058
 30
0.0
 11
1953.143239729601
 21
175.3455843158592
 31
0.0
  0
LINE
  5
906
330
1F
100
AcDbEntity
  8
SPOJOVACÍ
  6
DASHED
100
AcDbLine
 10
1957.476854345529
 20
173.7986461570729
 30
0.0
 11
1957.106756002002
 21
173.4285478114073
 31
0.0
  0
LINE
  5
907
330
1F
100
AcDbEntity
  8
SPOJOVACÍ
  6
DASHED
100
AcDbLine
 10
1957.476854345529
 20
173.7986461570729
 30
0.0
 11
1957.106756002002
 21
174.012865642859
 31
0.0
  0
LINE
  5
908
330
1F
100
AcDbEntity
  8
SPOJOVACÍ
  6
DASHED
100
AcDbLine
 10
1953.143239729601
 20
174.7612664846785
 30
0.0
 11
1957.106756002002
 21
173.4285478114073
 31
0.0
  0
LINE
  5
909
330
1F
100
AcDbEntity
  8
SPOJOVACÍ
  6
DASHED
100
AcDbLine
 10
1953.143239729601
 20
175.3455843158592
 30
0.0
 11
1957.106756002002
 21
174.012865642859
 31
0.0
  0
LINE
  5
90A
330
1F
100
AcDbEntity
  8
SPOJOVACÍ
  6
DASHED
100
AcDbLine
 10
1952.773141381796
 20
171.9171609714234
 30
0.0
 11
1957.476854345529
 21
170.7412327302193
 31
0.0
  0
LINE
  5
90B
330
1F
100
AcDbEntity
  8
SPOJOVACÍ
  6
DASHED
100
AcDbLine
 10
1952.773141381796
 20
171.9171609714234
 30
0.0
 11
1953.143239729601
 21
171.7029414856373
 31
0.0
  0
LINE
  5
90C
330
1F
100
AcDbEntity
  8
SPOJOVACÍ
  6
DASHED
100
AcDbLine
 10
1952.773141381796
 20
171.9171609714234
 30
0.0
 11
1953.143239729601
 21
172.2872593170889
 31
0.0
  0
LINE
  5
90D
330
1F
100
AcDbEntity
  8
SPOJOVACÍ
  6
DASHED
100
AcDbLine
 10
1957.476854345529
 20
170.7412327302193
 30
0.0
 11
1957.106756002002
 21
170.3711343848248
 31
0.0
  0
LINE
  5
90E
330
1F
100
AcDbEntity
  8
SPOJOVACÍ
  6
DASHED
100
AcDbLine
 10
1957.476854345529
 20
170.7412327302193
 30
0.0
 11
1957.106756002002
 21
170.9554522160054
 31
0.0
  0
LINE
  5
90F
330
1F
100
AcDbEntity
  8
SPOJOVACÍ
  6
DASHED
100
AcDbLine
 10
1953.143239729601
 20
171.7029414856373
 30
0.0
 11
1957.106756002002
 21
170.3711343848248
 31
0.0
  0
LINE
  5
910
330
1F
100
AcDbEntity
  8
SPOJOVACÍ
  6
DASHED
100
AcDbLine
 10
1953.143239729601
 20
172.2872593170889
 30
0.0
 11
1957.106756002002
 21
170.9554522160054
 31
0.0
  0
LINE
  5
911
330
1F
100
AcDbEntity
  8
SPOJOVACÍ
  6
DASHED
100
AcDbLine
 10
1953.022000616329
 20
159.7285280172711
 30
0.0
 11
1953.393010533647
 21
159.5143085314852
 31
0.0
  0
LINE
  5
912
330
1F
100
AcDbEntity
  8
SPOJOVACÍ
  6
DASHED
100
AcDbLine
 10
1953.022000616329
 20
159.7285280172711
 30
0.0
 11
1953.393010533647
 21
160.0986263629368
 31
0.0
  0
LINE
  5
913
330
1F
100
AcDbEntity
  8
SPOJOVACÍ
  6
DASHED
100
AcDbLine
 10
1957.064823676017
 20
158.7750234126126
 30
0.0
 11
1956.69472533249
 21
158.4040134944883
 31
0.0
  0
LINE
  5
914
330
1F
100
AcDbEntity
  8
SPOJOVACÍ
  6
DASHED
100
AcDbLine
 10
1957.064823676017
 20
158.7750234126126
 30
0.0
 11
1956.69472533249
 21
158.98833132594
 31
0.0
  0
LINE
  5
915
330
1F
100
AcDbEntity
  8
SPOJOVACÍ
  6
DASHED
100
AcDbLine
 10
1953.393010533647
 20
159.5143085314852
 30
0.0
 11
1956.69472533249
 21
158.4040134944883
 31
0.0
  0
LINE
  5
916
330
1F
100
AcDbEntity
  8
SPOJOVACÍ
  6
DASHED
100
AcDbLine
 10
1953.393010533647
 20
160.0986263629368
 30
0.0
 11
1956.69472533249
 21
158.98833132594
 31
0.0
  0
LINE
  5
917
330
1F
100
AcDbEntity
  8
SPOJOVACÍ
  6
DASHED
100
AcDbLine
 10
1953.022000616329
 20
159.7285280172711
 30
0.0
 11
1957.064823676017
 21
158.7750234126126
 31
0.0
  0
LINE
  5
918
330
1F
100
AcDbEntity
  8
SPOJOVACÍ
  6
DASHED
100
AcDbLine
 10
1953.575324988312
 20
156.7741222580592
 30
0.0
 11
1953.945423336117
 21
156.5608143447319
 31
0.0
  0
LINE
  5
919
330
1F
100
AcDbEntity
  8
SPOJOVACÍ
  6
DASHED
100
AcDbLine
 10
1953.575324988312
 20
156.7741222580592
 30
0.0
 11
1953.945423336117
 21
157.1451321761835
 31
0.0
  0
LINE
  5
91A
330
1F
100
AcDbEntity
  8
SPOJOVACÍ
  6
DASHED
100
AcDbLine
 10
1956.629092126415
 20
156.1533415356247
 30
0.0
 11
1956.258993782889
 21
155.7823316177713
 31
0.0
  0
LINE
  5
91B
330
1F
100
AcDbEntity
  8
SPOJOVACÍ
  6
DASHED
100
AcDbLine
 10
1956.629092126415
 20
156.1533415356247
 30
0.0
 11
1956.258993782889
 21
156.3666494489519
 31
0.0
  0
LINE
  5
91C
330
1F
100
AcDbEntity
  8
SPOJOVACÍ
  6
DASHED
100
AcDbLine
 10
1953.945423336117
 20
156.5608143447319
 30
0.0
 11
1956.258993782889
 21
155.7823316177713
 31
0.0
  0
LINE
  5
91D
330
1F
100
AcDbEntity
  8
SPOJOVACÍ
  6
DASHED
100
AcDbLine
 10
1953.945423336117
 20
157.1451321761835
 30
0.0
 11
1956.258993782889
 21
156.3666494489519
 31
0.0
  0
LINE
  5
91E
330
1F
100
AcDbEntity
  8
SPOJOVACÍ
  6
DASHED
100
AcDbLine
 10
1953.575324988312
 20
156.7741222580592
 30
0.0
 11
1956.629092126415
 21
156.1533415356247
 31
0.0
  0
LINE
  5
91F
330
1F
100
AcDbEntity
  8
SPOJOVACÍ
  6
DASHED
100
AcDbLine
 10
1954.128649364575
 20
153.820628071306
 30
0.0
 11
1954.498747708101
 21
153.6064085855271
 31
0.0
  0
LINE
  5
920
330
1F
100
AcDbEntity
  8
SPOJOVACÍ
  6
DASHED
100
AcDbLine
 10
1954.128649364575
 20
153.820628071306
 30
0.0
 11
1954.498747708101
 21
154.1907264169715
 31
0.0
  0
LINE
  5
921
330
1F
100
AcDbEntity
  8
SPOJOVACÍ
  6
DASHED
100
AcDbLine
 10
1956.239850763202
 20
153.5161629298476
 30
0.0
 11
1955.869752419676
 21
153.1451530119941
 31
0.0
  0
LINE
  5
922
330
1F
100
AcDbEntity
  8
SPOJOVACÍ
  6
DASHED
100
AcDbLine
 10
1956.239850763202
 20
153.5161629298476
 30
0.0
 11
1955.869752419676
 21
153.7294708434385
 31
0.0
  0
LINE
  5
923
330
1F
100
AcDbEntity
  8
SPOJOVACÍ
  6
DASHED
100
AcDbLine
 10
1954.498747708101
 20
153.6064085855271
 30
0.0
 11
1955.869752419676
 21
153.1451530119941
 31
0.0
  0
LINE
  5
924
330
1F
100
AcDbEntity
  8
SPOJOVACÍ
  6
DASHED
100
AcDbLine
 10
1954.498747708101
 20
154.1907264169715
 30
0.0
 11
1955.869752419676
 21
153.7294708434385
 31
0.0
  0
LINE
  5
925
330
1F
100
AcDbEntity
  8
SPOJOVACÍ
  6
DASHED
100
AcDbLine
 10
1954.128649364575
 20
153.820628071306
 30
0.0
 11
1956.239850763202
 21
153.5161629298476
 31
0.0
  0
LINE
  5
926
330
1F
100
AcDbEntity
  8
SPOJOVACÍ
  6
DASHED
100
AcDbLine
 10
1952.773141381796
 20
168.8597475445698
 30
0.0
 11
1957.476854345529
 21
167.6838193036368
 31
0.0
  0
LINE
  5
927
330
1F
100
AcDbEntity
  8
SPOJOVACÍ
  6
DASHED
100
AcDbLine
 10
1952.773141381796
 20
168.8597475445698
 30
0.0
 11
1953.143239729601
 21
168.6455280587837
 31
0.0
  0
LINE
  5
928
330
1F
100
AcDbEntity
  8
SPOJOVACÍ
  6
DASHED
100
AcDbLine
 10
1952.773141381796
 20
168.8597475445698
 30
0.0
 11
1953.143239729601
 21
169.2298458902353
 31
0.0
  0
LINE
  5
929
330
1F
100
AcDbEntity
  8
SPOJOVACÍ
  6
DASHED
100
AcDbLine
 10
1957.476854345529
 20
167.6838193036368
 30
0.0
 11
1957.106756002002
 21
167.3128093857833
 31
0.0
  0
LINE
  5
92A
330
1F
100
AcDbEntity
  8
SPOJOVACÍ
  6
DASHED
100
AcDbLine
 10
1957.476854345529
 20
167.6838193036368
 30
0.0
 11
1957.106756002002
 21
167.8971272172278
 31
0.0
  0
LINE
  5
92B
330
1F
100
AcDbEntity
  8
SPOJOVACÍ
  6
DASHED
100
AcDbLine
 10
1953.143239729601
 20
168.6455280587837
 30
0.0
 11
1957.106756002002
 21
167.3128093857833
 31
0.0
  0
LINE
  5
92C
330
1F
100
AcDbEntity
  8
SPOJOVACÍ
  6
DASHED
100
AcDbLine
 10
1953.143239729601
 20
169.2298458902353
 30
0.0
 11
1957.106756002002
 21
167.8971272172278
 31
0.0
  0
LINE
  5
92D
330
1F
100
AcDbEntity
  8
SPOJOVACÍ
  6
DASHED
100
AcDbLine
 10
1952.773141381796
 20
165.8023341179799
 30
0.0
 11
1957.476854345529
 21
164.6264058770469
 31
0.0
  0
LINE
  5
92E
330
1F
100
AcDbEntity
  8
SPOJOVACÍ
  6
DASHED
100
AcDbLine
 10
1952.773141381796
 20
165.8023341179799
 30
0.0
 11
1953.143239729601
 21
165.5881146322011
 31
0.0
  0
LINE
  5
92F
330
1F
100
AcDbEntity
  8
SPOJOVACÍ
  6
DASHED
100
AcDbLine
 10
1952.773141381796
 20
165.8023341179799
 30
0.0
 11
1953.143239729601
 21
166.1724324636455
 31
0.0
  0
LINE
  5
930
330
1F
100
AcDbEntity
  8
SPOJOVACÍ
  6
DASHED
100
AcDbLine
 10
1957.476854345529
 20
164.6264058770469
 30
0.0
 11
1957.106756002002
 21
164.2553959591935
 31
0.0
  0
LINE
  5
931
330
1F
100
AcDbEntity
  8
SPOJOVACÍ
  6
DASHED
100
AcDbLine
 10
1957.476854345529
 20
164.6264058770469
 30
0.0
 11
1957.106756002002
 21
164.8397137903741
 31
0.0
  0
LINE
  5
932
330
1F
100
AcDbEntity
  8
SPOJOVACÍ
  6
DASHED
100
AcDbLine
 10
1953.143239729601
 20
165.5881146322011
 30
0.0
 11
1957.106756002002
 21
164.2553959591935
 31
0.0
  0
LINE
  5
933
330
1F
100
AcDbEntity
  8
SPOJOVACÍ
  6
DASHED
100
AcDbLine
 10
1953.143239729601
 20
166.1724324636455
 30
0.0
 11
1957.106756002002
 21
164.8397137903741
 31
0.0
  0
LINE
  5
934
330
1F
100
AcDbEntity
  8
SPOJOVACÍ
  6
DASHED
100
AcDbLine
 10
1952.773141381796
 20
162.7440091189384
 30
0.0
 11
1957.476854345529
 21
161.5680808780055
 31
0.0
  0
LINE
  5
935
330
1F
100
AcDbEntity
  8
SPOJOVACÍ
  6
DASHED
100
AcDbLine
 10
1952.773141381796
 20
162.7440091189384
 30
0.0
 11
1953.143239729601
 21
162.5307012056113
 31
0.0
  0
LINE
  5
936
330
1F
100
AcDbEntity
  8
SPOJOVACÍ
  6
DASHED
100
AcDbLine
 10
1952.773141381796
 20
162.7440091189384
 30
0.0
 11
1953.143239729601
 21
163.115019037063
 31
0.0
  0
LINE
  5
937
330
1F
100
AcDbEntity
  8
SPOJOVACÍ
  6
DASHED
100
AcDbLine
 10
1957.476854345529
 20
161.5680808780055
 30
0.0
 11
1957.106756002002
 21
161.19798253234
 31
0.0
  0
LINE
  5
938
330
1F
100
AcDbEntity
  8
SPOJOVACÍ
  6
DASHED
100
AcDbLine
 10
1957.476854345529
 20
161.5680808780055
 30
0.0
 11
1957.106756002002
 21
161.7823003637917
 31
0.0
  0
LINE
  5
939
330
1F
100
AcDbEntity
  8
SPOJOVACÍ
  6
DASHED
100
AcDbLine
 10
1953.143239729601
 20
162.5307012056113
 30
0.0
 11
1957.106756002002
 21
161.19798253234
 31
0.0
  0
LINE
  5
93A
330
1F
100
AcDbEntity
  8
SPOJOVACÍ
  6
DASHED
100
AcDbLine
 10
1953.143239729601
 20
163.115019037063
 30
0.0
 11
1957.106756002002
 21
161.7823003637917
 31
0.0
  0
HATCH
  5
93B
330
1F
100
AcDbEntity
  8
izolace
100
AcDbHatch
 10
0.0
 20
0.0
 30
0.0
210
0.0
220
0.0
230
1.0
  2
SOLID
 70
     1
 71
     0
 91
        1
 92
        7
 72
     0
 73
     1
 93
        4
 10
1951.889077344444
 20
121.5588401396602
 10
1928.247344634608
 20
121.5588401396602
 10
1928.247344634605
 20
118.5588401396602
 10
1951.889077344444
 20
118.5588401396602
 97
        0
 75
     0
 76
     1
 47
0.1901250437635136
 98
        1
 10
1937.605139392948
 20
120.7420285885804
  0
LWPOLYLINE
  5
93C
330
1F
100
AcDbEntity
  8
izolace
100
AcDbPolyline
 90
        4
 70
     1
 43
0.0
 10
1951.88907734444
 20
121.5588401396602
 10
1928.247344634605
 20
121.5588401396602
 10
1928.247344634605
 20
118.5588401396602
 10
1951.88907734444
 20
118.5588401396602
  0
HATCH
  5
93D
330
1F
100
AcDbEntity
  8
izolace
100
AcDbHatch
 10
0.0
 20
0.0
 30
0.0
210
0.0
220
0.0
230
1.0
  2
SOLID
 70
     1
 71
     0
 91
        1
 92
        7
 72
     0
 73
     1
 93
        4
 10
1999.172542764114
 20
121.5588401396602
 10
1975.530810054278
 20
121.5588401396602
 10
1975.530810054275
 20
118.5588401396602
 10
1999.172542764114
 20
118.5588401396602
 97
        0
 75
     0
 76
     1
 47
0.1901250437635136
 98
        1
 10
1984.888604812618
 20
120.7420285885804
  0
LWPOLYLINE
  5
93E
330
1F
100
AcDbEntity
  8
izolace
100
AcDbPolyline
 90
        4
 70
     1
 43
0.0
 10
1999.17254276411
 20
121.5588401396602
 10
1975.530810054275
 20
121.5588401396602
 10
1975.530810054275
 20
118.5588401396602
 10
1999.17254276411
 20
118.5588401396602
  0
TEXT
  5
93F
330
1F
100
AcDbEntity
  8
POPIS
100
AcDbText
 10
1715.70833225883
 20
266.701659965571
 30
0.0
 40
25.0
  1
06
 41
0.85
  7
SIMPLEX7
100
AcDbText
  0
TEXT
  5
940
330
1F
100
AcDbEntity
  8
POPIS
100
AcDbText
 10
1597.372740487033
 20
266.701659965571
 30
0.0
 40
25.0
  1
04
 41
0.85
  7
SIMPLEX7
100
AcDbText
  0
TEXT
  5
941
330
1F
100
AcDbEntity
  8
POPIS
100
AcDbText
 10
1550.789291059697
 20
266.701659965571
 30
0.0
 40
25.0
  1
03
 41
0.85
  7
SIMPLEX7
100
AcDbText
  0
TEXT
  5
942
330
1F
100
AcDbEntity
  8
POPIS
100
AcDbText
 10
1651.425289477789
 20
266.701659965571
 30
0.0
 40
25.0
  1
05
 41
0.85
  7
SIMPLEX7
100
AcDbText
  0
TEXT
  5
943
330
1F
100
AcDbEntity
  8
POPIS
100
AcDbText
 10
1839.900817901347
 20
266.701659965571
 30
0.0
 40
25.0
  1
09
 41
0.85
  7
SIMPLEX7
100
AcDbText
  0
TEXT
  5
944
330
1F
100
AcDbEntity
  8
POPIS
100
AcDbText
 10
1790.812302437061
 20
266.701659965571
 30
0.0
 40
25.0
  1
07
 41
0.85
  7
SIMPLEX7
100
AcDbText
  0
TEXT
  5
945
330
1F
100
AcDbEntity
  8
POPIS
100
AcDbText
 10
2123.403051755784
 20
233.7497960520526
 30
0.0
 40
25.0
  1
Disperzní lepidlo 
 41
0.7
  7
SIMPLEX7
100
AcDbText
  0
TEXT
  5
946
330
1F
100
AcDbEntity
  8
POPIS
100
AcDbText
 10
2069.059348596041
 20
232.8754979379158
 30
0.0
 40
25.0
  1
03
 41
0.85
  7
SIMPLEX7
100
AcDbText
  0
TEXT
  5
947
330
1F
100
AcDbEntity
  8
POPIS
100
AcDbText
 10
2123.403051755784
 20
126.9399074102495
 30
0.0
 40
25.0
  1
Montovaná podlaha IZOCET
 41
0.7
  7
SIMPLEX7
100
AcDbText
  0
TEXT
  5
948
330
1F
100
AcDbEntity
  8
POPIS
100
AcDbText
 10
2123.403051755784
 20
56.38595995443063
 30
0.0
 40
25.0
  1
Dilatační spára tl. 15 mm
 41
0.7
  7
SIMPLEX7
100
AcDbText
  0
TEXT
  5
94B
330
1F
100
AcDbEntity
  8
POPIS
100
AcDbText
 10
2123.403051755784
 20
198.8448376610469
 30
0.0
 40
25.0
  1
Nivelační stěrka 
 41
0.7
  7
SIMPLEX7
100
AcDbText
  0
TEXT
  5
94C
330
1F
100
AcDbEntity
  8
POPIS
100
AcDbText
 10
2123.403051755784
 20
163.4406764428844
 30
0.0
 40
25.0
  1
Penetrace 
 41
0.7
  7
SIMPLEX7
100
AcDbText
  0
TEXT
  5
94D
330
1F
100
AcDbEntity
  8
POPIS
100
AcDbText
 10
2123.403051755784
 20
90.48679425755688
 30
0.0
 40
25.0
  1
Parozábrana
 41
0.7
  7
SIMPLEX7
100
AcDbText
  0
TEXT
  5
94E
330
1F
100
AcDbEntity
  8
POPIS
100
AcDbText
 10
2123.403051755784
 20
24.60279956868942
 30
0.0
 40
25.0
  1
Stropní konstrukce
 41
0.7
  7
SIMPLEX7
100
AcDbText
  0
TEXT
  5
94F
330
1F
100
AcDbEntity
  8
POPIS
100
AcDbText
 10
2069.059348596041
 20
162.6312950341838
 30
0.0
 40
25.0
  1
05
 41
0.85
  7
SIMPLEX7
100
AcDbText
  0
TEXT
  5
950
330
1F
100
AcDbEntity
  8
POPIS
100
AcDbText
 10
2069.059348596041
 20
197.4713367197531
 30
0.0
 40
25.0
  1
04
 41
0.85
  7
SIMPLEX7
100
AcDbText
  0
TEXT
  5
951
330
1F
100
AcDbEntity
  8
POPIS
100
AcDbText
 10
2069.059348596041
 20
125.7957550312916
 30
0.0
 40
25.0
  1
06
 41
0.85
  7
SIMPLEX7
100
AcDbText
  0
TEXT
  5
952
330
1F
100
AcDbEntity
  8
POPIS
100
AcDbText
 10
2069.059348596041
 20
90.66946373319876
 30
0.0
 40
25.0
  1
07
 41
0.85
  7
SIMPLEX7
100
AcDbText
  0
TEXT
  5
953
330
1F
100
AcDbEntity
  8
POPIS
100
AcDbText
 10
2069.942119596074
 20
55.73053300985009
 30
0.0
 40
25.0
  1
08
 41
0.85
  7
SIMPLEX7
100
AcDbText
  0
TEXT
  5
954
330
1F
100
AcDbEntity
  8
POPIS
100
AcDbText
 10
2069.942119596074
 20
23.9716264072216
 30
0.0
 40
25.0
  1
09
 41
0.85
  7
SIMPLEX7
100
AcDbText
  0
TEXT
  5
955
330
1F
100
AcDbEntity
  8
POPIS
100
AcDbText
 10
2123.403051755784
 20
270.3448076676798
 30
0.0
 40
25.0
  1
PVC, koberec
 41
0.7
  7
SIMPLEX7
100
AcDbText
  0
TEXT
  5
956
330
1F
100
AcDbEntity
  8
POPIS
100
AcDbText
 10
2123.403051755784
 20
307.3545945911303
 30
0.0
 40
25.0
  1
Rohová lišta
 41
0.7
  7
SIMPLEX7
100
AcDbText
  0
TEXT
  5
957
330
1F
100
AcDbEntity
  8
POPIS
100
AcDbText
 10
2069.059348596041
 20
307.3545945911303
 30
0.0
 40
25.0
  1
01
 41
0.85
  7
SIMPLEX7
100
AcDbText
  0
TEXT
  5
958
330
1F
100
AcDbEntity
  8
POPIS
100
AcDbText
 10
2069.059348596041
 20
270.759582975503
 30
0.0
 40
25.0
  1
02
 41
0.85
  7
SIMPLEX7
100
AcDbText
  0
ENDSEC
  0
SECTION
  2
OBJECTS
  0
DICTIONARY
  5
C
330
0
100
AcDbDictionary
281
     1
  3
ACAD_GROUP
350
D
  3
ACAD_LAYOUT
350
1A
  3
ACAD_MLINESTYLE
350
17
  3
ACAD_PLOTSETTINGS
350
19
  3
ACAD_PLOTSTYLENAME
350
E
  3
AcDbVariableDictionary
350
97E
  0
DICTIONARY
  5
D
102
{ACAD_REACTORS
330
C
102
}
330
C
100
AcDbDictionary
281
     1
  0
DICTIONARY
  5
1A
102
{ACAD_REACTORS
330
C
102
}
330
C
100
AcDbDictionary
281
     1
  3
Model
350
22
  3
Rozvržení1
350
1E
  3
Rozvržení2
350
26
  0
DICTIONARY
  5
17
102
{ACAD_REACTORS
330
C
102
}
330
C
100
AcDbDictionary
281
     1
  3
Standard
350
18
  0
DICTIONARY
  5
19
102
{ACAD_REACTORS
330
C
102
}
330
C
100
AcDbDictionary
281
     1
  0
ACDBDICTIONARYWDFLT
  5
E
102
{ACAD_REACTORS
330
C
102
}
330
C
100
AcDbDictionary
281
     1
  3
Normal
350
F
100
AcDbDictionaryWithDefault
340
F
  0
DICTIONARY
  5
97E
102
{ACAD_REACTORS
330
C
102
}
330
C
100
AcDbDictionary
281
     1
  3
DIMASSOC
350
97F
  0
LAYOUT
  5
22
102
{ACAD_REACTORS
330
1A
102
}
330
1A
100
AcDbPlotSettings
  1

  2
HP DeskJet 690C
  4

  6

 40
0.0
 41
0.0
 42
0.0
 43
0.0
 44
0.0
 45
0.0
 46
0.0
 47
0.0
 48
0.0
 49
0.0
140
0.0
141
0.0
142
1.0
143
1.0
 70
  1712
 72
     0
 73
     0
 74
     0
  7
monochrome.ctb
 75
     0
147
1.0
148
0.0
149
0.0
100
AcDbLayout
  1
Model
 70
     1
 71
     0
 10
0.0
 20
0.0
 11
12.0
 21
9.0
 12
0.0
 22
0.0
 32
0.0
 14
0.0
 24
0.0
 34
0.0
 15
0.0
 25
0.0
 35
0.0
146
0.0
 13
0.0
 23
0.0
 33
0.0
 16
1.0
 26
0.0
 36
0.0
 17
0.0
 27
1.0
 37
0.0
 76
     0
330
1F
  0
LAYOUT
  5
1E
102
{ACAD_REACTORS
330
1A
102
}
330
1A
100
AcDbPlotSettings
  1

  2
HP DeskJet 690C
  4

  6

 40
0.0
 41
0.0
 42
0.0
 43
0.0
 44
0.0
 45
0.0
 46
0.0
 47
0.0
 48
0.0
 49
0.0
140
0.0
141
0.0
142
1.0
143
1.0
 70
   688
 72
     0
 73
     0
 74
     5
  7
monochrome.ctb
 75
    16
147
1.0
148
0.0
149
0.0
100
AcDbLayout
  1
Rozvržení1
 70
     1
 71
     1
 10
0.0
 20
0.0
 11
420.0
 21
297.0
 12
0.0
 22
0.0
 32
0.0
 14
1.000000000000000E+20
 24
1.000000000000000E+20
 34
1.000000000000000E+20
 15
-1.000000000000000E+20
 25
-1.000000000000000E+20
 35
-1.000000000000000E+20
146
0.0
 13
0.0
 23
0.0
 33
0.0
 16
1.0
 26
0.0
 36
0.0
 17
0.0
 27
1.0
 37
0.0
 76
     0
330
1B
  0
LAYOUT
  5
26
102
{ACAD_REACTORS
330
1A
102
}
330
1A
100
AcDbPlotSettings
  1

  2
HP DeskJet 690C
  4

  6

 40
0.0
 41
0.0
 42
0.0
 43
0.0
 44
0.0
 45
0.0
 46
0.0
 47
0.0
 48
0.0
 49
0.0
140
0.0
141
0.0
142
1.0
143
1.0
 70
   688
 72
     0
 73
     0
 74
     5
  7
monochrome.ctb
 75
    16
147
1.0
148
0.0
149
0.0
100
AcDbLayout
  1
Rozvržení2
 70
     1
 71
     2
 10
0.0
 20
0.0
 11
12.0
 21
9.0
 12
0.0
 22
0.0
 32
0.0
 14
0.0
 24
0.0
 34
0.0
 15
0.0
 25
0.0
 35
0.0
146
0.0
 13
0.0
 23
0.0
 33
0.0
 16
1.0
 26
0.0
 36
0.0
 17
0.0
 27
1.0
 37
0.0
 76
     0
330
23
  0
MLINESTYLE
  5
18
102
{ACAD_REACTORS
330
17
102
}
330
17
100
AcDbMlineStyle
  2
STANDARD
 70
     0
  3

 62
   256
 51
90.0
 52
90.0
 71
     2
 49
0.5
 62
   256
  6
BYLAYER
 49
-0.5
 62
   256
  6
BYLAYER
  0
ACDBPLACEHOLDER
  5
F
102
{ACAD_REACTORS
330
E
102
}
330
E
  0
DICTIONARYVAR
  5
97F
102
{ACAD_REACTORS
330
97E
102
}
330
97E
100
DictionaryVariables
280
     0
  1
1
  0
ENDSEC
  0
EOF
