  0
SECTION
  2
HEADER
  9
$ACADVER
  1
AC1015
  9
$ACADMAINTVER
 70
    14
  9
$DWGCODEPAGE
  3
ANSI_1250
  9
$INSBASE
 10
0.0
 20
0.0
 30
0.0
  9
$EXTMIN
 10
607.339120908513
 20
-149.664589809277
 30
-0.0015258207003583
  9
$EXTMAX
 10
2184.190436741426
 20
647.6415245863977
 30
0.0000000349246037
  9
$LIMMIN
 10
0.0
 20
0.0
  9
$LIMMAX
 10
420.0
 20
297.0
  9
$ORTHOMODE
 70
     1
  9
$REGENMODE
 70
     1
  9
$FILLMODE
 70
     1
  9
$QTEXTMODE
 70
     0
  9
$MIRRTEXT
 70
     1
  9
$LTSCALE
 40
1.0
  9
$ATTMODE
 70
     1
  9
$TEXTSIZE
 40
2.5
  9
$TRACEWID
 40
1.0
  9
$TEXTSTYLE
  7
Standard
  9
$CLAYER
  8
0
  9
$CELTYPE
  6
ByLayer
  9
$CECOLOR
 62
   256
  9
$CELTSCALE
 40
1.0
  9
$DISPSILH
 70
     0
  9
$DIMSCALE
 40
1.0
  9
$DIMASZ
 40
2.5
  9
$DIMEXO
 40
0.625
  9
$DIMDLI
 40
3.75
  9
$DIMRND
 40
0.0
  9
$DIMDLE
 40
0.0
  9
$DIMEXE
 40
1.25
  9
$DIMTP
 40
0.0
  9
$DIMTM
 40
0.0
  9
$DIMTXT
 40
2.5
  9
$DIMCEN
 40
2.5
  9
$DIMTSZ
 40
0.0
  9
$DIMTOL
 70
     0
  9
$DIMLIM
 70
     0
  9
$DIMTIH
 70
     0
  9
$DIMTOH
 70
     0
  9
$DIMSE1
 70
     0
  9
$DIMSE2
 70
     0
  9
$DIMTAD
 70
     1
  9
$DIMZIN
 70
     8
  9
$DIMBLK
  1

  9
$DIMASO
 70
     1
  9
$DIMSHO
 70
     1
  9
$DIMPOST
  1

  9
$DIMAPOST
  1

  9
$DIMALT
 70
     0
  9
$DIMALTD
 70
     3
  9
$DIMALTF
 40
0.03937007874016
  9
$DIMLFAC
 40
1.0
  9
$DIMTOFL
 70
     1
  9
$DIMTVP
 40
0.0
  9
$DIMTIX
 70
     0
  9
$DIMSOXD
 70
     0
  9
$DIMSAH
 70
     0
  9
$DIMBLK1
  1

  9
$DIMBLK2
  1

  9
$DIMSTYLE
  2
ISO-25
  9
$DIMCLRD
 70
     0
  9
$DIMCLRE
 70
     0
  9
$DIMCLRT
 70
     0
  9
$DIMTFAC
 40
1.0
  9
$DIMGAP
 40
0.625
  9
$DIMJUST
 70
     0
  9
$DIMSD1
 70
     0
  9
$DIMSD2
 70
     0
  9
$DIMTOLJ
 70
     0
  9
$DIMTZIN
 70
     8
  9
$DIMALTZ
 70
     0
  9
$DIMALTTZ
 70
     0
  9
$DIMUPT
 70
     0
  9
$DIMDEC
 70
     2
  9
$DIMTDEC
 70
     2
  9
$DIMALTU
 70
     2
  9
$DIMALTTD
 70
     3
  9
$DIMTXSTY
  7
Standard
  9
$DIMAUNIT
 70
     0
  9
$DIMADEC
 70
     0
  9
$DIMALTRND
 40
0.0
  9
$DIMAZIN
 70
     0
  9
$DIMDSEP
 70
    44
  9
$DIMATFIT
 70
     3
  9
$DIMFRAC
 70
     0
  9
$DIMLDRBLK
  1

  9
$DIMLUNIT
 70
     2
  9
$DIMLWD
 70
    -2
  9
$DIMLWE
 70
    -2
  9
$DIMTMOVE
 70
     0
  9
$LUNITS
 70
     2
  9
$LUPREC
 70
     4
  9
$SKETCHINC
 40
1.0
  9
$FILLETRAD
 40
0.0
  9
$AUNITS
 70
     0
  9
$AUPREC
 70
     0
  9
$MENU
  1
.
  9
$ELEVATION
 40
0.0
  9
$PELEVATION
 40
0.0
  9
$THICKNESS
 40
0.0
  9
$LIMCHECK
 70
     0
  9
$CHAMFERA
 40
10.0
  9
$CHAMFERB
 40
10.0
  9
$CHAMFERC
 40
20.0
  9
$CHAMFERD
 40
0.0
  9
$SKPOLY
 70
     0
  9
$TDCREATE
 40
2452332.468649768
  9
$TDUCREATE
 40
2452332.426983101
  9
$TDUPDATE
 40
2455595.594404432
  9
$TDUUPDATE
 40
2455595.552737766
  9
$TDINDWG
 40
0.0821261921
  9
$TDUSRTIMER
 40
0.0821236458
  9
$USRTIMER
 70
     1
  9
$ANGBASE
 50
0.0
  9
$ANGDIR
 70
     0
  9
$PDMODE
 70
     0
  9
$PDSIZE
 40
0.0
  9
$PLINEWID
 40
0.0
  9
$SPLFRAME
 70
     0
  9
$SPLINETYPE
 70
     6
  9
$SPLINESEGS
 70
     8
  9
$HANDSEED
  5
526
  9
$SURFTAB1
 70
     6
  9
$SURFTAB2
 70
     6
  9
$SURFTYPE
 70
     6
  9
$SURFU
 70
     6
  9
$SURFV
 70
     6
  9
$UCSBASE
  2

  9
$UCSNAME
  2

  9
$UCSORG
 10
0.0
 20
0.0
 30
0.0
  9
$UCSXDIR
 10
1.0
 20
0.0
 30
0.0
  9
$UCSYDIR
 10
0.0
 20
1.0
 30
0.0
  9
$UCSORTHOREF
  2

  9
$UCSORTHOVIEW
 70
     0
  9
$UCSORGTOP
 10
0.0
 20
0.0
 30
0.0
  9
$UCSORGBOTTOM
 10
0.0
 20
0.0
 30
0.0
  9
$UCSORGLEFT
 10
0.0
 20
0.0
 30
0.0
  9
$UCSORGRIGHT
 10
0.0
 20
0.0
 30
0.0
  9
$UCSORGFRONT
 10
0.0
 20
0.0
 30
0.0
  9
$UCSORGBACK
 10
0.0
 20
0.0
 30
0.0
  9
$PUCSBASE
  2

  9
$PUCSNAME
  2

  9
$PUCSORG
 10
0.0
 20
0.0
 30
0.0
  9
$PUCSXDIR
 10
1.0
 20
0.0
 30
0.0
  9
$PUCSYDIR
 10
0.0
 20
1.0
 30
0.0
  9
$PUCSORTHOREF
  2

  9
$PUCSORTHOVIEW
 70
     0
  9
$PUCSORGTOP
 10
0.0
 20
0.0
 30
0.0
  9
$PUCSORGBOTTOM
 10
0.0
 20
0.0
 30
0.0
  9
$PUCSORGLEFT
 10
0.0
 20
0.0
 30
0.0
  9
$PUCSORGRIGHT
 10
0.0
 20
0.0
 30
0.0
  9
$PUCSORGFRONT
 10
0.0
 20
0.0
 30
0.0
  9
$PUCSORGBACK
 10
0.0
 20
0.0
 30
0.0
  9
$USERI1
 70
     0
  9
$USERI2
 70
     0
  9
$USERI3
 70
     0
  9
$USERI4
 70
     0
  9
$USERI5
 70
     0
  9
$USERR1
 40
0.0
  9
$USERR2
 40
0.0
  9
$USERR3
 40
0.0
  9
$USERR4
 40
0.0
  9
$USERR5
 40
0.0
  9
$WORLDVIEW
 70
     1
  9
$SHADEDGE
 70
     3
  9
$SHADEDIF
 70
    70
  9
$TILEMODE
 70
     1
  9
$MAXACTVP
 70
    64
  9
$PINSBASE
 10
0.0
 20
0.0
 30
0.0
  9
$PLIMCHECK
 70
     0
  9
$PEXTMIN
 10
1.000000000000000E+20
 20
1.000000000000000E+20
 30
1.000000000000000E+20
  9
$PEXTMAX
 10
-1.000000000000000E+20
 20
-1.000000000000000E+20
 30
-1.000000000000000E+20
  9
$PLIMMIN
 10
0.0
 20
0.0
  9
$PLIMMAX
 10
420.0
 20
297.0
  9
$UNITMODE
 70
     0
  9
$VISRETAIN
 70
     1
  9
$PLINEGEN
 70
     0
  9
$PSLTSCALE
 70
     1
  9
$TREEDEPTH
 70
  3020
  9
$CMLSTYLE
  2
Standard
  9
$CMLJUST
 70
     0
  9
$CMLSCALE
 40
20.0
  9
$PROXYGRAPHICS
 70
     1
  9
$MEASUREMENT
 70
     1
  9
$CELWEIGHT
370
    -1
  9
$ENDCAPS
280
     0
  9
$JOINSTYLE
280
     0
  9
$LWDISPLAY
290
     0
  9
$INSUNITS
 70
     4
  9
$HYPERLINKBASE
  1

  9
$STYLESHEET
  1

  9
$XEDIT
290
     1
  9
$CEPSNTYPE
380
     0
  9
$PSTYLEMODE
290
     1
  9
$FINGERPRINTGUID
  2
{A3477950-F6EC-44A0-8776-592C40033ABE}
  9
$VERSIONGUID
  2
{BBB1B50A-CE23-4D19-82BB-2737EA890B93}
  9
$EXTNAMES
290
     1
  9
$PSVPSCALE
 40
0.0
  9
$OLESTARTUP
290
     0
  0
ENDSEC
  0
SECTION
  2
CLASSES
  0
CLASS
  1
ACDBDICTIONARYWDFLT
  2
AcDbDictionaryWithDefault
  3
AutoCAD 2000
 90
        0
280
     0
281
     0
  0
CLASS
  1
ACDBPLACEHOLDER
  2
AcDbPlaceHolder
  3
AutoCAD 2000
 90
        0
280
     0
281
     0
  0
CLASS
  1
LAYOUT
  2
AcDbLayout
  3
AutoCAD 2000
 90
        0
280
     0
281
     0
  0
CLASS
  1
DICTIONARYVAR
  2
AcDbDictionaryVar
  3
AutoCAD 2000
 90
        0
280
     0
281
     0
  0
ENDSEC
  0
SECTION
  2
TABLES
  0
TABLE
  2
VPORT
  5
8
330
0
100
AcDbSymbolTable
 70
     3
  0
VPORT
  5
525
330
8
100
AcDbSymbolTableRecord
100
AcDbViewportTableRecord
  2
*Active
 70
     0
 10
0.0
 20
0.0
 11
1.0
 21
1.0
 12
1282.819568439131
 22
213.6668530500599
 13
0.0
 23
0.0
 14
10.0
 24
10.0
 15
10.0
 25
10.0
 16
0.0
 26
0.0
 36
1.0
 17
0.0
 27
0.0
 37
0.0
 40
900.8788856578963
 41
2.031862745098039
 42
50.0
 43
0.0
 44
0.0
 50
0.0
 51
0.0
 71
     0
 72
   100
 73
     1
 74
     3
 75
     0
 76
     0
 77
     0
 78
     0
281
     0
 65
     1
110
0.0
120
0.0
130
0.0
111
1.0
121
0.0
131
0.0
112
0.0
122
1.0
132
0.0
 79
     0
146
0.0
  0
ENDTAB
  0
TABLE
  2
LTYPE
  5
5
330
0
100
AcDbSymbolTable
 70
     3
  0
LTYPE
  5
14
330
5
100
AcDbSymbolTableRecord
100
AcDbLinetypeTableRecord
  2
ByBlock
 70
     0
  3

 72
    65
 73
     0
 40
0.0
  0
LTYPE
  5
15
330
5
100
AcDbSymbolTableRecord
100
AcDbLinetypeTableRecord
  2
ByLayer
 70
     0
  3

 72
    65
 73
     0
 40
0.0
  0
LTYPE
  5
16
330
5
100
AcDbSymbolTableRecord
100
AcDbLinetypeTableRecord
  2
Continuous
 70
     0
  3
Solid line
 72
    65
 73
     0
 40
0.0
  0
LTYPE
  5
2F
330
5
100
AcDbSymbolTableRecord
100
AcDbLinetypeTableRecord
  2
DASHED
 70
     0
  3
Dashed __ __ __ __ __ __ __ __ __ __ __ __ __ _
 72
    65
 73
     2
 40
19.04999999999999
 49
12.7
 74
     0
 49
-6.349999999999999
 74
     0
  0
LTYPE
  5
30
330
5
100
AcDbSymbolTableRecord
100
AcDbLinetypeTableRecord
  2
IZOLACE
 70
     0
  3
Izolace SSSSSSSSSSSSSSSSSSSSSSSSSSSSSSSSSSSSSSS
 72
    65
 73
     4
 40
10.16253999999999
 49
0.00254
 74
     0
 49
-2.54
 74
     4
 75
   134
340
38
 46
2.54
 50
0.0
 44
-2.54
 45
0.0
 49
-5.08
 74
     4
 75
   134
340
38
 46
2.54
 50
180.0
 44
2.54
 45
0.0
 49
-2.54
 74
     0
  0
ENDTAB
  0
TABLE
  2
LAYER
  5
2
330
0
100
AcDbSymbolTable
 70
     7
  0
LAYER
  5
10
330
2
100
AcDbSymbolTableRecord
100
AcDbLayerTableRecord
  2
0
 70
     0
 62
     7
  6
Continuous
370
    -3
390
F
  0
LAYER
  5
31
330
2
100
AcDbSymbolTableRecord
100
AcDbLayerTableRecord
  2
POPIS
 70
     0
 62
    30
  6
Continuous
370
    -3
390
F
  0
LAYER
  5
32
330
2
100
AcDbSymbolTableRecord
100
AcDbLayerTableRecord
  2
SPOJOVACÍ
 70
     0
 62
   180
  6
Continuous
370
    -3
390
F
  0
LAYER
  5
33
330
2
100
AcDbSymbolTableRecord
100
AcDbLayerTableRecord
  2
CETRIS
 70
     0
 62
     1
  6
Continuous
370
    -3
390
F
  0
LAYER
  5
34
330
2
100
AcDbSymbolTableRecord
100
AcDbLayerTableRecord
  2
izolace
 70
     0
 62
    33
  6
Continuous
370
    -3
390
F
  0
LAYER
  5
35
330
2
100
AcDbSymbolTableRecord
100
AcDbLayerTableRecord
  2
nášlap_vrstvy
 70
     0
 62
    73
  6
Continuous
370
    -3
390
F
  0
LAYER
  5
36
330
2
100
AcDbSymbolTableRecord
100
AcDbLayerTableRecord
  2
STAVBA OBRYS
 70
     0
 62
     6
  6
Continuous
370
    -3
390
F
  0
ENDTAB
  0
TABLE
  2
STYLE
  5
3
330
0
100
AcDbSymbolTable
 70
     3
  0
STYLE
  5
11
330
3
100
AcDbSymbolTableRecord
100
AcDbTextStyleTableRecord
  2
Standard
 70
     0
 40
0.0
 41
1.0
 50
0.0
 71
     0
 42
2.5
  3
txt
  4

  0
STYLE
  5
37
330
3
100
AcDbSymbolTableRecord
100
AcDbTextStyleTableRecord
  2
SIMPLEX7
 70
     0
 40
0.0
 41
0.85
 50
0.0
 71
     0
 42
102.0
  3
ARIAL.TTF
  4

1001
ACAD
1000
Arial CE
1071
    60962
  0
STYLE
  5
38
330
3
100
AcDbSymbolTableRecord
100
AcDbTextStyleTableRecord
  2

 70
     1
 40
0.0
 41
1.0
 50
0.0
 71
     0
 42
2.5
  3
ltypeshp.shx
  4

  0
ENDTAB
  0
TABLE
  2
VIEW
  5
6
330
0
100
AcDbSymbolTable
 70
     0
  0
ENDTAB
  0
TABLE
  2
UCS
  5
7
330
0
100
AcDbSymbolTable
 70
     0
  0
ENDTAB
  0
TABLE
  2
APPID
  5
9
330
0
100
AcDbSymbolTable
 70
     1
  0
APPID
  5
12
330
9
100
AcDbSymbolTableRecord
100
AcDbRegAppTableRecord
  2
ACAD
 70
     0
  0
ENDTAB
  0
TABLE
  2
DIMSTYLE
  5
A
330
0
100
AcDbSymbolTable
 70
     1
100
AcDbDimStyleTable
 71
     0
  0
DIMSTYLE
105
27
330
A
100
AcDbSymbolTableRecord
100
AcDbDimStyleTableRecord
  2
ISO-25
 70
     0
 41
2.5
 42
0.625
 43
3.75
 44
1.25
 73
     0
 74
     0
 77
     1
 78
     8
140
2.5
141
2.5
143
0.03937007874016
147
0.625
171
     3
172
     1
271
     2
272
     2
274
     3
278
    44
283
     0
284
     8
340
11
  0
ENDTAB
  0
TABLE
  2
BLOCK_RECORD
  5
1
330
0
100
AcDbSymbolTable
 70
     2
  0
BLOCK_RECORD
  5
1F
330
1
100
AcDbSymbolTableRecord
100
AcDbBlockTableRecord
  2
*Model_Space
340
22
  0
BLOCK_RECORD
  5
1B
330
1
100
AcDbSymbolTableRecord
100
AcDbBlockTableRecord
  2
*Paper_Space
340
1E
  0
BLOCK_RECORD
  5
23
330
1
100
AcDbSymbolTableRecord
100
AcDbBlockTableRecord
  2
*Paper_Space0
340
26
  0
BLOCK_RECORD
  5
2B
330
1
100
AcDbSymbolTableRecord
100
AcDbBlockTableRecord
  2
E_PUNKT
340
0
102
{BLKREFS
331
2BA
331
2CD
331
34B
331
35C
331
37D
331
37E
331
37F
331
449
331
44A
102
}
  0
ENDTAB
  0
ENDSEC
  0
SECTION
  2
BLOCKS
  0
BLOCK
  5
20
330
1F
100
AcDbEntity
  8
0
100
AcDbBlockBegin
  2
*Model_Space
 70
     0
 10
0.0
 20
0.0
 30
0.0
  3
*Model_Space
  1

  0
ENDBLK
  5
21
330
1F
100
AcDbEntity
  8
0
100
AcDbBlockEnd
  0
BLOCK
  5
1C
330
1B
100
AcDbEntity
 67
     1
  8
0
100
AcDbBlockBegin
  2
*Paper_Space
 70
     0
 10
0.0
 20
0.0
 30
0.0
  3
*Paper_Space
  1

  0
ENDBLK
  5
1D
330
1B
100
AcDbEntity
 67
     1
  8
0
100
AcDbBlockEnd
  0
BLOCK
  5
24
330
23
100
AcDbEntity
  8
0
100
AcDbBlockBegin
  2
*Paper_Space0
 70
     0
 10
0.0
 20
0.0
 30
0.0
  3
*Paper_Space0
  1

  0
ENDBLK
  5
25
330
23
100
AcDbEntity
  8
0
100
AcDbBlockEnd
  0
BLOCK
  5
2D
330
2B
100
AcDbEntity
  8
0
100
AcDbBlockBegin
  2
E_PUNKT
 70
     0
 10
0.0
 20
0.0
 30
0.0
  3
E_PUNKT
  1

  0
LWPOLYLINE
  5
2C
330
2B
100
AcDbEntity
  8
POPIS
100
AcDbPolyline
 90
        2
 70
     1
 43
2.5
 10
1.27761037562675
 20
0.0290683308725193
 42
-1.0
 10
-1.222389624373249
 20
0.0290683308725193
 42
-1.0
  0
ENDBLK
  5
2E
330
2B
100
AcDbEntity
  8
0
100
AcDbBlockEnd
  0
ENDSEC
  0
SECTION
  2
ENTITIES
  0
HATCH
  5
299
330
1F
100
AcDbEntity
  8
nášlap_vrstvy
100
AcDbHatch
 10
0.0
 20
0.0
 30
0.0
210
0.0
220
0.0
230
1.0
  2
AR-CONC
 70
     0
 71
     0
 91
        4
 92
        7
 72
     1
 73
     1
 93
       14
 10
880.9482218078366
 20
292.2369249530413
 42
0.0
 10
875.7847467040024
 20
292.2369249530422
 42
0.0
 10
875.7847467040031
 20
239.2831136074121
 42
0.0
 10
887.6056130589198
 20
239.2831136074121
 42
0.0
 10
1225.655686595454
 20
239.2831136074121
 42
0.0
 10
1229.513374289696
 20
239.2831136074121
 42
-0.2477181387935714
 10
1230.545412934704
 20
239.8278503691721
 42
0.0
 10
1230.545412934704
 20
243.1439857835914
 42
0.0
 10
1140.156626919811
 20
243.1439857835914
 42
0.0
 10
880.8727804272232
 20
243.1439857835914
 42
0.0
 10
880.8727804272232
 20
249.3939857835914
 42
0.0
 10
880.9482218078366
 20
252.2398946388457
 42
0.0
 10
880.9482218078366
 20
259.3467912880789
 42
-1.007553482924964
 10
880.9482218078366
 20
261.84672050587
 42
0.0
 97
        0
 92
        7
 72
     1
 73
     1
 93
        7
 10
1294.828455715745
 20
243.1439857835914
 42
0.0
 10
1269.798550166105
 20
243.1439857835914
 42
0.0
 10
1265.156626919811
 20
243.1439857835914
 42
0.0
 10
1230.545412934704
 20
243.1439857835914
 42
0.0
 10
1230.545412934704
 20
239.8278503691721
 42
-0.2477181387931129
 10
1231.57745157971
 20
239.2831136074121
 42
0.0
 10
1294.828455715745
 20
239.2831136074121
 42
0.0
 97
        0
 92
        7
 72
     0
 73
     1
 93
        4
 10
1369.932425893976
 20
243.1439857835914
 10
1294.828455715745
 20
243.1439857835914
 10
1294.828455715745
 20
239.2831136074121
 10
1369.932425893976
 20
239.2831136074121
 97
        0
 92
        7
 72
     0
 73
     1
 93
        6
 10
1419.020941358262
 20
243.1439857835914
 10
1399.440473412399
 20
243.1439857835914
 10
1394.798550166105
 20
243.1439857835914
 10
1369.932425893977
 20
243.1439857835914
 10
1369.932425893977
 20
239.2831136074121
 10
1419.020941358262
 20
239.2831136074121
 97
        0
 75
     0
 76
     1
 52
90.0
 41
0.1
 77
     0
 78
    13
 53
140.0
 43
530.8662523171672
 44
631.2103473068361
 45
1.593908553890309
 46
18.2184668996004
 79
     2
 49
1.905
 49
-20.955
 53
85.00000000000001
 43
530.8662523171672
 44
631.2103473068361
 45
-19.10566428821799
 46
-3.524282597566697
 79
     2
 49
1.524
 49
-16.764
 53
190.4509999999999
 43
530.9990773171672
 44
632.7285473068362
 45
-17.51166878202918
 46
14.69425016659592
 79
     2
 49
1.619
 49
-17.809
 53
136.1841999999999
 43
525.7862523171673
 44
631.2103473068361
 45
4.204232793272717
 46
27.10790408921299
 79
     2
 49
2.857499999999999
 49
-31.4325
 53
186.6355999999999
 43
526.1366023171672
 44
633.4693373068362
 45
-24.74255558900492
 46
23.74042344662371
 79
     2
 49
2.4285
 49
-26.7135
 53
81.18400000000004
 43
525.7862523171673
 44
631.2103473068361
 45
-24.74251178605976
 46
23.74046058139339
 79
     2
 49
2.286
 49
-25.146
 53
111.0
 43
527.0562523171673
 44
633.7503473068361
 45
10.22655185167625
 46
15.16148798353833
 79
     2
 49
1.905
 49
-20.955
 53
56.00000000000004
 43
527.0562523171673
 44
633.7503473068361
 45
-18.41879661223192
 46
6.180202834764708
 79
     2
 49
1.524
 49
-16.764
 53
161.4514
 43
527.9084623171672
 44
635.0137973068362
 45
-8.192285771605742
 46
21.34164907701245
 79
     2
 49
1.618999999999999
 49
-17.80899999999998
 53
127.5
 43
530.8662523171672
 44
631.2103473068361
 45
-8.455503887315311
 46
0.3088603250591822
 79
     6
 49
0.0
 49
-16.5608
 49
0.0
 49
-17.018
 49
0.0
 49
-16.8275
 53
97.49999999999998
 43
530.8662523171672
 44
631.2103473068361
 45
-10.01805748181195
 46
6.681966251030575
 79
     6
 49
0.0
 49
-9.702799999999999
 49
0.0
 49
-16.1798
 49
0.0
 49
-6.4135
 53
57.5
 43
530.8662523171672
 44
625.5461473068362
 45
0.5728743992673473
 46
13.55905951668713
 79
     6
 49
0.0
 49
-6.35
 49
0.0
 49
-19.812
 49
0.0
 49
-26.289
 53
47.5
 43
530.8662523171672
 44
623.0061473068361
 45
-2.5426491033333
 46
14.8129181386018
 79
     6
 49
0.0
 49
-8.255
 49
0.0
 49
-13.1572
 49
0.0
 49
-18.669
 47
0.4135357145080551
 98
        4
 10
879.4341168251133
 20
273.318306551271
 10
1274.93548350197
 20
241.6906008082203
 10
1322.518053467965
 20
240.4499982059749
 10
1389.961181219668
 20
242.1041350089706
  0
HATCH
  5
29A
330
1F
100
AcDbEntity
  8
STAVBA OBRYS
100
AcDbHatch
 10
0.0
 20
0.0
 30
0.0
210
0.0
220
0.0
230
1.0
  2
AR-CONC
 70
     0
 71
     0
 91
        1
 92
        7
 72
     0
 73
     1
 93
        6
 10
1575.526626486901
 20
50.78311360741214
 10
865.7847467040076
 20
50.78311360741304
 10
865.7847467040003
 20
-137.4596332201897
 10
875.7847467039967
 20
-136.9733812854926
 10
875.784746704004
 20
40.78311360741213
 10
1575.526626486901
 20
40.78311360741213
 97
        0
 75
     0
 76
     1
 52
90.0
 41
0.1
 77
     0
 78
    13
 53
140.0
 43
-26821.60672042219
 44
3097.502343602205
 45
1.593908553890309
 46
18.2184668996004
 79
     2
 49
1.905
 49
-20.955
 53
85.00000000000001
 43
-26821.60672042219
 44
3097.502343602205
 45
-19.10566428821799
 46
-3.524282597566697
 79
     2
 49
1.524
 49
-16.764
 53
190.4509999999999
 43
-26821.47389542218
 44
3099.020543602206
 45
-17.51166878202918
 46
14.69425016659592
 79
     2
 49
1.619
 49
-17.809
 53
136.1841999999999
 43
-26826.68672042218
 44
3097.502343602205
 45
4.204232793272717
 46
27.10790408921299
 79
     2
 49
2.857499999999999
 49
-31.4325
 53
186.6355999999999
 43
-26826.33637042219
 44
3099.761333602206
 45
-24.74255558900492
 46
23.74042344662371
 79
     2
 49
2.4285
 49
-26.7135
 53
81.18400000000004
 43
-26826.68672042218
 44
3097.502343602205
 45
-24.74251178605976
 46
23.74046058139339
 79
     2
 49
2.286
 49
-25.146
 53
111.0
 43
-26825.41672042219
 44
3100.042343602205
 45
10.22655185167625
 46
15.16148798353833
 79
     2
 49
1.905
 49
-20.955
 53
56.00000000000004
 43
-26825.41672042219
 44
3100.042343602205
 45
-18.41879661223192
 46
6.180202834764708
 79
     2
 49
1.524
 49
-16.764
 53
161.4514
 43
-26824.56451042219
 44
3101.305793602205
 45
-8.192285771605742
 46
21.34164907701245
 79
     2
 49
1.618999999999997
 49
-17.80899999999996
 53
127.5
 43
-26821.60672042219
 44
3097.502343602205
 45
-8.455503887315311
 46
0.3088603250591822
 79
     6
 49
0.0
 49
-16.5608
 49
0.0
 49
-17.018
 49
0.0
 49
-16.8275
 53
97.49999999999989
 43
-26821.60672042219
 44
3097.502343602205
 45
-10.01805748181195
 46
6.681966251030575
 79
     6
 49
0.0
 49
-9.702799999999998
 49
0.0
 49
-16.17979999999999
 49
0.0
 49
-6.413499999999999
 53
57.5
 43
-26821.60672042219
 44
3091.838143602205
 45
0.5728743992673473
 46
13.55905951668713
 79
     6
 49
0.0
 49
-6.35
 49
0.0
 49
-19.812
 49
0.0
 49
-26.289
 53
47.5
 43
-26821.60672042219
 44
3089.298143602205
 45
-2.5426491033333
 46
14.8129181386018
 79
     6
 49
0.0
 49
-8.255
 49
0.0
 49
-13.1572
 49
0.0
 49
-18.669
 47
1.255134839913078
 98
        1
 10
1049.383095115855
 20
47.11094002678442
  0
HATCH
  5
29B
330
1F
100
AcDbEntity
  8
STAVBA OBRYS
100
AcDbHatch
 10
0.0
 20
0.0
 30
0.0
210
0.0
220
0.0
230
1.0
  2
ANSI35
 70
     0
 71
     0
 91
        1
 92
        7
 72
     1
 73
     1
 93
       13
 10
1575.526626486901
 20
170.7831136074121
 42
0.0
 10
1419.020941358262
 20
170.7831136074121
 42
0.0
 10
1419.020941358262
 20
116.5808298220483
 42
-1.0
 10
1419.020941358262
 20
114.0808298220483
 42
-1.0
 10
1419.020941358262
 20
116.5808298220483
 42
0.0
 10
1419.020941358266
 20
170.7831136074121
 42
0.0
 10
1395.902866320374
 20
170.7831136074121
 42
0.0
 10
875.7847467040003
 20
170.7831136074121
 42
0.0
 10
670.4053629076327
 20
170.7831136074121
 42
0.0
 10
670.405362907629
 20
-42.82857647709602
 42
0.0
 10
865.784746704004
 20
-42.82857647709602
 42
0.0
 10
865.7847467040076
 20
50.78311360741214
 42
0.0
 10
1575.526626486905
 20
50.78311360741214
 42
0.0
 97
        0
 75
     0
 76
     1
 52
0.0
 41
3.0
 77
     0
 78
     2
 53
45.0
 43
-26821.60672042219
 44
3097.502343602205
 45
-13.47038418160372
 46
13.47038418160373
 79
     0
 53
45.0
 43
-26808.13633042219
 44
3097.502343602205
 45
-13.47038418160372
 46
13.47038418160373
 79
     4
 49
23.8125
 49
-4.762499999999999
 49
0.0
 49
-4.762499999999999
 47
3.017070218097292
 98
        1
 10
907.6308225391723
 20
100.7594495454279
  0
LWPOLYLINE
  5
29C
330
1F
100
AcDbEntity
  8
izolace
100
AcDbPolyline
 90
        4
 70
     1
 43
0.0
 10
1575.526626486901
 20
170.7831136074121
 10
875.7847467040003
 20
170.7831136074121
 10
875.7847467040003
 20
173.7831136074121
 10
1575.526626486901
 20
173.7831136074121
  0
HATCH
  5
29D
330
1F
100
AcDbEntity
  8
CETRIS
100
AcDbHatch
 10
0.0
 20
0.0
 30
0.0
210
0.0
220
0.0
230
1.0
  2
ANSI31
 70
     0
 71
     0
 91
        1
 92
        1
 93
        4
 72
     1
 10
1575.526626486901
 20
225.7831136074121
 11
1575.526626486901
 21
213.7831136074121
 72
     1
 10
1575.526626486901
 20
213.7831136074121
 11
890.7847467040003
 21
213.7831136074121
 72
     1
 10
890.7847467040003
 20
213.7831136074121
 11
890.7847467040003
 21
225.7831136074121
 72
     1
 10
890.7847467040003
 20
225.7831136074121
 11
1575.526626486901
 21
225.7831136074121
 97
        0
 75
     0
 76
     1
 52
90.0
 41
1.0
 77
     0
 78
     1
 53
135.0
 43
-24267.73456343836
 44
3329.271334255001
 45
-2.245064030267288
 46
-2.245064030267287
 79
     0
 98
        1
 10
-24267.73456343836
 20
3329.271334255001
  0
HATCH
  5
29E
330
1F
100
AcDbEntity
  8
CETRIS
100
AcDbHatch
 10
0.0
 20
0.0
 30
0.0
210
0.0
220
0.0
230
1.0
  2
ANSI31
 70
     0
 71
     0
 91
        1
 92
        1
 93
        4
 72
     1
 10
1575.526626486901
 20
237.7831136074121
 11
1575.526626486901
 21
225.7831136074121
 72
     1
 10
1575.526626486901
 20
225.7831136074121
 11
890.7847467040003
 21
225.7831136074121
 72
     1
 10
890.7847467040003
 20
225.7831136074121
 11
890.7847467040003
 21
237.7831136074121
 72
     1
 10
890.7847467040003
 20
237.7831136074121
 11
1575.526626486901
 21
237.7831136074121
 97
        0
 75
     0
 76
     1
 52
0.0
 41
1.0
 77
     0
 78
     1
 53
45.0
 43
-24267.73456343836
 44
3329.271334255001
 45
-2.245064030267287
 46
2.245064030267288
 79
     0
 98
        1
 10
-24267.73456343836
 20
3329.271334255001
  0
LINE
  5
29F
330
1F
100
AcDbEntity
  8
STAVBA OBRYS
100
AcDbLine
 10
875.7847467040003
 20
40.78311360741213
 30
0.0
 11
1575.526626486901
 21
40.78311360741213
 31
0.0
  0
LINE
  5
2A0
330
1F
100
AcDbEntity
  8
STAVBA OBRYS
100
AcDbLine
 10
865.784746704004
 20
50.78311360741214
 30
0.0
 11
1575.526626486901
 21
50.78311360741214
 31
0.0
  0
LINE
  5
2A1
330
1F
100
AcDbEntity
  8
CETRIS
100
AcDbLine
 10
890.7847467040003
 20
225.7831136074121
 30
0.0
 11
1575.526626486901
 21
225.7831136074121
 31
0.0
  0
LINE
  5
2A2
330
1F
100
AcDbEntity
  8
izolace
  6
IZOLACE
 48
1.9
100
AcDbLine
 10
890.7847467040003
 20
193.7831136074121
 30
0.0
 11
1575.526626486901
 21
193.7831136074121
 31
0.0
  0
LINE
  5
2A3
330
1F
100
AcDbEntity
  8
CETRIS
100
AcDbLine
 10
890.7847467040003
 20
213.7831136074121
 30
0.0
 11
1575.526626486901
 21
213.7831136074121
 31
0.0
  0
LINE
  5
2A4
330
1F
100
AcDbEntity
  8
CETRIS
100
AcDbLine
 10
890.7847467040003
 20
237.7831136074121
 30
0.0
 11
1575.526626486901
 21
237.7831136074121
 31
0.0
  0
LINE
  5
2A5
330
1F
100
AcDbEntity
  8
STAVBA OBRYS
100
AcDbLine
 10
626.7041508755057
 20
170.783113607413
 30
0.0
 11
1575.526626486901
 21
170.7831136074121
 31
0.0
  0
LINE
  5
2A6
330
1F
100
AcDbEntity
  8
STAVBA OBRYS
100
AcDbLine
 10
874.967629256381
 20
170.7831136074121
 30
0.0
 11
1086.395309148221
 21
170.7831136074121
 31
0.0
  0
LINE
  5
2A7
330
1F
100
AcDbEntity
  8
nášlap_vrstvy
100
AcDbLine
 10
1141.57083552956
 20
243.1439857835914
 30
0.0
 11
880.8727804272232
 21
243.1439857835914
 31
0.0
  0
LWPOLYLINE
  5
2A8
330
1F
100
AcDbEntity
  8
nášlap_vrstvy
100
AcDbPolyline
 90
        4
 70
     1
 43
0.0
 10
1010.514703673517
 20
243.1439857835914
 10
1135.514703673517
 20
243.1439857835914
 10
1135.514703673517
 20
249.3939857835914
 10
1010.514703673517
 20
249.3939857835914
  0
LWPOLYLINE
  5
2A9
330
1F
100
AcDbEntity
  8
nášlap_vrstvy
100
AcDbPolyline
 90
        4
 70
     1
 43
0.0
 10
1225.655686595454
 20
237.7831136074121
 10
875.784746704004
 20
237.7831136074121
 10
875.784746704004
 20
239.2831136074121
 10
1225.655686595454
 20
239.2831136074121
  0
TEXT
  5
2AA
330
1F
100
AcDbEntity
  8
POPIS
100
AcDbText
 10
989.4041887754422
 20
318.925933433323
 30
0.0
 40
25.0
  1
02
 41
0.85
  7
SIMPLEX7
100
AcDbText
  0
TEXT
  5
2AB
330
1F
100
AcDbEntity
  8
POPIS
100
AcDbText
 10
607.4418972706618
 20
584.3708016604189
 30
0.0
 40
50.0
  1
Podlahová krytina - keramická dlažba
 41
0.85
  7
SIMPLEX7
100
AcDbText
  0
HATCH
  5
2AD
330
1F
100
AcDbEntity
  8
nášlap_vrstvy
100
AcDbHatch
 10
0.0
 20
0.0
 30
0.0
210
0.0
220
0.0
230
1.0
  2
SOLID
 70
     1
 71
     0
 91
        3
 92
        7
 72
     0
 73
     1
 93
        6
 10
880.2186901003258
 20
266.1198261476704
 10
878.5537129090096
 20
266.1198261476704
 10
878.5537129090096
 20
252.6398919218206
 10
880.9178589244726
 20
252.6398919218206
 10
880.9482218078368
 20
254.8261908336864
 10
880.2186901003258
 20
254.8261908336864
 97
        0
 92
        7
 72
     1
 73
     1
 93
        8
 10
887.2546274642839
 20
254.8261908336864
 42
0.0
 10
880.9482218078366
 20
254.8261908336864
 42
0.0
 10
880.9178589244726
 20
252.6398919218206
 42
0.0
 10
885.5834692986459
 20
252.6398919218206
 42
0.2569302424632091
 10
890.7312915048398
 20
247.6558678795498
 42
0.0
 10
890.7312915048398
 20
243.1439857835914
 42
0.0
 10
892.6868325143743
 20
243.1439857835914
 42
0.0
 10
892.6868325143743
 20
249.393985783596
 42
-0.4142135623730951
 97
        0
 92
        7
 72
     0
 73
     1
 93
        6
 10
903.8486207913022
 20
242.489895456694
 10
892.6868325143743
 20
242.489895456694
 10
892.6868325143743
 20
243.1439857835914
 10
890.7312915048398
 20
243.1439857835914
 10
890.7312915048398
 20
240.8249182653778
 10
903.8486207913022
 20
240.8249182653778
 97
        0
 75
     0
 76
     1
 47
0.0418313123855871
 98
        3
 10
879.3142878946394
 20
260.0609455787651
 10
883.9182362095064
 20
253.3260865032768
 10
892.6239199573222
 20
241.4459926354918
  0
LINE
  5
2AE
330
1F
100
AcDbEntity
  8
nášlap_vrstvy
100
AcDbLine
 10
890.7312915048398
 20
240.8249182653778
 30
0.0
 11
890.7312915048398
 21
247.6558678795498
 31
0.0
  0
ARC
  5
2AF
330
1F
100
AcDbEntity
  8
nášlap_vrstvy
100
AcDbCircle
 10
892.6868325143743
 20
254.8261908336864
 30
0.0
 40
7.432205050090487
100
AcDbArc
 50
197.1075086701675
 51
254.7448933034258
  0
LINE
  5
2B0
330
1F
100
AcDbEntity
  8
nášlap_vrstvy
100
AcDbLine
 10
880.8727804272232
 20
249.3939857835914
 30
0.0
 11
880.8727804272232
 21
243.1439857835914
 31
0.0
  0
LINE
  5
2B1
330
1F
100
AcDbEntity
  8
nášlap_vrstvy
100
AcDbLine
 10
1005.872780427223
 20
243.1439857835914
 30
0.0
 11
1005.872780427223
 21
249.3939857835914
 31
0.0
  0
LINE
  5
2B2
330
1F
100
AcDbEntity
  8
nášlap_vrstvy
100
AcDbLine
 10
892.6868325143743
 20
249.393985783596
 30
0.0
 11
892.6868325143743
 21
243.1439857835914
 31
0.0
  0
HATCH
  5
2B3
330
1F
100
AcDbEntity
  8
STAVBA OBRYS
100
AcDbHatch
 10
0.0
 20
0.0
 30
0.0
210
0.0
220
0.0
230
1.0
  2
AR-CONC
 70
     0
 71
     0
 91
        2
 92
        7
 72
     0
 73
     1
 93
        4
 10
875.784746704004
 20
446.2039936091616
 10
865.784746704004
 20
446.2039936091616
 10
865.784746704004
 20
198.214542325358
 10
875.784746704004
 20
193.3324830311651
 97
        0
 92
        7
 72
     0
 73
     1
 93
        4
 10
626.7041508755093
 20
446.2039936091589
 10
616.7041508755057
 20
446.203993609158
 10
616.7041508755094
 20
-149.5712253819152
 10
626.7041508755093
 20
-149.0849734472172
 97
        0
 75
     0
 76
     1
 52
90.0
 41
0.1
 77
     0
 78
    13
 53
140.0
 43
-26821.60672042219
 44
3097.502343602205
 45
1.593908553890309
 46
18.2184668996004
 79
     2
 49
1.905
 49
-20.955
 53
85.00000000000001
 43
-26821.60672042219
 44
3097.502343602205
 45
-19.10566428821799
 46
-3.524282597566697
 79
     2
 49
1.524
 49
-16.764
 53
190.4509999999999
 43
-26821.47389542218
 44
3099.020543602206
 45
-17.51166878202918
 46
14.69425016659592
 79
     2
 49
1.619
 49
-17.809
 53
136.1841999999999
 43
-26826.68672042218
 44
3097.502343602205
 45
4.204232793272717
 46
27.10790408921299
 79
     2
 49
2.857499999999999
 49
-31.4325
 53
186.6355999999999
 43
-26826.33637042219
 44
3099.761333602206
 45
-24.74255558900492
 46
23.74042344662371
 79
     2
 49
2.4285
 49
-26.7135
 53
81.18400000000004
 43
-26826.68672042218
 44
3097.502343602205
 45
-24.74251178605976
 46
23.74046058139339
 79
     2
 49
2.286
 49
-25.146
 53
111.0
 43
-26825.41672042219
 44
3100.042343602205
 45
10.22655185167625
 46
15.16148798353833
 79
     2
 49
1.905
 49
-20.955
 53
56.00000000000004
 43
-26825.41672042219
 44
3100.042343602205
 45
-18.41879661223192
 46
6.180202834764708
 79
     2
 49
1.524
 49
-16.764
 53
161.4514
 43
-26824.56451042219
 44
3101.305793602205
 45
-8.192285771605742
 46
21.34164907701245
 79
     2
 49
1.618999999999997
 49
-17.80899999999996
 53
127.5
 43
-26821.60672042219
 44
3097.502343602205
 45
-8.455503887315311
 46
0.3088603250591822
 79
     6
 49
0.0
 49
-16.5608
 49
0.0
 49
-17.018
 49
0.0
 49
-16.8275
 53
97.49999999999989
 43
-26821.60672042219
 44
3097.502343602205
 45
-10.01805748181195
 46
6.681966251030575
 79
     6
 49
0.0
 49
-9.702799999999998
 49
0.0
 49
-16.17979999999999
 49
0.0
 49
-6.413499999999999
 53
57.5
 43
-26821.60672042219
 44
3091.838143602205
 45
0.5728743992673473
 46
13.55905951668713
 79
     6
 49
0.0
 49
-6.35
 49
0.0
 49
-19.812
 49
0.0
 49
-26.289
 53
47.5
 43
-26821.60672042219
 44
3089.298143602205
 45
-2.5426491033333
 46
14.8129181386018
 79
     6
 49
0.0
 49
-8.255
 49
0.0
 49
-13.1572
 49
0.0
 49
-18.669
 47
1.255134839913078
 98
        2
 10
869.6673684797017
 20
294.7719379164693
 10
622.2539531457471
 20
243.3113982491042
  0
HATCH
  5
2B4
330
1F
100
AcDbEntity
  8
STAVBA OBRYS
100
AcDbHatch
 10
0.0
 20
0.0
 30
0.0
210
0.0
220
0.0
230
1.0
  2
BRICK
 70
     0
 71
     0
 91
        3
 92
        7
 72
     0
 73
     1
 93
        4
 10
865.784746704004
 20
446.2039936091616
 10
626.7041508755093
 20
446.2039936091589
 10
626.7041508755093
 20
170.7831136074139
 10
865.7847467040111
 20
170.7831136074139
 97
        0
 92
        7
 72
     0
 73
     1
 93
        4
 10
865.784746704004
 20
-42.82857647709602
 10
626.7041508755093
 20
-42.8285764770942
 10
626.7041508755093
 20
-149.0849734472163
 10
865.7847467040076
 20
-137.4596332201906
 97
        0
 92
       24
 93
        4
 72
     1
 10
764.6485421995378
 20
207.59239060606
 11
805.4799712582054
 21
207.59239060606
 72
     1
 10
805.4799712582054
 20
207.59239060606
 11
805.4799712582054
 21
245.8853646851869
 72
     1
 10
805.4799712582054
 20
245.8853646851869
 11
764.6485421995378
 21
245.8853646851869
 72
     1
 10
764.6485421995378
 20
245.8853646851869
 11
764.6485421995378
 21
207.5923906060609
 97
        0
 75
     0
 76
     1
 52
0.0
 41
10.0
 77
     0
 78
     3
 53
0.0
 43
-26821.60672042219
 44
3097.502343602205
 45
0.0
 46
63.5
 79
     0
 53
90.0
 43
-26821.60672042219
 44
3097.502343602205
 45
-127.0
 46
0.0000000000000078
 79
     2
 49
63.5
 49
-63.5
 53
90.0
 43
-26758.10672042219
 44
3097.502343602205
 45
-127.0
 46
0.0000000000000078
 79
     2
 49
-63.5
 49
63.5
 47
3.017070218097292
 98
        2
 10
789.8928190105973
 20
302.9031643949886
 10
759.7035816246163
 20
-92.33303646170019
  0
LINE
  5
2B5
330
1F
100
AcDbEntity
  8
STAVBA OBRYS
100
AcDbLine
 10
865.784746704004
 20
170.7831136074121
 30
0.0
 11
865.7847467040003
 21
446.2039936091616
 31
0.0
  0
LINE
  5
2B6
330
1F
100
AcDbEntity
  8
STAVBA OBRYS
100
AcDbLine
 10
626.7041508755093
 20
-149.5712253819152
 30
0.0
 11
626.7041508755057
 21
446.2039936091589
 31
0.0
  0
LINE
  5
2B7
330
1F
100
AcDbEntity
  8
STAVBA OBRYS
100
AcDbLine
 10
616.7041508755094
 20
-149.5712253819152
 30
0.0
 11
616.7041508755057
 21
446.2039936091589
 31
0.0
  0
LINE
  5
2B8
330
1F
100
AcDbEntity
  8
STAVBA OBRYS
100
AcDbLine
 10
875.784746704004
 20
170.7831136074121
 30
0.0
 11
875.7847467040003
 21
446.2039936091616
 31
0.0
  0
LINE
  5
2B9
330
1F
100
AcDbEntity
  8
POPIS
100
AcDbLine
 10
1008.199782187154
 20
310.0765723605993
 30
0.0
 11
1008.199782187154
 21
244.6645165592192
 31
0.0
  0
INSERT
  5
2BA
330
1F
100
AcDbEntity
  8
POPIS
100
AcDbBlockReference
  2
E_PUNKT
 10
1008.157645564158
 20
246.5228990496618
 30
0.0
 50
270.0
  0
LINE
  5
2BB
330
1F
100
AcDbEntity
  8
STAVBA OBRYS
100
AcDbLine
 10
865.784746704004
 20
-42.82857647709602
 30
0.0
 11
626.7041508755093
 21
-42.82857647709692
 31
0.0
  0
LINE
  5
2BC
330
1F
100
AcDbEntity
  8
izolace
  6
IZOLACE
 48
2.1
100
AcDbLine
 10
649.0848649802749
 20
-42.82857647709602
 30
0.0
 11
649.0848649802749
 21
170.7831136074121
 31
0.0
  0
LINE
  5
2BD
330
1F
100
AcDbEntity
  8
STAVBA OBRYS
100
AcDbLine
 10
670.4053629076327
 20
-42.82857647709602
 30
0.0
 11
670.4053629076327
 21
170.7831136074121
 31
0.0
  0
LINE
  5
2BE
330
1F
100
AcDbEntity
  8
STAVBA OBRYS
100
AcDbLine
 10
865.784746704004
 20
50.78311360741214
 30
0.0
 11
865.784746704004
 21
-136.9733812854926
 31
0.0
  0
LINE
  5
2BF
330
1F
100
AcDbEntity
  8
STAVBA OBRYS
100
AcDbLine
 10
875.7847467040003
 20
40.78311360741213
 30
0.0
 11
875.7847467040003
 21
-136.9733812854926
 31
0.0
  0
LINE
  5
2C0
330
1F
100
AcDbEntity
  8
POPIS
100
AcDbLine
 10
884.732561295708
 20
191.1532344981327
 30
0.0
 11
809.2391004814846
 21
225.8204620940261
 31
0.0
  0
TEXT
  5
2C1
330
1F
100
AcDbEntity
  8
POPIS
100
AcDbText
 10
771.0307045460606
 20
214.4008831026487
 30
0.0
 40
25.0
  1
08
 41
0.85
  7
SIMPLEX7
100
AcDbText
  0
LINE
  5
2C2
330
1F
100
AcDbEntity
  8
izolace
  6
IZOLACE
 48
0.6
100
AcDbLine
 10
884.7855973588551
 20
237.7831136074125
 30
0.0
 11
884.7855973588551
 21
173.7831136074125
 31
0.0
  0
HATCH
  5
2C3
330
1F
100
AcDbEntity
  8
izolace
100
AcDbHatch
 10
0.0
 20
0.0
 30
0.0
210
0.0
220
0.0
230
1.0
  2
SOLID
 70
     1
 71
     0
 91
        1
 92
        7
 72
     0
 73
     1
 93
        4
 10
875.784746704004
 20
194.4248463172523
 10
875.784746704004
 20
170.7831136074171
 10
878.7847467040039
 20
170.7831136074134
 10
878.7847467040039
 20
194.4248463172523
 97
        0
 75
     0
 76
     1
 47
0.1901250437635136
 98
        1
 10
876.6015582550837
 20
180.140908365757
  0
LWPOLYLINE
  5
2C4
330
1F
100
AcDbEntity
  8
izolace
100
AcDbPolyline
 90
        4
 70
     1
 43
0.0
 10
875.784746704004
 20
170.7831136074134
 10
878.7847467040039
 20
170.7831136074134
 10
878.7847467040039
 20
239.2831136074121
 10
875.7847467040031
 20
239.2831136074121
  0
HATCH
  5
2C5
330
1F
100
AcDbEntity
  8
izolace
100
AcDbHatch
 10
0.0
 20
0.0
 30
0.0
210
0.0
220
0.0
230
1.0
  2
SOLID
 70
     1
 71
     0
 91
        1
 92
        7
 72
     0
 73
     1
 93
        4
 10
875.784746704004
 20
239.2966351714574
 10
875.784746704004
 20
215.6549024616221
 10
878.7847467040039
 20
215.6549024616186
 10
878.7847467040039
 20
239.2966351714574
 97
        0
 75
     0
 76
     1
 47
0.1901250437635136
 98
        1
 10
876.6015582550837
 20
225.0126972199621
  0
LWPOLYLINE
  5
2C6
330
1F
100
AcDbEntity
  8
izolace
100
AcDbPolyline
 90
        4
 70
     1
 43
0.0
 10
875.7847467040031
 20
239.2831136074121
 10
875.784746704004
 20
218.0665790270838
 10
878.7847467040039
 20
218.0665790270838
 10
878.7847467040039
 20
239.2831136074121
  0
LINE
  5
2C7
330
1F
100
AcDbEntity
  8
nášlap_vrstvy
100
AcDbLine
 10
903.8486207913022
 20
240.8249182653778
 30
0.0
 11
890.7312915048398
 21
240.8249182653778
 31
0.0
  0
LINE
  5
2C8
330
1F
100
AcDbEntity
  8
nášlap_vrstvy
100
AcDbLine
 10
903.8486207913022
 20
242.489895456694
 30
0.0
 11
903.8486207913022
 21
240.8249182653778
 31
0.0
  0
LINE
  5
2C9
330
1F
100
AcDbEntity
  8
nášlap_vrstvy
100
AcDbLine
 10
892.6868325143743
 20
242.489895456694
 30
0.0
 11
903.8486207913022
 21
242.489895456694
 31
0.0
  0
LINE
  5
2CA
330
1F
100
AcDbEntity
  8
nášlap_vrstvy
100
AcDbLine
 10
892.6868325143743
 20
243.1439857835914
 30
0.0
 11
892.6868325143743
 21
242.489895456694
 31
0.0
  0
LINE
  5
2CB
330
1F
100
AcDbEntity
  8
nášlap_vrstvy
100
AcDbLine
 10
880.8727804272232
 20
243.1439857835914
 30
0.0
 11
1005.872780427223
 21
243.1439857835914
 31
0.0
  0
HATCH
  5
2CC
330
1F
100
AcDbEntity
  8
STAVBA OBRYS
100
AcDbHatch
 10
0.0
 20
0.0
 30
0.0
210
0.0
220
0.0
230
1.0
  2
AR-CONC
 70
     0
 71
     0
 91
        1
 92
        7
 72
     0
 73
     1
 93
        5
 10
865.784746704004
 20
170.7831136074121
 10
875.7847467039967
 20
170.7831136074121
 10
875.7847467040003
 20
173.7831136074121
 10
875.784746704004
 20
193.3324830311642
 10
865.7847467039967
 20
198.2145423253571
 97
        0
 75
     0
 76
     1
 52
90.0
 41
0.1
 77
     0
 78
    13
 53
140.0
 43
-26821.60672042219
 44
3097.502343602205
 45
1.593908553890309
 46
18.2184668996004
 79
     2
 49
1.905
 49
-20.955
 53
85.00000000000001
 43
-26821.60672042219
 44
3097.502343602205
 45
-19.10566428821799
 46
-3.524282597566697
 79
     2
 49
1.524
 49
-16.764
 53
190.4509999999999
 43
-26821.47389542218
 44
3099.020543602206
 45
-17.51166878202918
 46
14.69425016659592
 79
     2
 49
1.619
 49
-17.809
 53
136.1841999999999
 43
-26826.68672042218
 44
3097.502343602205
 45
4.204232793272717
 46
27.10790408921299
 79
     2
 49
2.857499999999999
 49
-31.4325
 53
186.6355999999999
 43
-26826.33637042219
 44
3099.761333602206
 45
-24.74255558900492
 46
23.74042344662371
 79
     2
 49
2.4285
 49
-26.7135
 53
81.18400000000004
 43
-26826.68672042218
 44
3097.502343602205
 45
-24.74251178605976
 46
23.74046058139339
 79
     2
 49
2.286
 49
-25.146
 53
111.0
 43
-26825.41672042219
 44
3100.042343602205
 45
10.22655185167625
 46
15.16148798353833
 79
     2
 49
1.905
 49
-20.955
 53
56.00000000000004
 43
-26825.41672042219
 44
3100.042343602205
 45
-18.41879661223192
 46
6.180202834764708
 79
     2
 49
1.524
 49
-16.764
 53
161.4514
 43
-26824.56451042219
 44
3101.305793602205
 45
-8.192285771605742
 46
21.34164907701245
 79
     2
 49
1.618999999999997
 49
-17.80899999999996
 53
127.5
 43
-26821.60672042219
 44
3097.502343602205
 45
-8.455503887315311
 46
0.3088603250591822
 79
     6
 49
0.0
 49
-16.5608
 49
0.0
 49
-17.018
 49
0.0
 49
-16.8275
 53
97.49999999999989
 43
-26821.60672042219
 44
3097.502343602205
 45
-10.01805748181195
 46
6.681966251030575
 79
     6
 49
0.0
 49
-9.702799999999998
 49
0.0
 49
-16.17979999999999
 49
0.0
 49
-6.413499999999999
 53
57.5
 43
-26821.60672042219
 44
3091.838143602205
 45
0.5728743992673473
 46
13.55905951668713
 79
     6
 49
0.0
 49
-6.35
 49
0.0
 49
-19.812
 49
0.0
 49
-26.289
 53
47.5
 43
-26821.60672042219
 44
3089.298143602205
 45
-2.5426491033333
 46
14.8129181386018
 79
     6
 49
0.0
 49
-8.255
 49
0.0
 49
-13.1572
 49
0.0
 49
-18.669
 47
0.415434097446913
 98
        1
 10
868.3702300875987
 20
178.6832230071806
  0
INSERT
  5
2CD
330
1F
100
AcDbEntity
  8
POPIS
100
AcDbBlockReference
  2
E_PUNKT
 10
884.7034929648355
 20
191.1808448737595
 30
0.0
 50
270.0
  0
LWPOLYLINE
  5
2CE
330
1F
100
AcDbEntity
  8
izolace
100
AcDbPolyline
 90
        4
 70
     1
 43
0.0
 10
993.9934102531763
 20
173.7831136074121
 10
970.3516775433412
 20
173.7831136074121
 10
970.3516775433412
 20
170.7831136074121
 10
993.9934102531763
 20
170.7831136074121
  0
HATCH
  5
2CF
330
1F
100
AcDbEntity
  8
izolace
100
AcDbHatch
 10
0.0
 20
0.0
 30
0.0
210
0.0
220
0.0
230
1.0
  2
SOLID
 70
     1
 71
     0
 91
        1
 92
        7
 72
     0
 73
     1
 93
        4
 10
993.9934102531799
 20
173.7831136074121
 10
970.3516775433447
 20
173.7831136074121
 10
970.3516775433412
 20
170.7831136074121
 10
993.9934102531799
 20
170.7831136074121
 97
        0
 75
     0
 76
     1
 47
0.1901250437635136
 98
        1
 10
979.7094723016845
 20
172.9663020563323
  0
HATCH
  5
2D0
330
1F
100
AcDbEntity
  8
izolace
100
AcDbHatch
 10
0.0
 20
0.0
 30
0.0
210
0.0
220
0.0
230
1.0
  2
SOLID
 70
     1
 71
     0
 91
        1
 92
        7
 72
     0
 73
     1
 93
        4
 10
946.7099448335096
 20
173.7831136074121
 10
923.0682121236743
 20
173.7831136074121
 10
923.0682121236707
 20
170.7831136074121
 10
946.7099448335096
 20
170.7831136074121
 97
        0
 75
     0
 76
     1
 47
0.1901250437635136
 98
        1
 10
932.4260068820143
 20
172.9663020563323
  0
HATCH
  5
2D1
330
1F
100
AcDbEntity
  8
izolace
100
AcDbHatch
 10
0.0
 20
0.0
 30
0.0
210
0.0
220
0.0
230
1.0
  2
SOLID
 70
     1
 71
     0
 91
        1
 92
        7
 72
     0
 73
     1
 93
        4
 10
899.4264794138356
 20
173.7831136074121
 10
875.784746704004
 20
173.7831136074121
 10
875.7847467040003
 20
170.7831136074121
 10
899.4264794138391
 20
170.7831136074121
 97
        0
 75
     0
 76
     1
 47
0.1901250437635136
 98
        3
 10
927.6699696780227
 20
172.0156686780239
 10
891.3337788506826
 20
171.8255420023626
 10
887.3387066614553
 20
172.3959220293465
  0
LWPOLYLINE
  5
2D2
330
1F
100
AcDbEntity
  8
izolace
100
AcDbPolyline
 90
        4
 70
     1
 43
0.0
 10
946.7099448335059
 20
173.7831136074121
 10
923.0682121236707
 20
173.7831136074121
 10
923.0682121236707
 20
170.7831136074121
 10
946.7099448335059
 20
170.7831136074121
  0
LWPOLYLINE
  5
2D3
330
1F
100
AcDbEntity
  8
izolace
100
AcDbPolyline
 90
        4
 70
     1
 43
0.0
 10
899.4264794138356
 20
173.7831136074121
 10
875.7847467040003
 20
173.7831136074121
 10
875.7847467040003
 20
170.7831136074121
 10
899.4264794138356
 20
170.7831136074121
  0
LINE
  5
2D4
330
1F
100
AcDbEntity
  8
CETRIS
100
AcDbLine
 10
890.7847467040003
 20
225.7831136074121
 30
0.0
 11
890.7847467040003
 21
213.7831136074121
 31
0.0
  0
LINE
  5
2D5
330
1F
100
AcDbEntity
  8
CETRIS
100
AcDbLine
 10
890.7847467040003
 20
237.7831136074121
 30
0.0
 11
890.7847467040003
 21
225.7831136074121
 31
0.0
  0
LINE
  5
2D6
330
1F
100
AcDbEntity
  8
SPOJOVACÍ
  6
DASHED
100
AcDbLine
 10
919.4932915358833
 20
234.1942535416158
 30
0.0
 11
920.4322109844682
 21
235.3774743608567
 31
0.0
  0
LINE
  5
2D7
330
1F
100
AcDbEntity
  8
SPOJOVACÍ
  6
DASHED
100
AcDbLine
 10
918.8925654037186
 20
232.8086636761065
 30
0.0
 11
919.4932915358833
 21
234.1942535416158
 31
0.0
  0
LINE
  5
2D8
330
1F
100
AcDbEntity
  8
SPOJOVACÍ
  6
DASHED
100
AcDbLine
 10
918.6701417706528
 20
231.3155082817459
 30
0.0
 11
918.8925654037186
 21
232.8086636761065
 31
0.0
  0
LINE
  5
2D9
330
1F
100
AcDbEntity
  8
SPOJOVACÍ
  6
DASHED
100
AcDbLine
 10
922.3456011996344
 20
237.7831136074121
 30
0.0
 11
922.3456011996344
 21
236.6071853662154
 31
0.0
  0
LINE
  5
2DA
330
1F
100
AcDbEntity
  8
SPOJOVACÍ
  6
DASHED
100
AcDbLine
 10
912.3492995779118
 20
237.7831136074121
 30
0.0
 11
922.3456011996344
 21
237.7831136074121
 31
0.0
  0
LINE
  5
2DB
330
1F
100
AcDbEntity
  8
SPOJOVACÍ
  6
DASHED
100
AcDbLine
 10
912.3492995779118
 20
237.7831136074121
 30
0.0
 11
912.3492995779118
 21
236.6071853662154
 31
0.0
  0
LINE
  5
2DC
330
1F
100
AcDbEntity
  8
SPOJOVACÍ
  6
DASHED
100
AcDbLine
 10
912.3492995779118
 20
236.6071853662154
 30
0.0
 11
922.3456011996344
 21
236.6071853662154
 31
0.0
  0
LINE
  5
2DD
330
1F
100
AcDbEntity
  8
SPOJOVACÍ
  6
DASHED
100
AcDbLine
 10
921.6446021171899
 20
236.2771962010895
 30
0.0
 11
922.3456011996344
 21
236.6071853662154
 31
0.0
  0
LINE
  5
2DE
330
1F
100
AcDbEntity
  8
SPOJOVACÍ
  6
DASHED
100
AcDbLine
 10
920.4322109844682
 20
235.3774743608567
 30
0.0
 11
921.6446021171899
 21
236.2771962010895
 31
0.0
  0
LINE
  5
2DF
330
1F
100
AcDbEntity
  8
SPOJOVACÍ
  6
DASHED
100
AcDbLine
 10
915.9600373788883
 20
232.0866984304059
 30
0.0
 11
916.0247590111714
 21
231.3155082817459
 31
0.0
  0
LINE
  5
2E0
330
1F
100
AcDbEntity
  8
SPOJOVACÍ
  6
DASHED
100
AcDbLine
 10
915.5407141318748
 20
233.537921500115
 30
0.0
 11
915.9600373788883
 21
232.0866984304059
 31
0.0
  0
LINE
  5
2E1
330
1F
100
AcDbEntity
  8
SPOJOVACÍ
  6
DASHED
100
AcDbLine
 10
914.760408262143
 20
234.8305309928466
 30
0.0
 11
915.5407141318748
 21
233.537921500115
 31
0.0
  0
LINE
  5
2E2
330
1F
100
AcDbEntity
  8
SPOJOVACÍ
  6
DASHED
100
AcDbLine
 10
913.6719909597916
 20
235.8779275424706
 30
0.0
 11
914.760408262143
 21
234.8305309928466
 31
0.0
  0
LINE
  5
2E3
330
1F
100
AcDbEntity
  8
SPOJOVACÍ
  6
DASHED
100
AcDbLine
 10
912.3492995779118
 20
236.6071853662154
 30
0.0
 11
913.6719909597916
 21
235.8779275424706
 31
0.0
  0
LINE
  5
2E4
330
1F
100
AcDbEntity
  8
SPOJOVACÍ
  6
DASHED
100
AcDbLine
 10
918.6701417706528
 20
231.3155082817459
 30
0.0
 11
918.6701417706528
 21
226.4714131863959
 31
0.0
  0
LINE
  5
2E5
330
1F
100
AcDbEntity
  8
SPOJOVACÍ
  6
DASHED
100
AcDbLine
 10
916.0247590111714
 20
231.3155082817459
 30
0.0
 11
916.0247590111714
 21
227.3583730146595
 31
0.0
  0
LINE
  5
2E6
330
1F
100
AcDbEntity
  8
SPOJOVACÍ
  6
DASHED
100
AcDbLine
 10
916.0247590111714
 20
226.7749667556665
 30
0.0
 11
916.0247590111714
 21
224.3064290217382
 31
0.0
  0
LINE
  5
2E7
330
1F
100
AcDbEntity
  8
SPOJOVACÍ
  6
DASHED
100
AcDbLine
 10
916.0247590111714
 20
223.7148186122496
 30
0.0
 11
916.0247590111714
 21
221.2444577336748
 31
0.0
  0
LINE
  5
2E8
330
1F
100
AcDbEntity
  8
SPOJOVACÍ
  6
DASHED
100
AcDbLine
 10
916.0247590111714
 20
220.6619630468697
 30
0.0
 11
916.0247590111714
 21
218.1843095902579
 31
0.0
  0
LINE
  5
2E9
330
1F
100
AcDbEntity
  8
SPOJOVACÍ
  6
DASHED
100
AcDbLine
 10
918.6701417706528
 20
225.8798027769073
 30
0.0
 11
918.6701417706528
 21
223.411265042979
 31
0.0
  0
LINE
  5
2EA
330
1F
100
AcDbEntity
  8
SPOJOVACÍ
  6
DASHED
100
AcDbLine
 10
918.6701417706528
 20
222.8269472115273
 30
0.0
 11
918.6701417706528
 21
220.3492937549156
 31
0.0
  0
LINE
  5
2EB
330
1F
100
AcDbEntity
  8
SPOJOVACÍ
  6
DASHED
100
AcDbLine
 10
918.6701417706528
 20
219.7667990681104
 30
0.0
 11
918.6701417706528
 21
217.2964381895356
 31
0.0
  0
LINE
  5
2EC
330
1F
100
AcDbEntity
  8
SPOJOVACÍ
  6
DASHED
100
AcDbLine
 10
916.0247590111714
 20
217.5917876083178
 30
0.0
 11
916.0247590111714
 21
215.1241614465773
 31
0.0
  0
LINE
  5
2ED
330
1F
100
AcDbEntity
  8
SPOJOVACÍ
  6
DASHED
100
AcDbLine
 10
916.0247590111714
 20
214.5398436151256
 30
0.0
 11
916.0247590111714
 21
213.3174251880748
 31
0.0
  0
LINE
  5
2EE
330
1F
100
AcDbEntity
  8
SPOJOVACÍ
  6
DASHED
100
AcDbLine
 10
918.6701417706528
 20
216.7075624968813
 30
0.0
 11
918.6701417706528
 21
214.239024762953
 31
0.0
  0
LINE
  5
2EF
330
1F
100
AcDbEntity
  8
SPOJOVACÍ
  6
DASHED
100
AcDbLine
 10
918.6701417706528
 20
213.6474143532006
 30
0.0
 11
918.6701417706528
 21
213.3174251880748
 31
0.0
  0
LINE
  5
2F0
330
1F
100
AcDbEntity
  8
SPOJOVACÍ
  6
DASHED
100
AcDbLine
 10
916.0247590111714
 20
213.3174251880748
 30
0.0
 11
916.1715221478401
 21
212.1442316637051
 31
0.0
  0
LINE
  5
2F1
330
1F
100
AcDbEntity
  8
SPOJOVACÍ
  6
DASHED
100
AcDbLine
 10
917.347450388773
 20
202.7331594464206
 30
0.0
 11
917.6947594302793
 21
205.5125433276637
 31
0.0
  0
LINE
  5
2F2
330
1F
100
AcDbEntity
  8
SPOJOVACÍ
  6
DASHED
100
AcDbLine
 10
916.2471826485155
 20
211.5362129529687
 30
0.0
 11
916.5315932010447
 21
209.2609285426253
 31
0.0
  0
LINE
  5
2F3
330
1F
100
AcDbEntity
  8
SPOJOVACÍ
  6
DASHED
100
AcDbLine
 10
916.609076845026
 20
208.642882536754
 30
0.0
 11
916.8934873932769
 21
206.3685096986057
 31
0.0
  0
LINE
  5
2F4
330
1F
100
AcDbEntity
  8
SPOJOVACÍ
  6
DASHED
100
AcDbLine
 10
916.9691478939524
 20
205.7604909878693
 30
0.0
 11
917.347450388773
 21
202.7331594464206
 31
0.0
  0
LINE
  5
2F5
330
1F
100
AcDbEntity
  8
SPOJOVACÍ
  6
DASHED
100
AcDbLine
 10
917.7649504967588
 20
206.0704255629891
 30
0.0
 11
918.0274833125034
 21
208.1725112402739
 31
0.0
  0
LINE
  5
2F6
330
1F
100
AcDbEntity
  8
SPOJOVACÍ
  6
DASHED
100
AcDbLine
 10
918.0976743747043
 20
208.7331281924337
 30
0.0
 11
918.3592956209352
 21
210.82700971923
 31
0.0
  0
LINE
  5
2F7
330
1F
100
AcDbEntity
  8
SPOJOVACÍ
  6
DASHED
100
AcDbLine
 10
918.4294866874145
 20
211.3858035270143
 30
0.0
 11
918.6701417706528
 21
213.3174251880748
 31
0.0
  0
LINE
  5
2F8
330
1F
100
AcDbEntity
  8
SPOJOVACÍ
  6
DASHED
100
AcDbLine
 10
914.9955939069071
 20
227.1988478657579
 30
0.0
 11
919.699306870639
 21
226.0229196248249
 31
0.0
  0
LINE
  5
2F9
330
1F
100
AcDbEntity
  8
SPOJOVACÍ
  6
DASHED
100
AcDbLine
 10
914.9955939069071
 20
227.1988478657579
 30
0.0
 11
915.3656922547117
 21
226.9855399524306
 31
0.0
  0
LINE
  5
2FA
330
1F
100
AcDbEntity
  8
SPOJOVACÍ
  6
DASHED
100
AcDbLine
 10
914.9955939069071
 20
227.1988478657579
 30
0.0
 11
915.3656922547117
 21
227.5698577836112
 31
0.0
  0
LINE
  5
2FB
330
1F
100
AcDbEntity
  8
SPOJOVACÍ
  6
DASHED
100
AcDbLine
 10
919.699306870639
 20
226.0229196248249
 30
0.0
 11
919.3292085271124
 21
225.6528212791593
 31
0.0
  0
LINE
  5
2FC
330
1F
100
AcDbEntity
  8
SPOJOVACÍ
  6
DASHED
100
AcDbLine
 10
919.699306870639
 20
226.0229196248249
 30
0.0
 11
919.3292085271124
 21
226.237139110611
 31
0.0
  0
LINE
  5
2FD
330
1F
100
AcDbEntity
  8
SPOJOVACÍ
  6
DASHED
100
AcDbLine
 10
915.3656922547117
 20
226.9855399524306
 30
0.0
 11
919.3292085271124
 21
225.6528212791593
 31
0.0
  0
LINE
  5
2FE
330
1F
100
AcDbEntity
  8
SPOJOVACÍ
  6
DASHED
100
AcDbLine
 10
915.3656922547117
 20
227.5698577836112
 30
0.0
 11
919.3292085271124
 21
226.237139110611
 31
0.0
  0
LINE
  5
2FF
330
1F
100
AcDbEntity
  8
SPOJOVACÍ
  6
DASHED
100
AcDbLine
 10
914.9955939069071
 20
224.1414344391753
 30
0.0
 11
919.699306870639
 21
222.9655061979713
 31
0.0
  0
LINE
  5
300
330
1F
100
AcDbEntity
  8
SPOJOVACÍ
  6
DASHED
100
AcDbLine
 10
914.9955939069071
 20
224.1414344391753
 30
0.0
 11
915.3656922547117
 21
223.9272149533892
 31
0.0
  0
LINE
  5
301
330
1F
100
AcDbEntity
  8
SPOJOVACÍ
  6
DASHED
100
AcDbLine
 10
914.9955939069071
 20
224.1414344391753
 30
0.0
 11
915.3656922547117
 21
224.5115327848409
 31
0.0
  0
LINE
  5
302
330
1F
100
AcDbEntity
  8
SPOJOVACÍ
  6
DASHED
100
AcDbLine
 10
919.699306870639
 20
222.9655061979713
 30
0.0
 11
919.3292085271124
 21
222.5954078525767
 31
0.0
  0
LINE
  5
303
330
1F
100
AcDbEntity
  8
SPOJOVACÍ
  6
DASHED
100
AcDbLine
 10
919.699306870639
 20
222.9655061979713
 30
0.0
 11
919.3292085271124
 21
223.1797256837574
 31
0.0
  0
LINE
  5
304
330
1F
100
AcDbEntity
  8
SPOJOVACÍ
  6
DASHED
100
AcDbLine
 10
915.3656922547117
 20
223.9272149533892
 30
0.0
 11
919.3292085271124
 21
222.5954078525767
 31
0.0
  0
LINE
  5
305
330
1F
100
AcDbEntity
  8
SPOJOVACÍ
  6
DASHED
100
AcDbLine
 10
915.3656922547117
 20
224.5115327848409
 30
0.0
 11
919.3292085271124
 21
223.1797256837574
 31
0.0
  0
LINE
  5
306
330
1F
100
AcDbEntity
  8
SPOJOVACÍ
  6
DASHED
100
AcDbLine
 10
915.2444531414396
 20
211.9528014850232
 30
0.0
 11
915.6154630587582
 21
211.738581999237
 31
0.0
  0
LINE
  5
307
330
1F
100
AcDbEntity
  8
SPOJOVACÍ
  6
DASHED
100
AcDbLine
 10
915.2444531414396
 20
211.9528014850232
 30
0.0
 11
915.6154630587582
 21
212.3228998306887
 31
0.0
  0
LINE
  5
308
330
1F
100
AcDbEntity
  8
SPOJOVACÍ
  6
DASHED
100
AcDbLine
 10
919.2872762011276
 20
210.9992968803646
 30
0.0
 11
918.9171778576012
 21
210.6282869622402
 31
0.0
  0
LINE
  5
309
330
1F
100
AcDbEntity
  8
SPOJOVACÍ
  6
DASHED
100
AcDbLine
 10
919.2872762011276
 20
210.9992968803646
 30
0.0
 11
918.9171778576012
 21
211.2126047936919
 31
0.0
  0
LINE
  5
30A
330
1F
100
AcDbEntity
  8
SPOJOVACÍ
  6
DASHED
100
AcDbLine
 10
915.6154630587582
 20
211.738581999237
 30
0.0
 11
918.9171778576012
 21
210.6282869622402
 31
0.0
  0
LINE
  5
30B
330
1F
100
AcDbEntity
  8
SPOJOVACÍ
  6
DASHED
100
AcDbLine
 10
915.6154630587582
 20
212.3228998306887
 30
0.0
 11
918.9171778576012
 21
211.2126047936919
 31
0.0
  0
LINE
  5
30C
330
1F
100
AcDbEntity
  8
SPOJOVACÍ
  6
DASHED
100
AcDbLine
 10
915.2444531414396
 20
211.9528014850232
 30
0.0
 11
919.2872762011276
 21
210.9992968803646
 31
0.0
  0
LINE
  5
30D
330
1F
100
AcDbEntity
  8
SPOJOVACÍ
  6
DASHED
100
AcDbLine
 10
915.7977775134234
 20
208.9983957258112
 30
0.0
 11
916.167875861228
 21
208.7850878124839
 31
0.0
  0
LINE
  5
30E
330
1F
100
AcDbEntity
  8
SPOJOVACÍ
  6
DASHED
100
AcDbLine
 10
915.7977775134234
 20
208.9983957258112
 30
0.0
 11
916.167875861228
 21
209.3694056439356
 31
0.0
  0
LINE
  5
30F
330
1F
100
AcDbEntity
  8
SPOJOVACÍ
  6
DASHED
100
AcDbLine
 10
918.8515446515259
 20
208.3776150033766
 30
0.0
 11
918.4814463079995
 21
208.0066050855232
 31
0.0
  0
LINE
  5
310
330
1F
100
AcDbEntity
  8
SPOJOVACÍ
  6
DASHED
100
AcDbLine
 10
918.8515446515259
 20
208.3776150033766
 30
0.0
 11
918.4814463079995
 21
208.5909229167039
 31
0.0
  0
LINE
  5
311
330
1F
100
AcDbEntity
  8
SPOJOVACÍ
  6
DASHED
100
AcDbLine
 10
916.167875861228
 20
208.7850878124839
 30
0.0
 11
918.4814463079995
 21
208.0066050855232
 31
0.0
  0
LINE
  5
312
330
1F
100
AcDbEntity
  8
SPOJOVACÍ
  6
DASHED
100
AcDbLine
 10
916.167875861228
 20
209.3694056439356
 30
0.0
 11
918.4814463079995
 21
208.5909229167039
 31
0.0
  0
LINE
  5
313
330
1F
100
AcDbEntity
  8
SPOJOVACÍ
  6
DASHED
100
AcDbLine
 10
915.7977775134234
 20
208.9983957258112
 30
0.0
 11
918.8515446515259
 21
208.3776150033766
 31
0.0
  0
LINE
  5
314
330
1F
100
AcDbEntity
  8
SPOJOVACÍ
  6
DASHED
100
AcDbLine
 10
916.3511018896853
 20
206.0449015390579
 30
0.0
 11
916.7212002332119
 21
205.8306820532791
 31
0.0
  0
LINE
  5
315
330
1F
100
AcDbEntity
  8
SPOJOVACÍ
  6
DASHED
100
AcDbLine
 10
916.3511018896853
 20
206.0449015390579
 30
0.0
 11
916.7212002332119
 21
206.4149998847235
 31
0.0
  0
LINE
  5
316
330
1F
100
AcDbEntity
  8
SPOJOVACÍ
  6
DASHED
100
AcDbLine
 10
918.4623032883131
 20
205.7404363975995
 30
0.0
 11
918.0922049447865
 21
205.3694264797461
 31
0.0
  0
LINE
  5
317
330
1F
100
AcDbEntity
  8
SPOJOVACÍ
  6
DASHED
100
AcDbLine
 10
918.4623032883131
 20
205.7404363975995
 30
0.0
 11
918.0922049447865
 21
205.9537443111906
 31
0.0
  0
LINE
  5
318
330
1F
100
AcDbEntity
  8
SPOJOVACÍ
  6
DASHED
100
AcDbLine
 10
916.7212002332119
 20
205.8306820532791
 30
0.0
 11
918.0922049447865
 21
205.3694264797461
 31
0.0
  0
LINE
  5
319
330
1F
100
AcDbEntity
  8
SPOJOVACÍ
  6
DASHED
100
AcDbLine
 10
916.7212002332119
 20
206.4149998847235
 30
0.0
 11
918.0922049447865
 21
205.9537443111906
 31
0.0
  0
LINE
  5
31A
330
1F
100
AcDbEntity
  8
SPOJOVACÍ
  6
DASHED
100
AcDbLine
 10
916.3511018896853
 20
206.0449015390579
 30
0.0
 11
918.4623032883131
 21
205.7404363975995
 31
0.0
  0
LINE
  5
31B
330
1F
100
AcDbEntity
  8
SPOJOVACÍ
  6
DASHED
100
AcDbLine
 10
914.9955939069071
 20
221.0840210123217
 30
0.0
 11
919.699306870639
 21
219.9080927713887
 31
0.0
  0
LINE
  5
31C
330
1F
100
AcDbEntity
  8
SPOJOVACÍ
  6
DASHED
100
AcDbLine
 10
914.9955939069071
 20
221.0840210123217
 30
0.0
 11
915.3656922547117
 21
220.8698015265356
 31
0.0
  0
LINE
  5
31D
330
1F
100
AcDbEntity
  8
SPOJOVACÍ
  6
DASHED
100
AcDbLine
 10
914.9955939069071
 20
221.0840210123217
 30
0.0
 11
915.3656922547117
 21
221.4541193579873
 31
0.0
  0
LINE
  5
31E
330
1F
100
AcDbEntity
  8
SPOJOVACÍ
  6
DASHED
100
AcDbLine
 10
919.699306870639
 20
219.9080927713887
 30
0.0
 11
919.3292085271124
 21
219.5370828535353
 31
0.0
  0
LINE
  5
31F
330
1F
100
AcDbEntity
  8
SPOJOVACÍ
  6
DASHED
100
AcDbLine
 10
919.699306870639
 20
219.9080927713887
 30
0.0
 11
919.3292085271124
 21
220.1214006849797
 31
0.0
  0
LINE
  5
320
330
1F
100
AcDbEntity
  8
SPOJOVACÍ
  6
DASHED
100
AcDbLine
 10
915.3656922547117
 20
220.8698015265356
 30
0.0
 11
919.3292085271124
 21
219.5370828535353
 31
0.0
  0
LINE
  5
321
330
1F
100
AcDbEntity
  8
SPOJOVACÍ
  6
DASHED
100
AcDbLine
 10
915.3656922547117
 20
221.4541193579873
 30
0.0
 11
919.3292085271124
 21
220.1214006849797
 31
0.0
  0
LINE
  5
322
330
1F
100
AcDbEntity
  8
SPOJOVACÍ
  6
DASHED
100
AcDbLine
 10
914.9955939069071
 20
218.0266075857318
 30
0.0
 11
919.699306870639
 21
216.8506793447988
 31
0.0
  0
LINE
  5
323
330
1F
100
AcDbEntity
  8
SPOJOVACÍ
  6
DASHED
100
AcDbLine
 10
914.9955939069071
 20
218.0266075857318
 30
0.0
 11
915.3656922547117
 21
217.812388099953
 31
0.0
  0
LINE
  5
324
330
1F
100
AcDbEntity
  8
SPOJOVACÍ
  6
DASHED
100
AcDbLine
 10
914.9955939069071
 20
218.0266075857318
 30
0.0
 11
915.3656922547117
 21
218.3967059313975
 31
0.0
  0
LINE
  5
325
330
1F
100
AcDbEntity
  8
SPOJOVACÍ
  6
DASHED
100
AcDbLine
 10
919.699306870639
 20
216.8506793447988
 30
0.0
 11
919.3292085271124
 21
216.4796694269455
 31
0.0
  0
LINE
  5
326
330
1F
100
AcDbEntity
  8
SPOJOVACÍ
  6
DASHED
100
AcDbLine
 10
919.699306870639
 20
216.8506793447988
 30
0.0
 11
919.3292085271124
 21
217.0639872581261
 31
0.0
  0
LINE
  5
327
330
1F
100
AcDbEntity
  8
SPOJOVACÍ
  6
DASHED
100
AcDbLine
 10
915.3656922547117
 20
217.812388099953
 30
0.0
 11
919.3292085271124
 21
216.4796694269455
 31
0.0
  0
LINE
  5
328
330
1F
100
AcDbEntity
  8
SPOJOVACÍ
  6
DASHED
100
AcDbLine
 10
915.3656922547117
 20
218.3967059313975
 30
0.0
 11
919.3292085271124
 21
217.0639872581261
 31
0.0
  0
LINE
  5
329
330
1F
100
AcDbEntity
  8
SPOJOVACÍ
  6
DASHED
100
AcDbLine
 10
914.9955939069071
 20
214.9682825866905
 30
0.0
 11
919.699306870639
 21
213.7923543457575
 31
0.0
  0
LINE
  5
32A
330
1F
100
AcDbEntity
  8
SPOJOVACÍ
  6
DASHED
100
AcDbLine
 10
914.9955939069071
 20
214.9682825866905
 30
0.0
 11
915.3656922547117
 21
214.7549746733632
 31
0.0
  0
LINE
  5
32B
330
1F
100
AcDbEntity
  8
SPOJOVACÍ
  6
DASHED
100
AcDbLine
 10
914.9955939069071
 20
214.9682825866905
 30
0.0
 11
915.3656922547117
 21
215.3392925048149
 31
0.0
  0
LINE
  5
32C
330
1F
100
AcDbEntity
  8
SPOJOVACÍ
  6
DASHED
100
AcDbLine
 10
919.699306870639
 20
213.7923543457575
 30
0.0
 11
919.3292085271124
 21
213.4222560000919
 31
0.0
  0
LINE
  5
32D
330
1F
100
AcDbEntity
  8
SPOJOVACÍ
  6
DASHED
100
AcDbLine
 10
919.699306870639
 20
213.7923543457575
 30
0.0
 11
919.3292085271124
 21
214.0065738315436
 31
0.0
  0
LINE
  5
32E
330
1F
100
AcDbEntity
  8
SPOJOVACÍ
  6
DASHED
100
AcDbLine
 10
915.3656922547117
 20
214.7549746733632
 30
0.0
 11
919.3292085271124
 21
213.4222560000919
 31
0.0
  0
LINE
  5
32F
330
1F
100
AcDbEntity
  8
SPOJOVACÍ
  6
DASHED
100
AcDbLine
 10
915.3656922547117
 20
215.3392925048149
 30
0.0
 11
919.3292085271124
 21
214.0065738315436
 31
0.0
  0
LWPOLYLINE
  5
330
330
1F
100
AcDbEntity
  8
izolace
100
AcDbPolyline
 90
        4
 70
     1
 43
0.0
 10
875.7847467040003
 20
237.7831136074121
 10
890.7847467040003
 20
237.7831136074121
 10
890.7847467040003
 20
173.7831136074121
 10
875.7847467040003
 20
173.7831136074121
  0
LWPOLYLINE
  5
331
330
1F
100
AcDbEntity
  8
nášlap_vrstvy
100
AcDbPolyline
 90
        4
 70
     1
 43
0.0
 10
887.6056130589198
 20
239.2831136074121
 10
875.784746704004
 20
239.2831136074121
 10
875.784746704004
 20
237.7831136074121
 10
887.6056130589198
 20
237.7831136074121
  0
LWPOLYLINE
  5
332
330
1F
100
AcDbEntity
  8
nášlap_vrstvy
100
AcDbPolyline
 90
        4
 70
     1
 43
0.0
 10
911.2473457687585
 20
239.2831136074121
 10
899.4264794138391
 20
239.2831136074121
 10
899.4264794138391
 20
237.7831136074121
 10
911.2473457687585
 20
237.7831136074121
  0
HATCH
  5
333
330
1F
100
AcDbEntity
  8
nášlap_vrstvy
100
AcDbHatch
 10
0.0
 20
0.0
 30
0.0
210
0.0
220
0.0
230
1.0
  2
SOLID
 70
     1
 71
     0
 91
        1
 92
        7
 72
     0
 73
     1
 93
        4
 10
887.6056130589198
 20
239.2831136074121
 10
875.784746704004
 20
239.2831136074121
 10
875.784746704004
 20
237.7831136074121
 10
887.6056130589233
 20
237.7831136074121
 97
        0
 75
     0
 76
     1
 47
0.1901250437635136
 98
        3
 10
901.7273581910151
 20
238.399391142718
 10
883.5592627773433
 20
238.3043278048873
 10
881.5617266827315
 20
238.5895178183793
  0
HATCH
  5
334
330
1F
100
AcDbEntity
  8
nášlap_vrstvy
100
AcDbHatch
 10
0.0
 20
0.0
 30
0.0
210
0.0
220
0.0
230
1.0
  2
SOLID
 70
     1
 71
     0
 91
        1
 92
        7
 72
     0
 73
     1
 93
        4
 10
911.2473457687585
 20
239.2831136074121
 10
899.4264794138429
 20
239.2831136074121
 10
899.4264794138391
 20
237.7831136074121
 10
911.2473457687585
 20
237.7831136074121
 97
        0
 75
     0
 76
     1
 47
0.1901250437635136
 98
        1
 10
904.1053767930128
 20
238.8747078318722
  0
HATCH
  5
335
330
1F
100
AcDbEntity
  8
nášlap_vrstvy
100
AcDbHatch
 10
0.0
 20
0.0
 30
0.0
210
0.0
220
0.0
230
1.0
  2
SOLID
 70
     1
 71
     0
 91
        1
 92
        7
 72
     0
 73
     1
 93
        4
 10
934.8890784785938
 20
239.2831136074121
 10
923.0682121236743
 20
239.2831136074121
 10
923.0682121236743
 20
237.7831136074121
 10
934.8890784785938
 20
237.7831136074121
 97
        0
 75
     0
 76
     1
 47
0.1901250437635136
 98
        1
 10
927.7471095028444
 20
238.8747078318722
  0
LWPOLYLINE
  5
336
330
1F
100
AcDbEntity
  8
nášlap_vrstvy
100
AcDbPolyline
 90
        4
 70
     1
 43
0.0
 10
934.8890784785901
 20
239.2831136074121
 10
923.0682121236743
 20
239.2831136074121
 10
923.0682121236743
 20
237.7831136074121
 10
934.8890784785901
 20
237.7831136074121
  0
HATCH
  5
337
330
1F
100
AcDbEntity
  8
nášlap_vrstvy
100
AcDbHatch
 10
0.0
 20
0.0
 30
0.0
210
0.0
220
0.0
230
1.0
  2
SOLID
 70
     1
 71
     0
 91
        1
 92
        7
 72
     0
 73
     1
 93
        4
 10
958.5308111884289
 20
239.2831136074121
 10
946.7099448335131
 20
239.2831136074121
 10
946.7099448335096
 20
237.7831136074121
 10
958.5308111884289
 20
237.7831136074121
 97
        0
 75
     0
 76
     1
 47
0.1901250437635136
 98
        1
 10
951.388842212683
 20
238.8747078318722
  0
LWPOLYLINE
  5
338
330
1F
100
AcDbEntity
  8
nášlap_vrstvy
100
AcDbPolyline
 90
        4
 70
     1
 43
0.0
 10
958.5308111884289
 20
239.2831136074121
 10
946.7099448335096
 20
239.2831136074121
 10
946.7099448335096
 20
237.7831136074121
 10
958.5308111884289
 20
237.7831136074121
  0
HATCH
  5
339
330
1F
100
AcDbEntity
  8
nášlap_vrstvy
100
AcDbHatch
 10
0.0
 20
0.0
 30
0.0
210
0.0
220
0.0
230
1.0
  2
SOLID
 70
     1
 71
     0
 91
        1
 92
        7
 72
     0
 73
     1
 93
        4
 10
982.1725438982641
 20
239.2831136074121
 10
970.3516775433447
 20
239.2831136074121
 10
970.3516775433447
 20
237.7831136074121
 10
982.1725438982641
 20
237.7831136074121
 97
        0
 75
     0
 76
     1
 47
0.1901250437635136
 98
        1
 10
975.0305749225146
 20
238.8747078318722
  0
LWPOLYLINE
  5
33A
330
1F
100
AcDbEntity
  8
nášlap_vrstvy
100
AcDbPolyline
 90
        4
 70
     1
 43
0.0
 10
982.1725438982605
 20
239.2831136074121
 10
970.3516775433447
 20
239.2831136074121
 10
970.3516775433447
 20
237.7831136074121
 10
982.1725438982605
 20
237.7831136074121
  0
HATCH
  5
33B
330
1F
100
AcDbEntity
  8
nášlap_vrstvy
100
AcDbHatch
 10
0.0
 20
0.0
 30
0.0
210
0.0
220
0.0
230
1.0
  2
SOLID
 70
     1
 71
     0
 91
        1
 92
        7
 72
     0
 73
     1
 93
        4
 10
1005.814276608099
 20
239.2831136074121
 10
993.9934102531836
 20
239.2831136074121
 10
993.9934102531799
 20
237.7831136074121
 10
1005.814276608099
 20
237.7831136074121
 97
        0
 75
     0
 76
     1
 47
0.1901250437635136
 98
        1
 10
998.6723076323535
 20
238.8747078318722
  0
LWPOLYLINE
  5
33C
330
1F
100
AcDbEntity
  8
nášlap_vrstvy
100
AcDbPolyline
 90
        4
 70
     1
 43
0.0
 10
1005.814276608099
 20
239.2831136074121
 10
993.9934102531799
 20
239.2831136074121
 10
993.9934102531799
 20
237.7831136074121
 10
1005.814276608099
 20
237.7831136074121
  0
TEXT
  5
33D
330
1F
100
AcDbEntity
  8
POPIS
100
AcDbText
 10
607.4418972706618
 20
529.746058634618
 30
0.0
 40
35.0
  1
SVISLÝ ŘEZ
 41
0.85
  7
SIMPLEX7
100
AcDbText
  0
LINE
  5
33E
330
1F
100
AcDbEntity
  8
nášlap_vrstvy
100
AcDbLine
 10
880.2186901003258
 20
266.1198261476704
 30
0.0
 11
878.5537129090096
 21
266.1198261476704
 31
0.0
  0
LINE
  5
33F
330
1F
100
AcDbEntity
  8
nášlap_vrstvy
100
AcDbLine
 10
880.2186901003258
 20
254.8261908336864
 30
0.0
 11
880.2186901003258
 21
266.1198261476704
 31
0.0
  0
LINE
  5
340
330
1F
100
AcDbEntity
  8
nášlap_vrstvy
100
AcDbLine
 10
878.5537129090096
 20
266.1198261476704
 30
0.0
 11
878.5537129090096
 21
252.6398919218206
 31
0.0
  0
LINE
  5
341
330
1F
100
AcDbEntity
  8
nášlap_vrstvy
100
AcDbLine
 10
880.9482218078366
 20
254.8261908336864
 30
0.0
 11
880.2186901003258
 21
254.8261908336864
 31
0.0
  0
LINE
  5
342
330
1F
100
AcDbEntity
  8
nášlap_vrstvy
100
AcDbLine
 10
885.5834692986459
 20
252.6398919218206
 30
0.0
 11
878.5537129090096
 21
252.6398919218206
 31
0.0
  0
ARC
  5
343
330
1F
100
AcDbEntity
  8
nášlap_vrstvy
100
AcDbCircle
 10
892.6868325143743
 20
254.8261908336864
 30
0.0
 40
5.432205050090487
100
AcDbArc
 50
180.0
 51
270.0
  0
LINE
  5
344
330
1F
100
AcDbEntity
  8
nášlap_vrstvy
100
AcDbLine
 10
1005.872780427223
 20
249.3939857835914
 30
0.0
 11
892.6868325143741
 21
249.393985783596
 31
0.0
  0
LINE
  5
345
330
1F
100
AcDbEntity
  8
POPIS
100
AcDbLine
 10
884.2276680751981
 20
269.3622349372593
 30
0.0
 11
956.0076221822122
 21
310.0765723605993
 31
0.0
  0
TEXT
  5
346
330
1F
100
AcDbEntity
  8
POPIS
100
AcDbText
 10
941.1631382605222
 20
318.925933433323
 30
0.0
 40
25.0
  1
01
 41
0.85
  7
SIMPLEX7
100
AcDbText
  0
LINE
  5
347
330
1F
100
AcDbEntity
  8
nášlap_vrstvy
100
AcDbLine
 10
1010.51470367352
 20
249.3939857835914
 30
0.0
 11
1005.872780427223
 21
249.3939857835914
 31
0.0
  0
LWPOLYLINE
  5
348
330
1F
100
AcDbEntity
  8
nášlap_vrstvy
100
AcDbPolyline
 90
        4
 70
     1
 43
0.0
 10
880.9482218078366
 20
254.8261908336864
 10
887.2546274642839
 20
254.8261908336864
 10
887.2546274642839
 20
292.2369249530413
 10
880.9482218078366
 20
292.2369249530413
  0
LINE
  5
349
330
1F
100
AcDbEntity
  8
nášlap_vrstvy
100
AcDbLine
 10
880.9482218078366
 20
292.2369249530413
 30
0.0
 11
875.7847467040003
 21
292.2369249530422
 31
0.0
  0
LINE
  5
34A
330
1F
100
AcDbEntity
  8
nášlap_vrstvy
100
AcDbLine
 10
880.9482218078366
 20
254.8261908336864
 30
0.0
 11
880.8727804272232
 21
249.3939857835914
 31
0.0
  0
INSERT
  5
34B
330
1F
100
AcDbEntity
  8
POPIS
100
AcDbBlockReference
  2
E_PUNKT
 10
884.1985997443256
 20
269.3898453128861
 30
0.0
 50
270.0
  0
LINE
  5
352
330
1F
100
AcDbEntity
  8
POPIS
100
AcDbLine
 10
1369.932425893977
 20
310.0765723605993
 30
0.0
 11
1369.932425893977
 21
173.7831136074121
 31
0.0
  0
LINE
  5
353
330
1F
100
AcDbEntity
  8
POPIS
100
AcDbLine
 10
1419.020941358262
 20
310.0765723605993
 30
0.0
 11
1419.020941358262
 21
115.3308298220483
 31
0.0
  0
LINE
  5
354
330
1F
100
AcDbEntity
  8
POPIS
100
AcDbLine
 10
1294.828455715745
 20
310.0765723605993
 30
0.0
 11
1294.828455715745
 21
220.3378161717203
 31
0.0
  0
LINE
  5
355
330
1F
100
AcDbEntity
  8
POPIS
100
AcDbLine
 10
1230.545412934704
 20
310.0765723605993
 30
0.0
 11
1230.545412934704
 21
237.7831136074121
 31
0.0
  0
LINE
  5
356
330
1F
100
AcDbEntity
  8
POPIS
100
AcDbLine
 10
1178.390786423856
 20
310.0765723605993
 30
0.0
 11
1178.390786423856
 21
244.6645165592192
 31
0.0
  0
LWPOLYLINE
  5
357
330
1F
100
AcDbEntity
  8
nášlap_vrstvy
100
AcDbPolyline
 90
        4
 70
     1
 43
0.0
 10
1140.156626919811
 20
243.1439857835914
 10
1265.156626919811
 20
243.1439857835914
 10
1265.156626919811
 20
249.3939857835914
 10
1140.156626919811
 20
249.3939857835914
  0
LWPOLYLINE
  5
358
330
1F
100
AcDbEntity
  8
nášlap_vrstvy
100
AcDbPolyline
 90
        4
 70
     1
 43
0.0
 10
1269.798550166105
 20
243.1439857835914
 10
1394.798550166105
 20
243.1439857835914
 10
1394.798550166105
 20
249.3939857835914
 10
1269.798550166105
 20
249.3939857835914
  0
LWPOLYLINE
  5
359
330
1F
100
AcDbEntity
  8
nášlap_vrstvy
100
AcDbPolyline
 90
        4
 70
     1
 43
0.0
 10
1399.440473412399
 20
243.1439857835914
 10
1524.440473412399
 20
243.1439857835914
 10
1524.440473412399
 20
249.3939857835914
 10
1399.440473412399
 20
249.3939857835914
  0
LWPOLYLINE
  5
35A
330
1F
100
AcDbEntity
  8
nášlap_vrstvy
100
AcDbPolyline
 90
        4
 70
     0
 43
0.0
 10
1575.526626486901
 20
249.3939857835914
 10
1529.082396658693
 20
249.3939857835914
 10
1529.082396658693
 20
243.1439857835914
 10
1575.526626486901
 20
243.1439857835914
  0
LINE
  5
35B
330
1F
100
AcDbEntity
  8
POPIS
100
AcDbLine
 10
1120.600502236767
 20
310.0765723605993
 30
0.0
 11
1120.600502236767
 21
244.6645165592192
 31
0.0
  0
INSERT
  5
35C
330
1F
100
AcDbEntity
  8
POPIS
100
AcDbBlockReference
  2
E_PUNKT
 10
1120.571433905893
 20
246.5228990496618
 30
0.0
 50
270.0
  0
LWPOLYLINE
  5
361
330
1F
100
AcDbEntity
  8
izolace
100
AcDbPolyline
 90
        4
 70
     1
 43
0.0
 10
1324.977668190869
 20
173.7831136074121
 10
1301.335935481033
 20
173.7831136074121
 10
1301.335935481033
 20
170.7831136074121
 10
1324.977668190869
 20
170.7831136074121
  0
HATCH
  5
362
330
1F
100
AcDbEntity
  8
izolace
100
AcDbHatch
 10
0.0
 20
0.0
 30
0.0
210
0.0
220
0.0
230
1.0
  2
SOLID
 70
     1
 71
     0
 91
        1
 92
        7
 72
     0
 73
     1
 93
        4
 10
1324.977668190872
 20
173.7831136074121
 10
1301.335935481037
 20
173.7831136074121
 10
1301.335935481033
 20
170.7831136074121
 10
1324.977668190872
 20
170.7831136074121
 97
        0
 75
     0
 76
     1
 47
0.1901250437635136
 98
        1
 10
1310.693730239377
 20
172.9663020563323
  0
LWPOLYLINE
  5
363
330
1F
100
AcDbEntity
  8
nášlap_vrstvy
100
AcDbPolyline
 90
        4
 70
     1
 43
0.0
 10
1575.526626486905
 20
237.7831136074121
 10
1225.655686595454
 20
237.7831136074121
 10
1225.655686595454
 20
239.2831136074121
 10
1575.526626486905
 20
239.2831136074121
  0
LWPOLYLINE
  5
367
330
1F
100
AcDbEntity
  8
izolace
100
AcDbPolyline
 90
        4
 70
     1
 43
0.0
 10
1183.127271931857
 20
173.7831136074121
 10
1159.485539222022
 20
173.7831136074121
 10
1159.485539222022
 20
170.7831136074121
 10
1183.127271931857
 20
170.7831136074121
  0
HATCH
  5
368
330
1F
100
AcDbEntity
  8
izolace
100
AcDbHatch
 10
0.0
 20
0.0
 30
0.0
210
0.0
220
0.0
230
1.0
  2
SOLID
 70
     1
 71
     0
 91
        1
 92
        7
 72
     0
 73
     1
 93
        4
 10
1183.127271931861
 20
173.7831136074121
 10
1159.485539222026
 20
173.7831136074121
 10
1159.485539222022
 20
170.7831136074121
 10
1183.127271931861
 20
170.7831136074121
 97
        0
 75
     0
 76
     1
 47
0.1901250437635136
 98
        1
 10
1168.843333980366
 20
172.9663020563323
  0
HATCH
  5
369
330
1F
100
AcDbEntity
  8
nášlap_vrstvy
100
AcDbHatch
 10
0.0
 20
0.0
 30
0.0
210
0.0
220
0.0
230
1.0
  2
SOLID
 70
     1
 71
     0
 91
        1
 92
        7
 72
     0
 73
     1
 93
        4
 10
1171.306405576945
 20
239.2831136074121
 10
1159.485539222026
 20
239.2831136074121
 10
1159.485539222026
 20
237.7831136074121
 10
1171.306405576945
 20
237.7831136074121
 97
        0
 75
     0
 76
     1
 47
0.1901250437635136
 98
        1
 10
1164.164436601196
 20
238.8747078318722
  0
LWPOLYLINE
  5
36A
330
1F
100
AcDbEntity
  8
nášlap_vrstvy
100
AcDbPolyline
 90
        4
 70
     1
 43
0.0
 10
1171.306405576941
 20
239.2831136074121
 10
1159.485539222026
 20
239.2831136074121
 10
1159.485539222026
 20
237.7831136074121
 10
1171.306405576941
 20
237.7831136074121
  0
LWPOLYLINE
  5
36B
330
1F
100
AcDbEntity
  8
izolace
100
AcDbPolyline
 90
        4
 70
     1
 43
0.0
 10
1135.843806512187
 20
173.7831136074121
 10
1112.202073802352
 20
173.7831136074121
 10
1112.202073802352
 20
170.7831136074121
 10
1135.843806512187
 20
170.7831136074121
  0
HATCH
  5
36C
330
1F
100
AcDbEntity
  8
izolace
100
AcDbHatch
 10
0.0
 20
0.0
 30
0.0
210
0.0
220
0.0
230
1.0
  2
SOLID
 70
     1
 71
     0
 91
        1
 92
        7
 72
     0
 73
     1
 93
        4
 10
1135.843806512191
 20
173.7831136074121
 10
1112.202073802355
 20
173.7831136074121
 10
1112.202073802352
 20
170.7831136074121
 10
1135.843806512191
 20
170.7831136074121
 97
        0
 75
     0
 76
     1
 47
0.1901250437635136
 98
        1
 10
1121.559868560695
 20
172.9663020563323
  0
LWPOLYLINE
  5
36D
330
1F
100
AcDbEntity
  8
izolace
100
AcDbPolyline
 90
        4
 70
     1
 43
0.0
 10
1088.560341092517
 20
173.7831136074121
 10
1064.918608382682
 20
173.7831136074121
 10
1064.918608382682
 20
170.7831136074121
 10
1088.560341092517
 20
170.7831136074121
  0
HATCH
  5
36E
330
1F
100
AcDbEntity
  8
izolace
100
AcDbHatch
 10
0.0
 20
0.0
 30
0.0
210
0.0
220
0.0
230
1.0
  2
SOLID
 70
     1
 71
     0
 91
        1
 92
        7
 72
     0
 73
     1
 93
        4
 10
1088.56034109252
 20
173.7831136074121
 10
1064.918608382685
 20
173.7831136074121
 10
1064.918608382682
 20
170.7831136074121
 10
1088.56034109252
 20
170.7831136074121
 97
        0
 75
     0
 76
     1
 47
0.1901250437635136
 98
        1
 10
1074.276403141025
 20
172.9663020563323
  0
LWPOLYLINE
  5
36F
330
1F
100
AcDbEntity
  8
izolace
100
AcDbPolyline
 90
        4
 70
     1
 43
0.0
 10
1041.276875672846
 20
173.7831136074121
 10
1017.635142963011
 20
173.7831136074121
 10
1017.635142963011
 20
170.7831136074121
 10
1041.276875672846
 20
170.7831136074121
  0
HATCH
  5
370
330
1F
100
AcDbEntity
  8
izolace
100
AcDbHatch
 10
0.0
 20
0.0
 30
0.0
210
0.0
220
0.0
230
1.0
  2
SOLID
 70
     1
 71
     0
 91
        1
 92
        7
 72
     0
 73
     1
 93
        4
 10
1041.27687567285
 20
173.7831136074121
 10
1017.635142963015
 20
173.7831136074121
 10
1017.635142963011
 20
170.7831136074121
 10
1041.27687567285
 20
170.7831136074121
 97
        0
 75
     0
 76
     1
 47
0.1901250437635136
 98
        1
 10
1026.992937721355
 20
172.9663020563323
  0
HATCH
  5
371
330
1F
100
AcDbEntity
  8
nášlap_vrstvy
100
AcDbHatch
 10
0.0
 20
0.0
 30
0.0
210
0.0
220
0.0
230
1.0
  2
SOLID
 70
     1
 71
     0
 91
        1
 92
        7
 72
     0
 73
     1
 93
        4
 10
1029.456009317934
 20
239.2831136074121
 10
1017.635142963015
 20
239.2831136074121
 10
1017.635142963015
 20
237.7831136074121
 10
1029.456009317934
 20
237.7831136074121
 97
        0
 75
     0
 76
     1
 47
0.1901250437635136
 98
        1
 10
1022.314040342185
 20
238.8747078318722
  0
LWPOLYLINE
  5
372
330
1F
100
AcDbEntity
  8
nášlap_vrstvy
100
AcDbPolyline
 90
        4
 70
     1
 43
0.0
 10
1029.456009317931
 20
239.2831136074121
 10
1017.635142963015
 20
239.2831136074121
 10
1017.635142963015
 20
237.7831136074121
 10
1029.456009317931
 20
237.7831136074121
  0
HATCH
  5
373
330
1F
100
AcDbEntity
  8
nášlap_vrstvy
100
AcDbHatch
 10
0.0
 20
0.0
 30
0.0
210
0.0
220
0.0
230
1.0
  2
SOLID
 70
     1
 71
     0
 91
        1
 92
        7
 72
     0
 73
     1
 93
        4
 10
1053.097742027769
 20
239.2831136074121
 10
1041.276875672853
 20
239.2831136074121
 10
1041.27687567285
 20
237.7831136074121
 10
1053.097742027769
 20
237.7831136074121
 97
        0
 75
     0
 76
     1
 47
0.1901250437635136
 98
        1
 10
1045.955773052024
 20
238.8747078318722
  0
LWPOLYLINE
  5
374
330
1F
100
AcDbEntity
  8
nášlap_vrstvy
100
AcDbPolyline
 90
        4
 70
     1
 43
0.0
 10
1053.097742027769
 20
239.2831136074121
 10
1041.27687567285
 20
239.2831136074121
 10
1041.27687567285
 20
237.7831136074121
 10
1053.097742027769
 20
237.7831136074121
  0
HATCH
  5
375
330
1F
100
AcDbEntity
  8
nášlap_vrstvy
100
AcDbHatch
 10
0.0
 20
0.0
 30
0.0
210
0.0
220
0.0
230
1.0
  2
SOLID
 70
     1
 71
     0
 91
        1
 92
        7
 72
     0
 73
     1
 93
        4
 10
1076.739474737605
 20
239.2831136074121
 10
1064.918608382685
 20
239.2831136074121
 10
1064.918608382685
 20
237.7831136074121
 10
1076.739474737605
 20
237.7831136074121
 97
        0
 75
     0
 76
     1
 47
0.1901250437635136
 98
        1
 10
1069.597505761855
 20
238.8747078318722
  0
LWPOLYLINE
  5
376
330
1F
100
AcDbEntity
  8
nášlap_vrstvy
100
AcDbPolyline
 90
        4
 70
     1
 43
0.0
 10
1076.739474737601
 20
239.2831136074121
 10
1064.918608382685
 20
239.2831136074121
 10
1064.918608382685
 20
237.7831136074121
 10
1076.739474737601
 20
237.7831136074121
  0
HATCH
  5
377
330
1F
100
AcDbEntity
  8
nášlap_vrstvy
100
AcDbHatch
 10
0.0
 20
0.0
 30
0.0
210
0.0
220
0.0
230
1.0
  2
SOLID
 70
     1
 71
     0
 91
        1
 92
        7
 72
     0
 73
     1
 93
        4
 10
1100.38120744744
 20
239.2831136074121
 10
1088.560341092524
 20
239.2831136074121
 10
1088.56034109252
 20
237.7831136074121
 10
1100.38120744744
 20
237.7831136074121
 97
        0
 75
     0
 76
     1
 47
0.1901250437635136
 98
        1
 10
1093.239238471694
 20
238.8747078318722
  0
LWPOLYLINE
  5
378
330
1F
100
AcDbEntity
  8
nášlap_vrstvy
100
AcDbPolyline
 90
        4
 70
     1
 43
0.0
 10
1100.38120744744
 20
239.2831136074121
 10
1088.56034109252
 20
239.2831136074121
 10
1088.56034109252
 20
237.7831136074121
 10
1100.38120744744
 20
237.7831136074121
  0
HATCH
  5
379
330
1F
100
AcDbEntity
  8
nášlap_vrstvy
100
AcDbHatch
 10
0.0
 20
0.0
 30
0.0
210
0.0
220
0.0
230
1.0
  2
SOLID
 70
     1
 71
     0
 91
        1
 92
        7
 72
     0
 73
     1
 93
        4
 10
1124.022940157275
 20
239.2831136074121
 10
1112.202073802355
 20
239.2831136074121
 10
1112.202073802355
 20
237.7831136074121
 10
1124.022940157275
 20
237.7831136074121
 97
        0
 75
     0
 76
     1
 47
0.1901250437635136
 98
        1
 10
1116.880971181525
 20
238.8747078318722
  0
HATCH
  5
37A
330
1F
100
AcDbEntity
  8
nášlap_vrstvy
100
AcDbHatch
 10
0.0
 20
0.0
 30
0.0
210
0.0
220
0.0
230
1.0
  2
SOLID
 70
     1
 71
     0
 91
        1
 92
        7
 72
     0
 73
     1
 93
        4
 10
1147.66467286711
 20
239.2831136074121
 10
1135.843806512194
 20
239.2831136074121
 10
1135.843806512191
 20
237.7831136074121
 10
1147.66467286711
 20
237.7831136074121
 97
        0
 75
     0
 76
     1
 47
0.1901250437635136
 98
        1
 10
1140.522703891364
 20
238.8747078318722
  0
LWPOLYLINE
  5
37B
330
1F
100
AcDbEntity
  8
nášlap_vrstvy
100
AcDbPolyline
 90
        4
 70
     1
 43
0.0
 10
1147.66467286711
 20
239.2831136074121
 10
1135.843806512191
 20
239.2831136074121
 10
1135.843806512191
 20
237.7831136074121
 10
1147.66467286711
 20
237.7831136074121
  0
LINE
  5
37C
330
1F
100
AcDbEntity
  8
CETRIS
100
AcDbLine
 10
1220.329475516352
 20
237.7831136074125
 30
0.0
 11
1220.329475516352
 21
225.7831136074126
 31
0.0
  0
INSERT
  5
37D
330
1F
100
AcDbEntity
  8
POPIS
100
AcDbBlockReference
  2
E_PUNKT
 10
1294.799387384871
 20
219.1154265473471
 30
0.0
 50
270.0
  0
INSERT
  5
37E
330
1F
100
AcDbEntity
  8
POPIS
100
AcDbBlockReference
  2
E_PUNKT
 10
1178.361718092982
 20
241.4217518952539
 30
0.0
 50
270.0
  0
INSERT
  5
37F
330
1F
100
AcDbEntity
  8
POPIS
100
AcDbBlockReference
  2
E_PUNKT
 10
1230.51634460383
 20
238.6054607447988
 30
0.0
 50
270.0
  0
LWPOLYLINE
  5
380
330
1F
100
AcDbEntity
  8
izolace
100
AcDbPolyline
 90
        4
 70
     1
 43
0.0
 10
1277.694202771198
 20
173.7831136074121
 10
1254.052470061363
 20
173.7831136074121
 10
1254.052470061363
 20
170.7831136074121
 10
1277.694202771198
 20
170.7831136074121
  0
HATCH
  5
381
330
1F
100
AcDbEntity
  8
izolace
100
AcDbHatch
 10
0.0
 20
0.0
 30
0.0
210
0.0
220
0.0
230
1.0
  2
SOLID
 70
     1
 71
     0
 91
        1
 92
        7
 72
     0
 73
     1
 93
        4
 10
1277.694202771202
 20
173.7831136074121
 10
1254.052470061367
 20
173.7831136074121
 10
1254.052470061363
 20
170.7831136074121
 10
1277.694202771202
 20
170.7831136074121
 97
        0
 75
     0
 76
     1
 47
0.1901250437635136
 98
        1
 10
1263.410264819706
 20
172.9663020563323
  0
LWPOLYLINE
  5
382
330
1F
100
AcDbEntity
  8
izolace
100
AcDbPolyline
 90
        4
 70
     1
 43
0.0
 10
1230.410737351528
 20
173.7831136074121
 10
1206.769004641693
 20
173.7831136074121
 10
1206.769004641693
 20
170.7831136074121
 10
1230.410737351528
 20
170.7831136074121
  0
HATCH
  5
383
330
1F
100
AcDbEntity
  8
izolace
100
AcDbHatch
 10
0.0
 20
0.0
 30
0.0
210
0.0
220
0.0
230
1.0
  2
SOLID
 70
     1
 71
     0
 91
        1
 92
        7
 72
     0
 73
     1
 93
        4
 10
1230.410737351532
 20
173.7831136074121
 10
1206.769004641696
 20
173.7831136074121
 10
1206.769004641693
 20
170.7831136074121
 10
1230.410737351532
 20
170.7831136074121
 97
        0
 75
     0
 76
     1
 47
0.1901250437635136
 98
        1
 10
1216.126799400036
 20
172.9663020563323
  0
LINE
  5
384
330
1F
100
AcDbEntity
  8
SPOJOVACÍ
  6
DASHED
100
AcDbLine
 10
1269.493291535883
 20
234.1942535416158
 30
0.0
 11
1270.432210984468
 21
235.3774743608567
 31
0.0
  0
LINE
  5
385
330
1F
100
AcDbEntity
  8
SPOJOVACÍ
  6
DASHED
100
AcDbLine
 10
1268.892565403718
 20
232.8086636761065
 30
0.0
 11
1269.493291535883
 21
234.1942535416158
 31
0.0
  0
LINE
  5
386
330
1F
100
AcDbEntity
  8
SPOJOVACÍ
  6
DASHED
100
AcDbLine
 10
1268.670141770653
 20
231.3155082817459
 30
0.0
 11
1268.892565403718
 21
232.8086636761065
 31
0.0
  0
LINE
  5
387
330
1F
100
AcDbEntity
  8
SPOJOVACÍ
  6
DASHED
100
AcDbLine
 10
1272.345601199634
 20
237.7831136074121
 30
0.0
 11
1272.345601199634
 21
236.6071853662154
 31
0.0
  0
LINE
  5
388
330
1F
100
AcDbEntity
  8
SPOJOVACÍ
  6
DASHED
100
AcDbLine
 10
1262.349299577911
 20
237.7831136074121
 30
0.0
 11
1272.345601199634
 21
237.7831136074121
 31
0.0
  0
LINE
  5
389
330
1F
100
AcDbEntity
  8
SPOJOVACÍ
  6
DASHED
100
AcDbLine
 10
1262.349299577911
 20
237.7831136074121
 30
0.0
 11
1262.349299577911
 21
236.6071853662154
 31
0.0
  0
LINE
  5
38A
330
1F
100
AcDbEntity
  8
SPOJOVACÍ
  6
DASHED
100
AcDbLine
 10
1262.349299577911
 20
236.6071853662154
 30
0.0
 11
1272.345601199634
 21
236.6071853662154
 31
0.0
  0
LINE
  5
38B
330
1F
100
AcDbEntity
  8
SPOJOVACÍ
  6
DASHED
100
AcDbLine
 10
1271.64460211719
 20
236.2771962010895
 30
0.0
 11
1272.345601199634
 21
236.6071853662154
 31
0.0
  0
LINE
  5
38C
330
1F
100
AcDbEntity
  8
SPOJOVACÍ
  6
DASHED
100
AcDbLine
 10
1270.432210984468
 20
235.3774743608567
 30
0.0
 11
1271.64460211719
 21
236.2771962010895
 31
0.0
  0
LINE
  5
38D
330
1F
100
AcDbEntity
  8
SPOJOVACÍ
  6
DASHED
100
AcDbLine
 10
1265.960037378888
 20
232.0866984304059
 30
0.0
 11
1266.024759011171
 21
231.3155082817459
 31
0.0
  0
LINE
  5
38E
330
1F
100
AcDbEntity
  8
SPOJOVACÍ
  6
DASHED
100
AcDbLine
 10
1265.540714131875
 20
233.537921500115
 30
0.0
 11
1265.960037378888
 21
232.0866984304059
 31
0.0
  0
LINE
  5
38F
330
1F
100
AcDbEntity
  8
SPOJOVACÍ
  6
DASHED
100
AcDbLine
 10
1264.760408262143
 20
234.8305309928466
 30
0.0
 11
1265.540714131875
 21
233.537921500115
 31
0.0
  0
LINE
  5
390
330
1F
100
AcDbEntity
  8
SPOJOVACÍ
  6
DASHED
100
AcDbLine
 10
1263.671990959791
 20
235.8779275424706
 30
0.0
 11
1264.760408262143
 21
234.8305309928466
 31
0.0
  0
LINE
  5
391
330
1F
100
AcDbEntity
  8
SPOJOVACÍ
  6
DASHED
100
AcDbLine
 10
1262.349299577911
 20
236.6071853662154
 30
0.0
 11
1263.671990959791
 21
235.8779275424706
 31
0.0
  0
LINE
  5
392
330
1F
100
AcDbEntity
  8
SPOJOVACÍ
  6
DASHED
100
AcDbLine
 10
1268.670141770653
 20
231.3155082817459
 30
0.0
 11
1268.670141770653
 21
226.4714131863959
 31
0.0
  0
LINE
  5
393
330
1F
100
AcDbEntity
  8
SPOJOVACÍ
  6
DASHED
100
AcDbLine
 10
1266.024759011171
 20
231.3155082817459
 30
0.0
 11
1266.024759011171
 21
227.3583730146595
 31
0.0
  0
LINE
  5
394
330
1F
100
AcDbEntity
  8
SPOJOVACÍ
  6
DASHED
100
AcDbLine
 10
1266.024759011171
 20
226.7749667556665
 30
0.0
 11
1266.024759011171
 21
224.3064290217382
 31
0.0
  0
LINE
  5
395
330
1F
100
AcDbEntity
  8
SPOJOVACÍ
  6
DASHED
100
AcDbLine
 10
1266.024759011171
 20
223.7148186122496
 30
0.0
 11
1266.024759011171
 21
221.2444577336748
 31
0.0
  0
LINE
  5
396
330
1F
100
AcDbEntity
  8
SPOJOVACÍ
  6
DASHED
100
AcDbLine
 10
1266.024759011171
 20
220.6619630468697
 30
0.0
 11
1266.024759011171
 21
218.1843095902579
 31
0.0
  0
LINE
  5
397
330
1F
100
AcDbEntity
  8
SPOJOVACÍ
  6
DASHED
100
AcDbLine
 10
1268.670141770653
 20
225.8798027769073
 30
0.0
 11
1268.670141770653
 21
223.411265042979
 31
0.0
  0
LINE
  5
398
330
1F
100
AcDbEntity
  8
SPOJOVACÍ
  6
DASHED
100
AcDbLine
 10
1268.670141770653
 20
222.8269472115273
 30
0.0
 11
1268.670141770653
 21
220.3492937549156
 31
0.0
  0
LINE
  5
399
330
1F
100
AcDbEntity
  8
SPOJOVACÍ
  6
DASHED
100
AcDbLine
 10
1268.670141770653
 20
219.7667990681104
 30
0.0
 11
1268.670141770653
 21
217.2964381895356
 31
0.0
  0
LINE
  5
39A
330
1F
100
AcDbEntity
  8
SPOJOVACÍ
  6
DASHED
100
AcDbLine
 10
1266.024759011171
 20
217.5917876083178
 30
0.0
 11
1266.024759011171
 21
215.1241614465773
 31
0.0
  0
LINE
  5
39B
330
1F
100
AcDbEntity
  8
SPOJOVACÍ
  6
DASHED
100
AcDbLine
 10
1266.024759011171
 20
214.5398436151256
 30
0.0
 11
1266.024759011171
 21
213.3174251880748
 31
0.0
  0
LINE
  5
39C
330
1F
100
AcDbEntity
  8
SPOJOVACÍ
  6
DASHED
100
AcDbLine
 10
1268.670141770653
 20
216.7075624968813
 30
0.0
 11
1268.670141770653
 21
214.239024762953
 31
0.0
  0
LINE
  5
39D
330
1F
100
AcDbEntity
  8
SPOJOVACÍ
  6
DASHED
100
AcDbLine
 10
1268.670141770653
 20
213.6474143532006
 30
0.0
 11
1268.670141770653
 21
213.3174251880748
 31
0.0
  0
LINE
  5
39E
330
1F
100
AcDbEntity
  8
SPOJOVACÍ
  6
DASHED
100
AcDbLine
 10
1266.024759011171
 20
213.3174251880748
 30
0.0
 11
1266.17152214784
 21
212.1442316637051
 31
0.0
  0
LINE
  5
39F
330
1F
100
AcDbEntity
  8
SPOJOVACÍ
  6
DASHED
100
AcDbLine
 10
1267.347450388773
 20
202.7331594464206
 30
0.0
 11
1267.694759430279
 21
205.5125433276637
 31
0.0
  0
LINE
  5
3A0
330
1F
100
AcDbEntity
  8
SPOJOVACÍ
  6
DASHED
100
AcDbLine
 10
1266.247182648515
 20
211.5362129529687
 30
0.0
 11
1266.531593201044
 21
209.2609285426253
 31
0.0
  0
LINE
  5
3A1
330
1F
100
AcDbEntity
  8
SPOJOVACÍ
  6
DASHED
100
AcDbLine
 10
1266.609076845026
 20
208.642882536754
 30
0.0
 11
1266.893487393277
 21
206.3685096986057
 31
0.0
  0
LINE
  5
3A2
330
1F
100
AcDbEntity
  8
SPOJOVACÍ
  6
DASHED
100
AcDbLine
 10
1266.969147893952
 20
205.7604909878693
 30
0.0
 11
1267.347450388773
 21
202.7331594464206
 31
0.0
  0
LINE
  5
3A3
330
1F
100
AcDbEntity
  8
SPOJOVACÍ
  6
DASHED
100
AcDbLine
 10
1267.764950496758
 20
206.0704255629891
 30
0.0
 11
1268.027483312503
 21
208.1725112402739
 31
0.0
  0
LINE
  5
3A4
330
1F
100
AcDbEntity
  8
SPOJOVACÍ
  6
DASHED
100
AcDbLine
 10
1268.097674374704
 20
208.7331281924337
 30
0.0
 11
1268.359295620935
 21
210.82700971923
 31
0.0
  0
LINE
  5
3A5
330
1F
100
AcDbEntity
  8
SPOJOVACÍ
  6
DASHED
100
AcDbLine
 10
1268.429486687414
 20
211.3858035270143
 30
0.0
 11
1268.670141770653
 21
213.3174251880748
 31
0.0
  0
LINE
  5
3A6
330
1F
100
AcDbEntity
  8
SPOJOVACÍ
  6
DASHED
100
AcDbLine
 10
1264.995593906907
 20
227.1988478657579
 30
0.0
 11
1269.699306870639
 21
226.0229196248249
 31
0.0
  0
LINE
  5
3A7
330
1F
100
AcDbEntity
  8
SPOJOVACÍ
  6
DASHED
100
AcDbLine
 10
1264.995593906907
 20
227.1988478657579
 30
0.0
 11
1265.365692254711
 21
226.9855399524306
 31
0.0
  0
LINE
  5
3A8
330
1F
100
AcDbEntity
  8
SPOJOVACÍ
  6
DASHED
100
AcDbLine
 10
1264.995593906907
 20
227.1988478657579
 30
0.0
 11
1265.365692254711
 21
227.5698577836112
 31
0.0
  0
LINE
  5
3A9
330
1F
100
AcDbEntity
  8
SPOJOVACÍ
  6
DASHED
100
AcDbLine
 10
1269.699306870639
 20
226.0229196248249
 30
0.0
 11
1269.329208527112
 21
225.6528212791593
 31
0.0
  0
LINE
  5
3AA
330
1F
100
AcDbEntity
  8
SPOJOVACÍ
  6
DASHED
100
AcDbLine
 10
1269.699306870639
 20
226.0229196248249
 30
0.0
 11
1269.329208527112
 21
226.237139110611
 31
0.0
  0
LINE
  5
3AB
330
1F
100
AcDbEntity
  8
SPOJOVACÍ
  6
DASHED
100
AcDbLine
 10
1265.365692254711
 20
226.9855399524306
 30
0.0
 11
1269.329208527112
 21
225.6528212791593
 31
0.0
  0
LINE
  5
3AC
330
1F
100
AcDbEntity
  8
SPOJOVACÍ
  6
DASHED
100
AcDbLine
 10
1265.365692254711
 20
227.5698577836112
 30
0.0
 11
1269.329208527112
 21
226.237139110611
 31
0.0
  0
LINE
  5
3AD
330
1F
100
AcDbEntity
  8
SPOJOVACÍ
  6
DASHED
100
AcDbLine
 10
1264.995593906907
 20
224.1414344391753
 30
0.0
 11
1269.699306870639
 21
222.9655061979713
 31
0.0
  0
LINE
  5
3AE
330
1F
100
AcDbEntity
  8
SPOJOVACÍ
  6
DASHED
100
AcDbLine
 10
1264.995593906907
 20
224.1414344391753
 30
0.0
 11
1265.365692254711
 21
223.9272149533892
 31
0.0
  0
LINE
  5
3AF
330
1F
100
AcDbEntity
  8
SPOJOVACÍ
  6
DASHED
100
AcDbLine
 10
1264.995593906907
 20
224.1414344391753
 30
0.0
 11
1265.365692254711
 21
224.5115327848409
 31
0.0
  0
LINE
  5
3B0
330
1F
100
AcDbEntity
  8
SPOJOVACÍ
  6
DASHED
100
AcDbLine
 10
1269.699306870639
 20
222.9655061979713
 30
0.0
 11
1269.329208527112
 21
222.5954078525767
 31
0.0
  0
LINE
  5
3B1
330
1F
100
AcDbEntity
  8
SPOJOVACÍ
  6
DASHED
100
AcDbLine
 10
1269.699306870639
 20
222.9655061979713
 30
0.0
 11
1269.329208527112
 21
223.1797256837574
 31
0.0
  0
LINE
  5
3B2
330
1F
100
AcDbEntity
  8
SPOJOVACÍ
  6
DASHED
100
AcDbLine
 10
1265.365692254711
 20
223.9272149533892
 30
0.0
 11
1269.329208527112
 21
222.5954078525767
 31
0.0
  0
LINE
  5
3B3
330
1F
100
AcDbEntity
  8
SPOJOVACÍ
  6
DASHED
100
AcDbLine
 10
1265.365692254711
 20
224.5115327848409
 30
0.0
 11
1269.329208527112
 21
223.1797256837574
 31
0.0
  0
LINE
  5
3B4
330
1F
100
AcDbEntity
  8
SPOJOVACÍ
  6
DASHED
100
AcDbLine
 10
1265.244453141439
 20
211.9528014850232
 30
0.0
 11
1265.615463058758
 21
211.738581999237
 31
0.0
  0
LINE
  5
3B5
330
1F
100
AcDbEntity
  8
SPOJOVACÍ
  6
DASHED
100
AcDbLine
 10
1265.244453141439
 20
211.9528014850232
 30
0.0
 11
1265.615463058758
 21
212.3228998306887
 31
0.0
  0
LINE
  5
3B6
330
1F
100
AcDbEntity
  8
SPOJOVACÍ
  6
DASHED
100
AcDbLine
 10
1269.287276201127
 20
210.9992968803646
 30
0.0
 11
1268.917177857601
 21
210.6282869622402
 31
0.0
  0
LINE
  5
3B7
330
1F
100
AcDbEntity
  8
SPOJOVACÍ
  6
DASHED
100
AcDbLine
 10
1269.287276201127
 20
210.9992968803646
 30
0.0
 11
1268.917177857601
 21
211.2126047936919
 31
0.0
  0
LINE
  5
3B8
330
1F
100
AcDbEntity
  8
SPOJOVACÍ
  6
DASHED
100
AcDbLine
 10
1265.615463058758
 20
211.738581999237
 30
0.0
 11
1268.917177857601
 21
210.6282869622402
 31
0.0
  0
LINE
  5
3B9
330
1F
100
AcDbEntity
  8
SPOJOVACÍ
  6
DASHED
100
AcDbLine
 10
1265.615463058758
 20
212.3228998306887
 30
0.0
 11
1268.917177857601
 21
211.2126047936919
 31
0.0
  0
LINE
  5
3BA
330
1F
100
AcDbEntity
  8
SPOJOVACÍ
  6
DASHED
100
AcDbLine
 10
1265.244453141439
 20
211.9528014850232
 30
0.0
 11
1269.287276201127
 21
210.9992968803646
 31
0.0
  0
LINE
  5
3BB
330
1F
100
AcDbEntity
  8
SPOJOVACÍ
  6
DASHED
100
AcDbLine
 10
1265.797777513423
 20
208.9983957258112
 30
0.0
 11
1266.167875861228
 21
208.7850878124839
 31
0.0
  0
LINE
  5
3BC
330
1F
100
AcDbEntity
  8
SPOJOVACÍ
  6
DASHED
100
AcDbLine
 10
1265.797777513423
 20
208.9983957258112
 30
0.0
 11
1266.167875861228
 21
209.3694056439356
 31
0.0
  0
LINE
  5
3BD
330
1F
100
AcDbEntity
  8
SPOJOVACÍ
  6
DASHED
100
AcDbLine
 10
1268.851544651526
 20
208.3776150033766
 30
0.0
 11
1268.481446307999
 21
208.0066050855232
 31
0.0
  0
LINE
  5
3BE
330
1F
100
AcDbEntity
  8
SPOJOVACÍ
  6
DASHED
100
AcDbLine
 10
1268.851544651526
 20
208.3776150033766
 30
0.0
 11
1268.481446307999
 21
208.5909229167039
 31
0.0
  0
LINE
  5
3BF
330
1F
100
AcDbEntity
  8
SPOJOVACÍ
  6
DASHED
100
AcDbLine
 10
1266.167875861228
 20
208.7850878124839
 30
0.0
 11
1268.481446307999
 21
208.0066050855232
 31
0.0
  0
LINE
  5
3C0
330
1F
100
AcDbEntity
  8
SPOJOVACÍ
  6
DASHED
100
AcDbLine
 10
1266.167875861228
 20
209.3694056439356
 30
0.0
 11
1268.481446307999
 21
208.5909229167039
 31
0.0
  0
LINE
  5
3C1
330
1F
100
AcDbEntity
  8
SPOJOVACÍ
  6
DASHED
100
AcDbLine
 10
1265.797777513423
 20
208.9983957258112
 30
0.0
 11
1268.851544651526
 21
208.3776150033766
 31
0.0
  0
LINE
  5
3C2
330
1F
100
AcDbEntity
  8
SPOJOVACÍ
  6
DASHED
100
AcDbLine
 10
1266.351101889685
 20
206.0449015390579
 30
0.0
 11
1266.721200233211
 21
205.8306820532791
 31
0.0
  0
LINE
  5
3C3
330
1F
100
AcDbEntity
  8
SPOJOVACÍ
  6
DASHED
100
AcDbLine
 10
1266.351101889685
 20
206.0449015390579
 30
0.0
 11
1266.721200233211
 21
206.4149998847235
 31
0.0
  0
LINE
  5
3C4
330
1F
100
AcDbEntity
  8
SPOJOVACÍ
  6
DASHED
100
AcDbLine
 10
1268.462303288313
 20
205.7404363975995
 30
0.0
 11
1268.092204944786
 21
205.3694264797461
 31
0.0
  0
LINE
  5
3C5
330
1F
100
AcDbEntity
  8
SPOJOVACÍ
  6
DASHED
100
AcDbLine
 10
1268.462303288313
 20
205.7404363975995
 30
0.0
 11
1268.092204944786
 21
205.9537443111906
 31
0.0
  0
LINE
  5
3C6
330
1F
100
AcDbEntity
  8
SPOJOVACÍ
  6
DASHED
100
AcDbLine
 10
1266.721200233211
 20
205.8306820532791
 30
0.0
 11
1268.092204944786
 21
205.3694264797461
 31
0.0
  0
LINE
  5
3C7
330
1F
100
AcDbEntity
  8
SPOJOVACÍ
  6
DASHED
100
AcDbLine
 10
1266.721200233211
 20
206.4149998847235
 30
0.0
 11
1268.092204944786
 21
205.9537443111906
 31
0.0
  0
LINE
  5
3C8
330
1F
100
AcDbEntity
  8
SPOJOVACÍ
  6
DASHED
100
AcDbLine
 10
1266.351101889685
 20
206.0449015390579
 30
0.0
 11
1268.462303288313
 21
205.7404363975995
 31
0.0
  0
LINE
  5
3C9
330
1F
100
AcDbEntity
  8
SPOJOVACÍ
  6
DASHED
100
AcDbLine
 10
1264.995593906907
 20
221.0840210123217
 30
0.0
 11
1269.699306870639
 21
219.9080927713887
 31
0.0
  0
LINE
  5
3CA
330
1F
100
AcDbEntity
  8
SPOJOVACÍ
  6
DASHED
100
AcDbLine
 10
1264.995593906907
 20
221.0840210123217
 30
0.0
 11
1265.365692254711
 21
220.8698015265356
 31
0.0
  0
LINE
  5
3CB
330
1F
100
AcDbEntity
  8
SPOJOVACÍ
  6
DASHED
100
AcDbLine
 10
1264.995593906907
 20
221.0840210123217
 30
0.0
 11
1265.365692254711
 21
221.4541193579873
 31
0.0
  0
LINE
  5
3CC
330
1F
100
AcDbEntity
  8
SPOJOVACÍ
  6
DASHED
100
AcDbLine
 10
1269.699306870639
 20
219.9080927713887
 30
0.0
 11
1269.329208527112
 21
219.5370828535353
 31
0.0
  0
LINE
  5
3CD
330
1F
100
AcDbEntity
  8
SPOJOVACÍ
  6
DASHED
100
AcDbLine
 10
1269.699306870639
 20
219.9080927713887
 30
0.0
 11
1269.329208527112
 21
220.1214006849797
 31
0.0
  0
LINE
  5
3CE
330
1F
100
AcDbEntity
  8
SPOJOVACÍ
  6
DASHED
100
AcDbLine
 10
1265.365692254711
 20
220.8698015265356
 30
0.0
 11
1269.329208527112
 21
219.5370828535353
 31
0.0
  0
LINE
  5
3CF
330
1F
100
AcDbEntity
  8
SPOJOVACÍ
  6
DASHED
100
AcDbLine
 10
1265.365692254711
 20
221.4541193579873
 30
0.0
 11
1269.329208527112
 21
220.1214006849797
 31
0.0
  0
LINE
  5
3D0
330
1F
100
AcDbEntity
  8
SPOJOVACÍ
  6
DASHED
100
AcDbLine
 10
1264.995593906907
 20
218.0266075857318
 30
0.0
 11
1269.699306870639
 21
216.8506793447988
 31
0.0
  0
LINE
  5
3D1
330
1F
100
AcDbEntity
  8
SPOJOVACÍ
  6
DASHED
100
AcDbLine
 10
1264.995593906907
 20
218.0266075857318
 30
0.0
 11
1265.365692254711
 21
217.812388099953
 31
0.0
  0
LINE
  5
3D2
330
1F
100
AcDbEntity
  8
SPOJOVACÍ
  6
DASHED
100
AcDbLine
 10
1264.995593906907
 20
218.0266075857318
 30
0.0
 11
1265.365692254711
 21
218.3967059313975
 31
0.0
  0
LINE
  5
3D3
330
1F
100
AcDbEntity
  8
SPOJOVACÍ
  6
DASHED
100
AcDbLine
 10
1269.699306870639
 20
216.8506793447988
 30
0.0
 11
1269.329208527112
 21
216.4796694269455
 31
0.0
  0
LINE
  5
3D4
330
1F
100
AcDbEntity
  8
SPOJOVACÍ
  6
DASHED
100
AcDbLine
 10
1269.699306870639
 20
216.8506793447988
 30
0.0
 11
1269.329208527112
 21
217.0639872581261
 31
0.0
  0
LINE
  5
3D5
330
1F
100
AcDbEntity
  8
SPOJOVACÍ
  6
DASHED
100
AcDbLine
 10
1265.365692254711
 20
217.812388099953
 30
0.0
 11
1269.329208527112
 21
216.4796694269455
 31
0.0
  0
LINE
  5
3D6
330
1F
100
AcDbEntity
  8
SPOJOVACÍ
  6
DASHED
100
AcDbLine
 10
1265.365692254711
 20
218.3967059313975
 30
0.0
 11
1269.329208527112
 21
217.0639872581261
 31
0.0
  0
LINE
  5
3D7
330
1F
100
AcDbEntity
  8
SPOJOVACÍ
  6
DASHED
100
AcDbLine
 10
1264.995593906907
 20
214.9682825866905
 30
0.0
 11
1269.699306870639
 21
213.7923543457575
 31
0.0
  0
LINE
  5
3D8
330
1F
100
AcDbEntity
  8
SPOJOVACÍ
  6
DASHED
100
AcDbLine
 10
1264.995593906907
 20
214.9682825866905
 30
0.0
 11
1265.365692254711
 21
214.7549746733632
 31
0.0
  0
LINE
  5
3D9
330
1F
100
AcDbEntity
  8
SPOJOVACÍ
  6
DASHED
100
AcDbLine
 10
1264.995593906907
 20
214.9682825866905
 30
0.0
 11
1265.365692254711
 21
215.3392925048149
 31
0.0
  0
LINE
  5
3DA
330
1F
100
AcDbEntity
  8
SPOJOVACÍ
  6
DASHED
100
AcDbLine
 10
1269.699306870639
 20
213.7923543457575
 30
0.0
 11
1269.329208527112
 21
213.4222560000919
 31
0.0
  0
LINE
  5
3DB
330
1F
100
AcDbEntity
  8
SPOJOVACÍ
  6
DASHED
100
AcDbLine
 10
1269.699306870639
 20
213.7923543457575
 30
0.0
 11
1269.329208527112
 21
214.0065738315436
 31
0.0
  0
LINE
  5
3DC
330
1F
100
AcDbEntity
  8
SPOJOVACÍ
  6
DASHED
100
AcDbLine
 10
1265.365692254711
 20
214.7549746733632
 30
0.0
 11
1269.329208527112
 21
213.4222560000919
 31
0.0
  0
LINE
  5
3DD
330
1F
100
AcDbEntity
  8
SPOJOVACÍ
  6
DASHED
100
AcDbLine
 10
1265.365692254711
 20
215.3392925048149
 30
0.0
 11
1269.329208527112
 21
214.0065738315436
 31
0.0
  0
LINE
  5
3DE
330
1F
100
AcDbEntity
  8
SPOJOVACÍ
  6
DASHED
100
AcDbLine
 10
1165.365692254711
 20
215.3392925048149
 30
0.0
 11
1169.329208527112
 21
214.0065738315436
 31
0.0
  0
LINE
  5
3DF
330
1F
100
AcDbEntity
  8
SPOJOVACÍ
  6
DASHED
100
AcDbLine
 10
1165.365692254711
 20
214.7549746733632
 30
0.0
 11
1169.329208527112
 21
213.4222560000919
 31
0.0
  0
LINE
  5
3E0
330
1F
100
AcDbEntity
  8
SPOJOVACÍ
  6
DASHED
100
AcDbLine
 10
1169.699306870639
 20
213.7923543457575
 30
0.0
 11
1169.329208527112
 21
214.0065738315436
 31
0.0
  0
LINE
  5
3E1
330
1F
100
AcDbEntity
  8
SPOJOVACÍ
  6
DASHED
100
AcDbLine
 10
1169.699306870639
 20
213.7923543457575
 30
0.0
 11
1169.329208527112
 21
213.4222560000919
 31
0.0
  0
LINE
  5
3E2
330
1F
100
AcDbEntity
  8
SPOJOVACÍ
  6
DASHED
100
AcDbLine
 10
1164.995593906907
 20
214.9682825866905
 30
0.0
 11
1165.365692254711
 21
215.3392925048149
 31
0.0
  0
LINE
  5
3E3
330
1F
100
AcDbEntity
  8
SPOJOVACÍ
  6
DASHED
100
AcDbLine
 10
1164.995593906907
 20
214.9682825866905
 30
0.0
 11
1165.365692254711
 21
214.7549746733632
 31
0.0
  0
LINE
  5
3E4
330
1F
100
AcDbEntity
  8
SPOJOVACÍ
  6
DASHED
100
AcDbLine
 10
1164.995593906907
 20
214.9682825866905
 30
0.0
 11
1169.699306870639
 21
213.7923543457575
 31
0.0
  0
LINE
  5
3E5
330
1F
100
AcDbEntity
  8
SPOJOVACÍ
  6
DASHED
100
AcDbLine
 10
1165.365692254711
 20
218.3967059313975
 30
0.0
 11
1169.329208527112
 21
217.0639872581261
 31
0.0
  0
LINE
  5
3E6
330
1F
100
AcDbEntity
  8
SPOJOVACÍ
  6
DASHED
100
AcDbLine
 10
1165.365692254711
 20
217.812388099953
 30
0.0
 11
1169.329208527112
 21
216.4796694269455
 31
0.0
  0
LINE
  5
3E7
330
1F
100
AcDbEntity
  8
SPOJOVACÍ
  6
DASHED
100
AcDbLine
 10
1169.699306870639
 20
216.8506793447988
 30
0.0
 11
1169.329208527112
 21
217.0639872581261
 31
0.0
  0
LINE
  5
3E8
330
1F
100
AcDbEntity
  8
SPOJOVACÍ
  6
DASHED
100
AcDbLine
 10
1169.699306870639
 20
216.8506793447988
 30
0.0
 11
1169.329208527112
 21
216.4796694269455
 31
0.0
  0
LINE
  5
3E9
330
1F
100
AcDbEntity
  8
SPOJOVACÍ
  6
DASHED
100
AcDbLine
 10
1164.995593906907
 20
218.0266075857318
 30
0.0
 11
1165.365692254711
 21
218.3967059313975
 31
0.0
  0
LINE
  5
3EA
330
1F
100
AcDbEntity
  8
SPOJOVACÍ
  6
DASHED
100
AcDbLine
 10
1164.995593906907
 20
218.0266075857318
 30
0.0
 11
1165.365692254711
 21
217.812388099953
 31
0.0
  0
LINE
  5
3EB
330
1F
100
AcDbEntity
  8
SPOJOVACÍ
  6
DASHED
100
AcDbLine
 10
1164.995593906907
 20
218.0266075857318
 30
0.0
 11
1169.699306870639
 21
216.8506793447988
 31
0.0
  0
LINE
  5
3EC
330
1F
100
AcDbEntity
  8
SPOJOVACÍ
  6
DASHED
100
AcDbLine
 10
1165.365692254711
 20
221.4541193579873
 30
0.0
 11
1169.329208527112
 21
220.1214006849797
 31
0.0
  0
LINE
  5
3ED
330
1F
100
AcDbEntity
  8
SPOJOVACÍ
  6
DASHED
100
AcDbLine
 10
1165.365692254711
 20
220.8698015265356
 30
0.0
 11
1169.329208527112
 21
219.5370828535353
 31
0.0
  0
LINE
  5
3EE
330
1F
100
AcDbEntity
  8
SPOJOVACÍ
  6
DASHED
100
AcDbLine
 10
1169.699306870639
 20
219.9080927713887
 30
0.0
 11
1169.329208527112
 21
220.1214006849797
 31
0.0
  0
LINE
  5
3EF
330
1F
100
AcDbEntity
  8
SPOJOVACÍ
  6
DASHED
100
AcDbLine
 10
1169.699306870639
 20
219.9080927713887
 30
0.0
 11
1169.329208527112
 21
219.5370828535353
 31
0.0
  0
LINE
  5
3F0
330
1F
100
AcDbEntity
  8
SPOJOVACÍ
  6
DASHED
100
AcDbLine
 10
1164.995593906907
 20
221.0840210123217
 30
0.0
 11
1165.365692254711
 21
221.4541193579873
 31
0.0
  0
LINE
  5
3F1
330
1F
100
AcDbEntity
  8
SPOJOVACÍ
  6
DASHED
100
AcDbLine
 10
1164.995593906907
 20
221.0840210123217
 30
0.0
 11
1165.365692254711
 21
220.8698015265356
 31
0.0
  0
LINE
  5
3F2
330
1F
100
AcDbEntity
  8
SPOJOVACÍ
  6
DASHED
100
AcDbLine
 10
1164.995593906907
 20
221.0840210123217
 30
0.0
 11
1169.699306870639
 21
219.9080927713887
 31
0.0
  0
LINE
  5
3F3
330
1F
100
AcDbEntity
  8
SPOJOVACÍ
  6
DASHED
100
AcDbLine
 10
1166.351101889685
 20
206.0449015390579
 30
0.0
 11
1168.462303288313
 21
205.7404363975995
 31
0.0
  0
LINE
  5
3F4
330
1F
100
AcDbEntity
  8
SPOJOVACÍ
  6
DASHED
100
AcDbLine
 10
1166.721200233211
 20
206.4149998847235
 30
0.0
 11
1168.092204944786
 21
205.9537443111906
 31
0.0
  0
LINE
  5
3F5
330
1F
100
AcDbEntity
  8
SPOJOVACÍ
  6
DASHED
100
AcDbLine
 10
1166.721200233211
 20
205.8306820532791
 30
0.0
 11
1168.092204944786
 21
205.3694264797461
 31
0.0
  0
LINE
  5
3F6
330
1F
100
AcDbEntity
  8
SPOJOVACÍ
  6
DASHED
100
AcDbLine
 10
1168.462303288313
 20
205.7404363975995
 30
0.0
 11
1168.092204944786
 21
205.9537443111906
 31
0.0
  0
LINE
  5
3F7
330
1F
100
AcDbEntity
  8
SPOJOVACÍ
  6
DASHED
100
AcDbLine
 10
1168.462303288313
 20
205.7404363975995
 30
0.0
 11
1168.092204944786
 21
205.3694264797461
 31
0.0
  0
LINE
  5
3F8
330
1F
100
AcDbEntity
  8
SPOJOVACÍ
  6
DASHED
100
AcDbLine
 10
1166.351101889685
 20
206.0449015390579
 30
0.0
 11
1166.721200233211
 21
206.4149998847235
 31
0.0
  0
LINE
  5
3F9
330
1F
100
AcDbEntity
  8
SPOJOVACÍ
  6
DASHED
100
AcDbLine
 10
1166.351101889685
 20
206.0449015390579
 30
0.0
 11
1166.721200233211
 21
205.8306820532791
 31
0.0
  0
LINE
  5
3FA
330
1F
100
AcDbEntity
  8
SPOJOVACÍ
  6
DASHED
100
AcDbLine
 10
1165.797777513423
 20
208.9983957258112
 30
0.0
 11
1168.851544651525
 21
208.3776150033766
 31
0.0
  0
LINE
  5
3FB
330
1F
100
AcDbEntity
  8
SPOJOVACÍ
  6
DASHED
100
AcDbLine
 10
1166.167875861228
 20
209.3694056439356
 30
0.0
 11
1168.481446307999
 21
208.5909229167039
 31
0.0
  0
LINE
  5
3FC
330
1F
100
AcDbEntity
  8
SPOJOVACÍ
  6
DASHED
100
AcDbLine
 10
1166.167875861228
 20
208.7850878124839
 30
0.0
 11
1168.481446307999
 21
208.0066050855232
 31
0.0
  0
LINE
  5
3FD
330
1F
100
AcDbEntity
  8
SPOJOVACÍ
  6
DASHED
100
AcDbLine
 10
1168.851544651525
 20
208.3776150033766
 30
0.0
 11
1168.481446307999
 21
208.5909229167039
 31
0.0
  0
LINE
  5
3FE
330
1F
100
AcDbEntity
  8
SPOJOVACÍ
  6
DASHED
100
AcDbLine
 10
1168.851544651525
 20
208.3776150033766
 30
0.0
 11
1168.481446307999
 21
208.0066050855232
 31
0.0
  0
LINE
  5
3FF
330
1F
100
AcDbEntity
  8
SPOJOVACÍ
  6
DASHED
100
AcDbLine
 10
1165.797777513423
 20
208.9983957258112
 30
0.0
 11
1166.167875861228
 21
209.3694056439356
 31
0.0
  0
LINE
  5
400
330
1F
100
AcDbEntity
  8
SPOJOVACÍ
  6
DASHED
100
AcDbLine
 10
1165.797777513423
 20
208.9983957258112
 30
0.0
 11
1166.167875861228
 21
208.7850878124839
 31
0.0
  0
LINE
  5
401
330
1F
100
AcDbEntity
  8
SPOJOVACÍ
  6
DASHED
100
AcDbLine
 10
1165.244453141439
 20
211.9528014850232
 30
0.0
 11
1169.287276201127
 21
210.9992968803646
 31
0.0
  0
LINE
  5
402
330
1F
100
AcDbEntity
  8
SPOJOVACÍ
  6
DASHED
100
AcDbLine
 10
1165.615463058758
 20
212.3228998306887
 30
0.0
 11
1168.917177857601
 21
211.2126047936919
 31
0.0
  0
LINE
  5
403
330
1F
100
AcDbEntity
  8
SPOJOVACÍ
  6
DASHED
100
AcDbLine
 10
1165.615463058758
 20
211.738581999237
 30
0.0
 11
1168.917177857601
 21
210.6282869622402
 31
0.0
  0
LINE
  5
404
330
1F
100
AcDbEntity
  8
SPOJOVACÍ
  6
DASHED
100
AcDbLine
 10
1169.287276201127
 20
210.9992968803646
 30
0.0
 11
1168.917177857601
 21
211.2126047936919
 31
0.0
  0
LINE
  5
405
330
1F
100
AcDbEntity
  8
SPOJOVACÍ
  6
DASHED
100
AcDbLine
 10
1169.287276201127
 20
210.9992968803646
 30
0.0
 11
1168.917177857601
 21
210.6282869622402
 31
0.0
  0
LINE
  5
406
330
1F
100
AcDbEntity
  8
SPOJOVACÍ
  6
DASHED
100
AcDbLine
 10
1165.244453141439
 20
211.9528014850232
 30
0.0
 11
1165.615463058758
 21
212.3228998306887
 31
0.0
  0
LINE
  5
407
330
1F
100
AcDbEntity
  8
SPOJOVACÍ
  6
DASHED
100
AcDbLine
 10
1165.244453141439
 20
211.9528014850232
 30
0.0
 11
1165.615463058758
 21
211.738581999237
 31
0.0
  0
LINE
  5
408
330
1F
100
AcDbEntity
  8
SPOJOVACÍ
  6
DASHED
100
AcDbLine
 10
1165.365692254711
 20
224.5115327848409
 30
0.0
 11
1169.329208527112
 21
223.1797256837574
 31
0.0
  0
LINE
  5
409
330
1F
100
AcDbEntity
  8
SPOJOVACÍ
  6
DASHED
100
AcDbLine
 10
1165.365692254711
 20
223.9272149533892
 30
0.0
 11
1169.329208527112
 21
222.5954078525767
 31
0.0
  0
LINE
  5
40A
330
1F
100
AcDbEntity
  8
SPOJOVACÍ
  6
DASHED
100
AcDbLine
 10
1169.699306870639
 20
222.9655061979713
 30
0.0
 11
1169.329208527112
 21
223.1797256837574
 31
0.0
  0
LINE
  5
40B
330
1F
100
AcDbEntity
  8
SPOJOVACÍ
  6
DASHED
100
AcDbLine
 10
1169.699306870639
 20
222.9655061979713
 30
0.0
 11
1169.329208527112
 21
222.5954078525767
 31
0.0
  0
LINE
  5
40C
330
1F
100
AcDbEntity
  8
SPOJOVACÍ
  6
DASHED
100
AcDbLine
 10
1164.995593906907
 20
224.1414344391753
 30
0.0
 11
1165.365692254711
 21
224.5115327848409
 31
0.0
  0
LINE
  5
40D
330
1F
100
AcDbEntity
  8
SPOJOVACÍ
  6
DASHED
100
AcDbLine
 10
1164.995593906907
 20
224.1414344391753
 30
0.0
 11
1165.365692254711
 21
223.9272149533892
 31
0.0
  0
LINE
  5
40E
330
1F
100
AcDbEntity
  8
SPOJOVACÍ
  6
DASHED
100
AcDbLine
 10
1164.995593906907
 20
224.1414344391753
 30
0.0
 11
1169.699306870639
 21
222.9655061979713
 31
0.0
  0
LINE
  5
40F
330
1F
100
AcDbEntity
  8
SPOJOVACÍ
  6
DASHED
100
AcDbLine
 10
1165.365692254711
 20
227.5698577836112
 30
0.0
 11
1169.329208527112
 21
226.237139110611
 31
0.0
  0
LINE
  5
410
330
1F
100
AcDbEntity
  8
SPOJOVACÍ
  6
DASHED
100
AcDbLine
 10
1165.365692254711
 20
226.9855399524306
 30
0.0
 11
1169.329208527112
 21
225.6528212791593
 31
0.0
  0
LINE
  5
411
330
1F
100
AcDbEntity
  8
SPOJOVACÍ
  6
DASHED
100
AcDbLine
 10
1169.699306870639
 20
226.0229196248249
 30
0.0
 11
1169.329208527112
 21
226.237139110611
 31
0.0
  0
LINE
  5
412
330
1F
100
AcDbEntity
  8
SPOJOVACÍ
  6
DASHED
100
AcDbLine
 10
1169.699306870639
 20
226.0229196248249
 30
0.0
 11
1169.329208527112
 21
225.6528212791593
 31
0.0
  0
LINE
  5
413
330
1F
100
AcDbEntity
  8
SPOJOVACÍ
  6
DASHED
100
AcDbLine
 10
1164.995593906907
 20
227.1988478657579
 30
0.0
 11
1165.365692254711
 21
227.5698577836112
 31
0.0
  0
LINE
  5
414
330
1F
100
AcDbEntity
  8
SPOJOVACÍ
  6
DASHED
100
AcDbLine
 10
1164.995593906907
 20
227.1988478657579
 30
0.0
 11
1165.365692254711
 21
226.9855399524306
 31
0.0
  0
LINE
  5
415
330
1F
100
AcDbEntity
  8
SPOJOVACÍ
  6
DASHED
100
AcDbLine
 10
1164.995593906907
 20
227.1988478657579
 30
0.0
 11
1169.699306870639
 21
226.0229196248249
 31
0.0
  0
LINE
  5
416
330
1F
100
AcDbEntity
  8
SPOJOVACÍ
  6
DASHED
100
AcDbLine
 10
1168.429486687414
 20
211.3858035270143
 30
0.0
 11
1168.670141770652
 21
213.3174251880748
 31
0.0
  0
LINE
  5
417
330
1F
100
AcDbEntity
  8
SPOJOVACÍ
  6
DASHED
100
AcDbLine
 10
1168.097674374704
 20
208.7331281924337
 30
0.0
 11
1168.359295620935
 21
210.82700971923
 31
0.0
  0
LINE
  5
418
330
1F
100
AcDbEntity
  8
SPOJOVACÍ
  6
DASHED
100
AcDbLine
 10
1167.764950496758
 20
206.0704255629891
 30
0.0
 11
1168.027483312503
 21
208.1725112402739
 31
0.0
  0
LINE
  5
419
330
1F
100
AcDbEntity
  8
SPOJOVACÍ
  6
DASHED
100
AcDbLine
 10
1166.969147893952
 20
205.7604909878693
 30
0.0
 11
1167.347450388773
 21
202.7331594464206
 31
0.0
  0
LINE
  5
41A
330
1F
100
AcDbEntity
  8
SPOJOVACÍ
  6
DASHED
100
AcDbLine
 10
1166.609076845026
 20
208.642882536754
 30
0.0
 11
1166.893487393277
 21
206.3685096986057
 31
0.0
  0
LINE
  5
41B
330
1F
100
AcDbEntity
  8
SPOJOVACÍ
  6
DASHED
100
AcDbLine
 10
1166.247182648515
 20
211.5362129529687
 30
0.0
 11
1166.531593201044
 21
209.2609285426253
 31
0.0
  0
LINE
  5
41C
330
1F
100
AcDbEntity
  8
SPOJOVACÍ
  6
DASHED
100
AcDbLine
 10
1167.347450388773
 20
202.7331594464206
 30
0.0
 11
1167.694759430279
 21
205.5125433276637
 31
0.0
  0
LINE
  5
41D
330
1F
100
AcDbEntity
  8
SPOJOVACÍ
  6
DASHED
100
AcDbLine
 10
1166.024759011171
 20
213.3174251880748
 30
0.0
 11
1166.17152214784
 21
212.1442316637051
 31
0.0
  0
LINE
  5
41E
330
1F
100
AcDbEntity
  8
SPOJOVACÍ
  6
DASHED
100
AcDbLine
 10
1168.670141770652
 20
213.6474143532006
 30
0.0
 11
1168.670141770652
 21
213.3174251880748
 31
0.0
  0
LINE
  5
41F
330
1F
100
AcDbEntity
  8
SPOJOVACÍ
  6
DASHED
100
AcDbLine
 10
1168.670141770652
 20
216.7075624968813
 30
0.0
 11
1168.670141770652
 21
214.239024762953
 31
0.0
  0
LINE
  5
420
330
1F
100
AcDbEntity
  8
SPOJOVACÍ
  6
DASHED
100
AcDbLine
 10
1166.024759011171
 20
214.5398436151256
 30
0.0
 11
1166.024759011171
 21
213.3174251880748
 31
0.0
  0
LINE
  5
421
330
1F
100
AcDbEntity
  8
SPOJOVACÍ
  6
DASHED
100
AcDbLine
 10
1166.024759011171
 20
217.5917876083178
 30
0.0
 11
1166.024759011171
 21
215.1241614465773
 31
0.0
  0
LINE
  5
422
330
1F
100
AcDbEntity
  8
SPOJOVACÍ
  6
DASHED
100
AcDbLine
 10
1168.670141770652
 20
219.7667990681104
 30
0.0
 11
1168.670141770652
 21
217.2964381895356
 31
0.0
  0
LINE
  5
423
330
1F
100
AcDbEntity
  8
SPOJOVACÍ
  6
DASHED
100
AcDbLine
 10
1168.670141770652
 20
222.8269472115273
 30
0.0
 11
1168.670141770652
 21
220.3492937549156
 31
0.0
  0
LINE
  5
424
330
1F
100
AcDbEntity
  8
SPOJOVACÍ
  6
DASHED
100
AcDbLine
 10
1168.670141770652
 20
225.8798027769073
 30
0.0
 11
1168.670141770652
 21
223.411265042979
 31
0.0
  0
LINE
  5
425
330
1F
100
AcDbEntity
  8
SPOJOVACÍ
  6
DASHED
100
AcDbLine
 10
1166.024759011171
 20
220.6619630468697
 30
0.0
 11
1166.024759011171
 21
218.1843095902579
 31
0.0
  0
LINE
  5
426
330
1F
100
AcDbEntity
  8
SPOJOVACÍ
  6
DASHED
100
AcDbLine
 10
1166.024759011171
 20
223.7148186122496
 30
0.0
 11
1166.024759011171
 21
221.2444577336748
 31
0.0
  0
LINE
  5
427
330
1F
100
AcDbEntity
  8
SPOJOVACÍ
  6
DASHED
100
AcDbLine
 10
1166.024759011171
 20
226.7749667556665
 30
0.0
 11
1166.024759011171
 21
224.3064290217382
 31
0.0
  0
LINE
  5
428
330
1F
100
AcDbEntity
  8
SPOJOVACÍ
  6
DASHED
100
AcDbLine
 10
1166.024759011171
 20
231.3155082817459
 30
0.0
 11
1166.024759011171
 21
227.3583730146595
 31
0.0
  0
LINE
  5
429
330
1F
100
AcDbEntity
  8
SPOJOVACÍ
  6
DASHED
100
AcDbLine
 10
1168.670141770652
 20
231.3155082817459
 30
0.0
 11
1168.670141770652
 21
226.4714131863959
 31
0.0
  0
LINE
  5
42A
330
1F
100
AcDbEntity
  8
SPOJOVACÍ
  6
DASHED
100
AcDbLine
 10
1162.349299577911
 20
236.6071853662154
 30
0.0
 11
1163.671990959791
 21
235.8779275424706
 31
0.0
  0
LINE
  5
42B
330
1F
100
AcDbEntity
  8
SPOJOVACÍ
  6
DASHED
100
AcDbLine
 10
1163.671990959791
 20
235.8779275424706
 30
0.0
 11
1164.760408262143
 21
234.8305309928466
 31
0.0
  0
LINE
  5
42C
330
1F
100
AcDbEntity
  8
SPOJOVACÍ
  6
DASHED
100
AcDbLine
 10
1164.760408262143
 20
234.8305309928466
 30
0.0
 11
1165.540714131874
 21
233.537921500115
 31
0.0
  0
LINE
  5
42D
330
1F
100
AcDbEntity
  8
SPOJOVACÍ
  6
DASHED
100
AcDbLine
 10
1165.540714131874
 20
233.537921500115
 30
0.0
 11
1165.960037378888
 21
232.0866984304059
 31
0.0
  0
LINE
  5
42E
330
1F
100
AcDbEntity
  8
SPOJOVACÍ
  6
DASHED
100
AcDbLine
 10
1165.960037378888
 20
232.0866984304059
 30
0.0
 11
1166.024759011171
 21
231.3155082817459
 31
0.0
  0
LINE
  5
42F
330
1F
100
AcDbEntity
  8
SPOJOVACÍ
  6
DASHED
100
AcDbLine
 10
1170.432210984468
 20
235.3774743608567
 30
0.0
 11
1171.64460211719
 21
236.2771962010895
 31
0.0
  0
LINE
  5
430
330
1F
100
AcDbEntity
  8
SPOJOVACÍ
  6
DASHED
100
AcDbLine
 10
1171.64460211719
 20
236.2771962010895
 30
0.0
 11
1172.345601199634
 21
236.6071853662154
 31
0.0
  0
LINE
  5
431
330
1F
100
AcDbEntity
  8
SPOJOVACÍ
  6
DASHED
100
AcDbLine
 10
1162.349299577911
 20
236.6071853662154
 30
0.0
 11
1172.345601199634
 21
236.6071853662154
 31
0.0
  0
LINE
  5
432
330
1F
100
AcDbEntity
  8
SPOJOVACÍ
  6
DASHED
100
AcDbLine
 10
1162.349299577911
 20
237.7831136074121
 30
0.0
 11
1162.349299577911
 21
236.6071853662154
 31
0.0
  0
LINE
  5
433
330
1F
100
AcDbEntity
  8
SPOJOVACÍ
  6
DASHED
100
AcDbLine
 10
1162.349299577911
 20
237.7831136074121
 30
0.0
 11
1172.345601199634
 21
237.7831136074121
 31
0.0
  0
LINE
  5
434
330
1F
100
AcDbEntity
  8
SPOJOVACÍ
  6
DASHED
100
AcDbLine
 10
1172.345601199634
 20
237.7831136074121
 30
0.0
 11
1172.345601199634
 21
236.6071853662154
 31
0.0
  0
LINE
  5
435
330
1F
100
AcDbEntity
  8
SPOJOVACÍ
  6
DASHED
100
AcDbLine
 10
1168.670141770652
 20
231.3155082817459
 30
0.0
 11
1168.892565403718
 21
232.8086636761065
 31
0.0
  0
LINE
  5
436
330
1F
100
AcDbEntity
  8
SPOJOVACÍ
  6
DASHED
100
AcDbLine
 10
1168.892565403718
 20
232.8086636761065
 30
0.0
 11
1169.493291535883
 21
234.1942535416158
 31
0.0
  0
LINE
  5
437
330
1F
100
AcDbEntity
  8
SPOJOVACÍ
  6
DASHED
100
AcDbLine
 10
1169.493291535883
 20
234.1942535416158
 30
0.0
 11
1170.432210984468
 21
235.3774743608567
 31
0.0
  0
LINE
  5
438
330
1F
100
AcDbEntity
  8
nášlap_vrstvy
100
AcDbLine
 10
1269.798550166105
 20
243.1439857835914
 30
0.0
 11
1265.156626919811
 21
243.1439857835914
 31
0.0
  0
HATCH
  5
439
330
1F
100
AcDbEntity
  8
nášlap_vrstvy
100
AcDbHatch
 10
0.0
 20
0.0
 30
0.0
210
0.0
220
0.0
230
1.0
  2
SOLID
 70
     1
 71
     0
 91
        1
 92
        7
 72
     0
 73
     1
 93
        4
 10
1194.948138286781
 20
239.2831136074121
 10
1183.127271931865
 20
239.2831136074121
 10
1183.127271931861
 20
237.7831136074121
 10
1194.948138286781
 20
237.7831136074121
 97
        0
 75
     0
 76
     1
 47
0.1901250437635136
 98
        1
 10
1187.806169311035
 20
238.8747078318722
  0
LWPOLYLINE
  5
43A
330
1F
100
AcDbEntity
  8
nášlap_vrstvy
100
AcDbPolyline
 90
        4
 70
     1
 43
0.0
 10
1194.948138286781
 20
239.2831136074121
 10
1183.127271931861
 20
239.2831136074121
 10
1183.127271931861
 20
237.7831136074121
 10
1194.948138286781
 20
237.7831136074121
  0
HATCH
  5
43B
330
1F
100
AcDbEntity
  8
nášlap_vrstvy
100
AcDbHatch
 10
0.0
 20
0.0
 30
0.0
210
0.0
220
0.0
230
1.0
  2
SOLID
 70
     1
 71
     0
 91
        1
 92
        7
 72
     0
 73
     1
 93
        4
 10
1218.589870996616
 20
239.2831136074121
 10
1206.769004641696
 20
239.2831136074121
 10
1206.769004641696
 20
237.7831136074121
 10
1218.589870996616
 20
237.7831136074121
 97
        0
 75
     0
 76
     1
 47
0.1901250437635136
 98
        1
 10
1211.447902020866
 20
238.8747078318722
  0
LWPOLYLINE
  5
43C
330
1F
100
AcDbEntity
  8
nášlap_vrstvy
100
AcDbPolyline
 90
        4
 70
     1
 43
0.0
 10
1218.589870996612
 20
239.2831136074121
 10
1206.769004641696
 20
239.2831136074121
 10
1206.769004641696
 20
237.7831136074121
 10
1218.589870996612
 20
237.7831136074121
  0
LWPOLYLINE
  5
43D
330
1F
100
AcDbEntity
  8
nášlap_vrstvy
100
AcDbPolyline
 90
        4
 70
     1
 43
0.0
 10
1284.76001837004
 20
239.2831136074121
 10
1272.939152015125
 20
239.2831136074121
 10
1272.939152015125
 20
237.7831136074121
 10
1284.76001837004
 20
237.7831136074121
  0
HATCH
  5
43E
330
1F
100
AcDbEntity
  8
nášlap_vrstvy
100
AcDbHatch
 10
0.0
 20
0.0
 30
0.0
210
0.0
220
0.0
230
1.0
  2
SOLID
 70
     1
 71
     0
 91
        1
 92
        7
 72
     0
 73
     1
 93
        4
 10
1284.760018370044
 20
239.2831136074121
 10
1272.939152015125
 20
239.2831136074121
 10
1272.939152015125
 20
237.7831136074121
 10
1284.760018370044
 20
237.7831136074121
 97
        0
 75
     0
 76
     1
 47
0.1901250437635136
 98
        1
 10
1277.618049394295
 20
238.8747078318722
  0
HATCH
  5
43F
330
1F
100
AcDbEntity
  8
nášlap_vrstvy
100
AcDbHatch
 10
0.0
 20
0.0
 30
0.0
210
0.0
220
0.0
230
1.0
  2
SOLID
 70
     1
 71
     0
 91
        1
 92
        7
 72
     0
 73
     1
 93
        4
 10
1261.118285660209
 20
239.2831136074121
 10
1249.297419305293
 20
239.2831136074121
 10
1249.297419305289
 20
237.7831136074121
 10
1261.118285660209
 20
237.7831136074121
 97
        0
 75
     0
 76
     1
 47
0.1901250437635136
 98
        1
 10
1253.976316684463
 20
238.8747078318722
  0
HATCH
  5
440
330
1F
100
AcDbEntity
  8
nášlap_vrstvy
100
AcDbHatch
 10
0.0
 20
0.0
 30
0.0
210
0.0
220
0.0
230
1.0
  2
SOLID
 70
     1
 71
     0
 91
        1
 92
        7
 72
     0
 73
     1
 93
        4
 10
1237.47655295037
 20
239.2831136074121
 10
1225.655686595454
 20
239.2831136074121
 10
1225.655686595454
 20
237.7831136074121
 10
1237.476552950374
 20
237.7831136074121
 97
        0
 75
     0
 76
     1
 47
0.1901250437635136
 98
        3
 10
1251.598298082465
 20
238.399391142718
 10
1233.430202668793
 20
238.3043278048873
 10
1231.432666574182
 20
238.5895178183793
  0
LWPOLYLINE
  5
441
330
1F
100
AcDbEntity
  8
nášlap_vrstvy
100
AcDbPolyline
 90
        4
 70
     1
 43
0.0
 10
1261.118285660209
 20
239.2831136074121
 10
1249.297419305289
 20
239.2831136074121
 10
1249.297419305289
 20
237.7831136074121
 10
1261.118285660209
 20
237.7831136074121
  0
LWPOLYLINE
  5
442
330
1F
100
AcDbEntity
  8
nášlap_vrstvy
100
AcDbPolyline
 90
        4
 70
     1
 43
0.0
 10
1237.47655295037
 20
239.2831136074121
 10
1225.655686595454
 20
239.2831136074121
 10
1225.655686595454
 20
237.7831136074121
 10
1237.47655295037
 20
237.7831136074121
  0
LWPOLYLINE
  5
443
330
1F
100
AcDbEntity
  8
nášlap_vrstvy
100
AcDbPolyline
 90
        4
 70
     1
 43
0.0
 10
1308.401751079879
 20
239.2831136074121
 10
1296.58088472496
 20
239.2831136074121
 10
1296.58088472496
 20
237.7831136074121
 10
1308.401751079879
 20
237.7831136074121
  0
HATCH
  5
444
330
1F
100
AcDbEntity
  8
nášlap_vrstvy
100
AcDbHatch
 10
0.0
 20
0.0
 30
0.0
210
0.0
220
0.0
230
1.0
  2
SOLID
 70
     1
 71
     0
 91
        1
 92
        7
 72
     0
 73
     1
 93
        4
 10
1308.401751079879
 20
239.2831136074121
 10
1296.580884724964
 20
239.2831136074121
 10
1296.58088472496
 20
237.7831136074121
 10
1308.401751079879
 20
237.7831136074121
 97
        0
 75
     0
 76
     1
 47
0.1901250437635136
 98
        1
 10
1301.259782104134
 20
238.8747078318722
  0
HATCH
  5
445
330
1F
100
AcDbEntity
  8
nášlap_vrstvy
100
AcDbHatch
 10
0.0
 20
0.0
 30
0.0
210
0.0
220
0.0
230
1.0
  2
AR-CONC
 70
     0
 71
     0
 91
        1
 92
        7
 72
     0
 73
     1
 93
        6
 10
1575.526626486901
 20
243.1439857835914
 10
1529.082396658693
 20
243.1439857835914
 10
1524.440473412399
 20
243.1439857835914
 10
1419.020941358262
 20
243.1439857835914
 10
1419.020941358262
 20
239.2831136074121
 10
1575.526626486901
 20
239.2831136074121
 97
        0
 75
     0
 76
     1
 52
90.0
 41
0.1
 77
     0
 78
    13
 53
140.0
 43
530.8662523171672
 44
631.2103473068361
 45
1.593908553890309
 46
18.2184668996004
 79
     2
 49
1.905
 49
-20.955
 53
85.00000000000001
 43
530.8662523171672
 44
631.2103473068361
 45
-19.10566428821799
 46
-3.524282597566697
 79
     2
 49
1.524
 49
-16.764
 53
190.4509999999999
 43
530.9990773171672
 44
632.7285473068362
 45
-17.51166878202918
 46
14.69425016659592
 79
     2
 49
1.619
 49
-17.809
 53
136.1841999999999
 43
525.7862523171673
 44
631.2103473068361
 45
4.204232793272717
 46
27.10790408921299
 79
     2
 49
2.857499999999999
 49
-31.4325
 53
186.6355999999999
 43
526.1366023171672
 44
633.4693373068362
 45
-24.74255558900492
 46
23.74042344662371
 79
     2
 49
2.4285
 49
-26.7135
 53
81.18400000000004
 43
525.7862523171673
 44
631.2103473068361
 45
-24.74251178605976
 46
23.74046058139339
 79
     2
 49
2.286
 49
-25.146
 53
111.0
 43
527.0562523171673
 44
633.7503473068361
 45
10.22655185167625
 46
15.16148798353833
 79
     2
 49
1.905
 49
-20.955
 53
56.00000000000004
 43
527.0562523171673
 44
633.7503473068361
 45
-18.41879661223192
 46
6.180202834764708
 79
     2
 49
1.524
 49
-16.764
 53
161.4514
 43
527.9084623171672
 44
635.0137973068362
 45
-8.192285771605742
 46
21.34164907701245
 79
     2
 49
1.618999999999999
 49
-17.80899999999998
 53
127.5
 43
530.8662523171672
 44
631.2103473068361
 45
-8.455503887315311
 46
0.3088603250591822
 79
     6
 49
0.0
 49
-16.5608
 49
0.0
 49
-17.018
 49
0.0
 49
-16.8275
 53
97.49999999999998
 43
530.8662523171672
 44
631.2103473068361
 45
-10.01805748181195
 46
6.681966251030575
 79
     6
 49
0.0
 49
-9.702799999999999
 49
0.0
 49
-16.1798
 49
0.0
 49
-6.4135
 53
57.5
 43
530.8662523171672
 44
625.5461473068362
 45
0.5728743992673473
 46
13.55905951668713
 79
     6
 49
0.0
 49
-6.35
 49
0.0
 49
-19.812
 49
0.0
 49
-26.289
 53
47.5
 43
530.8662523171672
 44
623.0061473068361
 45
-2.5426491033333
 46
14.8129181386018
 79
     6
 49
0.0
 49
-8.255
 49
0.0
 49
-13.1572
 49
0.0
 49
-18.669
 47
0.4135357145080551
 98
        1
 10
1485.327537283262
 20
240.8871743477136
  0
LWPOLYLINE
  5
446
330
1F
100
AcDbEntity
  8
izolace
100
AcDbPolyline
 90
        4
 70
     1
 43
0.0
 10
1466.82806444988
 20
173.7831136074121
 10
1443.186331740045
 20
173.7831136074121
 10
1443.186331740045
 20
170.7831136074121
 10
1466.82806444988
 20
170.7831136074121
  0
HATCH
  5
447
330
1F
100
AcDbEntity
  8
izolace
100
AcDbHatch
 10
0.0
 20
0.0
 30
0.0
210
0.0
220
0.0
230
1.0
  2
SOLID
 70
     1
 71
     0
 91
        1
 92
        7
 72
     0
 73
     1
 93
        4
 10
1466.828064449884
 20
173.7831136074121
 10
1443.186331740048
 20
173.7831136074121
 10
1443.186331740045
 20
170.7831136074121
 10
1466.828064449884
 20
170.7831136074121
 97
        0
 75
     0
 76
     1
 47
0.1901250437635136
 98
        1
 10
1452.544126498388
 20
172.9663020563323
  0
LINE
  5
448
330
1F
100
AcDbEntity
  8
CETRIS
100
AcDbLine
 10
1394.044187634658
 20
225.7831136074126
 30
0.0
 11
1394.044187634658
 21
213.7831136074126
 31
0.0
  0
INSERT
  5
449
330
1F
100
AcDbEntity
  8
POPIS
100
AcDbBlockReference
  2
E_PUNKT
 10
1418.991873027388
 20
115.3584401976752
 30
0.0
 50
270.0
  0
INSERT
  5
44A
330
1F
100
AcDbEntity
  8
POPIS
100
AcDbBlockReference
  2
E_PUNKT
 10
1369.903357563103
 20
173.810723983039
 30
0.0
 50
270.0
  0
LWPOLYLINE
  5
44B
330
1F
100
AcDbEntity
  8
STAVBA OBRYS
100
AcDbPolyline
 90
        4
 70
     1
 43
0.0
 10
1419.54459903021
 20
173.7831136074121
 10
1395.902866320374
 20
173.7831136074121
 10
1395.902866320374
 20
170.7831136074121
 10
1419.54459903021
 20
170.7831136074121
  0
HATCH
  5
44C
330
1F
100
AcDbEntity
  8
izolace
100
AcDbHatch
 10
0.0
 20
0.0
 30
0.0
210
0.0
220
0.0
230
1.0
  2
SOLID
 70
     1
 71
     0
 91
        1
 92
        7
 72
     0
 73
     1
 93
        4
 10
1419.544599030213
 20
173.7831136074121
 10
1395.902866320378
 20
173.7831136074121
 10
1395.902866320374
 20
170.7831136074121
 10
1419.544599030213
 20
170.7831136074121
 97
        0
 75
     0
 76
     1
 47
0.1901250437635136
 98
        1
 10
1405.260661078718
 20
172.9663020563323
  0
LWPOLYLINE
  5
44D
330
1F
100
AcDbEntity
  8
izolace
100
AcDbPolyline
 90
        4
 70
     1
 43
0.0
 10
1372.261133610539
 20
173.7831136074121
 10
1348.619400900704
 20
173.7831136074121
 10
1348.619400900704
 20
170.7831136074121
 10
1372.261133610539
 20
170.7831136074121
  0
HATCH
  5
44E
330
1F
100
AcDbEntity
  8
izolace
100
AcDbHatch
 10
0.0
 20
0.0
 30
0.0
210
0.0
220
0.0
230
1.0
  2
SOLID
 70
     1
 71
     0
 91
        1
 92
        7
 72
     0
 73
     1
 93
        4
 10
1372.261133610543
 20
173.7831136074121
 10
1348.619400900707
 20
173.7831136074121
 10
1348.619400900704
 20
170.7831136074121
 10
1372.261133610543
 20
170.7831136074121
 97
        0
 75
     0
 76
     1
 47
0.1901250437635136
 98
        1
 10
1357.977195659047
 20
172.9663020563323
  0
LINE
  5
44F
330
1F
100
AcDbEntity
  8
nášlap_vrstvy
100
AcDbLine
 10
1399.440473412399
 20
243.1439857835914
 30
0.0
 11
1394.798550166105
 21
243.1439857835914
 31
0.0
  0
LWPOLYLINE
  5
450
330
1F
100
AcDbEntity
  8
nášlap_vrstvy
100
AcDbPolyline
 90
        4
 70
     1
 43
0.0
 10
1379.326949209381
 20
239.2831136074121
 10
1367.506082854466
 20
239.2831136074121
 10
1367.506082854466
 20
237.7831136074121
 10
1379.326949209381
 20
237.7831136074121
  0
HATCH
  5
451
330
1F
100
AcDbEntity
  8
nášlap_vrstvy
100
AcDbHatch
 10
0.0
 20
0.0
 30
0.0
210
0.0
220
0.0
230
1.0
  2
SOLID
 70
     1
 71
     0
 91
        1
 92
        7
 72
     0
 73
     1
 93
        4
 10
1379.326949209385
 20
239.2831136074121
 10
1367.506082854466
 20
239.2831136074121
 10
1367.506082854466
 20
237.7831136074121
 10
1379.326949209385
 20
237.7831136074121
 97
        0
 75
     0
 76
     1
 47
0.1901250437635136
 98
        1
 10
1372.184980233635
 20
238.8747078318722
  0
LWPOLYLINE
  5
452
330
1F
100
AcDbEntity
  8
nášlap_vrstvy
100
AcDbPolyline
 90
        4
 70
     1
 43
0.0
 10
1355.68521649955
 20
239.2831136074121
 10
1343.86435014463
 20
239.2831136074121
 10
1343.86435014463
 20
237.7831136074121
 10
1355.68521649955
 20
237.7831136074121
  0
HATCH
  5
453
330
1F
100
AcDbEntity
  8
nášlap_vrstvy
100
AcDbHatch
 10
0.0
 20
0.0
 30
0.0
210
0.0
220
0.0
230
1.0
  2
SOLID
 70
     1
 71
     0
 91
        1
 92
        7
 72
     0
 73
     1
 93
        4
 10
1355.68521649955
 20
239.2831136074121
 10
1343.864350144634
 20
239.2831136074121
 10
1343.86435014463
 20
237.7831136074121
 10
1355.68521649955
 20
237.7831136074121
 97
        0
 75
     0
 76
     1
 47
0.1901250437635136
 98
        1
 10
1348.543247523804
 20
238.8747078318722
  0
LWPOLYLINE
  5
454
330
1F
100
AcDbEntity
  8
nášlap_vrstvy
100
AcDbPolyline
 90
        4
 70
     1
 43
0.0
 10
1332.043483789711
 20
239.2831136074121
 10
1320.222617434795
 20
239.2831136074121
 10
1320.222617434795
 20
237.7831136074121
 10
1332.043483789711
 20
237.7831136074121
  0
HATCH
  5
455
330
1F
100
AcDbEntity
  8
nášlap_vrstvy
100
AcDbHatch
 10
0.0
 20
0.0
 30
0.0
210
0.0
220
0.0
230
1.0
  2
SOLID
 70
     1
 71
     0
 91
        1
 92
        7
 72
     0
 73
     1
 93
        4
 10
1332.043483789715
 20
239.2831136074121
 10
1320.222617434795
 20
239.2831136074121
 10
1320.222617434795
 20
237.7831136074121
 10
1332.043483789715
 20
237.7831136074121
 97
        0
 75
     0
 76
     1
 47
0.1901250437635136
 98
        1
 10
1324.901514813965
 20
238.8747078318722
  0
LWPOLYLINE
  5
456
330
1F
100
AcDbEntity
  8
nášlap_vrstvy
100
AcDbPolyline
 90
        4
 70
     1
 43
0.0
 10
1450.252147338891
 20
239.2831136074121
 10
1438.431280983971
 20
239.2831136074121
 10
1438.431280983971
 20
237.7831136074121
 10
1450.252147338891
 20
237.7831136074121
  0
HATCH
  5
457
330
1F
100
AcDbEntity
  8
nášlap_vrstvy
100
AcDbHatch
 10
0.0
 20
0.0
 30
0.0
210
0.0
220
0.0
230
1.0
  2
SOLID
 70
     1
 71
     0
 91
        1
 92
        7
 72
     0
 73
     1
 93
        4
 10
1450.252147338891
 20
239.2831136074121
 10
1438.431280983975
 20
239.2831136074121
 10
1438.431280983971
 20
237.7831136074121
 10
1450.252147338891
 20
237.7831136074121
 97
        0
 75
     0
 76
     1
 47
0.1901250437635136
 98
        1
 10
1443.110178363145
 20
238.8747078318722
  0
LWPOLYLINE
  5
458
330
1F
100
AcDbEntity
  8
nášlap_vrstvy
100
AcDbPolyline
 90
        4
 70
     1
 43
0.0
 10
1426.610414629052
 20
239.2831136074121
 10
1414.789548274136
 20
239.2831136074121
 10
1414.789548274136
 20
237.7831136074121
 10
1426.610414629052
 20
237.7831136074121
  0
HATCH
  5
459
330
1F
100
AcDbEntity
  8
nášlap_vrstvy
100
AcDbHatch
 10
0.0
 20
0.0
 30
0.0
210
0.0
220
0.0
230
1.0
  2
SOLID
 70
     1
 71
     0
 91
        1
 92
        7
 72
     0
 73
     1
 93
        4
 10
1426.610414629055
 20
239.2831136074121
 10
1414.789548274136
 20
239.2831136074121
 10
1414.789548274136
 20
237.7831136074121
 10
1426.610414629055
 20
237.7831136074121
 97
        0
 75
     0
 76
     1
 47
0.1901250437635136
 98
        1
 10
1419.468445653306
 20
238.8747078318722
  0
LWPOLYLINE
  5
45A
330
1F
100
AcDbEntity
  8
nášlap_vrstvy
100
AcDbPolyline
 90
        4
 70
     1
 43
0.0
 10
1402.96868191922
 20
239.2831136074121
 10
1391.147815564301
 20
239.2831136074121
 10
1391.147815564301
 20
237.7831136074121
 10
1402.96868191922
 20
237.7831136074121
  0
HATCH
  5
45B
330
1F
100
AcDbEntity
  8
nášlap_vrstvy
100
AcDbHatch
 10
0.0
 20
0.0
 30
0.0
210
0.0
220
0.0
230
1.0
  2
SOLID
 70
     1
 71
     0
 91
        1
 92
        7
 72
     0
 73
     1
 93
        4
 10
1402.96868191922
 20
239.2831136074121
 10
1391.147815564304
 20
239.2831136074121
 10
1391.147815564301
 20
237.7831136074121
 10
1402.96868191922
 20
237.7831136074121
 97
        0
 75
     0
 76
     1
 47
0.1901250437635136
 98
        1
 10
1395.826712943474
 20
238.8747078318722
  0
LWPOLYLINE
  5
45C
330
1F
100
AcDbEntity
  8
izolace
100
AcDbPolyline
 90
        4
 70
     1
 43
0.0
 10
1561.394995289221
 20
173.7831136074121
 10
1537.753262579385
 20
173.7831136074121
 10
1537.753262579385
 20
170.7831136074121
 10
1561.394995289221
 20
170.7831136074121
  0
HATCH
  5
45D
330
1F
100
AcDbEntity
  8
izolace
100
AcDbHatch
 10
0.0
 20
0.0
 30
0.0
210
0.0
220
0.0
230
1.0
  2
SOLID
 70
     1
 71
     0
 91
        1
 92
        7
 72
     0
 73
     1
 93
        4
 10
1561.394995289224
 20
173.7831136074121
 10
1537.753262579389
 20
173.7831136074121
 10
1537.753262579385
 20
170.7831136074121
 10
1561.394995289224
 20
170.7831136074121
 97
        0
 75
     0
 76
     1
 47
0.1901250437635136
 98
        1
 10
1547.111057337729
 20
172.9663020563323
  0
LWPOLYLINE
  5
45E
330
1F
100
AcDbEntity
  8
izolace
100
AcDbPolyline
 90
        4
 70
     1
 43
0.0
 10
1514.11152986955
 20
173.7831136074121
 10
1490.469797159715
 20
173.7831136074121
 10
1490.469797159715
 20
170.7831136074121
 10
1514.11152986955
 20
170.7831136074121
  0
HATCH
  5
45F
330
1F
100
AcDbEntity
  8
izolace
100
AcDbHatch
 10
0.0
 20
0.0
 30
0.0
210
0.0
220
0.0
230
1.0
  2
SOLID
 70
     1
 71
     0
 91
        1
 92
        7
 72
     0
 73
     1
 93
        4
 10
1514.111529869554
 20
173.7831136074121
 10
1490.469797159719
 20
173.7831136074121
 10
1490.469797159715
 20
170.7831136074121
 10
1514.111529869554
 20
170.7831136074121
 97
        0
 75
     0
 76
     1
 47
0.1901250437635136
 98
        1
 10
1499.827591918059
 20
172.9663020563323
  0
LINE
  5
460
330
1F
100
AcDbEntity
  8
SPOJOVACÍ
  6
DASHED
100
AcDbLine
 10
1515.365692254711
 20
215.3392925048149
 30
0.0
 11
1519.329208527112
 21
214.0065738315436
 31
0.0
  0
LINE
  5
461
330
1F
100
AcDbEntity
  8
SPOJOVACÍ
  6
DASHED
100
AcDbLine
 10
1515.365692254711
 20
214.7549746733632
 30
0.0
 11
1519.329208527112
 21
213.4222560000919
 31
0.0
  0
LINE
  5
462
330
1F
100
AcDbEntity
  8
SPOJOVACÍ
  6
DASHED
100
AcDbLine
 10
1519.699306870639
 20
213.7923543457575
 30
0.0
 11
1519.329208527112
 21
214.0065738315436
 31
0.0
  0
LINE
  5
463
330
1F
100
AcDbEntity
  8
SPOJOVACÍ
  6
DASHED
100
AcDbLine
 10
1519.699306870639
 20
213.7923543457575
 30
0.0
 11
1519.329208527112
 21
213.4222560000919
 31
0.0
  0
LINE
  5
464
330
1F
100
AcDbEntity
  8
SPOJOVACÍ
  6
DASHED
100
AcDbLine
 10
1514.995593906907
 20
214.9682825866905
 30
0.0
 11
1515.365692254711
 21
215.3392925048149
 31
0.0
  0
LINE
  5
465
330
1F
100
AcDbEntity
  8
SPOJOVACÍ
  6
DASHED
100
AcDbLine
 10
1514.995593906907
 20
214.9682825866905
 30
0.0
 11
1515.365692254711
 21
214.7549746733632
 31
0.0
  0
LINE
  5
466
330
1F
100
AcDbEntity
  8
SPOJOVACÍ
  6
DASHED
100
AcDbLine
 10
1514.995593906907
 20
214.9682825866905
 30
0.0
 11
1519.699306870639
 21
213.7923543457575
 31
0.0
  0
LINE
  5
467
330
1F
100
AcDbEntity
  8
SPOJOVACÍ
  6
DASHED
100
AcDbLine
 10
1515.365692254711
 20
218.3967059313975
 30
0.0
 11
1519.329208527112
 21
217.0639872581261
 31
0.0
  0
LINE
  5
468
330
1F
100
AcDbEntity
  8
SPOJOVACÍ
  6
DASHED
100
AcDbLine
 10
1515.365692254711
 20
217.812388099953
 30
0.0
 11
1519.329208527112
 21
216.4796694269455
 31
0.0
  0
LINE
  5
469
330
1F
100
AcDbEntity
  8
SPOJOVACÍ
  6
DASHED
100
AcDbLine
 10
1519.699306870639
 20
216.8506793447988
 30
0.0
 11
1519.329208527112
 21
217.0639872581261
 31
0.0
  0
LINE
  5
46A
330
1F
100
AcDbEntity
  8
SPOJOVACÍ
  6
DASHED
100
AcDbLine
 10
1519.699306870639
 20
216.8506793447988
 30
0.0
 11
1519.329208527112
 21
216.4796694269455
 31
0.0
  0
LINE
  5
46B
330
1F
100
AcDbEntity
  8
SPOJOVACÍ
  6
DASHED
100
AcDbLine
 10
1514.995593906907
 20
218.0266075857318
 30
0.0
 11
1515.365692254711
 21
218.3967059313975
 31
0.0
  0
LINE
  5
46C
330
1F
100
AcDbEntity
  8
SPOJOVACÍ
  6
DASHED
100
AcDbLine
 10
1514.995593906907
 20
218.0266075857318
 30
0.0
 11
1515.365692254711
 21
217.812388099953
 31
0.0
  0
LINE
  5
46D
330
1F
100
AcDbEntity
  8
SPOJOVACÍ
  6
DASHED
100
AcDbLine
 10
1514.995593906907
 20
218.0266075857318
 30
0.0
 11
1519.699306870639
 21
216.8506793447988
 31
0.0
  0
LINE
  5
46E
330
1F
100
AcDbEntity
  8
SPOJOVACÍ
  6
DASHED
100
AcDbLine
 10
1515.365692254711
 20
221.4541193579873
 30
0.0
 11
1519.329208527112
 21
220.1214006849797
 31
0.0
  0
LINE
  5
46F
330
1F
100
AcDbEntity
  8
SPOJOVACÍ
  6
DASHED
100
AcDbLine
 10
1515.365692254711
 20
220.8698015265356
 30
0.0
 11
1519.329208527112
 21
219.5370828535353
 31
0.0
  0
LINE
  5
470
330
1F
100
AcDbEntity
  8
SPOJOVACÍ
  6
DASHED
100
AcDbLine
 10
1519.699306870639
 20
219.9080927713887
 30
0.0
 11
1519.329208527112
 21
220.1214006849797
 31
0.0
  0
LINE
  5
471
330
1F
100
AcDbEntity
  8
SPOJOVACÍ
  6
DASHED
100
AcDbLine
 10
1519.699306870639
 20
219.9080927713887
 30
0.0
 11
1519.329208527112
 21
219.5370828535353
 31
0.0
  0
LINE
  5
472
330
1F
100
AcDbEntity
  8
SPOJOVACÍ
  6
DASHED
100
AcDbLine
 10
1514.995593906907
 20
221.0840210123217
 30
0.0
 11
1515.365692254711
 21
221.4541193579873
 31
0.0
  0
LINE
  5
473
330
1F
100
AcDbEntity
  8
SPOJOVACÍ
  6
DASHED
100
AcDbLine
 10
1514.995593906907
 20
221.0840210123217
 30
0.0
 11
1515.365692254711
 21
220.8698015265356
 31
0.0
  0
LINE
  5
474
330
1F
100
AcDbEntity
  8
SPOJOVACÍ
  6
DASHED
100
AcDbLine
 10
1514.995593906907
 20
221.0840210123217
 30
0.0
 11
1519.699306870639
 21
219.9080927713887
 31
0.0
  0
LINE
  5
475
330
1F
100
AcDbEntity
  8
SPOJOVACÍ
  6
DASHED
100
AcDbLine
 10
1516.351101889685
 20
206.0449015390579
 30
0.0
 11
1518.462303288313
 21
205.7404363975995
 31
0.0
  0
LINE
  5
476
330
1F
100
AcDbEntity
  8
SPOJOVACÍ
  6
DASHED
100
AcDbLine
 10
1516.721200233211
 20
206.4149998847235
 30
0.0
 11
1518.092204944786
 21
205.9537443111906
 31
0.0
  0
LINE
  5
477
330
1F
100
AcDbEntity
  8
SPOJOVACÍ
  6
DASHED
100
AcDbLine
 10
1516.721200233211
 20
205.8306820532791
 30
0.0
 11
1518.092204944786
 21
205.3694264797461
 31
0.0
  0
LINE
  5
478
330
1F
100
AcDbEntity
  8
SPOJOVACÍ
  6
DASHED
100
AcDbLine
 10
1518.462303288313
 20
205.7404363975995
 30
0.0
 11
1518.092204944786
 21
205.9537443111906
 31
0.0
  0
LINE
  5
479
330
1F
100
AcDbEntity
  8
SPOJOVACÍ
  6
DASHED
100
AcDbLine
 10
1518.462303288313
 20
205.7404363975995
 30
0.0
 11
1518.092204944786
 21
205.3694264797461
 31
0.0
  0
LINE
  5
47A
330
1F
100
AcDbEntity
  8
SPOJOVACÍ
  6
DASHED
100
AcDbLine
 10
1516.351101889685
 20
206.0449015390579
 30
0.0
 11
1516.721200233211
 21
206.4149998847235
 31
0.0
  0
LINE
  5
47B
330
1F
100
AcDbEntity
  8
SPOJOVACÍ
  6
DASHED
100
AcDbLine
 10
1516.351101889685
 20
206.0449015390579
 30
0.0
 11
1516.721200233211
 21
205.8306820532791
 31
0.0
  0
LINE
  5
47C
330
1F
100
AcDbEntity
  8
SPOJOVACÍ
  6
DASHED
100
AcDbLine
 10
1515.797777513423
 20
208.9983957258112
 30
0.0
 11
1518.851544651526
 21
208.3776150033766
 31
0.0
  0
LINE
  5
47D
330
1F
100
AcDbEntity
  8
SPOJOVACÍ
  6
DASHED
100
AcDbLine
 10
1516.167875861228
 20
209.3694056439356
 30
0.0
 11
1518.481446307999
 21
208.5909229167039
 31
0.0
  0
LINE
  5
47E
330
1F
100
AcDbEntity
  8
SPOJOVACÍ
  6
DASHED
100
AcDbLine
 10
1516.167875861228
 20
208.7850878124839
 30
0.0
 11
1518.481446307999
 21
208.0066050855232
 31
0.0
  0
LINE
  5
47F
330
1F
100
AcDbEntity
  8
SPOJOVACÍ
  6
DASHED
100
AcDbLine
 10
1518.851544651526
 20
208.3776150033766
 30
0.0
 11
1518.481446307999
 21
208.5909229167039
 31
0.0
  0
LINE
  5
480
330
1F
100
AcDbEntity
  8
SPOJOVACÍ
  6
DASHED
100
AcDbLine
 10
1518.851544651526
 20
208.3776150033766
 30
0.0
 11
1518.481446307999
 21
208.0066050855232
 31
0.0
  0
LINE
  5
481
330
1F
100
AcDbEntity
  8
SPOJOVACÍ
  6
DASHED
100
AcDbLine
 10
1515.797777513423
 20
208.9983957258112
 30
0.0
 11
1516.167875861228
 21
209.3694056439356
 31
0.0
  0
LINE
  5
482
330
1F
100
AcDbEntity
  8
SPOJOVACÍ
  6
DASHED
100
AcDbLine
 10
1515.797777513423
 20
208.9983957258112
 30
0.0
 11
1516.167875861228
 21
208.7850878124839
 31
0.0
  0
LINE
  5
483
330
1F
100
AcDbEntity
  8
SPOJOVACÍ
  6
DASHED
100
AcDbLine
 10
1515.244453141439
 20
211.9528014850232
 30
0.0
 11
1519.287276201127
 21
210.9992968803646
 31
0.0
  0
LINE
  5
484
330
1F
100
AcDbEntity
  8
SPOJOVACÍ
  6
DASHED
100
AcDbLine
 10
1515.615463058758
 20
212.3228998306887
 30
0.0
 11
1518.917177857601
 21
211.2126047936919
 31
0.0
  0
LINE
  5
485
330
1F
100
AcDbEntity
  8
SPOJOVACÍ
  6
DASHED
100
AcDbLine
 10
1515.615463058758
 20
211.738581999237
 30
0.0
 11
1518.917177857601
 21
210.6282869622402
 31
0.0
  0
LINE
  5
486
330
1F
100
AcDbEntity
  8
SPOJOVACÍ
  6
DASHED
100
AcDbLine
 10
1519.287276201127
 20
210.9992968803646
 30
0.0
 11
1518.917177857601
 21
211.2126047936919
 31
0.0
  0
LINE
  5
487
330
1F
100
AcDbEntity
  8
SPOJOVACÍ
  6
DASHED
100
AcDbLine
 10
1519.287276201127
 20
210.9992968803646
 30
0.0
 11
1518.917177857601
 21
210.6282869622402
 31
0.0
  0
LINE
  5
488
330
1F
100
AcDbEntity
  8
SPOJOVACÍ
  6
DASHED
100
AcDbLine
 10
1515.244453141439
 20
211.9528014850232
 30
0.0
 11
1515.615463058758
 21
212.3228998306887
 31
0.0
  0
LINE
  5
489
330
1F
100
AcDbEntity
  8
SPOJOVACÍ
  6
DASHED
100
AcDbLine
 10
1515.244453141439
 20
211.9528014850232
 30
0.0
 11
1515.615463058758
 21
211.738581999237
 31
0.0
  0
LINE
  5
48A
330
1F
100
AcDbEntity
  8
SPOJOVACÍ
  6
DASHED
100
AcDbLine
 10
1515.365692254711
 20
224.5115327848409
 30
0.0
 11
1519.329208527112
 21
223.1797256837574
 31
0.0
  0
LINE
  5
48B
330
1F
100
AcDbEntity
  8
SPOJOVACÍ
  6
DASHED
100
AcDbLine
 10
1515.365692254711
 20
223.9272149533892
 30
0.0
 11
1519.329208527112
 21
222.5954078525767
 31
0.0
  0
LINE
  5
48C
330
1F
100
AcDbEntity
  8
SPOJOVACÍ
  6
DASHED
100
AcDbLine
 10
1519.699306870639
 20
222.9655061979713
 30
0.0
 11
1519.329208527112
 21
223.1797256837574
 31
0.0
  0
LINE
  5
48D
330
1F
100
AcDbEntity
  8
SPOJOVACÍ
  6
DASHED
100
AcDbLine
 10
1519.699306870639
 20
222.9655061979713
 30
0.0
 11
1519.329208527112
 21
222.5954078525767
 31
0.0
  0
LINE
  5
48E
330
1F
100
AcDbEntity
  8
SPOJOVACÍ
  6
DASHED
100
AcDbLine
 10
1514.995593906907
 20
224.1414344391753
 30
0.0
 11
1515.365692254711
 21
224.5115327848409
 31
0.0
  0
LINE
  5
48F
330
1F
100
AcDbEntity
  8
SPOJOVACÍ
  6
DASHED
100
AcDbLine
 10
1514.995593906907
 20
224.1414344391753
 30
0.0
 11
1515.365692254711
 21
223.9272149533892
 31
0.0
  0
LINE
  5
490
330
1F
100
AcDbEntity
  8
SPOJOVACÍ
  6
DASHED
100
AcDbLine
 10
1514.995593906907
 20
224.1414344391753
 30
0.0
 11
1519.699306870639
 21
222.9655061979713
 31
0.0
  0
LINE
  5
491
330
1F
100
AcDbEntity
  8
SPOJOVACÍ
  6
DASHED
100
AcDbLine
 10
1515.365692254711
 20
227.5698577836112
 30
0.0
 11
1519.329208527112
 21
226.237139110611
 31
0.0
  0
LINE
  5
492
330
1F
100
AcDbEntity
  8
SPOJOVACÍ
  6
DASHED
100
AcDbLine
 10
1515.365692254711
 20
226.9855399524306
 30
0.0
 11
1519.329208527112
 21
225.6528212791593
 31
0.0
  0
LINE
  5
493
330
1F
100
AcDbEntity
  8
SPOJOVACÍ
  6
DASHED
100
AcDbLine
 10
1519.699306870639
 20
226.0229196248249
 30
0.0
 11
1519.329208527112
 21
226.237139110611
 31
0.0
  0
LINE
  5
494
330
1F
100
AcDbEntity
  8
SPOJOVACÍ
  6
DASHED
100
AcDbLine
 10
1519.699306870639
 20
226.0229196248249
 30
0.0
 11
1519.329208527112
 21
225.6528212791593
 31
0.0
  0
LINE
  5
495
330
1F
100
AcDbEntity
  8
SPOJOVACÍ
  6
DASHED
100
AcDbLine
 10
1514.995593906907
 20
227.1988478657579
 30
0.0
 11
1515.365692254711
 21
227.5698577836112
 31
0.0
  0
LINE
  5
496
330
1F
100
AcDbEntity
  8
SPOJOVACÍ
  6
DASHED
100
AcDbLine
 10
1514.995593906907
 20
227.1988478657579
 30
0.0
 11
1515.365692254711
 21
226.9855399524306
 31
0.0
  0
LINE
  5
497
330
1F
100
AcDbEntity
  8
SPOJOVACÍ
  6
DASHED
100
AcDbLine
 10
1514.995593906907
 20
227.1988478657579
 30
0.0
 11
1519.699306870639
 21
226.0229196248249
 31
0.0
  0
LINE
  5
498
330
1F
100
AcDbEntity
  8
SPOJOVACÍ
  6
DASHED
100
AcDbLine
 10
1518.429486687414
 20
211.3858035270143
 30
0.0
 11
1518.670141770653
 21
213.3174251880748
 31
0.0
  0
LINE
  5
499
330
1F
100
AcDbEntity
  8
SPOJOVACÍ
  6
DASHED
100
AcDbLine
 10
1518.097674374704
 20
208.7331281924337
 30
0.0
 11
1518.359295620935
 21
210.82700971923
 31
0.0
  0
LINE
  5
49A
330
1F
100
AcDbEntity
  8
SPOJOVACÍ
  6
DASHED
100
AcDbLine
 10
1517.764950496759
 20
206.0704255629891
 30
0.0
 11
1518.027483312503
 21
208.1725112402739
 31
0.0
  0
LINE
  5
49B
330
1F
100
AcDbEntity
  8
SPOJOVACÍ
  6
DASHED
100
AcDbLine
 10
1516.969147893952
 20
205.7604909878693
 30
0.0
 11
1517.347450388773
 21
202.7331594464206
 31
0.0
  0
LINE
  5
49C
330
1F
100
AcDbEntity
  8
SPOJOVACÍ
  6
DASHED
100
AcDbLine
 10
1516.609076845026
 20
208.642882536754
 30
0.0
 11
1516.893487393277
 21
206.3685096986057
 31
0.0
  0
LINE
  5
49D
330
1F
100
AcDbEntity
  8
SPOJOVACÍ
  6
DASHED
100
AcDbLine
 10
1516.247182648515
 20
211.5362129529687
 30
0.0
 11
1516.531593201044
 21
209.2609285426253
 31
0.0
  0
LINE
  5
49E
330
1F
100
AcDbEntity
  8
SPOJOVACÍ
  6
DASHED
100
AcDbLine
 10
1517.347450388773
 20
202.7331594464206
 30
0.0
 11
1517.694759430279
 21
205.5125433276637
 31
0.0
  0
LINE
  5
49F
330
1F
100
AcDbEntity
  8
SPOJOVACÍ
  6
DASHED
100
AcDbLine
 10
1516.024759011171
 20
213.3174251880748
 30
0.0
 11
1516.17152214784
 21
212.1442316637051
 31
0.0
  0
LINE
  5
4A0
330
1F
100
AcDbEntity
  8
SPOJOVACÍ
  6
DASHED
100
AcDbLine
 10
1518.670141770653
 20
213.6474143532006
 30
0.0
 11
1518.670141770653
 21
213.3174251880748
 31
0.0
  0
LINE
  5
4A1
330
1F
100
AcDbEntity
  8
SPOJOVACÍ
  6
DASHED
100
AcDbLine
 10
1518.670141770653
 20
216.7075624968813
 30
0.0
 11
1518.670141770653
 21
214.239024762953
 31
0.0
  0
LINE
  5
4A2
330
1F
100
AcDbEntity
  8
SPOJOVACÍ
  6
DASHED
100
AcDbLine
 10
1516.024759011171
 20
214.5398436151256
 30
0.0
 11
1516.024759011171
 21
213.3174251880748
 31
0.0
  0
LINE
  5
4A3
330
1F
100
AcDbEntity
  8
SPOJOVACÍ
  6
DASHED
100
AcDbLine
 10
1516.024759011171
 20
217.5917876083178
 30
0.0
 11
1516.024759011171
 21
215.1241614465773
 31
0.0
  0
LINE
  5
4A4
330
1F
100
AcDbEntity
  8
SPOJOVACÍ
  6
DASHED
100
AcDbLine
 10
1518.670141770653
 20
219.7667990681104
 30
0.0
 11
1518.670141770653
 21
217.2964381895356
 31
0.0
  0
LINE
  5
4A5
330
1F
100
AcDbEntity
  8
SPOJOVACÍ
  6
DASHED
100
AcDbLine
 10
1518.670141770653
 20
222.8269472115273
 30
0.0
 11
1518.670141770653
 21
220.3492937549156
 31
0.0
  0
LINE
  5
4A6
330
1F
100
AcDbEntity
  8
SPOJOVACÍ
  6
DASHED
100
AcDbLine
 10
1518.670141770653
 20
225.8798027769073
 30
0.0
 11
1518.670141770653
 21
223.411265042979
 31
0.0
  0
LINE
  5
4A7
330
1F
100
AcDbEntity
  8
SPOJOVACÍ
  6
DASHED
100
AcDbLine
 10
1516.024759011171
 20
220.6619630468697
 30
0.0
 11
1516.024759011171
 21
218.1843095902579
 31
0.0
  0
LINE
  5
4A8
330
1F
100
AcDbEntity
  8
SPOJOVACÍ
  6
DASHED
100
AcDbLine
 10
1516.024759011171
 20
223.7148186122496
 30
0.0
 11
1516.024759011171
 21
221.2444577336748
 31
0.0
  0
LINE
  5
4A9
330
1F
100
AcDbEntity
  8
SPOJOVACÍ
  6
DASHED
100
AcDbLine
 10
1516.024759011171
 20
226.7749667556665
 30
0.0
 11
1516.024759011171
 21
224.3064290217382
 31
0.0
  0
LINE
  5
4AA
330
1F
100
AcDbEntity
  8
SPOJOVACÍ
  6
DASHED
100
AcDbLine
 10
1516.024759011171
 20
231.3155082817459
 30
0.0
 11
1516.024759011171
 21
227.3583730146595
 31
0.0
  0
LINE
  5
4AB
330
1F
100
AcDbEntity
  8
SPOJOVACÍ
  6
DASHED
100
AcDbLine
 10
1518.670141770653
 20
231.3155082817459
 30
0.0
 11
1518.670141770653
 21
226.4714131863959
 31
0.0
  0
LINE
  5
4AC
330
1F
100
AcDbEntity
  8
SPOJOVACÍ
  6
DASHED
100
AcDbLine
 10
1512.349299577912
 20
236.6071853662154
 30
0.0
 11
1513.671990959791
 21
235.8779275424706
 31
0.0
  0
LINE
  5
4AD
330
1F
100
AcDbEntity
  8
SPOJOVACÍ
  6
DASHED
100
AcDbLine
 10
1513.671990959791
 20
235.8779275424706
 30
0.0
 11
1514.760408262143
 21
234.8305309928466
 31
0.0
  0
LINE
  5
4AE
330
1F
100
AcDbEntity
  8
SPOJOVACÍ
  6
DASHED
100
AcDbLine
 10
1514.760408262143
 20
234.8305309928466
 30
0.0
 11
1515.540714131875
 21
233.537921500115
 31
0.0
  0
LINE
  5
4AF
330
1F
100
AcDbEntity
  8
SPOJOVACÍ
  6
DASHED
100
AcDbLine
 10
1515.540714131875
 20
233.537921500115
 30
0.0
 11
1515.960037378888
 21
232.0866984304059
 31
0.0
  0
LINE
  5
4B0
330
1F
100
AcDbEntity
  8
SPOJOVACÍ
  6
DASHED
100
AcDbLine
 10
1515.960037378888
 20
232.0866984304059
 30
0.0
 11
1516.024759011171
 21
231.3155082817459
 31
0.0
  0
LINE
  5
4B1
330
1F
100
AcDbEntity
  8
SPOJOVACÍ
  6
DASHED
100
AcDbLine
 10
1520.432210984468
 20
235.3774743608567
 30
0.0
 11
1521.64460211719
 21
236.2771962010895
 31
0.0
  0
LINE
  5
4B2
330
1F
100
AcDbEntity
  8
SPOJOVACÍ
  6
DASHED
100
AcDbLine
 10
1521.64460211719
 20
236.2771962010895
 30
0.0
 11
1522.345601199634
 21
236.6071853662154
 31
0.0
  0
LINE
  5
4B3
330
1F
100
AcDbEntity
  8
SPOJOVACÍ
  6
DASHED
100
AcDbLine
 10
1512.349299577912
 20
236.6071853662154
 30
0.0
 11
1522.345601199634
 21
236.6071853662154
 31
0.0
  0
LINE
  5
4B4
330
1F
100
AcDbEntity
  8
SPOJOVACÍ
  6
DASHED
100
AcDbLine
 10
1512.349299577912
 20
237.7831136074121
 30
0.0
 11
1512.349299577912
 21
236.6071853662154
 31
0.0
  0
LINE
  5
4B5
330
1F
100
AcDbEntity
  8
SPOJOVACÍ
  6
DASHED
100
AcDbLine
 10
1512.349299577912
 20
237.7831136074121
 30
0.0
 11
1522.345601199634
 21
237.7831136074121
 31
0.0
  0
LINE
  5
4B6
330
1F
100
AcDbEntity
  8
SPOJOVACÍ
  6
DASHED
100
AcDbLine
 10
1522.345601199634
 20
237.7831136074121
 30
0.0
 11
1522.345601199634
 21
236.6071853662154
 31
0.0
  0
LINE
  5
4B7
330
1F
100
AcDbEntity
  8
SPOJOVACÍ
  6
DASHED
100
AcDbLine
 10
1518.670141770653
 20
231.3155082817459
 30
0.0
 11
1518.892565403718
 21
232.8086636761065
 31
0.0
  0
LINE
  5
4B8
330
1F
100
AcDbEntity
  8
SPOJOVACÍ
  6
DASHED
100
AcDbLine
 10
1518.892565403718
 20
232.8086636761065
 30
0.0
 11
1519.493291535883
 21
234.1942535416158
 31
0.0
  0
LINE
  5
4B9
330
1F
100
AcDbEntity
  8
SPOJOVACÍ
  6
DASHED
100
AcDbLine
 10
1519.493291535883
 20
234.1942535416158
 30
0.0
 11
1520.432210984468
 21
235.3774743608567
 31
0.0
  0
LINE
  5
4BA
330
1F
100
AcDbEntity
  8
nášlap_vrstvy
100
AcDbLine
 10
1529.082396658693
 20
243.1439857835914
 30
0.0
 11
1524.440473412399
 21
243.1439857835914
 31
0.0
  0
LWPOLYLINE
  5
4BB
330
1F
100
AcDbEntity
  8
nášlap_vrstvy
100
AcDbPolyline
 90
        4
 70
     1
 43
0.0
 10
1497.535612758561
 20
239.2831136074121
 10
1485.714746403641
 20
239.2831136074121
 10
1485.714746403641
 20
237.7831136074121
 10
1497.535612758561
 20
237.7831136074121
  0
HATCH
  5
4BC
330
1F
100
AcDbEntity
  8
nášlap_vrstvy
100
AcDbHatch
 10
0.0
 20
0.0
 30
0.0
210
0.0
220
0.0
230
1.0
  2
SOLID
 70
     1
 71
     0
 91
        1
 92
        7
 72
     0
 73
     1
 93
        4
 10
1497.535612758561
 20
239.2831136074121
 10
1485.714746403645
 20
239.2831136074121
 10
1485.714746403641
 20
237.7831136074121
 10
1497.535612758561
 20
237.7831136074121
 97
        0
 75
     0
 76
     1
 47
0.1901250437635136
 98
        1
 10
1490.393643782815
 20
238.8747078318722
  0
HATCH
  5
4BD
330
1F
100
AcDbEntity
  8
nášlap_vrstvy
100
AcDbHatch
 10
0.0
 20
0.0
 30
0.0
210
0.0
220
0.0
230
1.0
  2
SOLID
 70
     1
 71
     0
 91
        1
 92
        7
 72
     0
 73
     1
 93
        4
 10
1473.893880048726
 20
239.2831136074121
 10
1462.073013693806
 20
239.2831136074121
 10
1462.073013693806
 20
237.7831136074121
 10
1473.893880048726
 20
237.7831136074121
 97
        0
 75
     0
 76
     1
 47
0.1901250437635136
 98
        1
 10
1466.751911072976
 20
238.8747078318722
  0
LWPOLYLINE
  5
4BE
330
1F
100
AcDbEntity
  8
nášlap_vrstvy
100
AcDbPolyline
 90
        4
 70
     1
 43
0.0
 10
1521.177345468393
 20
239.2831136074121
 10
1509.356479113477
 20
239.2831136074121
 10
1509.356479113477
 20
237.7831136074121
 10
1521.177345468393
 20
237.7831136074121
  0
HATCH
  5
4BF
330
1F
100
AcDbEntity
  8
nášlap_vrstvy
100
AcDbHatch
 10
0.0
 20
0.0
 30
0.0
210
0.0
220
0.0
230
1.0
  2
SOLID
 70
     1
 71
     0
 91
        1
 92
        7
 72
     0
 73
     1
 93
        4
 10
1568.460810888066
 20
239.2831136074121
 10
1556.639944533147
 20
239.2831136074121
 10
1556.639944533147
 20
237.7831136074121
 10
1568.460810888066
 20
237.7831136074121
 97
        0
 75
     0
 76
     1
 47
0.1901250437635136
 98
        1
 10
1561.318841912317
 20
238.8747078318722
  0
HATCH
  5
4C0
330
1F
100
AcDbEntity
  8
nášlap_vrstvy
100
AcDbHatch
 10
0.0
 20
0.0
 30
0.0
210
0.0
220
0.0
230
1.0
  2
SOLID
 70
     1
 71
     0
 91
        1
 92
        7
 72
     0
 73
     1
 93
        4
 10
1544.819078178231
 20
239.2831136074121
 10
1532.998211823316
 20
239.2831136074121
 10
1532.998211823312
 20
237.7831136074121
 10
1544.819078178231
 20
237.7831136074121
 97
        0
 75
     0
 76
     1
 47
0.1901250437635136
 98
        1
 10
1537.677109202485
 20
238.8747078318722
  0
HATCH
  5
4C1
330
1F
100
AcDbEntity
  8
nášlap_vrstvy
100
AcDbHatch
 10
0.0
 20
0.0
 30
0.0
210
0.0
220
0.0
230
1.0
  2
SOLID
 70
     1
 71
     0
 91
        1
 92
        7
 72
     0
 73
     1
 93
        4
 10
1521.177345468396
 20
239.2831136074121
 10
1509.356479113477
 20
239.2831136074121
 10
1509.356479113477
 20
237.7831136074121
 10
1521.177345468396
 20
237.7831136074121
 97
        0
 75
     0
 76
     1
 47
0.1901250437635136
 98
        1
 10
1514.035376492647
 20
238.8747078318722
  0
TEXT
  5
4C2
330
1F
100
AcDbEntity
  8
POPIS
100
AcDbText
 10
1277.93078478394
 20
318.925933433323
 30
0.0
 40
25.0
  1
06
 41
0.85
  7
SIMPLEX7
100
AcDbText
  0
TEXT
  5
4C3
330
1F
100
AcDbEntity
  8
POPIS
100
AcDbText
 10
1159.595193012143
 20
318.925933433323
 30
0.0
 40
25.0
  1
04
 41
0.85
  7
SIMPLEX7
100
AcDbText
  0
LINE
  5
4C4
330
1F
100
AcDbEntity
  8
nášlap_vrstvy
100
AcDbLine
 10
1140.156626919814
 20
249.3939857835914
 30
0.0
 11
1135.514703673517
 21
249.3939857835914
 31
0.0
  0
TEXT
  5
4C5
330
1F
100
AcDbEntity
  8
POPIS
100
AcDbText
 10
1101.804908825054
 20
318.925933433323
 30
0.0
 40
25.0
  1
03
 41
0.85
  7
SIMPLEX7
100
AcDbText
  0
TEXT
  5
4C6
330
1F
100
AcDbEntity
  8
POPIS
100
AcDbText
 10
1213.647742002899
 20
318.925933433323
 30
0.0
 40
25.0
  1
05
 41
0.85
  7
SIMPLEX7
100
AcDbText
  0
LINE
  5
4C7
330
1F
100
AcDbEntity
  8
nášlap_vrstvy
100
AcDbLine
 10
1269.798550166109
 20
249.3939857835914
 30
0.0
 11
1265.156626919811
 21
249.3939857835914
 31
0.0
  0
TEXT
  5
4C8
330
1F
100
AcDbEntity
  8
POPIS
100
AcDbText
 10
1353.034754962172
 20
318.925933433323
 30
0.0
 40
25.0
  1
07
 41
0.85
  7
SIMPLEX7
100
AcDbText
  0
TEXT
  5
4C9
330
1F
100
AcDbEntity
  8
POPIS
100
AcDbText
 10
1402.123270426457
 20
318.925933433323
 30
0.0
 40
25.0
  1
09
 41
0.85
  7
SIMPLEX7
100
AcDbText
  0
LINE
  5
4CA
330
1F
100
AcDbEntity
  8
nášlap_vrstvy
100
AcDbLine
 10
1399.440473412403
 20
249.3939857835914
 30
0.0
 11
1394.798550166105
 21
249.3939857835914
 31
0.0
  0
LINE
  5
4CB
330
1F
100
AcDbEntity
  8
nášlap_vrstvy
100
AcDbLine
 10
1529.082396658697
 20
249.3939857835914
 30
0.0
 11
1524.440473412399
 21
249.3939857835914
 31
0.0
  0
TEXT
  5
4CC
330
1F
100
AcDbEntity
  8
POPIS
100
AcDbText
 10
1631.281801121152
 20
249.695610187505
 30
0.0
 40
25.0
  1
04
 41
0.85
  7
SIMPLEX7
100
AcDbText
  0
TEXT
  5
4CD
330
1F
100
AcDbEntity
  8
POPIS
100
AcDbText
 10
1685.625504280894
 20
248.6702766197879
 30
0.0
 40
25.0
  1
Lepící tmel (do prostor namáhaných vodou
 41
0.7
  7
SIMPLEX7
100
AcDbText
  0
TEXT
  5
4CF
330
1F
100
AcDbEntity
  8
POPIS
100
AcDbText
 10
1685.625504280894
 20
70.17731725993622
 30
0.0
 40
25.0
  1
Dilatační spára tl. 15 mm
 41
0.7
  7
SIMPLEX7
100
AcDbText
  0
TEXT
  5
4D0
330
1F
100
AcDbEntity
  8
POPIS
100
AcDbText
 10
1685.625504280894
 20
140.8981288021143
 30
0.0
 40
25.0
  1
Montovaná podlaha IZOCET
 41
0.7
  7
SIMPLEX7
100
AcDbText
  0
TEXT
  5
4D1
330
1F
100
AcDbEntity
  8
POPIS
100
AcDbText
 10
1685.625504280894
 20
212.9126399265944
 30
0.0
 40
25.0
  1
nutno přidat hydroizolaci
 41
0.7
  7
SIMPLEX7
100
AcDbText
  0
TEXT
  5
4D5
330
1F
100
AcDbEntity
  8
POPIS
100
AcDbText
 10
1685.625504280894
 20
38.41841065730773
 30
0.0
 40
25.0
  1
Stropní konstrukce
 41
0.7
  7
SIMPLEX7
100
AcDbText
  0
TEXT
  5
4D6
330
1F
100
AcDbEntity
  8
POPIS
100
AcDbText
 10
1685.625504280894
 20
176.302290020277
 30
0.0
 40
25.0
  1
Penetrace 
 41
0.7
  7
SIMPLEX7
100
AcDbText
  0
TEXT
  5
4D7
330
1F
100
AcDbEntity
  8
POPIS
100
AcDbText
 10
1685.625504280894
 20
107.0128572628284
 30
0.0
 40
25.0
  1
Parozábrana
 41
0.7
  7
SIMPLEX7
100
AcDbText
  0
TEXT
  5
4D8
330
1F
100
AcDbEntity
  8
POPIS
100
AcDbText
 10
1632.164572121185
 20
38.73287166646809
 30
0.0
 40
25.0
  1
09
 41
0.85
  7
SIMPLEX7
100
AcDbText
  0
TEXT
  5
4D9
330
1F
100
AcDbEntity
  8
POPIS
100
AcDbText
 10
1632.164572121185
 20
70.49177826909659
 30
0.0
 40
25.0
  1
08
 41
0.85
  7
SIMPLEX7
100
AcDbText
  0
TEXT
  5
4DA
330
1F
100
AcDbEntity
  8
POPIS
100
AcDbText
 10
1631.281801121152
 20
106.30360775134
 30
0.0
 40
25.0
  1
07
 41
0.85
  7
SIMPLEX7
100
AcDbText
  0
TEXT
  5
4DB
330
1F
100
AcDbEntity
  8
POPIS
100
AcDbText
 10
1631.281801121152
 20
140.557000290538
 30
0.0
 40
25.0
  1
06
 41
0.85
  7
SIMPLEX7
100
AcDbText
  0
TEXT
  5
4DC
330
1F
100
AcDbEntity
  8
POPIS
100
AcDbText
 10
1631.281801121152
 20
177.3925402934303
 30
0.0
 40
25.0
  1
05
 41
0.85
  7
SIMPLEX7
100
AcDbText
  0
TEXT
  5
4DD
330
1F
100
AcDbEntity
  8
POPIS
100
AcDbText
 10
1685.625504280894
 20
359.5788680588823
 30
0.0
 40
25.0
  1
Keramický soklík (profil Schlűter DILEX-HKW)
 41
0.7
  7
SIMPLEX7
100
AcDbText
  0
TEXT
  5
4DE
330
1F
100
AcDbEntity
  8
POPIS
100
AcDbText
 10
1685.625504280894
 20
322.983856443255
 30
0.0
 40
25.0
  1
Spárovací tmel 
 41
0.7
  7
SIMPLEX7
100
AcDbText
  0
TEXT
  5
4DF
330
1F
100
AcDbEntity
  8
POPIS
100
AcDbText
 10
1685.625504280894
 20
285.2652882354152
 30
0.0
 40
25.0
  1
Keramická dlažba
 41
0.7
  7
SIMPLEX7
100
AcDbText
  0
TEXT
  5
4E0
330
1F
100
AcDbEntity
  8
POPIS
100
AcDbText
 10
1631.281801121152
 20
285.0997714056677
 30
0.0
 40
25.0
  1
03
 41
0.85
  7
SIMPLEX7
100
AcDbText
  0
TEXT
  5
4E1
330
1F
100
AcDbEntity
  8
POPIS
100
AcDbText
 10
1631.281801121152
 20
322.983856443255
 30
0.0
 40
25.0
  1
02
 41
0.85
  7
SIMPLEX7
100
AcDbText
  0
TEXT
  5
4E2
330
1F
100
AcDbEntity
  8
POPIS
100
AcDbText
 10
1631.281801121152
 20
359.5788680588823
 30
0.0
 40
25.0
  1
01
 41
0.85
  7
SIMPLEX7
100
AcDbText
  0
ENDSEC
  0
SECTION
  2
OBJECTS
  0
DICTIONARY
  5
C
330
0
100
AcDbDictionary
281
     1
  3
ACAD_GROUP
350
D
  3
ACAD_LAYOUT
350
1A
  3
ACAD_MLINESTYLE
350
17
  3
ACAD_PLOTSETTINGS
350
19
  3
ACAD_PLOTSTYLENAME
350
E
  3
AcDbVariableDictionary
350
522
  0
DICTIONARY
  5
D
102
{ACAD_REACTORS
330
C
102
}
330
C
100
AcDbDictionary
281
     1
  0
DICTIONARY
  5
1A
102
{ACAD_REACTORS
330
C
102
}
330
C
100
AcDbDictionary
281
     1
  3
Model
350
22
  3
Rozvržení1
350
1E
  3
Rozvržení2
350
26
  0
DICTIONARY
  5
17
102
{ACAD_REACTORS
330
C
102
}
330
C
100
AcDbDictionary
281
     1
  3
Standard
350
18
  0
DICTIONARY
  5
19
102
{ACAD_REACTORS
330
C
102
}
330
C
100
AcDbDictionary
281
     1
  0
ACDBDICTIONARYWDFLT
  5
E
102
{ACAD_REACTORS
330
C
102
}
330
C
100
AcDbDictionary
281
     1
  3
Normal
350
F
100
AcDbDictionaryWithDefault
340
F
  0
DICTIONARY
  5
522
102
{ACAD_REACTORS
330
C
102
}
330
C
100
AcDbDictionary
281
     1
  3
DIMASSOC
350
523
  0
LAYOUT
  5
22
102
{ACAD_REACTORS
330
1A
102
}
330
1A
100
AcDbPlotSettings
  1

  2
HP DeskJet 690C
  4

  6

 40
0.0
 41
0.0
 42
0.0
 43
0.0
 44
0.0
 45
0.0
 46
0.0
 47
0.0
 48
0.0
 49
0.0
140
0.0
141
0.0
142
1.0
143
1.0
 70
  1712
 72
     0
 73
     0
 74
     0
  7
monochrome.ctb
 75
     0
147
1.0
148
0.0
149
0.0
100
AcDbLayout
  1
Model
 70
     1
 71
     0
 10
0.0
 20
0.0
 11
12.0
 21
9.0
 12
0.0
 22
0.0
 32
0.0
 14
0.0
 24
0.0
 34
0.0
 15
0.0
 25
0.0
 35
0.0
146
0.0
 13
0.0
 23
0.0
 33
0.0
 16
1.0
 26
0.0
 36
0.0
 17
0.0
 27
1.0
 37
0.0
 76
     0
330
1F
  0
LAYOUT
  5
1E
102
{ACAD_REACTORS
330
1A
102
}
330
1A
100
AcDbPlotSettings
  1

  2
HP DeskJet 690C
  4

  6

 40
0.0
 41
0.0
 42
0.0
 43
0.0
 44
0.0
 45
0.0
 46
0.0
 47
0.0
 48
0.0
 49
0.0
140
0.0
141
0.0
142
1.0
143
1.0
 70
   688
 72
     0
 73
     0
 74
     5
  7
monochrome.ctb
 75
    16
147
1.0
148
0.0
149
0.0
100
AcDbLayout
  1
Rozvržení1
 70
     1
 71
     1
 10
0.0
 20
0.0
 11
420.0
 21
297.0
 12
0.0
 22
0.0
 32
0.0
 14
1.000000000000000E+20
 24
1.000000000000000E+20
 34
1.000000000000000E+20
 15
-1.000000000000000E+20
 25
-1.000000000000000E+20
 35
-1.000000000000000E+20
146
0.0
 13
0.0
 23
0.0
 33
0.0
 16
1.0
 26
0.0
 36
0.0
 17
0.0
 27
1.0
 37
0.0
 76
     0
330
1B
  0
LAYOUT
  5
26
102
{ACAD_REACTORS
330
1A
102
}
330
1A
100
AcDbPlotSettings
  1

  2
HP DeskJet 690C
  4

  6

 40
0.0
 41
0.0
 42
0.0
 43
0.0
 44
0.0
 45
0.0
 46
0.0
 47
0.0
 48
0.0
 49
0.0
140
0.0
141
0.0
142
1.0
143
1.0
 70
   688
 72
     0
 73
     0
 74
     5
  7
monochrome.ctb
 75
    16
147
1.0
148
0.0
149
0.0
100
AcDbLayout
  1
Rozvržení2
 70
     1
 71
     2
 10
0.0
 20
0.0
 11
12.0
 21
9.0
 12
0.0
 22
0.0
 32
0.0
 14
0.0
 24
0.0
 34
0.0
 15
0.0
 25
0.0
 35
0.0
146
0.0
 13
0.0
 23
0.0
 33
0.0
 16
1.0
 26
0.0
 36
0.0
 17
0.0
 27
1.0
 37
0.0
 76
     0
330
23
  0
MLINESTYLE
  5
18
102
{ACAD_REACTORS
330
17
102
}
330
17
100
AcDbMlineStyle
  2
STANDARD
 70
     0
  3

 62
   256
 51
90.0
 52
90.0
 71
     2
 49
0.5
 62
   256
  6
BYLAYER
 49
-0.5
 62
   256
  6
BYLAYER
  0
ACDBPLACEHOLDER
  5
F
102
{ACAD_REACTORS
330
E
102
}
330
E
  0
DICTIONARYVAR
  5
523
102
{ACAD_REACTORS
330
522
102
}
330
522
100
DictionaryVariables
280
     0
  1
1
  0
ENDSEC
  0
EOF
