  0
SECTION
  2
HEADER
  9
$ACADVER
  1
AC1015
  9
$ACADMAINTVER
 70
    10
  9
$DWGCODEPAGE
  3
ANSI_1250
  9
$INSBASE
 10
0.0
 20
0.0
 30
0.0
  9
$EXTMIN
 10
70.9071603078105
 20
250.514101759576
 30
0.0
  9
$EXTMAX
 10
1394.841341900844
 20
805.1494942292997
 30
0.0
  9
$LIMMIN
 10
0.0
 20
0.0
  9
$LIMMAX
 10
420.0
 20
297.0
  9
$ORTHOMODE
 70
     0
  9
$REGENMODE
 70
     1
  9
$FILLMODE
 70
     1
  9
$QTEXTMODE
 70
     0
  9
$MIRRTEXT
 70
     1
  9
$LTSCALE
 40
1.0
  9
$ATTMODE
 70
     1
  9
$TEXTSIZE
 40
2.5
  9
$TRACEWID
 40
1.0
  9
$TEXTSTYLE
  7
Standard
  9
$CLAYER
  8
0
  9
$CELTYPE
  6
ByLayer
  9
$CECOLOR
 62
   256
  9
$CELTSCALE
 40
1.0
  9
$DISPSILH
 70
     0
  9
$DIMSCALE
 40
1.0
  9
$DIMASZ
 40
2.5
  9
$DIMEXO
 40
0.625
  9
$DIMDLI
 40
3.75
  9
$DIMRND
 40
0.0
  9
$DIMDLE
 40
0.0
  9
$DIMEXE
 40
1.25
  9
$DIMTP
 40
0.0
  9
$DIMTM
 40
0.0
  9
$DIMTXT
 40
2.5
  9
$DIMCEN
 40
2.5
  9
$DIMTSZ
 40
0.0
  9
$DIMTOL
 70
     0
  9
$DIMLIM
 70
     0
  9
$DIMTIH
 70
     0
  9
$DIMTOH
 70
     0
  9
$DIMSE1
 70
     0
  9
$DIMSE2
 70
     0
  9
$DIMTAD
 70
     1
  9
$DIMZIN
 70
     8
  9
$DIMBLK
  1

  9
$DIMASO
 70
     1
  9
$DIMSHO
 70
     1
  9
$DIMPOST
  1

  9
$DIMAPOST
  1

  9
$DIMALT
 70
     0
  9
$DIMALTD
 70
     3
  9
$DIMALTF
 40
0.03937007874016
  9
$DIMLFAC
 40
1.0
  9
$DIMTOFL
 70
     1
  9
$DIMTVP
 40
0.0
  9
$DIMTIX
 70
     0
  9
$DIMSOXD
 70
     0
  9
$DIMSAH
 70
     0
  9
$DIMBLK1
  1

  9
$DIMBLK2
  1

  9
$DIMSTYLE
  2
ISO-25
  9
$DIMCLRD
 70
     0
  9
$DIMCLRE
 70
     0
  9
$DIMCLRT
 70
     0
  9
$DIMTFAC
 40
1.0
  9
$DIMGAP
 40
0.625
  9
$DIMJUST
 70
     0
  9
$DIMSD1
 70
     0
  9
$DIMSD2
 70
     0
  9
$DIMTOLJ
 70
     0
  9
$DIMTZIN
 70
     8
  9
$DIMALTZ
 70
     0
  9
$DIMALTTZ
 70
     0
  9
$DIMUPT
 70
     0
  9
$DIMDEC
 70
     2
  9
$DIMTDEC
 70
     2
  9
$DIMALTU
 70
     2
  9
$DIMALTTD
 70
     3
  9
$DIMTXSTY
  7
Standard
  9
$DIMAUNIT
 70
     0
  9
$DIMADEC
 70
     0
  9
$DIMALTRND
 40
0.0
  9
$DIMAZIN
 70
     0
  9
$DIMDSEP
 70
    44
  9
$DIMATFIT
 70
     3
  9
$DIMFRAC
 70
     0
  9
$DIMLDRBLK
  1

  9
$DIMLUNIT
 70
     2
  9
$DIMLWD
 70
    -2
  9
$DIMLWE
 70
    -2
  9
$DIMTMOVE
 70
     0
  9
$LUNITS
 70
     2
  9
$LUPREC
 70
     4
  9
$SKETCHINC
 40
1.0
  9
$FILLETRAD
 40
10.0
  9
$AUNITS
 70
     0
  9
$AUPREC
 70
     0
  9
$MENU
  1
.
  9
$ELEVATION
 40
0.0
  9
$PELEVATION
 40
0.0
  9
$THICKNESS
 40
0.0
  9
$LIMCHECK
 70
     0
  9
$CHAMFERA
 40
10.0
  9
$CHAMFERB
 40
10.0
  9
$CHAMFERC
 40
20.0
  9
$CHAMFERD
 40
0.0
  9
$SKPOLY
 70
     0
  9
$TDCREATE
 40
2452332.337407754
  9
$TDUCREATE
 40
2452332.295741087
  9
$TDUPDATE
 40
2452653.393552685
  9
$TDUUPDATE
 40
2452653.351886018
  9
$TDINDWG
 40
0.0403060764
  9
$TDUSRTIMER
 40
0.0403060764
  9
$USRTIMER
 70
     1
  9
$ANGBASE
 50
0.0
  9
$ANGDIR
 70
     0
  9
$PDMODE
 70
     0
  9
$PDSIZE
 40
0.0
  9
$PLINEWID
 40
0.0
  9
$SPLFRAME
 70
     0
  9
$SPLINETYPE
 70
     6
  9
$SPLINESEGS
 70
     8
  9
$HANDSEED
  5
2878
  9
$SURFTAB1
 70
     6
  9
$SURFTAB2
 70
     6
  9
$SURFTYPE
 70
     6
  9
$SURFU
 70
     6
  9
$SURFV
 70
     6
  9
$UCSBASE
  2

  9
$UCSNAME
  2

  9
$UCSORG
 10
0.0
 20
0.0
 30
0.0
  9
$UCSXDIR
 10
1.0
 20
0.0
 30
0.0
  9
$UCSYDIR
 10
0.0
 20
1.0
 30
0.0
  9
$UCSORTHOREF
  2

  9
$UCSORTHOVIEW
 70
     0
  9
$UCSORGTOP
 10
0.0
 20
0.0
 30
0.0
  9
$UCSORGBOTTOM
 10
0.0
 20
0.0
 30
0.0
  9
$UCSORGLEFT
 10
0.0
 20
0.0
 30
0.0
  9
$UCSORGRIGHT
 10
0.0
 20
0.0
 30
0.0
  9
$UCSORGFRONT
 10
0.0
 20
0.0
 30
0.0
  9
$UCSORGBACK
 10
0.0
 20
0.0
 30
0.0
  9
$PUCSBASE
  2

  9
$PUCSNAME
  2

  9
$PUCSORG
 10
0.0
 20
0.0
 30
0.0
  9
$PUCSXDIR
 10
1.0
 20
0.0
 30
0.0
  9
$PUCSYDIR
 10
0.0
 20
1.0
 30
0.0
  9
$PUCSORTHOREF
  2

  9
$PUCSORTHOVIEW
 70
     0
  9
$PUCSORGTOP
 10
0.0
 20
0.0
 30
0.0
  9
$PUCSORGBOTTOM
 10
0.0
 20
0.0
 30
0.0
  9
$PUCSORGLEFT
 10
0.0
 20
0.0
 30
0.0
  9
$PUCSORGRIGHT
 10
0.0
 20
0.0
 30
0.0
  9
$PUCSORGFRONT
 10
0.0
 20
0.0
 30
0.0
  9
$PUCSORGBACK
 10
0.0
 20
0.0
 30
0.0
  9
$USERI1
 70
     0
  9
$USERI2
 70
     0
  9
$USERI3
 70
     0
  9
$USERI4
 70
     0
  9
$USERI5
 70
     0
  9
$USERR1
 40
0.0
  9
$USERR2
 40
0.0
  9
$USERR3
 40
0.0
  9
$USERR4
 40
0.0
  9
$USERR5
 40
0.0
  9
$WORLDVIEW
 70
     1
  9
$SHADEDGE
 70
     3
  9
$SHADEDIF
 70
    70
  9
$TILEMODE
 70
     1
  9
$MAXACTVP
 70
    64
  9
$PINSBASE
 10
0.0
 20
0.0
 30
0.0
  9
$PLIMCHECK
 70
     0
  9
$PEXTMIN
 10
1.000000000000000E+20
 20
1.000000000000000E+20
 30
1.000000000000000E+20
  9
$PEXTMAX
 10
-1.000000000000000E+20
 20
-1.000000000000000E+20
 30
-1.000000000000000E+20
  9
$PLIMMIN
 10
0.0
 20
0.0
  9
$PLIMMAX
 10
420.0
 20
297.0
  9
$UNITMODE
 70
     0
  9
$VISRETAIN
 70
     1
  9
$PLINEGEN
 70
     0
  9
$PSLTSCALE
 70
     1
  9
$TREEDEPTH
 70
  3020
  9
$CMLSTYLE
  2
Standard
  9
$CMLJUST
 70
     0
  9
$CMLSCALE
 40
20.0
  9
$PROXYGRAPHICS
 70
     1
  9
$MEASUREMENT
 70
     1
  9
$CELWEIGHT
370
    -1
  9
$ENDCAPS
280
     0
  9
$JOINSTYLE
280
     0
  9
$LWDISPLAY
290
     0
  9
$INSUNITS
 70
     4
  9
$HYPERLINKBASE
  1

  9
$STYLESHEET
  1

  9
$XEDIT
290
     1
  9
$CEPSNTYPE
380
     0
  9
$PSTYLEMODE
290
     1
  9
$FINGERPRINTGUID
  2
{B968C5BB-500F-458D-B9F8-13F88C7D245D}
  9
$VERSIONGUID
  2
{87C7E37B-AB73-4CFB-8A45-E472B56535ED}
  9
$EXTNAMES
290
     1
  9
$PSVPSCALE
 40
0.0
  9
$OLESTARTUP
290
     0
  0
ENDSEC
  0
SECTION
  2
CLASSES
  0
CLASS
  1
ACDBDICTIONARYWDFLT
  2
AcDbDictionaryWithDefault
  3
AutoCAD 2000
 90
        0
280
     0
281
     0
  0
CLASS
  1
ACDBPLACEHOLDER
  2
AcDbPlaceHolder
  3
AutoCAD 2000
 90
        0
280
     0
281
     0
  0
CLASS
  1
LAYOUT
  2
AcDbLayout
  3
AutoCAD 2000
 90
        0
280
     0
281
     0
  0
ENDSEC
  0
SECTION
  2
TABLES
  0
TABLE
  2
VPORT
  5
8
330
0
100
AcDbSymbolTable
 70
     2
  0
VPORT
  5
2877
330
8
100
AcDbSymbolTableRecord
100
AcDbViewportTableRecord
  2
*Active
 70
     0
 10
0.0
 20
0.0
 11
1.0
 21
1.0
 12
729.493721342831
 22
513.8438636001429
 13
0.0
 23
0.0
 14
10.0
 24
10.0
 15
10.0
 25
10.0
 16
0.0
 26
0.0
 36
1.0
 17
0.0
 27
0.0
 37
0.0
 40
603.4469807427467
 41
2.224096385542168
 42
50.0
 43
0.0
 44
0.0
 50
0.0
 51
0.0
 71
     0
 72
   100
 73
     1
 74
     3
 75
     0
 76
     0
 77
     0
 78
     0
281
     0
 65
     1
110
0.0
120
0.0
130
0.0
111
1.0
121
0.0
131
0.0
112
0.0
122
1.0
132
0.0
 79
     0
146
0.0
  0
ENDTAB
  0
TABLE
  2
LTYPE
  5
5
330
0
100
AcDbSymbolTable
 70
     3
  0
LTYPE
  5
14
330
5
100
AcDbSymbolTableRecord
100
AcDbLinetypeTableRecord
  2
ByBlock
 70
     0
  3

 72
    65
 73
     0
 40
0.0
  0
LTYPE
  5
15
330
5
100
AcDbSymbolTableRecord
100
AcDbLinetypeTableRecord
  2
ByLayer
 70
     0
  3

 72
    65
 73
     0
 40
0.0
  0
LTYPE
  5
16
330
5
100
AcDbSymbolTableRecord
100
AcDbLinetypeTableRecord
  2
Continuous
 70
     0
  3
Solid line
 72
    65
 73
     0
 40
0.0
  0
LTYPE
  5
22A5
330
5
100
AcDbSymbolTableRecord
100
AcDbLinetypeTableRecord
  2
DASHED
 70
     0
  3
Dashed __ __ __ __ __ __ __ __ __ __ __ __ __ _
 72
    65
 73
     2
 40
19.04999999999999
 49
12.7
 74
     0
 49
-6.349999999999999
 74
     0
  0
LTYPE
  5
22A6
330
5
100
AcDbSymbolTableRecord
100
AcDbLinetypeTableRecord
  2
IZOLACE
 70
     0
  3
Izolace SSSSSSSSSSSSSSSSSSSSSSSSSSSSSSSSSSSSSSS
 72
    65
 73
     4
 40
10.16253999999999
 49
0.00254
 74
     0
 49
-2.54
 74
     4
 75
   134
340
22AE
 46
2.54
 50
0.0
 44
-2.54
 45
0.0
 49
-5.08
 74
     4
 75
   134
340
22AE
 46
2.54
 50
180.0
 44
2.54
 45
0.0
 49
-2.54
 74
     0
  0
ENDTAB
  0
TABLE
  2
LAYER
  5
2
330
0
100
AcDbSymbolTable
 70
     7
  0
LAYER
  5
10
330
2
100
AcDbSymbolTableRecord
100
AcDbLayerTableRecord
  2
0
 70
     0
 62
     7
  6
Continuous
370
    -3
390
F
  0
LAYER
  5
22A7
330
2
100
AcDbSymbolTableRecord
100
AcDbLayerTableRecord
  2
POPIS
 70
     0
 62
    30
  6
Continuous
370
    -3
390
F
  0
LAYER
  5
22A8
330
2
100
AcDbSymbolTableRecord
100
AcDbLayerTableRecord
  2
SPOJOVACÍ
 70
     0
 62
   180
  6
Continuous
370
    -3
390
F
  0
LAYER
  5
22A9
330
2
100
AcDbSymbolTableRecord
100
AcDbLayerTableRecord
  2
CETRIS
 70
     0
 62
     1
  6
Continuous
370
    -3
390
F
  0
LAYER
  5
22AA
330
2
100
AcDbSymbolTableRecord
100
AcDbLayerTableRecord
  2
izolace
 70
     0
 62
    33
  6
Continuous
370
    -3
390
F
  0
LAYER
  5
22AB
330
2
100
AcDbSymbolTableRecord
100
AcDbLayerTableRecord
  2
nášlap_vrstvy
 70
     0
 62
    73
  6
Continuous
370
    -3
390
F
  0
LAYER
  5
22AC
330
2
100
AcDbSymbolTableRecord
100
AcDbLayerTableRecord
  2
STAVBA OBRYS
 70
     0
 62
     6
  6
Continuous
370
    -3
390
F
  0
ENDTAB
  0
TABLE
  2
STYLE
  5
3
330
0
100
AcDbSymbolTable
 70
     3
  0
STYLE
  5
11
330
3
100
AcDbSymbolTableRecord
100
AcDbTextStyleTableRecord
  2
Standard
 70
     0
 40
0.0
 41
1.0
 50
0.0
 71
     0
 42
2.5
  3
txt
  4

  0
STYLE
  5
22AD
330
3
100
AcDbSymbolTableRecord
100
AcDbTextStyleTableRecord
  2
SIMPLEX7
 70
     0
 40
0.0
 41
0.85
 50
0.0
 71
     0
 42
102.0
  3

  4

1001
ACAD
1000
Arial CE
1071
    60962
  0
STYLE
  5
22AE
330
3
100
AcDbSymbolTableRecord
100
AcDbTextStyleTableRecord
  2

 70
     1
 40
0.0
 41
1.0
 50
0.0
 71
     0
 42
2.5
  3
ltypeshp.shx
  4

  0
ENDTAB
  0
TABLE
  2
VIEW
  5
6
330
0
100
AcDbSymbolTable
 70
     0
  0
ENDTAB
  0
TABLE
  2
UCS
  5
7
330
0
100
AcDbSymbolTable
 70
     0
  0
ENDTAB
  0
TABLE
  2
APPID
  5
9
330
0
100
AcDbSymbolTable
 70
     1
  0
APPID
  5
12
330
9
100
AcDbSymbolTableRecord
100
AcDbRegAppTableRecord
  2
ACAD
 70
     0
  0
ENDTAB
  0
TABLE
  2
DIMSTYLE
  5
A
330
0
100
AcDbSymbolTable
 70
     1
100
AcDbDimStyleTable
 71
     0
  0
DIMSTYLE
105
27
330
A
100
AcDbSymbolTableRecord
100
AcDbDimStyleTableRecord
  2
ISO-25
 70
     0
 41
2.5
 42
0.625
 43
3.75
 44
1.25
 73
     0
 74
     0
 77
     1
 78
     8
140
2.5
141
2.5
143
0.03937007874016
147
0.625
171
     3
172
     1
271
     2
272
     2
274
     3
278
    44
283
     0
284
     8
340
11
  0
ENDTAB
  0
TABLE
  2
BLOCK_RECORD
  5
1
330
0
100
AcDbSymbolTable
 70
     2
  0
BLOCK_RECORD
  5
1F
330
1
100
AcDbSymbolTableRecord
100
AcDbBlockTableRecord
  2
*Model_Space
340
22
  0
BLOCK_RECORD
  5
1B
330
1
100
AcDbSymbolTableRecord
100
AcDbBlockTableRecord
  2
*Paper_Space
340
1E
  0
BLOCK_RECORD
  5
23
330
1
100
AcDbSymbolTableRecord
100
AcDbBlockTableRecord
  2
*Paper_Space0
340
26
  0
BLOCK_RECORD
  5
22A1
330
1
100
AcDbSymbolTableRecord
100
AcDbBlockTableRecord
  2
E_PUNKT
340
0
102
{BLKREFS
331
2701
331
270A
331
2762
331
2765
331
277E
331
278C
331
27E5
331
27E6
331
2841
102
}
  0
ENDTAB
  0
ENDSEC
  0
SECTION
  2
BLOCKS
  0
BLOCK
  5
20
330
1F
100
AcDbEntity
  8
0
100
AcDbBlockBegin
  2
*Model_Space
 70
     0
 10
0.0
 20
0.0
 30
0.0
  3
*Model_Space
  1

  0
ENDBLK
  5
21
330
1F
100
AcDbEntity
  8
0
100
AcDbBlockEnd
  0
BLOCK
  5
1C
330
1B
100
AcDbEntity
 67
     1
  8
0
100
AcDbBlockBegin
  2
*Paper_Space
 70
     0
 10
0.0
 20
0.0
 30
0.0
  3
*Paper_Space
  1

  0
ENDBLK
  5
1D
330
1B
100
AcDbEntity
 67
     1
  8
0
100
AcDbBlockEnd
  0
BLOCK
  5
24
330
23
100
AcDbEntity
  8
0
100
AcDbBlockBegin
  2
*Paper_Space0
 70
     0
 10
0.0
 20
0.0
 30
0.0
  3
*Paper_Space0
  1

  0
ENDBLK
  5
25
330
23
100
AcDbEntity
  8
0
100
AcDbBlockEnd
  0
BLOCK
  5
22A3
330
22A1
100
AcDbEntity
  8
0
100
AcDbBlockBegin
  2
E_PUNKT
 70
     0
 10
0.0
 20
0.0
 30
0.0
  3
E_PUNKT
  1

  0
LWPOLYLINE
  5
22A2
330
22A1
100
AcDbEntity
  8
POPIS
100
AcDbPolyline
 90
        2
 70
     1
 43
2.5
 10
1.27761037562675
 20
0.0290683308725193
 42
-1.0
 10
-1.222389624373249
 20
0.0290683308725193
 42
-1.0
  0
ENDBLK
  5
22A4
330
22A1
100
AcDbEntity
  8
0
100
AcDbBlockEnd
  0
ENDSEC
  0
SECTION
  2
ENTITIES
  0
HATCH
  5
258F
330
1F
100
AcDbEntity
  8
STAVBA OBRYS
100
AcDbHatch
 10
0.0
 20
0.0
 30
0.0
210
0.0
220
0.0
230
1.0
  2
AR-CONC
 70
     0
 71
     0
 91
        1
 92
        7
 72
     0
 73
     1
 93
        4
 10
736.091049538018
 20
260.514101759581
 10
78.14538702694915
 20
260.5141017595792
 10
78.14538702694915
 20
250.5141017595792
 10
736.0910495380216
 20
250.5141017595792
 97
        0
 75
     0
 76
     1
 52
90.0
 41
0.1
 77
     0
 78
    13
 53
140.0
 43
-29095.53230869421
 44
4267.927156864418
 45
1.593908553890309
 46
18.2184668996004
 79
     2
 49
1.905
 49
-20.955
 53
85.00000000000001
 43
-29095.53230869421
 44
4267.927156864418
 45
-19.10566428821799
 46
-3.524282597566697
 79
     2
 49
1.524
 49
-16.764
 53
190.4509999999999
 43
-29095.39948369421
 44
4269.445356864419
 45
-17.51166878202918
 46
14.69425016659592
 79
     2
 49
1.619
 49
-17.809
 53
136.1841999999999
 43
-29100.61230869421
 44
4267.927156864418
 45
4.204232793272717
 46
27.10790408921299
 79
     2
 49
2.857499999999999
 49
-31.4325
 53
186.6355999999999
 43
-29100.26195869421
 44
4270.186146864418
 45
-24.74255558900492
 46
23.74042344662371
 79
     2
 49
2.4285
 49
-26.7135
 53
81.18400000000004
 43
-29100.61230869421
 44
4267.927156864418
 45
-24.74251178605976
 46
23.74046058139339
 79
     2
 49
2.286
 49
-25.146
 53
111.0
 43
-29099.34230869421
 44
4270.467156864418
 45
10.22655185167625
 46
15.16148798353833
 79
     2
 49
1.905
 49
-20.955
 53
56.00000000000004
 43
-29099.34230869421
 44
4270.467156864418
 45
-18.41879661223192
 46
6.180202834764708
 79
     2
 49
1.524
 49
-16.764
 53
161.4514
 43
-29098.49009869421
 44
4271.730606864418
 45
-8.192285771605742
 46
21.34164907701245
 79
     2
 49
1.618999999999998
 49
-17.80899999999997
 53
127.5
 43
-29095.53230869421
 44
4267.927156864418
 45
-8.455503887315311
 46
0.3088603250591822
 79
     6
 49
0.0
 49
-16.5608
 49
0.0
 49
-17.018
 49
0.0
 49
-16.8275
 53
97.49999999999992
 43
-29095.53230869421
 44
4267.927156864418
 45
-10.01805748181195
 46
6.681966251030575
 79
     6
 49
0.0
 49
-9.702799999999999
 49
0.0
 49
-16.1798
 49
0.0
 49
-6.4135
 53
57.5
 43
-29095.53230869421
 44
4262.262956864417
 45
0.5728743992673473
 46
13.55905951668713
 79
     6
 49
0.0
 49
-6.35
 49
0.0
 49
-19.812
 49
0.0
 49
-26.289
 53
47.5
 43
-29095.53230869421
 44
4259.722956864417
 45
-2.5426491033333
 46
14.8129181386018
 79
     6
 49
0.0
 49
-8.255
 49
0.0
 49
-13.1572
 49
0.0
 49
-18.669
 47
1.084445008349079
 98
        1
 10
444.2899226586145
 20
254.1128209536231
  0
LINE
  5
2590
330
1F
100
AcDbEntity
  8
CETRIS
100
AcDbLine
 10
78.14538702694926
 20
427.3370298604763
 30
0.0
 11
736.0910495380217
 21
427.3370298604772
 31
0.0
  0
LINE
  5
2591
330
1F
100
AcDbEntity
  8
CETRIS
100
AcDbLine
 10
78.14538702694926
 20
403.3370298604763
 30
0.0
 11
393.575430170395
 21
403.3370298604763
 31
0.0
  0
LINE
  5
2592
330
1F
100
AcDbEntity
  8
izolace
  6
IZOLACE
 48
0.95
100
AcDbLine
 10
78.14538702694926
 20
393.3370298604764
 30
0.0
 11
356.075430170395
 21
393.3370298604764
 31
0.0
  0
LINE
  5
2593
330
1F
100
AcDbEntity
  8
CETRIS
100
AcDbLine
 10
78.14538702694926
 20
415.3370298604763
 30
0.0
 11
416.075430170395
 21
415.3370298604763
 31
0.0
  0
LWPOLYLINE
  5
2594
330
1F
100
AcDbEntity
  8
nášlap_vrstvy
100
AcDbPolyline
 90
        2
 70
     0
 43
0.0
 10
78.14538702694915
 20
429.9587902229936
 10
418.25667051392
 20
429.9587902229936
  0
LWPOLYLINE
  5
2595
330
1F
100
AcDbEntity
  8
izolace
100
AcDbPolyline
 90
        4
 70
     0
 43
0.0
 10
78.14538702694915
 20
383.3370298604764
 10
736.091049538018
 20
383.3370298604764
 10
736.091049538018
 20
380.3370298604763
 10
78.14538702694915
 20
380.3370298604763
  0
HATCH
  5
2596
330
1F
100
AcDbEntity
  8
izolace
100
AcDbHatch
 10
0.0
 20
0.0
 30
0.0
210
0.0
220
0.0
230
1.0
  2
SOLID
 70
     1
 71
     0
 91
        1
 92
        7
 72
     0
 73
     1
 93
        4
 10
284.6931661325928
 20
383.3370298604764
 10
284.6931661325928
 20
380.3370298604763
 10
308.334898842428
 20
380.3370298604763
 10
308.334898842428
 20
383.3370298604764
 97
        0
 75
     0
 76
     1
 47
0.1901250437635136
 98
        1
 10
294.0509608909327
 20
382.5202183093965
  0
LWPOLYLINE
  5
2597
330
1F
100
AcDbEntity
  8
izolace
100
AcDbPolyline
 90
        4
 70
     1
 43
0.0
 10
308.3348988424244
 20
383.3370298604764
 10
284.6931661325892
 20
383.3370298604764
 10
284.6931661325892
 20
380.3370298604763
 10
308.3348988424244
 20
380.3370298604763
  0
LINE
  5
2598
330
1F
100
AcDbEntity
  8
STAVBA OBRYS
100
AcDbLine
 10
78.14538702695291
 20
260.5141017595792
 30
0.0
 11
736.0910495380217
 21
260.5141017595801
 31
0.0
  0
LINE
  5
2599
330
1F
100
AcDbEntity
  8
STAVBA OBRYS
100
AcDbLine
 10
78.14538702694926
 20
250.5141017595792
 30
0.0
 11
736.0910495380217
 21
250.5141017595792
 31
0.0
  0
LWPOLYLINE
  5
259A
330
1F
100
AcDbEntity
  8
nášlap_vrstvy
100
AcDbPolyline
 90
        2
 70
     0
 43
0.0
 10
418.25667051392
 20
434.2972792489413
 10
78.14538702694915
 20
434.2972792489413
  0
HATCH
  5
259B
330
1F
100
AcDbEntity
  8
STAVBA OBRYS
100
AcDbHatch
 10
0.0
 20
0.0
 30
0.0
210
0.0
220
0.0
230
1.0
  2
ANSI35
 70
     0
 71
     0
 91
        7
 92
        7
 72
     0
 73
     1
 93
        4
 10
736.0910495380216
 20
380.3370298604763
 10
78.14538702694915
 20
380.3370298604763
 10
78.14538702694915
 20
260.5141017595792
 10
736.0910495380216
 20
260.5141017595801
 97
        0
 92
       24
 93
        4
 72
     1
 10
654.2743013305174
 20
296.8140174241593
 11
694.8925653141472
 21
296.8140174241593
 72
     1
 10
694.8925653141472
 20
296.8140174241593
 11
694.8925653141472
 21
334.4674962781841
 72
     1
 10
694.8925653141472
 20
334.4674962781841
 11
654.2743013305174
 21
334.4674962781841
 72
     1
 10
654.2743013305174
 20
334.4674962781841
 11
654.2743013305174
 21
296.8140174241593
 97
        0
 92
       24
 93
        4
 72
     1
 10
597.0984142126529
 20
296.2811047365744
 11
637.9298432713206
 21
296.2811047365744
 72
     1
 10
637.9298432713206
 20
296.2811047365744
 11
637.9298432713206
 21
334.5740788157013
 72
     1
 10
637.9298432713206
 20
334.5740788157013
 11
597.0984142126529
 21
334.5740788157013
 72
     1
 10
597.0984142126529
 20
334.5740788157013
 11
597.0984142126529
 21
296.2811047365753
 97
        0
 92
       24
 93
        4
 72
     1
 10
542.4575856896066
 20
296.2811047365744
 11
583.2890147482743
 21
296.2811047365744
 72
     1
 10
583.2890147482743
 20
296.2811047365744
 11
583.2890147482743
 21
334.5740788157013
 72
     1
 10
583.2890147482743
 20
334.5740788157013
 11
542.4575856896066
 21
334.5740788157013
 72
     1
 10
542.4575856896066
 20
334.5740788157013
 11
542.4575856896066
 21
296.2811047365753
 97
        0
 92
       24
 93
        4
 72
     1
 10
338.3872781630147
 20
296.8140174241593
 11
379.0055421466444
 21
296.8140174241593
 72
     1
 10
379.0055421466444
 20
296.8140174241593
 11
379.0055421466444
 21
334.4674962781841
 72
     1
 10
379.0055421466444
 20
334.4674962781841
 11
338.3872781630147
 21
334.4674962781841
 72
     1
 10
338.3872781630147
 20
334.4674962781841
 11
338.3872781630147
 21
296.8140174241593
 97
        0
 92
       24
 93
        4
 72
     1
 10
462.9424978291048
 20
296.2811047365744
 11
503.7739268877725
 21
296.2811047365744
 72
     1
 10
503.7739268877725
 20
296.2811047365744
 11
503.7739268877725
 21
334.5740788157013
 72
     1
 10
503.7739268877725
 20
334.5740788157013
 11
462.9424978291048
 21
334.5740788157013
 72
     1
 10
462.9424978291048
 20
334.5740788157013
 11
462.9424978291048
 21
296.2811047365753
 97
        0
 92
       24
 93
        4
 72
     1
 10
397.9587156176588
 20
296.2597882290706
 11
438.7986712793266
 21
296.2597882290706
 72
     1
 10
438.7986712793266
 20
296.2597882290706
 11
438.7986712793266
 21
334.5783421172013
 72
     1
 10
438.7986712793266
 20
334.5783421172013
 11
397.9587156176588
 21
334.5783421172013
 72
     1
 10
397.9587156176588
 20
334.5783421172013
 11
397.9587156176588
 21
296.2597882290697
 97
        0
 75
     0
 76
     1
 52
0.0
 41
3.0
 77
     0
 78
     2
 53
45.0
 43
-27432.23540155366
 44
4267.927156864418
 45
-13.47038418160372
 46
13.47038418160373
 79
     0
 53
45.0
 43
-27418.76501155366
 44
4267.927156864418
 45
-13.47038418160372
 46
13.47038418160373
 79
     4
 49
23.8125
 49
-4.762499999999999
 49
0.0
 49
-4.762499999999999
 47
1.485722625104592
 98
        1
 10
261.7294453803718
 20
329.4761782434338
  0
TEXT
  5
259C
330
1F
100
AcDbEntity
  8
POPIS
100
AcDbText
 10
70.9071603078105
 20
687.2914633453815
 30
0.0
 40
35.0
  1
SVISLÝ ŘEZ
 41
0.85
  7
SIMPLEX7
100
AcDbText
  0
TEXT
  5
259D
330
1F
100
AcDbEntity
  8
POPIS
100
AcDbText
 10
70.9071603078105
 20
741.9162063711824
 30
0.0
 40
50.0
  1
Řešení dilatace
 41
0.85
  7
SIMPLEX7
100
AcDbText
  0
HATCH
  5
259E
330
1F
100
AcDbEntity
  8
CETRIS
100
AcDbHatch
 10
0.0
 20
0.0
 30
0.0
210
0.0
220
0.0
230
1.0
  2
ANSI31
 70
     0
 71
     0
 91
        7
 92
        7
 72
     0
 73
     1
 93
       15
 10
244.0669752358611
 20
420.8694245348538
 10
244.0022536035779
 20
421.6406146834819
 10
243.5829303565609
 20
423.0918377531893
 10
242.8026244868437
 20
424.3844472458991
 10
241.7142071844667
 20
425.4318437955411
 10
240.3915158026087
 20
426.1611016192805
 10
240.3915158026051
 20
427.3370298604772
 10
78.14538702694915
 20
427.3370298604755
 10
78.14538702695279
 20
415.3370298604772
 10
244.0669752358648
 20
415.3370298604763
 10
244.0669752358648
 20
416.3178472822806
 10
243.4079084794051
 20
416.5394562054948
 10
243.0378101316004
 20
416.7527641188203
 10
243.4079084794087
 20
417.1237740366727
 10
244.0669752358648
 20
416.9021651135076
 97
        0
 92
        7
 72
     0
 73
     1
 93
       24
 10
396.8614388141344
 20
423.0918377531975
 10
396.081132944428
 20
424.3844472459045
 10
394.9927156420729
 20
425.4318437955348
 10
393.6700242601895
 20
426.1611016192796
 10
393.6700242601895
 20
427.3370298604772
 10
250.3878174243312
 20
427.3370298604763
 10
250.3878174243276
 20
426.161101619276
 10
249.6868183418977
 20
425.8311124541592
 10
248.4744272091651
 20
424.9313906139154
 10
247.5355077605912
 20
423.74816979468
 10
246.9347816284119
 20
422.3625799291744
 10
246.7123579953462
 20
420.8694245348201
 10
246.7123579953462
 20
416.0126642868422
 10
247.3714247518022
 20
415.7910553636752
 10
247.741523095325
 20
415.57683587789
 10
247.5017170793056
 20
415.3370298604763
 10
397.3454836934491
 20
415.3370298604763
 10
397.3454836934491
 20
416.3178472822823
 10
396.6864169369895
 20
416.5394562054939
 10
396.3163185891847
 20
416.752764118823
 10
396.6864169369895
 20
417.1237740366746
 10
397.3454836934491
 20
416.9021651135076
 10
397.3454836934491
 20
420.869424534781
 10
397.2807620611696
 20
421.6406146834838
 97
        0
 92
        7
 72
     0
 73
     1
 93
       13
 10
416.0754301703949
 20
427.3370298604772
 10
403.666325881912
 20
427.3370298604772
 10
403.666325881912
 20
426.1611016192769
 10
402.9653267994785
 20
425.8311124541555
 10
401.7529356667495
 20
424.9313906139236
 10
400.8140162181684
 20
423.74816979467
 10
400.213290086
 20
422.3625799291553
 10
399.9908664529269
 20
420.8694245347992
 10
399.9908664529306
 20
416.0126642868431
 10
400.6499332093938
 20
415.7910553636743
 10
401.0200315529203
 20
415.57683587789
 10
400.7802255368936
 20
415.3370298604763
 10
416.0754301703913
 20
415.3370298604763
 97
        0
 92
        7
 72
     0
 73
     1
 93
       13
 10
447.1599938878592
 20
420.8694245348028
 10
446.9375702547934
 20
422.3625799291998
 10
446.3368441226251
 20
423.7481697946755
 10
445.3979246740476
 20
424.9313906139246
 10
444.1855335413187
 20
425.8311124541546
 10
443.4845344588778
 20
426.1611016192814
 10
443.4845344588742
 20
427.3370298604772
 10
431.075430170395
 20
427.3370298604772
 10
431.075430170395
 20
415.3370298604763
 10
446.3706348038962
 20
415.3370298604763
 10
446.1308287878731
 20
415.5768358778891
 10
446.5009271314032
 20
415.7910553636797
 10
447.1599938878592
 20
416.0126642868458
 97
        0
 92
        7
 72
     1
 73
     1
 93
       20
 10
571.0953709804766
 20
421.5328445304053
 42
0.0
 10
571.0953709804729
 20
427.3370298604772
 42
0.0
 10
453.4808360806003
 20
427.3370298604772
 42
0.0
 10
453.4808360805967
 20
426.1611016192778
 42
0.0
 10
452.1581446987132
 20
425.4318437955276
 42
0.0
 10
451.0697273963727
 20
424.3844472459199
 42
0.0
 10
450.2894215266373
 20
423.0918377531756
 42
0.0
 10
449.8700982796239
 20
421.6406146834792
 42
0.0
 10
449.805376647337
 20
420.8694245347309
 42
0.0
 10
449.8053766473407
 20
416.9021651135076
 42
0.0
 10
450.4644434038003
 20
417.1237740366763
 42
0.0
 10
450.8345417516124
 20
416.752764118823
 42
0.0
 10
450.4644434037894
 20
416.539456205493
 42
0.0
 10
449.8053766473334
 20
416.3178472822814
 42
0.0
 10
449.805376647337
 20
415.3370298604763
 42
0.0
 10
617.9776857946438
 20
415.3370298604772
 42
0.0
 10
617.9776857946438
 20
427.3370298604781
 42
0.0
 10
571.0953709804766
 20
427.3370298604772
 42
0.0
 10
571.0953709804766
 20
421.5328445304053
 42
-1.0
 10
571.0953709804766
 20
419.0328445304053
 42
-1.0
 97
        0
 92
        7
 72
     0
 73
     1
 93
       13
 10
665.5746848671318
 20
420.8694245348383
 10
665.3522612340696
 20
422.3625799291726
 10
664.7515351019086
 20
423.7481697946854
 10
663.8126156533202
 20
424.9313906139182
 10
662.6002245205949
 20
425.8311124541592
 10
661.8992254381541
 20
426.1611016192796
 10
661.8992254381541
 20
427.3370298604781
 10
617.9776857946475
 20
427.3370298604781
 10
617.9776857946402
 20
415.3370298604763
 10
664.7853257831797
 20
415.3370298604763
 10
664.5455197671529
 20
415.5768358778909
 10
664.9156181106794
 20
415.7910553636752
 10
665.5746848671427
 20
416.0126642868431
 97
        0
 92
        7
 72
     1
 73
     1
 93
       17
 10
736.0910495380252
 20
427.3370298604781
 42
0.0
 10
671.8955270598802
 20
427.3370298604772
 42
0.0
 10
671.8955270598765
 20
426.1611016192833
 42
0.0
 10
670.5728356779785
 20
425.4318437955303
 42
0.0
 10
669.4844183756489
 20
424.3844472459218
 42
0.0
 10
668.7041125059026
 20
423.0918377531675
 42
0.0
 10
668.2847892589037
 20
421.6406146834892
 42
0.0
 10
668.2200676266132
 20
420.8694245347637
 42
0.0
 10
668.2200676266132
 20
420.7635652450912
 42
-0.1999781356998725
 10
668.2200676266169
 20
419.8021238157284
 42
0.0
 10
668.2200676266205
 20
416.9021651135085
 42
0.0
 10
668.8791343830729
 20
417.1237740366737
 42
0.0
 10
669.2492327308813
 20
416.752764118823
 42
0.0
 10
668.8791343830802
 20
416.5394562054948
 42
0.0
 10
668.2200676266132
 20
416.3178472822814
 42
0.0
 10
668.2200676266169
 20
415.3370298604763
 42
0.0
 10
736.0910495380252
 20
415.3370298604763
 42
0.0
 97
        0
 75
     0
 76
     1
 52
90.0
 41
1.0
 77
     0
 78
     1
 53
135.0
 43
-29227.03549203667
 44
5151.130753952435
 45
-2.245064030267288
 46
-2.245064030267287
 79
     0
 47
0.6180841145061156
 98
        9
 10
214.4883844671988
 20
411.7686396618514
 10
284.3747866532561
 20
409.9143817345552
 10
203.9745070466655
 20
420.421819669436
 10
302.3102334120979
 20
422.8941517459311
 10
409.3044523487318
 20
420.421819669436
 10
435.8983916787823
 20
420.421819669436
 10
484.1385474663241
 20
420.421819669436
 10
646.7945214698396
 20
420.421819669436
 10
688.8500311519513
 20
421.039893818633
  0
HATCH
  5
259F
330
1F
100
AcDbEntity
  8
CETRIS
100
AcDbHatch
 10
0.0
 20
0.0
 30
0.0
210
0.0
220
0.0
230
1.0
  2
ANSI31
 70
     0
 71
     0
 91
        4
 92
        7
 72
     0
 73
     1
 93
       25
 10
447.1599938878629
 20
412.3707814495351
 10
446.5009271313959
 20
412.14932410564
 10
446.1308287878731
 20
412.5194224510355
 10
446.5009271313996
 20
412.7336419368207
 10
447.1599938878629
 20
412.9550992807566
 10
447.1599938878556
 20
415.3370298604754
 10
446.8884175849801
 20
415.3370298604754
 10
446.5009271313996
 20
415.2067375322226
 10
446.3706348038925
 20
415.3370298604763
 10
431.075430170395
 20
415.3370298604763
 10
431.075430170395
 20
403.3370298604763
 10
446.0938658344879
 20
403.3370298604763
 10
446.130828787884
 20
403.3462705988254
 10
446.5009271313959
 20
403.5604900846023
 10
447.1599938878592
 20
403.7820990078193
 10
447.1599938878592
 20
406.2551946031821
 10
446.5009271313996
 20
406.0335856800106
 10
446.1308287878731
 20
406.4045955978631
 10
446.5009271313887
 20
406.617903511184
 10
447.1599938878629
 20
406.839512434401
 10
447.1599938878629
 20
409.3126080297666
 10
446.5009271314069
 20
409.0909991065987
 10
446.1308287878694
 20
409.4620090244511
 10
446.5009271314032
 20
409.6753169380476
 10
447.1599938878592
 20
409.8969258612119
 97
        0
 92
        7
 72
     1
 73
     1
 93
       51
 10
617.9776857946438
 20
409.8917324247845
 42
0.0
 10
617.9776857946402
 20
415.3370298604763
 42
0.0
 10
449.8053766473407
 20
415.3370298604772
 42
0.0
 10
449.8053766473407
 20
413.8439916939673
 42
0.0
 10
450.4644434037967
 20
414.0654490379042
 42
0.0
 10
450.8345417516051
 20
413.6953506922395
 42
0.0
 10
450.464443403804
 20
413.4811312064561
 42
0.0
 10
449.8053766473443
 20
413.2596738625629
 42
0.0
 10
449.8053766473334
 20
410.7864266878818
 42
0.0
 10
450.4644434038003
 20
411.0080356110525
 42
0.0
 10
450.8345417516087
 20
410.6379372653869
 42
0.0
 10
450.464443403793
 20
410.4237177795971
 42
0.0
 10
449.8053766473443
 20
410.202108856432
 42
0.0
 10
449.8053766473407
 20
407.7290132612474
 42
0.0
 10
450.464443403804
 20
407.9506221844608
 42
0.0
 10
450.8345417516014
 20
407.5805238387961
 42
0.0
 10
450.464443403804
 20
407.3663043530218
 42
0.0
 10
449.8053766473443
 20
407.1446954298494
 42
0.0
 10
449.8053766473407
 20
404.6715998346639
 42
0.0
 10
450.464443403804
 20
404.8932087578773
 42
0.0
 10
450.8345417516051
 20
404.5221988397538
 42
0.0
 10
450.4644434037894
 20
404.3088909264256
 42
0.0
 10
449.805376647337
 20
404.0872820032168
 42
0.0
 10
449.8053766473407
 20
403.3370298604763
 42
0.0
 10
491.0754301703949
 20
403.3370298604763
 42
0.0
 10
664.5085568137714
 20
403.3370298604763
 42
0.0
 10
664.545519767142
 20
403.3462705988218
 42
0.0
 10
664.9156181106867
 20
403.5604900846106
 42
0.0
 10
665.5746848671355
 20
403.782099007823
 42
0.0
 10
665.5746848671355
 20
406.2551946031804
 42
0.0
 10
664.9156181106794
 20
406.0335856800079
 42
0.0
 10
664.5455197671493
 20
406.4045955978622
 42
0.0
 10
664.9156181106722
 20
406.6179035111913
 42
0.0
 10
665.5746848671391
 20
406.8395124344055
 42
0.0
 10
665.5746848671355
 20
409.3126080297656
 42
0.0
 10
664.9156181106758
 20
409.0909991066005
 42
0.0
 10
664.5455197671457
 20
409.4620090244529
 42
0.0
 10
664.9156181106722
 20
409.6753169380376
 42
0.0
 10
665.5746848671282
 20
409.8969258612092
 42
0.0
 10
665.5746848671318
 20
412.3707814495351
 42
0.0
 10
664.9156181106722
 20
412.1493241056409
 42
0.0
 10
664.5455197671457
 20
412.5194224510355
 42
0.0
 10
664.9156181106794
 20
412.7336419368198
 42
0.0
 10
665.5746848671391
 20
412.9550992807585
 42
0.0
 10
665.5746848671391
 20
415.3370298604754
 42
0.0
 10
665.303108564249
 20
415.3370298604754
 42
0.0
 10
664.9156181106758
 20
415.2067375322235
 42
0.0
 10
664.785325783176
 20
415.3370298604763
 42
0.0
 10
617.9776857946438
 20
415.3370298604772
 42
0.0
 10
617.9776857946438
 20
409.8917324247845
 42
-1.0
 10
617.9776857946438
 20
407.3917324247845
 42
-1.0
 97
        0
 92
        7
 72
     0
 73
     1
 93
       24
 10
736.0910495380288
 20
415.3370298604754
 10
668.2200676266132
 20
415.3370298604763
 10
668.2200676266169
 20
413.8439916939673
 10
668.8791343830765
 20
414.0654490379042
 10
669.2492327308813
 20
413.6953506922404
 10
668.8791343830802
 20
413.4811312064498
 10
668.2200676266169
 20
413.2596738625547
 10
668.2200676266169
 20
410.7864266878818
 10
668.8791343830802
 20
411.0080356110516
 10
669.2492327308849
 20
410.6379372653877
 10
668.8791343830692
 20
410.4237177795962
 10
668.2200676266169
 20
410.2021088564328
 10
668.2200676266242
 20
407.729013261252
 10
668.8791343830765
 20
407.9506221844635
 10
669.2492327308849
 20
407.5805238387961
 10
668.8791343830692
 20
407.36630435301
 10
668.2200676266132
 20
407.1446954298421
 10
668.2200676266169
 20
404.6715998346667
 10
668.8791343830765
 20
404.8932087578791
 10
669.2492327308813
 20
404.5221988397547
 10
668.8791343830802
 20
404.308890926431
 10
668.2200676266205
 20
404.0872820032177
 10
668.2200676266205
 20
403.3370298604763
 10
736.0910495380252
 20
403.3370298604772
 97
        0
 92
        7
 72
     0
 73
     1
 93
       24
 10
244.0669752358684
 20
410.2021088564302
 10
243.4079084793978
 20
410.4237177796017
 10
243.0378101315931
 20
410.637937265386
 10
243.4079084794051
 20
411.0080356110506
 10
244.0669752358611
 20
410.7864266878809
 10
244.0669752358611
 20
413.2596738625611
 10
243.4079084794051
 20
413.4811312064526
 10
243.0378101316004
 20
413.6953506922377
 10
243.4079084794051
 20
414.0654490379061
 10
244.0669752358648
 20
413.8439916939683
 10
244.0669752358648
 20
415.3370298604763
 10
78.14538702695279
 20
415.3370298604763
 10
78.14538702694552
 20
403.3370298604772
 10
244.0669752358684
 20
403.3370298604763
 10
244.0669752358648
 20
404.0872820032149
 10
243.4079084793978
 20
404.3088909264283
 10
243.037810131604
 20
404.5221988397547
 10
243.4079084794051
 20
404.8932087578791
 10
244.0669752358648
 20
404.6715998346648
 10
244.0669752358611
 20
407.1446954298494
 10
243.4079084794015
 20
407.3663043530181
 10
243.0378101315931
 20
407.5805238387979
 10
243.4079084794051
 20
407.9506221844608
 10
244.0669752358684
 20
407.7290132612474
 97
        0
 75
     0
 76
     1
 52
0.0
 41
1.0
 77
     0
 78
     1
 53
45.0
 43
-29227.03549203667
 44
5151.130753952435
 45
-2.245064030267287
 46
2.245064030267288
 79
     0
 47
0.6180841145061156
 98
        8
 10
700.6008617463797
 20
409.2963075853581
 10
635.6621524918503
 20
408.6782156963086
 10
441.4645761677733
 20
408.060123807259
 10
409.3044523487318
 20
408.6782156963086
 10
443.319961017098
 20
409.9143817345552
 10
476.7169781280085
 20
409.2963075853581
 10
693.1792924080568
 20
409.9143817345552
 10
197.1713993247889
 20
409.9143817345552
  0
HATCH
  5
25A0
330
1F
100
AcDbEntity
  8
CETRIS
100
AcDbHatch
 10
0.0
 20
0.0
 30
0.0
210
0.0
220
0.0
230
1.0
  2
ANSI31
 70
     0
 71
     0
 91
        2
 92
        7
 72
     0
 73
     1
 93
       24
 10
416.0754301703949
 20
415.3370298604763
 10
400.7802255368863
 20
415.3370298604763
 10
400.6499332093865
 20
415.2067375322235
 10
400.2624427558024
 20
415.3370298604763
 10
399.9908664529306
 20
415.3370298604763
 10
399.9908664529269
 20
412.9550992807603
 10
400.6499332094048
 20
412.7336419368162
 10
401.0200315529167
 20
412.5194224510346
 10
400.6499332093865
 20
412.14932410564
 10
399.9908664529342
 20
412.3707814495324
 10
399.9908664529342
 20
409.8969258612137
 10
400.6499332094048
 20
409.6753169380394
 10
401.0200315529167
 20
409.4620090244547
 10
400.6499332093902
 20
409.0909991065996
 10
399.9908664529342
 20
409.3126080297683
 10
399.9908664529306
 20
406.8395124344055
 10
400.6499332093794
 20
406.6179035111922
 10
401.0200315529167
 20
406.4045955978612
 10
400.6499332093865
 20
406.0335856800106
 10
399.9908664529342
 20
406.2551946031785
 10
399.9908664529306
 20
403.782099007823
 10
400.6499332093938
 20
403.5604900846051
 10
400.9704998015753
 20
403.3749404550595
 10
416.0754301703949
 20
403.3749404550595
 97
        0
 92
        7
 72
     0
 73
     1
 93
       44
 10
397.3454836934528
 20
410.202108856432
 10
396.6864169370004
 20
410.4237177795962
 10
396.3163185891847
 20
410.6379372653869
 10
396.6864169369931
 20
411.0080356110516
 10
397.3454836934491
 20
410.7864266878818
 10
397.3454836934491
 20
413.2596738625602
 10
396.6864169369895
 20
413.4811312064552
 10
396.3163185891884
 20
413.6953506922404
 10
396.6864169369895
 20
414.0654490379051
 10
397.3454836934491
 20
413.8439916939673
 10
397.3454836934491
 20
415.3370298604763
 10
247.5017170793056
 20
415.3370298604763
 10
247.3714247517985
 20
415.2067375322245
 10
246.9839342982217
 20
415.3370298604763
 10
246.7123579953462
 20
415.3370298604763
 10
246.7123579953498
 20
412.9550992807594
 10
247.3714247518058
 20
412.7336419368225
 10
247.7415230953323
 20
412.5194224510364
 10
247.3714247518095
 20
412.1493241056409
 10
246.7123579953462
 20
412.3707814495351
 10
246.7123579953498
 20
409.8969258612119
 10
247.3714247518058
 20
409.6753169380422
 10
247.7415230953323
 20
409.4620090244521
 10
247.3714247518058
 20
409.0909991065996
 10
246.7123579953462
 20
409.3126080297674
 10
246.7123579953389
 20
406.8395124344037
 10
247.3714247518022
 20
406.6179035111932
 10
247.7415230953323
 20
406.4045955978631
 10
247.3714247518058
 20
406.0335856800097
 10
246.7123579953498
 20
406.2551946031785
 10
246.7123579953462
 20
403.7820990078203
 10
247.3714247518058
 20
403.5604900846096
 10
247.7341635744254
 20
403.3505304200621
 10
397.3454836934491
 20
403.3505304200612
 10
397.3454836934491
 20
404.0872820032149
 10
396.6864169369822
 20
404.3088909264283
 10
396.3163185891847
 20
404.5221988397547
 10
396.6864169369895
 20
404.89320875788
 10
397.3454836934491
 20
404.6715998346667
 10
397.3454836934491
 20
407.1446954298485
 10
396.6864169369822
 20
407.3663043530191
 10
396.3163185891847
 20
407.5805238387979
 10
396.6864169369895
 20
407.9506221844617
 10
397.3454836934491
 20
407.7290132612493
 97
        0
 75
     0
 76
     1
 52
0.0
 41
1.0
 77
     0
 78
     1
 53
45.0
 43
-29227.03549203667
 44
5151.130753952435
 45
-2.245064030267287
 46
2.245064030267288
 79
     0
 47
0.3060829619389045
 98
        2
 10
405.723327247257
 20
408.009653931123
 10
365.9080941688938
 20
408.009653931123
  0
LINE
  5
25A1
330
1F
100
AcDbEntity
  8
SPOJOVACÍ
  6
DASHED
100
AcDbLine
 10
195.3050185348061
 20
423.74816979468
 30
0.0
 11
194.3660990862213
 21
424.9313906139209
 31
0.0
  0
LINE
  5
25A2
330
1F
100
AcDbEntity
  8
SPOJOVACÍ
  6
DASHED
100
AcDbLine
 10
200.0379018085463
 20
424.3844472459109
 30
0.0
 11
199.2575959388145
 21
423.0918377531793
 31
0.0
  0
LINE
  5
25A3
330
1F
100
AcDbEntity
  8
CETRIS
100
AcDbLine
 10
221.4202631476914
 20
427.337029860475
 30
0.0
 11
221.4202631476914
 21
415.3370298604763
 31
0.0
  0
LINE
  5
25A4
330
1F
100
AcDbEntity
  8
SPOJOVACÍ
  6
DASHED
100
AcDbLine
 10
247.5355077605768
 20
423.74816979468
 30
0.0
 11
248.4744272091615
 21
424.9313906139209
 31
0.0
  0
LINE
  5
25A5
330
1F
100
AcDbEntity
  8
SPOJOVACÍ
  6
DASHED
100
AcDbLine
 10
242.8026244868365
 20
424.3844472459109
 30
0.0
 11
243.5829303565683
 21
423.0918377531793
 31
0.0
  0
HATCH
  5
25A6
330
1F
100
AcDbEntity
  8
izolace
100
AcDbHatch
 10
0.0
 20
0.0
 30
0.0
210
0.0
220
0.0
230
1.0
  2
SOLID
 70
     1
 71
     0
 91
        1
 92
        7
 72
     0
 73
     1
 93
        4
 10
142.8427698735816
 20
383.3370298604764
 10
142.842769873578
 20
380.3370298604763
 10
166.4845025834168
 20
380.3370298604763
 10
166.4845025834168
 20
383.3370298604764
 97
        0
 75
     0
 76
     1
 47
0.1901250437635136
 98
        1
 10
152.2005646319215
 20
382.5202183093965
  0
LWPOLYLINE
  5
25A7
330
1F
100
AcDbEntity
  8
izolace
100
AcDbPolyline
 90
        4
 70
     1
 43
0.0
 10
166.4845025834132
 20
383.3370298604764
 10
142.842769873578
 20
383.3370298604764
 10
142.842769873578
 20
380.3370298604763
 10
166.4845025834132
 20
380.3370298604763
  0
LINE
  5
25A8
330
1F
100
AcDbEntity
  8
izolace
100
AcDbLine
 10
78.14538702694926
 20
380.3370298604763
 30
0.0
 11
117.0360052194469
 21
380.3370298604763
 31
0.0
  0
HATCH
  5
25A9
330
1F
100
AcDbEntity
  8
izolace
100
AcDbHatch
 10
0.0
 20
0.0
 30
0.0
210
0.0
220
0.0
230
1.0
  2
SOLID
 70
     1
 71
     0
 91
        1
 92
        7
 72
     0
 73
     1
 93
        4
 10
95.55930445390766
 20
383.3370298604764
 10
95.5593044539113
 20
380.3370298604763
 10
119.2010371637465
 20
380.3370298604763
 10
119.2010371637465
 20
383.3370298604764
 97
        0
 75
     0
 76
     1
 47
0.1901250437635136
 98
        1
 10
104.9170992122511
 20
382.5202183093965
  0
LWPOLYLINE
  5
25AA
330
1F
100
AcDbEntity
  8
izolace
100
AcDbPolyline
 90
        4
 70
     1
 43
0.0
 10
119.2010371637428
 20
383.3370298604764
 10
95.55930445390766
 20
383.3370298604764
 10
95.55930445390766
 20
380.3370298604763
 10
119.2010371637428
 20
380.3370298604763
  0
LINE
  5
25AB
330
1F
100
AcDbEntity
  8
SPOJOVACÍ
  6
DASHED
100
AcDbLine
 10
199.8027161637823
 20
416.7527641188221
 30
0.0
 11
195.0990032000504
 21
415.5768358778891
 31
0.0
  0
LINE
  5
25AC
330
1F
100
AcDbEntity
  8
SPOJOVACÍ
  6
DASHED
100
AcDbLine
 10
199.8027161637823
 20
416.7527641188221
 30
0.0
 11
199.4326178159776
 21
416.5394562054948
 31
0.0
  0
LINE
  5
25AD
330
1F
100
AcDbEntity
  8
SPOJOVACÍ
  6
DASHED
100
AcDbLine
 10
199.8027161637823
 20
416.7527641188221
 30
0.0
 11
199.4326178159776
 21
417.1237740366755
 31
0.0
  0
LINE
  5
25AE
330
1F
100
AcDbEntity
  8
SPOJOVACÍ
  6
DASHED
100
AcDbLine
 10
199.8027161637823
 20
413.6953506922395
 30
0.0
 11
195.0990032000504
 21
412.5194224510355
 31
0.0
  0
LINE
  5
25AF
330
1F
100
AcDbEntity
  8
SPOJOVACÍ
  6
DASHED
100
AcDbLine
 10
199.8027161637823
 20
413.6953506922395
 30
0.0
 11
199.4326178159776
 21
413.4811312064535
 31
0.0
  0
LINE
  5
25B0
330
1F
100
AcDbEntity
  8
SPOJOVACÍ
  6
DASHED
100
AcDbLine
 10
199.8027161637823
 20
413.6953506922395
 30
0.0
 11
199.4326178159776
 21
414.0654490379051
 31
0.0
  0
LINE
  5
25B1
330
1F
100
AcDbEntity
  8
SPOJOVACÍ
  6
DASHED
100
AcDbLine
 10
199.8027161637823
 20
410.637937265386
 30
0.0
 11
195.0990032000504
 21
409.4620090244529
 31
0.0
  0
LINE
  5
25B2
330
1F
100
AcDbEntity
  8
SPOJOVACÍ
  6
DASHED
100
AcDbLine
 10
199.8027161637823
 20
410.637937265386
 30
0.0
 11
199.4326178159776
 21
410.4237177795998
 31
0.0
  0
LINE
  5
25B3
330
1F
100
AcDbEntity
  8
SPOJOVACÍ
  6
DASHED
100
AcDbLine
 10
199.8027161637823
 20
410.637937265386
 30
0.0
 11
199.4326178159776
 21
411.0080356110516
 31
0.0
  0
LINE
  5
25B4
330
1F
100
AcDbEntity
  8
SPOJOVACÍ
  6
DASHED
100
AcDbLine
 10
199.8027161637823
 20
407.5805238387961
 30
0.0
 11
195.0990032000504
 21
406.4045955978631
 31
0.0
  0
LINE
  5
25B5
330
1F
100
AcDbEntity
  8
SPOJOVACÍ
  6
DASHED
100
AcDbLine
 10
199.8027161637823
 20
407.5805238387961
 30
0.0
 11
199.4326178159776
 21
407.3663043530173
 31
0.0
  0
LINE
  5
25B6
330
1F
100
AcDbEntity
  8
SPOJOVACÍ
  6
DASHED
100
AcDbLine
 10
199.8027161637823
 20
407.5805238387961
 30
0.0
 11
199.4326178159776
 21
407.9506221844617
 31
0.0
  0
LINE
  5
25B7
330
1F
100
AcDbEntity
  8
SPOJOVACÍ
  6
DASHED
100
AcDbLine
 10
199.8027161637823
 20
404.5221988397547
 30
0.0
 11
195.0990032000504
 21
403.3462705988218
 31
0.0
  0
LINE
  5
25B8
330
1F
100
AcDbEntity
  8
SPOJOVACÍ
  6
DASHED
100
AcDbLine
 10
199.8027161637823
 20
404.5221988397547
 30
0.0
 11
199.4326178159776
 21
404.3088909264274
 31
0.0
  0
LINE
  5
25B9
330
1F
100
AcDbEntity
  8
SPOJOVACÍ
  6
DASHED
100
AcDbLine
 10
199.8027161637823
 20
404.5221988397547
 30
0.0
 11
199.4326178159776
 21
404.8932087578791
 31
0.0
  0
LINE
  5
25BA
330
1F
100
AcDbEntity
  8
SPOJOVACÍ
  6
DASHED
100
AcDbLine
 10
196.1281683000365
 20
420.8694245348101
 30
0.0
 11
196.1281683000365
 21
416.0253294394602
 31
0.0
  0
LINE
  5
25BB
330
1F
100
AcDbEntity
  8
SPOJOVACÍ
  6
DASHED
100
AcDbLine
 10
198.773551059518
 20
420.8694245348101
 30
0.0
 11
198.773551059518
 21
416.9122892677237
 31
0.0
  0
LINE
  5
25BC
330
1F
100
AcDbEntity
  8
SPOJOVACÍ
  6
DASHED
100
AcDbLine
 10
198.773551059518
 20
416.3288830087308
 30
0.0
 11
198.773551059518
 21
413.8603452748025
 31
0.0
  0
LINE
  5
25BD
330
1F
100
AcDbEntity
  8
SPOJOVACÍ
  6
DASHED
100
AcDbLine
 10
198.773551059518
 20
413.2687348653139
 30
0.0
 11
198.773551059518
 21
410.7983739867391
 31
0.0
  0
LINE
  5
25BE
330
1F
100
AcDbEntity
  8
SPOJOVACÍ
  6
DASHED
100
AcDbLine
 10
198.773551059518
 20
410.2158792999339
 30
0.0
 11
198.773551059518
 21
407.7382258433222
 31
0.0
  0
LINE
  5
25BF
330
1F
100
AcDbEntity
  8
SPOJOVACÍ
  6
DASHED
100
AcDbLine
 10
196.1281683000365
 20
415.4337190299716
 30
0.0
 11
196.1281683000365
 21
412.9651812960433
 31
0.0
  0
LINE
  5
25C0
330
1F
100
AcDbEntity
  8
SPOJOVACÍ
  6
DASHED
100
AcDbLine
 10
196.1281683000365
 20
412.3808634645915
 30
0.0
 11
196.1281683000365
 21
409.9032100079798
 31
0.0
  0
LINE
  5
25C1
330
1F
100
AcDbEntity
  8
SPOJOVACÍ
  6
DASHED
100
AcDbLine
 10
196.1281683000365
 20
409.3207153211746
 30
0.0
 11
196.1281683000365
 21
406.8503544425998
 31
0.0
  0
LINE
  5
25C2
330
1F
100
AcDbEntity
  8
SPOJOVACÍ
  6
DASHED
100
AcDbLine
 10
198.773551059518
 20
407.1457038613821
 30
0.0
 11
198.773551059518
 21
404.6780776996415
 31
0.0
  0
LINE
  5
25C3
330
1F
100
AcDbEntity
  8
SPOJOVACÍ
  6
DASHED
100
AcDbLine
 10
198.773551059518
 20
404.0937598681898
 30
0.0
 11
198.773551059518
 21
402.871341441139
 31
0.0
  0
LINE
  5
25C4
330
1F
100
AcDbEntity
  8
SPOJOVACÍ
  6
DASHED
100
AcDbLine
 10
196.1281683000365
 20
406.2614787499455
 30
0.0
 11
196.1281683000365
 21
403.7929410160172
 31
0.0
  0
LINE
  5
25C5
330
1F
100
AcDbEntity
  8
SPOJOVACÍ
  6
DASHED
100
AcDbLine
 10
196.1281683000365
 20
403.2013306062649
 30
0.0
 11
196.1281683000365
 21
402.871341441139
 31
0.0
  0
LINE
  5
25C6
330
1F
100
AcDbEntity
  8
SPOJOVACÍ
  6
DASHED
100
AcDbLine
 10
198.773551059518
 20
402.871341441139
 30
0.0
 11
198.6267879228494
 21
401.6981479167693
 31
0.0
  0
LINE
  5
25C7
330
1F
100
AcDbEntity
  8
SPOJOVACÍ
  6
DASHED
100
AcDbLine
 10
197.4508596819164
 20
392.2870756994848
 30
0.0
 11
197.10355064041
 21
395.0664595807279
 31
0.0
  0
LINE
  5
25C8
330
1F
100
AcDbEntity
  8
SPOJOVACÍ
  6
DASHED
100
AcDbLine
 10
198.5511274221739
 20
401.090129206033
 30
0.0
 11
198.2667168696448
 21
398.8148447956896
 31
0.0
  0
LINE
  5
25C9
330
1F
100
AcDbEntity
  8
SPOJOVACÍ
  6
DASHED
100
AcDbLine
 10
198.1892332256634
 20
398.1967987898183
 30
0.0
 11
197.9048226774125
 21
395.92242595167
 31
0.0
  0
LINE
  5
25CA
330
1F
100
AcDbEntity
  8
SPOJOVACÍ
  6
DASHED
100
AcDbLine
 10
197.829162176737
 20
395.3144072409336
 30
0.0
 11
197.4508596819164
 21
392.2870756994848
 31
0.0
  0
LINE
  5
25CB
330
1F
100
AcDbEntity
  8
SPOJOVACÍ
  6
DASHED
100
AcDbLine
 10
197.0333595739307
 20
395.6243418160534
 30
0.0
 11
196.7708267581861
 21
397.7264274933381
 31
0.0
  0
LINE
  5
25CC
330
1F
100
AcDbEntity
  8
SPOJOVACÍ
  6
DASHED
100
AcDbLine
 10
196.700635695985
 20
398.2870444454979
 30
0.0
 11
196.4390144497542
 21
400.3809259722943
 31
0.0
  0
LINE
  5
25CD
330
1F
100
AcDbEntity
  8
SPOJOVACÍ
  6
DASHED
100
AcDbLine
 10
196.3688233832749
 20
400.9397197800785
 30
0.0
 11
196.1281683000365
 21
402.871341441139
 31
0.0
  0
LINE
  5
25CE
330
1F
100
AcDbEntity
  8
SPOJOVACÍ
  6
DASHED
100
AcDbLine
 10
195.0990032000504
 20
415.5768358778891
 30
0.0
 11
195.4691015435769
 21
415.2067375322235
 31
0.0
  0
LINE
  5
25CF
330
1F
100
AcDbEntity
  8
SPOJOVACÍ
  6
DASHED
100
AcDbLine
 10
195.0990032000504
 20
415.5768358778891
 30
0.0
 11
195.4691015435769
 21
415.7910553636752
 31
0.0
  0
LINE
  5
25D0
330
1F
100
AcDbEntity
  8
SPOJOVACÍ
  6
DASHED
100
AcDbLine
 10
199.4326178159776
 20
416.5394562054948
 30
0.0
 11
195.4691015435769
 21
415.2067375322235
 31
0.0
  0
LINE
  5
25D1
330
1F
100
AcDbEntity
  8
SPOJOVACÍ
  6
DASHED
100
AcDbLine
 10
199.4326178159776
 20
417.1237740366755
 30
0.0
 11
195.4691015435769
 21
415.7910553636752
 31
0.0
  0
LINE
  5
25D2
330
1F
100
AcDbEntity
  8
SPOJOVACÍ
  6
DASHED
100
AcDbLine
 10
195.0990032000504
 20
412.5194224510355
 30
0.0
 11
195.4691015435769
 21
412.1493241056409
 31
0.0
  0
LINE
  5
25D3
330
1F
100
AcDbEntity
  8
SPOJOVACÍ
  6
DASHED
100
AcDbLine
 10
195.0990032000504
 20
412.5194224510355
 30
0.0
 11
195.4691015435769
 21
412.7336419368216
 31
0.0
  0
LINE
  5
25D4
330
1F
100
AcDbEntity
  8
SPOJOVACÍ
  6
DASHED
100
AcDbLine
 10
199.4326178159776
 20
413.4811312064535
 30
0.0
 11
195.4691015435769
 21
412.1493241056409
 31
0.0
  0
LINE
  5
25D5
330
1F
100
AcDbEntity
  8
SPOJOVACÍ
  6
DASHED
100
AcDbLine
 10
199.4326178159776
 20
414.0654490379051
 30
0.0
 11
195.4691015435769
 21
412.7336419368216
 31
0.0
  0
LINE
  5
25D6
330
1F
100
AcDbEntity
  8
SPOJOVACÍ
  6
DASHED
100
AcDbLine
 10
199.5538569292498
 20
401.5067177380874
 30
0.0
 11
199.1828470119312
 21
401.2924982523013
 31
0.0
  0
LINE
  5
25D7
330
1F
100
AcDbEntity
  8
SPOJOVACÍ
  6
DASHED
100
AcDbLine
 10
199.5538569292498
 20
401.5067177380874
 30
0.0
 11
199.1828470119312
 21
401.876816083753
 31
0.0
  0
LINE
  5
25D8
330
1F
100
AcDbEntity
  8
SPOJOVACÍ
  6
DASHED
100
AcDbLine
 10
195.5110338695617
 20
400.5532131334289
 30
0.0
 11
195.8811322130882
 21
400.1822032153045
 31
0.0
  0
LINE
  5
25D9
330
1F
100
AcDbEntity
  8
SPOJOVACÍ
  6
DASHED
100
AcDbLine
 10
195.5110338695617
 20
400.5532131334289
 30
0.0
 11
195.8811322130882
 21
400.7665210467562
 31
0.0
  0
LINE
  5
25DA
330
1F
100
AcDbEntity
  8
SPOJOVACÍ
  6
DASHED
100
AcDbLine
 10
199.1828470119312
 20
401.2924982523013
 30
0.0
 11
195.8811322130882
 21
400.1822032153045
 31
0.0
  0
LINE
  5
25DB
330
1F
100
AcDbEntity
  8
SPOJOVACÍ
  6
DASHED
100
AcDbLine
 10
199.1828470119312
 20
401.876816083753
 30
0.0
 11
195.8811322130882
 21
400.7665210467562
 31
0.0
  0
LINE
  5
25DC
330
1F
100
AcDbEntity
  8
SPOJOVACÍ
  6
DASHED
100
AcDbLine
 10
199.5538569292498
 20
401.5067177380874
 30
0.0
 11
195.5110338695617
 21
400.5532131334289
 31
0.0
  0
LINE
  5
25DD
330
1F
100
AcDbEntity
  8
SPOJOVACÍ
  6
DASHED
100
AcDbLine
 10
199.000532557266
 20
398.5523119788754
 30
0.0
 11
198.6304342094613
 21
398.3390040655481
 31
0.0
  0
LINE
  5
25DE
330
1F
100
AcDbEntity
  8
SPOJOVACÍ
  6
DASHED
100
AcDbLine
 10
199.000532557266
 20
398.5523119788754
 30
0.0
 11
198.6304342094613
 21
398.9233218969998
 31
0.0
  0
LINE
  5
25DF
330
1F
100
AcDbEntity
  8
SPOJOVACÍ
  6
DASHED
100
AcDbLine
 10
195.9467654191635
 20
397.9315312564408
 30
0.0
 11
196.31686376269
 21
397.5605213385875
 31
0.0
  0
LINE
  5
25E0
330
1F
100
AcDbEntity
  8
SPOJOVACÍ
  6
DASHED
100
AcDbLine
 10
195.9467654191635
 20
397.9315312564408
 30
0.0
 11
196.31686376269
 21
398.1448391697681
 31
0.0
  0
LINE
  5
25E1
330
1F
100
AcDbEntity
  8
SPOJOVACÍ
  6
DASHED
100
AcDbLine
 10
198.6304342094613
 20
398.3390040655481
 30
0.0
 11
196.31686376269
 21
397.5605213385875
 31
0.0
  0
LINE
  5
25E2
330
1F
100
AcDbEntity
  8
SPOJOVACÍ
  6
DASHED
100
AcDbLine
 10
198.6304342094613
 20
398.9233218969998
 30
0.0
 11
196.31686376269
 21
398.1448391697681
 31
0.0
  0
LINE
  5
25E3
330
1F
100
AcDbEntity
  8
SPOJOVACÍ
  6
DASHED
100
AcDbLine
 10
199.000532557266
 20
398.5523119788754
 30
0.0
 11
195.9467654191635
 21
397.9315312564408
 31
0.0
  0
LINE
  5
25E4
330
1F
100
AcDbEntity
  8
SPOJOVACÍ
  6
DASHED
100
AcDbLine
 10
198.447208181004
 20
395.5988177921221
 30
0.0
 11
198.0771098374775
 21
395.3845983063434
 31
0.0
  0
LINE
  5
25E5
330
1F
100
AcDbEntity
  8
SPOJOVACÍ
  6
DASHED
100
AcDbLine
 10
198.447208181004
 20
395.5988177921221
 30
0.0
 11
198.0771098374775
 21
395.9689161377878
 31
0.0
  0
LINE
  5
25E6
330
1F
100
AcDbEntity
  8
SPOJOVACÍ
  6
DASHED
100
AcDbLine
 10
196.3360067823764
 20
395.2943526506637
 30
0.0
 11
196.7061051259029
 21
394.9233427328104
 31
0.0
  0
LINE
  5
25E7
330
1F
100
AcDbEntity
  8
SPOJOVACÍ
  6
DASHED
100
AcDbLine
 10
196.3360067823764
 20
395.2943526506637
 30
0.0
 11
196.7061051259029
 21
395.5076605642548
 31
0.0
  0
LINE
  5
25E8
330
1F
100
AcDbEntity
  8
SPOJOVACÍ
  6
DASHED
100
AcDbLine
 10
198.0771098374775
 20
395.3845983063434
 30
0.0
 11
196.7061051259029
 21
394.9233427328104
 31
0.0
  0
LINE
  5
25E9
330
1F
100
AcDbEntity
  8
SPOJOVACÍ
  6
DASHED
100
AcDbLine
 10
198.0771098374775
 20
395.9689161377878
 30
0.0
 11
196.7061051259029
 21
395.5076605642548
 31
0.0
  0
LINE
  5
25EA
330
1F
100
AcDbEntity
  8
SPOJOVACÍ
  6
DASHED
100
AcDbLine
 10
198.447208181004
 20
395.5988177921221
 30
0.0
 11
196.3360067823764
 21
395.2943526506637
 31
0.0
  0
LINE
  5
25EB
330
1F
100
AcDbEntity
  8
SPOJOVACÍ
  6
DASHED
100
AcDbLine
 10
195.0990032000504
 20
409.4620090244529
 30
0.0
 11
195.4691015435769
 21
409.0909991065996
 31
0.0
  0
LINE
  5
25EC
330
1F
100
AcDbEntity
  8
SPOJOVACÍ
  6
DASHED
100
AcDbLine
 10
195.0990032000504
 20
409.4620090244529
 30
0.0
 11
195.4691015435769
 21
409.6753169380439
 31
0.0
  0
LINE
  5
25ED
330
1F
100
AcDbEntity
  8
SPOJOVACÍ
  6
DASHED
100
AcDbLine
 10
199.4326178159776
 20
410.4237177795998
 30
0.0
 11
195.4691015435769
 21
409.0909991065996
 31
0.0
  0
LINE
  5
25EE
330
1F
100
AcDbEntity
  8
SPOJOVACÍ
  6
DASHED
100
AcDbLine
 10
199.4326178159776
 20
411.0080356110516
 30
0.0
 11
195.4691015435769
 21
409.6753169380439
 31
0.0
  0
LINE
  5
25EF
330
1F
100
AcDbEntity
  8
SPOJOVACÍ
  6
DASHED
100
AcDbLine
 10
195.0990032000504
 20
406.4045955978631
 30
0.0
 11
195.4691015435769
 21
406.0335856800097
 31
0.0
  0
LINE
  5
25F0
330
1F
100
AcDbEntity
  8
SPOJOVACÍ
  6
DASHED
100
AcDbLine
 10
195.0990032000504
 20
406.4045955978631
 30
0.0
 11
195.4691015435769
 21
406.6179035111904
 31
0.0
  0
LINE
  5
25F1
330
1F
100
AcDbEntity
  8
SPOJOVACÍ
  6
DASHED
100
AcDbLine
 10
199.4326178159776
 20
407.3663043530173
 30
0.0
 11
195.4691015435769
 21
406.0335856800097
 31
0.0
  0
LINE
  5
25F2
330
1F
100
AcDbEntity
  8
SPOJOVACÍ
  6
DASHED
100
AcDbLine
 10
199.4326178159776
 20
407.9506221844617
 30
0.0
 11
195.4691015435769
 21
406.6179035111904
 31
0.0
  0
LINE
  5
25F3
330
1F
100
AcDbEntity
  8
SPOJOVACÍ
  6
DASHED
100
AcDbLine
 10
195.0990032000504
 20
403.3462705988218
 30
0.0
 11
195.4691015435769
 21
402.9761722531561
 31
0.0
  0
LINE
  5
25F4
330
1F
100
AcDbEntity
  8
SPOJOVACÍ
  6
DASHED
100
AcDbLine
 10
195.0990032000504
 20
403.3462705988218
 30
0.0
 11
195.4691015435769
 21
403.5604900846078
 31
0.0
  0
LINE
  5
25F5
330
1F
100
AcDbEntity
  8
SPOJOVACÍ
  6
DASHED
100
AcDbLine
 10
199.4326178159776
 20
404.3088909264274
 30
0.0
 11
195.4691015435769
 21
402.9761722531561
 31
0.0
  0
LINE
  5
25F6
330
1F
100
AcDbEntity
  8
SPOJOVACÍ
  6
DASHED
100
AcDbLine
 10
199.4326178159776
 20
404.8932087578791
 30
0.0
 11
195.4691015435769
 21
403.5604900846078
 31
0.0
  0
LINE
  5
25F7
330
1F
100
AcDbEntity
  8
SPOJOVACÍ
  6
DASHED
100
AcDbLine
 10
195.9057446669708
 20
422.3625799291708
 30
0.0
 11
195.3050185348061
 21
423.74816979468
 31
0.0
  0
LINE
  5
25F8
330
1F
100
AcDbEntity
  8
SPOJOVACÍ
  6
DASHED
100
AcDbLine
 10
196.1281683000365
 20
420.8694245348101
 30
0.0
 11
195.9057446669708
 21
422.3625799291708
 31
0.0
  0
LINE
  5
25F9
330
1F
100
AcDbEntity
  8
SPOJOVACÍ
  6
DASHED
100
AcDbLine
 10
198.8382726918011
 20
421.6406146834701
 30
0.0
 11
198.773551059518
 21
420.8694245348101
 31
0.0
  0
LINE
  5
25FA
330
1F
100
AcDbEntity
  8
SPOJOVACÍ
  6
DASHED
100
AcDbLine
 10
199.2575959388145
 20
423.0918377531793
 30
0.0
 11
198.8382726918011
 21
421.6406146834701
 31
0.0
  0
LINE
  5
25FB
330
1F
100
AcDbEntity
  8
SPOJOVACÍ
  6
DASHED
100
AcDbLine
 10
246.9347816284121
 20
422.3625799291708
 30
0.0
 11
247.5355077605768
 21
423.74816979468
 31
0.0
  0
LINE
  5
25FC
330
1F
100
AcDbEntity
  8
SPOJOVACÍ
  6
DASHED
100
AcDbLine
 10
246.7123579953463
 20
420.8694245348101
 30
0.0
 11
246.9347816284121
 21
422.3625799291708
 31
0.0
  0
LINE
  5
25FD
330
1F
100
AcDbEntity
  8
SPOJOVACÍ
  6
DASHED
100
AcDbLine
 10
244.0022536035817
 20
421.6406146834701
 30
0.0
 11
244.0669752358648
 21
420.8694245348101
 31
0.0
  0
LINE
  5
25FE
330
1F
100
AcDbEntity
  8
SPOJOVACÍ
  6
DASHED
100
AcDbLine
 10
243.5829303565683
 20
423.0918377531793
 30
0.0
 11
244.0022536035817
 21
421.6406146834701
 31
0.0
  0
LINE
  5
25FF
330
1F
100
AcDbEntity
  8
SPOJOVACÍ
  6
DASHED
100
AcDbLine
 10
246.7123579953463
 20
420.8694245348101
 30
0.0
 11
246.7123579953463
 21
416.0253294394602
 31
0.0
  0
LINE
  5
2600
330
1F
100
AcDbEntity
  8
SPOJOVACÍ
  6
DASHED
100
AcDbLine
 10
244.0669752358648
 20
420.8694245348101
 30
0.0
 11
244.0669752358648
 21
416.9122892677237
 31
0.0
  0
LINE
  5
2601
330
1F
100
AcDbEntity
  8
SPOJOVACÍ
  6
DASHED
100
AcDbLine
 10
244.0669752358648
 20
416.3288830087308
 30
0.0
 11
244.0669752358648
 21
413.8603452748025
 31
0.0
  0
LINE
  5
2602
330
1F
100
AcDbEntity
  8
SPOJOVACÍ
  6
DASHED
100
AcDbLine
 10
244.0669752358648
 20
413.2687348653139
 30
0.0
 11
244.0669752358648
 21
410.7983739867391
 31
0.0
  0
LINE
  5
2603
330
1F
100
AcDbEntity
  8
SPOJOVACÍ
  6
DASHED
100
AcDbLine
 10
244.0669752358648
 20
410.2158792999339
 30
0.0
 11
244.0669752358648
 21
407.7382258433222
 31
0.0
  0
LINE
  5
2604
330
1F
100
AcDbEntity
  8
SPOJOVACÍ
  6
DASHED
100
AcDbLine
 10
246.7123579953463
 20
415.4337190299716
 30
0.0
 11
246.7123579953463
 21
412.9651812960433
 31
0.0
  0
LINE
  5
2605
330
1F
100
AcDbEntity
  8
SPOJOVACÍ
  6
DASHED
100
AcDbLine
 10
246.7123579953463
 20
412.3808634645915
 30
0.0
 11
246.7123579953463
 21
409.9032100079798
 31
0.0
  0
LINE
  5
2606
330
1F
100
AcDbEntity
  8
SPOJOVACÍ
  6
DASHED
100
AcDbLine
 10
246.7123579953463
 20
409.3207153211746
 30
0.0
 11
246.7123579953463
 21
406.8503544425998
 31
0.0
  0
LINE
  5
2607
330
1F
100
AcDbEntity
  8
SPOJOVACÍ
  6
DASHED
100
AcDbLine
 10
244.0669752358648
 20
407.1457038613821
 30
0.0
 11
244.0669752358648
 21
404.6780776996415
 31
0.0
  0
LINE
  5
2608
330
1F
100
AcDbEntity
  8
SPOJOVACÍ
  6
DASHED
100
AcDbLine
 10
244.0669752358648
 20
404.0937598681898
 30
0.0
 11
244.0669752358648
 21
402.871341441139
 31
0.0
  0
LINE
  5
2609
330
1F
100
AcDbEntity
  8
SPOJOVACÍ
  6
DASHED
100
AcDbLine
 10
246.7123579953463
 20
406.2614787499455
 30
0.0
 11
246.7123579953463
 21
403.7929410160172
 31
0.0
  0
LINE
  5
260A
330
1F
100
AcDbEntity
  8
SPOJOVACÍ
  6
DASHED
100
AcDbLine
 10
246.7123579953463
 20
403.2013306062649
 30
0.0
 11
246.7123579953463
 21
402.871341441139
 31
0.0
  0
LINE
  5
260B
330
1F
100
AcDbEntity
  8
SPOJOVACÍ
  6
DASHED
100
AcDbLine
 10
244.0669752358648
 20
402.871341441139
 30
0.0
 11
244.2137383725334
 21
401.6981479167693
 31
0.0
  0
LINE
  5
260C
330
1F
100
AcDbEntity
  8
SPOJOVACÍ
  6
DASHED
100
AcDbLine
 10
245.3896666134665
 20
392.2870756994848
 30
0.0
 11
245.7369756549728
 21
395.0664595807279
 31
0.0
  0
LINE
  5
260D
330
1F
100
AcDbEntity
  8
SPOJOVACÍ
  6
DASHED
100
AcDbLine
 10
244.2893988732089
 20
401.090129206033
 30
0.0
 11
244.573809425738
 21
398.8148447956896
 31
0.0
  0
LINE
  5
260E
330
1F
100
AcDbEntity
  8
SPOJOVACÍ
  6
DASHED
100
AcDbLine
 10
244.6512930697195
 20
398.1967987898183
 30
0.0
 11
244.9357036179703
 21
395.92242595167
 31
0.0
  0
LINE
  5
260F
330
1F
100
AcDbEntity
  8
SPOJOVACÍ
  6
DASHED
100
AcDbLine
 10
245.0113641186458
 20
395.3144072409336
 30
0.0
 11
245.3896666134665
 21
392.2870756994848
 31
0.0
  0
LINE
  5
2610
330
1F
100
AcDbEntity
  8
SPOJOVACÍ
  6
DASHED
100
AcDbLine
 10
245.8071667214521
 20
395.6243418160534
 30
0.0
 11
246.0696995371967
 21
397.7264274933381
 31
0.0
  0
LINE
  5
2611
330
1F
100
AcDbEntity
  8
SPOJOVACÍ
  6
DASHED
100
AcDbLine
 10
246.1398905993978
 20
398.2870444454979
 30
0.0
 11
246.4015118456286
 21
400.3809259722943
 31
0.0
  0
LINE
  5
2612
330
1F
100
AcDbEntity
  8
SPOJOVACÍ
  6
DASHED
100
AcDbLine
 10
246.4717029121079
 20
400.9397197800785
 30
0.0
 11
246.7123579953463
 21
402.871341441139
 31
0.0
  0
LINE
  5
2613
330
1F
100
AcDbEntity
  8
SPOJOVACÍ
  6
DASHED
100
AcDbLine
 10
243.0378101316005
 20
416.7527641188221
 30
0.0
 11
247.7415230953324
 21
415.5768358778891
 31
0.0
  0
LINE
  5
2614
330
1F
100
AcDbEntity
  8
SPOJOVACÍ
  6
DASHED
100
AcDbLine
 10
243.0378101316005
 20
416.7527641188221
 30
0.0
 11
243.4079084794052
 21
416.5394562054948
 31
0.0
  0
LINE
  5
2615
330
1F
100
AcDbEntity
  8
SPOJOVACÍ
  6
DASHED
100
AcDbLine
 10
243.0378101316005
 20
416.7527641188221
 30
0.0
 11
243.4079084794052
 21
417.1237740366755
 31
0.0
  0
LINE
  5
2616
330
1F
100
AcDbEntity
  8
SPOJOVACÍ
  6
DASHED
100
AcDbLine
 10
247.7415230953324
 20
415.5768358778891
 30
0.0
 11
247.371424751806
 21
415.2067375322235
 31
0.0
  0
LINE
  5
2617
330
1F
100
AcDbEntity
  8
SPOJOVACÍ
  6
DASHED
100
AcDbLine
 10
247.7415230953324
 20
415.5768358778891
 30
0.0
 11
247.371424751806
 21
415.7910553636752
 31
0.0
  0
LINE
  5
2618
330
1F
100
AcDbEntity
  8
SPOJOVACÍ
  6
DASHED
100
AcDbLine
 10
243.4079084794052
 20
416.5394562054948
 30
0.0
 11
247.371424751806
 21
415.2067375322235
 31
0.0
  0
LINE
  5
2619
330
1F
100
AcDbEntity
  8
SPOJOVACÍ
  6
DASHED
100
AcDbLine
 10
243.4079084794052
 20
417.1237740366755
 30
0.0
 11
247.371424751806
 21
415.7910553636752
 31
0.0
  0
LINE
  5
261A
330
1F
100
AcDbEntity
  8
SPOJOVACÍ
  6
DASHED
100
AcDbLine
 10
243.0378101316005
 20
413.6953506922395
 30
0.0
 11
247.7415230953324
 21
412.5194224510355
 31
0.0
  0
LINE
  5
261B
330
1F
100
AcDbEntity
  8
SPOJOVACÍ
  6
DASHED
100
AcDbLine
 10
243.0378101316005
 20
413.6953506922395
 30
0.0
 11
243.4079084794052
 21
413.4811312064535
 31
0.0
  0
LINE
  5
261C
330
1F
100
AcDbEntity
  8
SPOJOVACÍ
  6
DASHED
100
AcDbLine
 10
243.0378101316005
 20
413.6953506922395
 30
0.0
 11
243.4079084794052
 21
414.0654490379051
 31
0.0
  0
LINE
  5
261D
330
1F
100
AcDbEntity
  8
SPOJOVACÍ
  6
DASHED
100
AcDbLine
 10
247.7415230953324
 20
412.5194224510355
 30
0.0
 11
247.371424751806
 21
412.1493241056409
 31
0.0
  0
LINE
  5
261E
330
1F
100
AcDbEntity
  8
SPOJOVACÍ
  6
DASHED
100
AcDbLine
 10
247.7415230953324
 20
412.5194224510355
 30
0.0
 11
247.371424751806
 21
412.7336419368216
 31
0.0
  0
LINE
  5
261F
330
1F
100
AcDbEntity
  8
SPOJOVACÍ
  6
DASHED
100
AcDbLine
 10
243.4079084794052
 20
413.4811312064535
 30
0.0
 11
247.371424751806
 21
412.1493241056409
 31
0.0
  0
LINE
  5
2620
330
1F
100
AcDbEntity
  8
SPOJOVACÍ
  6
DASHED
100
AcDbLine
 10
243.4079084794052
 20
414.0654490379051
 30
0.0
 11
247.371424751806
 21
412.7336419368216
 31
0.0
  0
LINE
  5
2621
330
1F
100
AcDbEntity
  8
SPOJOVACÍ
  6
DASHED
100
AcDbLine
 10
243.286669366133
 20
401.5067177380874
 30
0.0
 11
243.6576792834516
 21
401.2924982523013
 31
0.0
  0
LINE
  5
2622
330
1F
100
AcDbEntity
  8
SPOJOVACÍ
  6
DASHED
100
AcDbLine
 10
243.286669366133
 20
401.5067177380874
 30
0.0
 11
243.6576792834516
 21
401.876816083753
 31
0.0
  0
LINE
  5
2623
330
1F
100
AcDbEntity
  8
SPOJOVACÍ
  6
DASHED
100
AcDbLine
 10
247.3294924258211
 20
400.5532131334289
 30
0.0
 11
246.9593940822946
 21
400.1822032153045
 31
0.0
  0
LINE
  5
2624
330
1F
100
AcDbEntity
  8
SPOJOVACÍ
  6
DASHED
100
AcDbLine
 10
247.3294924258211
 20
400.5532131334289
 30
0.0
 11
246.9593940822946
 21
400.7665210467562
 31
0.0
  0
LINE
  5
2625
330
1F
100
AcDbEntity
  8
SPOJOVACÍ
  6
DASHED
100
AcDbLine
 10
243.6576792834516
 20
401.2924982523013
 30
0.0
 11
246.9593940822946
 21
400.1822032153045
 31
0.0
  0
LINE
  5
2626
330
1F
100
AcDbEntity
  8
SPOJOVACÍ
  6
DASHED
100
AcDbLine
 10
243.6576792834516
 20
401.876816083753
 30
0.0
 11
246.9593940822946
 21
400.7665210467562
 31
0.0
  0
LINE
  5
2627
330
1F
100
AcDbEntity
  8
SPOJOVACÍ
  6
DASHED
100
AcDbLine
 10
243.286669366133
 20
401.5067177380874
 30
0.0
 11
247.3294924258211
 21
400.5532131334289
 31
0.0
  0
LINE
  5
2628
330
1F
100
AcDbEntity
  8
SPOJOVACÍ
  6
DASHED
100
AcDbLine
 10
243.8399937381168
 20
398.5523119788754
 30
0.0
 11
244.2100920859215
 21
398.3390040655481
 31
0.0
  0
LINE
  5
2629
330
1F
100
AcDbEntity
  8
SPOJOVACÍ
  6
DASHED
100
AcDbLine
 10
243.8399937381168
 20
398.5523119788754
 30
0.0
 11
244.2100920859215
 21
398.9233218969998
 31
0.0
  0
LINE
  5
262A
330
1F
100
AcDbEntity
  8
SPOJOVACÍ
  6
DASHED
100
AcDbLine
 10
246.8937608762193
 20
397.9315312564408
 30
0.0
 11
246.5236625326929
 21
397.5605213385875
 31
0.0
  0
LINE
  5
262B
330
1F
100
AcDbEntity
  8
SPOJOVACÍ
  6
DASHED
100
AcDbLine
 10
246.8937608762193
 20
397.9315312564408
 30
0.0
 11
246.5236625326929
 21
398.1448391697681
 31
0.0
  0
LINE
  5
262C
330
1F
100
AcDbEntity
  8
SPOJOVACÍ
  6
DASHED
100
AcDbLine
 10
244.2100920859215
 20
398.3390040655481
 30
0.0
 11
246.5236625326929
 21
397.5605213385875
 31
0.0
  0
LINE
  5
262D
330
1F
100
AcDbEntity
  8
SPOJOVACÍ
  6
DASHED
100
AcDbLine
 10
244.2100920859215
 20
398.9233218969998
 30
0.0
 11
246.5236625326929
 21
398.1448391697681
 31
0.0
  0
LINE
  5
262E
330
1F
100
AcDbEntity
  8
SPOJOVACÍ
  6
DASHED
100
AcDbLine
 10
243.8399937381168
 20
398.5523119788754
 30
0.0
 11
246.8937608762193
 21
397.9315312564408
 31
0.0
  0
LINE
  5
262F
330
1F
100
AcDbEntity
  8
SPOJOVACÍ
  6
DASHED
100
AcDbLine
 10
244.3933181143788
 20
395.5988177921221
 30
0.0
 11
244.7634164579053
 21
395.3845983063434
 31
0.0
  0
LINE
  5
2630
330
1F
100
AcDbEntity
  8
SPOJOVACÍ
  6
DASHED
100
AcDbLine
 10
244.3933181143788
 20
395.5988177921221
 30
0.0
 11
244.7634164579053
 21
395.9689161377878
 31
0.0
  0
LINE
  5
2631
330
1F
100
AcDbEntity
  8
SPOJOVACÍ
  6
DASHED
100
AcDbLine
 10
246.5045195130064
 20
395.2943526506637
 30
0.0
 11
246.1344211694799
 21
394.9233427328104
 31
0.0
  0
LINE
  5
2632
330
1F
100
AcDbEntity
  8
SPOJOVACÍ
  6
DASHED
100
AcDbLine
 10
246.5045195130064
 20
395.2943526506637
 30
0.0
 11
246.1344211694799
 21
395.5076605642548
 31
0.0
  0
LINE
  5
2633
330
1F
100
AcDbEntity
  8
SPOJOVACÍ
  6
DASHED
100
AcDbLine
 10
244.7634164579053
 20
395.3845983063434
 30
0.0
 11
246.1344211694799
 21
394.9233427328104
 31
0.0
  0
LINE
  5
2634
330
1F
100
AcDbEntity
  8
SPOJOVACÍ
  6
DASHED
100
AcDbLine
 10
244.7634164579053
 20
395.9689161377878
 30
0.0
 11
246.1344211694799
 21
395.5076605642548
 31
0.0
  0
LINE
  5
2635
330
1F
100
AcDbEntity
  8
SPOJOVACÍ
  6
DASHED
100
AcDbLine
 10
244.3933181143788
 20
395.5988177921221
 30
0.0
 11
246.5045195130064
 21
395.2943526506637
 31
0.0
  0
LINE
  5
2636
330
1F
100
AcDbEntity
  8
SPOJOVACÍ
  6
DASHED
100
AcDbLine
 10
243.0378101316005
 20
410.637937265386
 30
0.0
 11
247.7415230953324
 21
409.4620090244529
 31
0.0
  0
LINE
  5
2637
330
1F
100
AcDbEntity
  8
SPOJOVACÍ
  6
DASHED
100
AcDbLine
 10
243.0378101316005
 20
410.637937265386
 30
0.0
 11
243.4079084794052
 21
410.4237177795998
 31
0.0
  0
LINE
  5
2638
330
1F
100
AcDbEntity
  8
SPOJOVACÍ
  6
DASHED
100
AcDbLine
 10
243.0378101316005
 20
410.637937265386
 30
0.0
 11
243.4079084794052
 21
411.0080356110516
 31
0.0
  0
LINE
  5
2639
330
1F
100
AcDbEntity
  8
SPOJOVACÍ
  6
DASHED
100
AcDbLine
 10
247.7415230953324
 20
409.4620090244529
 30
0.0
 11
247.371424751806
 21
409.0909991065996
 31
0.0
  0
LINE
  5
263A
330
1F
100
AcDbEntity
  8
SPOJOVACÍ
  6
DASHED
100
AcDbLine
 10
247.7415230953324
 20
409.4620090244529
 30
0.0
 11
247.371424751806
 21
409.6753169380439
 31
0.0
  0
LINE
  5
263B
330
1F
100
AcDbEntity
  8
SPOJOVACÍ
  6
DASHED
100
AcDbLine
 10
243.4079084794052
 20
410.4237177795998
 30
0.0
 11
247.371424751806
 21
409.0909991065996
 31
0.0
  0
LINE
  5
263C
330
1F
100
AcDbEntity
  8
SPOJOVACÍ
  6
DASHED
100
AcDbLine
 10
243.4079084794052
 20
411.0080356110516
 30
0.0
 11
247.371424751806
 21
409.6753169380439
 31
0.0
  0
LINE
  5
263D
330
1F
100
AcDbEntity
  8
SPOJOVACÍ
  6
DASHED
100
AcDbLine
 10
243.0378101316005
 20
407.5805238387961
 30
0.0
 11
247.7415230953324
 21
406.4045955978631
 31
0.0
  0
LINE
  5
263E
330
1F
100
AcDbEntity
  8
SPOJOVACÍ
  6
DASHED
100
AcDbLine
 10
243.0378101316005
 20
407.5805238387961
 30
0.0
 11
243.4079084794052
 21
407.3663043530173
 31
0.0
  0
LINE
  5
263F
330
1F
100
AcDbEntity
  8
SPOJOVACÍ
  6
DASHED
100
AcDbLine
 10
243.0378101316005
 20
407.5805238387961
 30
0.0
 11
243.4079084794052
 21
407.9506221844617
 31
0.0
  0
LINE
  5
2640
330
1F
100
AcDbEntity
  8
SPOJOVACÍ
  6
DASHED
100
AcDbLine
 10
247.7415230953324
 20
406.4045955978631
 30
0.0
 11
247.371424751806
 21
406.0335856800097
 31
0.0
  0
LINE
  5
2641
330
1F
100
AcDbEntity
  8
SPOJOVACÍ
  6
DASHED
100
AcDbLine
 10
247.7415230953324
 20
406.4045955978631
 30
0.0
 11
247.371424751806
 21
406.6179035111904
 31
0.0
  0
LINE
  5
2642
330
1F
100
AcDbEntity
  8
SPOJOVACÍ
  6
DASHED
100
AcDbLine
 10
243.4079084794052
 20
407.3663043530173
 30
0.0
 11
247.371424751806
 21
406.0335856800097
 31
0.0
  0
LINE
  5
2643
330
1F
100
AcDbEntity
  8
SPOJOVACÍ
  6
DASHED
100
AcDbLine
 10
243.4079084794052
 20
407.9506221844617
 30
0.0
 11
247.371424751806
 21
406.6179035111904
 31
0.0
  0
LINE
  5
2644
330
1F
100
AcDbEntity
  8
SPOJOVACÍ
  6
DASHED
100
AcDbLine
 10
243.0378101316005
 20
404.5221988397547
 30
0.0
 11
247.7415230953324
 21
403.3462705988218
 31
0.0
  0
LINE
  5
2645
330
1F
100
AcDbEntity
  8
SPOJOVACÍ
  6
DASHED
100
AcDbLine
 10
243.0378101316005
 20
404.5221988397547
 30
0.0
 11
243.4079084794052
 21
404.3088909264274
 31
0.0
  0
LINE
  5
2646
330
1F
100
AcDbEntity
  8
SPOJOVACÍ
  6
DASHED
100
AcDbLine
 10
243.0378101316005
 20
404.5221988397547
 30
0.0
 11
243.4079084794052
 21
404.8932087578791
 31
0.0
  0
LINE
  5
2647
330
1F
100
AcDbEntity
  8
SPOJOVACÍ
  6
DASHED
100
AcDbLine
 10
247.7415230953324
 20
403.3462705988218
 30
0.0
 11
247.371424751806
 21
402.9761722531561
 31
0.0
  0
LINE
  5
2648
330
1F
100
AcDbEntity
  8
SPOJOVACÍ
  6
DASHED
100
AcDbLine
 10
247.7415230953324
 20
403.3462705988218
 30
0.0
 11
247.371424751806
 21
403.5604900846078
 31
0.0
  0
LINE
  5
2649
330
1F
100
AcDbEntity
  8
SPOJOVACÍ
  6
DASHED
100
AcDbLine
 10
243.4079084794052
 20
404.3088909264274
 30
0.0
 11
247.371424751806
 21
402.9761722531561
 31
0.0
  0
LINE
  5
264A
330
1F
100
AcDbEntity
  8
SPOJOVACÍ
  6
DASHED
100
AcDbLine
 10
243.4079084794052
 20
404.8932087578791
 30
0.0
 11
247.371424751806
 21
403.5604900846078
 31
0.0
  0
HATCH
  5
264B
330
1F
100
AcDbEntity
  8
izolace
100
AcDbHatch
 10
0.0
 20
0.0
 30
0.0
210
0.0
220
0.0
230
1.0
  2
SOLID
 70
     1
 71
     0
 91
        1
 92
        7
 72
     0
 73
     1
 93
        4
 10
190.1262352932484
 20
383.3370298604764
 10
190.1262352932484
 20
380.3370298604763
 10
213.7679680030872
 20
380.3370298604763
 10
213.7679680030872
 20
383.3370298604764
 97
        0
 75
     0
 76
     1
 47
0.1901250437635136
 98
        1
 10
199.4840300515919
 20
382.5202183093965
  0
LWPOLYLINE
  5
264C
330
1F
100
AcDbEntity
  8
izolace
100
AcDbPolyline
 90
        4
 70
     1
 43
0.0
 10
213.7679680030836
 20
383.3370298604764
 10
190.1262352932484
 20
383.3370298604764
 10
190.1262352932484
 20
380.3370298604763
 10
213.7679680030836
 20
380.3370298604763
  0
HATCH
  5
264D
330
1F
100
AcDbEntity
  8
izolace
100
AcDbHatch
 10
0.0
 20
0.0
 30
0.0
210
0.0
220
0.0
230
1.0
  2
SOLID
 70
     1
 71
     0
 91
        1
 92
        7
 72
     0
 73
     1
 93
        4
 10
237.4097007129188
 20
383.3370298604764
 10
237.4097007129224
 20
380.3370298604763
 10
261.0514334227576
 20
380.3370298604763
 10
261.0514334227576
 20
383.3370298604764
 97
        0
 75
     0
 76
     1
 47
0.1901250437635136
 98
        1
 10
246.7674954712623
 20
382.5202183093965
  0
LWPOLYLINE
  5
264E
330
1F
100
AcDbEntity
  8
izolace
100
AcDbPolyline
 90
        4
 70
     1
 43
0.0
 10
261.051433422754
 20
383.3370298604764
 10
237.4097007129188
 20
383.3370298604764
 10
237.4097007129188
 20
380.3370298604763
 10
261.051433422754
 20
380.3370298604763
  0
LINE
  5
264F
330
1F
100
AcDbEntity
  8
SPOJOVACÍ
  6
DASHED
100
AcDbLine
 10
192.4527088710551
 20
427.3370298604763
 30
0.0
 11
192.4527088710551
 21
426.1611016192796
 31
0.0
  0
LINE
  5
2650
330
1F
100
AcDbEntity
  8
SPOJOVACÍ
  6
DASHED
100
AcDbLine
 10
202.4490104927776
 20
427.3370298604763
 30
0.0
 11
192.4527088710551
 21
427.3370298604763
 31
0.0
  0
LINE
  5
2651
330
1F
100
AcDbEntity
  8
SPOJOVACÍ
  6
DASHED
100
AcDbLine
 10
202.4490104927776
 20
427.3370298604763
 30
0.0
 11
202.4490104927776
 21
426.1611016192796
 31
0.0
  0
LINE
  5
2652
330
1F
100
AcDbEntity
  8
SPOJOVACÍ
  6
DASHED
100
AcDbLine
 10
202.4490104927776
 20
426.1611016192796
 30
0.0
 11
192.4527088710551
 21
426.1611016192796
 31
0.0
  0
LINE
  5
2653
330
1F
100
AcDbEntity
  8
SPOJOVACÍ
  6
DASHED
100
AcDbLine
 10
193.1537079534996
 20
425.8311124541537
 30
0.0
 11
192.4527088710551
 21
426.1611016192796
 31
0.0
  0
LINE
  5
2654
330
1F
100
AcDbEntity
  8
SPOJOVACÍ
  6
DASHED
100
AcDbLine
 10
194.3660990862213
 20
424.9313906139209
 30
0.0
 11
193.1537079534996
 21
425.8311124541537
 31
0.0
  0
LINE
  5
2655
330
1F
100
AcDbEntity
  8
SPOJOVACÍ
  6
DASHED
100
AcDbLine
 10
201.1263191108978
 20
425.4318437955348
 30
0.0
 11
200.0379018085463
 21
424.3844472459109
 31
0.0
  0
LINE
  5
2656
330
1F
100
AcDbEntity
  8
SPOJOVACÍ
  6
DASHED
100
AcDbLine
 10
202.4490104927776
 20
426.1611016192796
 30
0.0
 11
201.1263191108978
 21
425.4318437955348
 31
0.0
  0
LINE
  5
2657
330
1F
100
AcDbEntity
  8
SPOJOVACÍ
  6
DASHED
100
AcDbLine
 10
250.3878174243277
 20
427.3370298604763
 30
0.0
 11
250.3878174243277
 21
426.1611016192796
 31
0.0
  0
LINE
  5
2658
330
1F
100
AcDbEntity
  8
SPOJOVACÍ
  6
DASHED
100
AcDbLine
 10
240.3915158026052
 20
427.3370298604763
 30
0.0
 11
250.3878174243277
 21
427.3370298604763
 31
0.0
  0
LINE
  5
2659
330
1F
100
AcDbEntity
  8
SPOJOVACÍ
  6
DASHED
100
AcDbLine
 10
240.3915158026052
 20
427.3370298604763
 30
0.0
 11
240.3915158026052
 21
426.1611016192796
 31
0.0
  0
LINE
  5
265A
330
1F
100
AcDbEntity
  8
SPOJOVACÍ
  6
DASHED
100
AcDbLine
 10
240.3915158026052
 20
426.1611016192796
 30
0.0
 11
250.3878174243277
 21
426.1611016192796
 31
0.0
  0
LINE
  5
265B
330
1F
100
AcDbEntity
  8
SPOJOVACÍ
  6
DASHED
100
AcDbLine
 10
249.6868183418832
 20
425.8311124541537
 30
0.0
 11
250.3878174243277
 21
426.1611016192796
 31
0.0
  0
LINE
  5
265C
330
1F
100
AcDbEntity
  8
SPOJOVACÍ
  6
DASHED
100
AcDbLine
 10
248.4744272091615
 20
424.9313906139209
 30
0.0
 11
249.6868183418832
 21
425.8311124541537
 31
0.0
  0
LINE
  5
265D
330
1F
100
AcDbEntity
  8
SPOJOVACÍ
  6
DASHED
100
AcDbLine
 10
241.714207184485
 20
425.4318437955348
 30
0.0
 11
242.8026244868365
 21
424.3844472459109
 31
0.0
  0
LINE
  5
265E
330
1F
100
AcDbEntity
  8
SPOJOVACÍ
  6
DASHED
100
AcDbLine
 10
240.3915158026052
 20
426.1611016192796
 30
0.0
 11
241.714207184485
 21
425.4318437955348
 31
0.0
  0
TEXT
  5
265F
330
1F
100
AcDbEntity
  8
POPIS
100
AcDbText
 10
854.0907492458778
 20
583.5044591836735
 30
0.0
 40
25.0
  1
03
 41
0.85
  7
SIMPLEX7
100
AcDbText
  0
TEXT
  5
2660
330
1F
100
AcDbEntity
  8
POPIS
100
AcDbText
 10
854.0907492458778
 20
546.9094475680463
 30
0.0
 40
25.0
  1
04
 41
0.85
  7
SIMPLEX7
100
AcDbText
  0
LINE
  5
2661
330
1F
100
AcDbEntity
  8
izolace
  6
IZOLACE
 48
0.95
100
AcDbLine
 10
491.075430170395
 20
393.3370298604764
 30
0.0
 11
736.0910495380253
 21
393.3370298604764
 31
0.0
  0
LINE
  5
2662
330
1F
100
AcDbEntity
  8
CETRIS
100
AcDbLine
 10
431.075430170395
 20
415.3370298604763
 30
0.0
 11
736.0910495380217
 21
415.3370298604763
 31
0.0
  0
LINE
  5
2663
330
1F
100
AcDbEntity
  8
CETRIS
100
AcDbLine
 10
453.575430170395
 20
403.3370298604763
 30
0.0
 11
736.0910495380217
 21
403.3370298604763
 31
0.0
  0
LWPOLYLINE
  5
2664
330
1F
100
AcDbEntity
  8
nášlap_vrstvy
100
AcDbPolyline
 90
        4
 70
     0
 43
0.0
 10
428.8941898268697
 20
429.9587902229936
 10
736.091049538018
 20
429.9587902229936
 10
736.091049538018
 20
434.2972792489413
 10
428.8941898268697
 20
434.2972792489413
  0
LINE
  5
2665
330
1F
100
AcDbEntity
  8
SPOJOVACÍ
  6
DASHED
100
AcDbLine
 10
396.0811329444209
 20
424.3844472459109
 30
0.0
 11
396.8614388141527
 21
423.0918377531793
 31
0.0
  0
LINE
  5
2666
330
1F
100
AcDbEntity
  8
SPOJOVACÍ
  6
DASHED
100
AcDbLine
 10
400.8140162181612
 20
423.74816979468
 30
0.0
 11
401.7529356667459
 21
424.9313906139209
 31
0.0
  0
LINE
  5
2667
330
1F
100
AcDbEntity
  8
POPIS
100
AcDbLine
 10
571.0953709804766
 20
499.6304886136636
 30
0.0
 11
571.0953709804766
 21
420.2828445304053
 31
0.0
  0
LWPOLYLINE
  5
2668
330
1F
100
AcDbEntity
  8
izolace
100
AcDbPolyline
 90
        4
 70
     1
 43
0.0
 10
416.0754301703949
 20
427.3370298604763
 10
431.075430170395
 20
427.3370298604763
 10
431.075430170395
 20
383.3370298604764
 10
416.0754301703949
 20
383.3370298604764
  0
LINE
  5
2669
330
1F
100
AcDbEntity
  8
SPOJOVACÍ
  6
DASHED
100
AcDbLine
 10
446.3368441226289
 20
423.74816979468
 30
0.0
 11
445.3979246740441
 21
424.9313906139209
 31
0.0
  0
LINE
  5
266A
330
1F
100
AcDbEntity
  8
SPOJOVACÍ
  6
DASHED
100
AcDbLine
 10
451.0697273963692
 20
424.3844472459109
 30
0.0
 11
450.2894215266374
 21
423.0918377531793
 31
0.0
  0
LINE
  5
266B
330
1F
100
AcDbEntity
  8
izolace
  6
IZOLACE
 48
0.7
100
AcDbLine
 10
423.575430170395
 20
383.3370298604764
 30
0.0
 11
423.575430170395
 21
427.3370298604763
 31
0.0
  0
HATCH
  5
266C
330
1F
100
AcDbEntity
  8
izolace
100
AcDbHatch
 10
0.0
 20
0.0
 30
0.0
210
0.0
220
0.0
230
1.0
  2
SOLID
 70
     1
 71
     0
 91
        1
 92
        7
 72
     0
 73
     1
 93
        4
 10
426.5435623916004
 20
383.3370298604764
 10
426.543562391604
 20
380.3370298604763
 10
450.1852951014392
 20
380.3370298604763
 10
450.1852951014392
 20
383.3370298604764
 97
        0
 75
     0
 76
     1
 47
0.1901250437635136
 98
        1
 10
435.9013571499438
 20
382.5202183093965
  0
LWPOLYLINE
  5
266D
330
1F
100
AcDbEntity
  8
izolace
100
AcDbPolyline
 90
        4
 70
     1
 43
0.0
 10
450.1852951014355
 20
383.3370298604764
 10
426.5435623916004
 20
383.3370298604764
 10
426.5435623916004
 20
380.3370298604763
 10
450.1852951014355
 20
380.3370298604763
  0
LWPOLYLINE
  5
266E
330
1F
100
AcDbEntity
  8
izolace
100
AcDbPolyline
 90
        4
 70
     1
 43
0.0
 10
431.075430170395
 20
383.3370298604764
 10
491.0754301703949
 20
383.3370298604764
 10
491.0754301703949
 20
403.3370298604763
 10
431.075430170395
 20
403.3370298604763
  0
LWPOLYLINE
  5
266F
330
1F
100
AcDbEntity
  8
STAVBA OBRYS
100
AcDbPolyline
 90
        8
 70
     0
 43
0.0
 10
455.1177140290186
 20
403.3370298604763
 42
-0.0168162630274195
 10
454.9826884499546
 20
401.6459917083571
 42
-0.0575155827655532
 10
454.3026561696118
 20
398.5463670476397
 42
-0.0310289133982999
 10
451.2998548247836
 20
391.301339522995
 42
-0.0882970623535771
 10
449.6626329046907
 20
389.0609704721951
 42
-0.0171636441953577
 10
446.8492688428326
 20
386.5470531169498
 42
-0.0157521173632038
 10
443.6104140057962
 20
384.0155570644433
 42
-0.0014948023799519
 10
442.6777021582842
 20
383.3370298604764
 42
-0.0014948023799519
  0
POLYLINE
  5
2670
330
1F
100
AcDbEntity
  8
STAVBA OBRYS
100
AcDb2dPolyline
 66
     1
 10
0.0
 20
0.0
 30
0.0
  0
VERTEX
  5
2671
330
2670
100
AcDbEntity
  8
STAVBA OBRYS
100
AcDbVertex
100
AcDb2dVertex
 10
448.1679360053335
 20
403.3370298604745
 30
0.0
 42
-0.0072417954699014
  0
VERTEX
  5
2672
330
2670
100
AcDbEntity
  8
STAVBA OBRYS
100
AcDbVertex
100
AcDb2dVertex
 10
448.1123656374897
 20
402.9256246492
 30
0.0
 42
-0.0707158694326265
  0
VERTEX
  5
2673
330
2670
100
AcDbEntity
  8
STAVBA OBRYS
100
AcDbVertex
100
AcDb2dVertex
 10
447.5812391210697
 20
400.9895211966063
 30
0.0
 42
-0.033952657250207
  0
VERTEX
  5
2674
330
2670
100
AcDbEntity
  8
STAVBA OBRYS
100
AcDbVertex
100
AcDb2dVertex
 10
445.3325832816613
 20
396.6364834714326
 30
0.0
 42
-0.0571374688189033
  0
VERTEX
  5
2675
330
2670
100
AcDbEntity
  8
STAVBA OBRYS
100
AcDbVertex
100
AcDb2dVertex
 10
443.5464265218093
 20
394.3295591877463
 30
0.0
 42
-0.0274923553235744
  0
VERTEX
  5
2676
330
2670
100
AcDbEntity
  8
STAVBA OBRYS
100
AcDbVertex
100
AcDb2dVertex
 10
440.9491207912565
 20
391.9444838646118
 30
0.0
 42
-0.0255412025538677
  0
VERTEX
  5
2677
330
2670
100
AcDbEntity
  8
STAVBA OBRYS
100
AcDbVertex
100
AcDb2dVertex
 10
437.8976907535457
 20
389.6877701875924
 30
0.0
 42
-0.0272796991712396
  0
VERTEX
  5
2678
330
2670
100
AcDbEntity
  8
STAVBA OBRYS
100
AcDbVertex
100
AcDb2dVertex
 10
433.7846916003605
 20
387.2714343059301
 30
0.0
 42
-0.056967459841729
  0
VERTEX
  5
2679
330
2670
100
AcDbEntity
  8
STAVBA OBRYS
100
AcDbVertex
100
AcDb2dVertex
 10
431.6437443196287
 20
386.4586984707307
 30
0.0
 42
-0.0373408083348504
  0
VERTEX
  5
267A
330
2670
100
AcDbEntity
  8
STAVBA OBRYS
100
AcDbVertex
100
AcDb2dVertex
 10
431.4213899441551
 20
386.4195329297795
 30
0.0
 42
-0.0052305969362967
  0
VERTEX
  5
267B
330
2670
100
AcDbEntity
  8
STAVBA OBRYS
100
AcDbVertex
100
AcDb2dVertex
 10
431.075430170395
 20
386.3885759628751
 30
0.0
  0
SEQEND
  5
267C
330
2670
100
AcDbEntity
  8
STAVBA OBRYS
  0
LWPOLYLINE
  5
267D
330
1F
100
AcDbEntity
  8
STAVBA OBRYS
100
AcDbPolyline
 90
        3
 70
     0
 43
0.0
 10
437.7838276280985
 20
397.8196991649579
 10
454.5390452478263
 20
389.4359582969896
 10
460.6273901846528
 20
383.3370298604764
  0
LINE
  5
267E
330
1F
100
AcDbEntity
  8
SPOJOVACÍ
  6
DASHED
100
AcDbLine
 10
396.6864169369896
 20
404.8932087578791
 30
0.0
 11
400.6499332093904
 21
403.5604900846078
 31
0.0
  0
LINE
  5
267F
330
1F
100
AcDbEntity
  8
SPOJOVACÍ
  6
DASHED
100
AcDbLine
 10
396.6864169369896
 20
404.3088909264274
 30
0.0
 11
400.6499332093904
 21
402.9761722531561
 31
0.0
  0
LINE
  5
2680
330
1F
100
AcDbEntity
  8
SPOJOVACÍ
  6
DASHED
100
AcDbLine
 10
401.0200315529168
 20
403.3462705988218
 30
0.0
 11
400.6499332093904
 21
403.5604900846078
 31
0.0
  0
LINE
  5
2681
330
1F
100
AcDbEntity
  8
SPOJOVACÍ
  6
DASHED
100
AcDbLine
 10
401.0200315529168
 20
403.3462705988218
 30
0.0
 11
400.6499332093904
 21
402.9761722531561
 31
0.0
  0
LINE
  5
2682
330
1F
100
AcDbEntity
  8
SPOJOVACÍ
  6
DASHED
100
AcDbLine
 10
396.3163185891849
 20
404.5221988397547
 30
0.0
 11
396.6864169369896
 21
404.8932087578791
 31
0.0
  0
LINE
  5
2683
330
1F
100
AcDbEntity
  8
SPOJOVACÍ
  6
DASHED
100
AcDbLine
 10
396.3163185891849
 20
404.5221988397547
 30
0.0
 11
396.6864169369896
 21
404.3088909264274
 31
0.0
  0
LINE
  5
2684
330
1F
100
AcDbEntity
  8
SPOJOVACÍ
  6
DASHED
100
AcDbLine
 10
396.3163185891849
 20
404.5221988397547
 30
0.0
 11
401.0200315529168
 21
403.3462705988218
 31
0.0
  0
LINE
  5
2685
330
1F
100
AcDbEntity
  8
SPOJOVACÍ
  6
DASHED
100
AcDbLine
 10
396.6864169369896
 20
407.9506221844617
 30
0.0
 11
400.6499332093904
 21
406.6179035111904
 31
0.0
  0
LINE
  5
2686
330
1F
100
AcDbEntity
  8
SPOJOVACÍ
  6
DASHED
100
AcDbLine
 10
396.6864169369896
 20
407.3663043530173
 30
0.0
 11
400.6499332093904
 21
406.0335856800097
 31
0.0
  0
LINE
  5
2687
330
1F
100
AcDbEntity
  8
SPOJOVACÍ
  6
DASHED
100
AcDbLine
 10
401.0200315529168
 20
406.4045955978631
 30
0.0
 11
400.6499332093904
 21
406.6179035111904
 31
0.0
  0
LINE
  5
2688
330
1F
100
AcDbEntity
  8
SPOJOVACÍ
  6
DASHED
100
AcDbLine
 10
401.0200315529168
 20
406.4045955978631
 30
0.0
 11
400.6499332093904
 21
406.0335856800097
 31
0.0
  0
LINE
  5
2689
330
1F
100
AcDbEntity
  8
SPOJOVACÍ
  6
DASHED
100
AcDbLine
 10
396.3163185891849
 20
407.5805238387961
 30
0.0
 11
396.6864169369896
 21
407.9506221844617
 31
0.0
  0
LINE
  5
268A
330
1F
100
AcDbEntity
  8
SPOJOVACÍ
  6
DASHED
100
AcDbLine
 10
396.3163185891849
 20
407.5805238387961
 30
0.0
 11
396.6864169369896
 21
407.3663043530173
 31
0.0
  0
LINE
  5
268B
330
1F
100
AcDbEntity
  8
SPOJOVACÍ
  6
DASHED
100
AcDbLine
 10
396.3163185891849
 20
407.5805238387961
 30
0.0
 11
401.0200315529168
 21
406.4045955978631
 31
0.0
  0
LINE
  5
268C
330
1F
100
AcDbEntity
  8
SPOJOVACÍ
  6
DASHED
100
AcDbLine
 10
396.6864169369896
 20
411.0080356110516
 30
0.0
 11
400.6499332093904
 21
409.6753169380439
 31
0.0
  0
LINE
  5
268D
330
1F
100
AcDbEntity
  8
SPOJOVACÍ
  6
DASHED
100
AcDbLine
 10
396.6864169369896
 20
410.4237177795998
 30
0.0
 11
400.6499332093904
 21
409.0909991065996
 31
0.0
  0
LINE
  5
268E
330
1F
100
AcDbEntity
  8
SPOJOVACÍ
  6
DASHED
100
AcDbLine
 10
401.0200315529168
 20
409.4620090244529
 30
0.0
 11
400.6499332093904
 21
409.6753169380439
 31
0.0
  0
LINE
  5
268F
330
1F
100
AcDbEntity
  8
SPOJOVACÍ
  6
DASHED
100
AcDbLine
 10
401.0200315529168
 20
409.4620090244529
 30
0.0
 11
400.6499332093904
 21
409.0909991065996
 31
0.0
  0
LINE
  5
2690
330
1F
100
AcDbEntity
  8
SPOJOVACÍ
  6
DASHED
100
AcDbLine
 10
396.3163185891849
 20
410.637937265386
 30
0.0
 11
396.6864169369896
 21
411.0080356110516
 31
0.0
  0
LINE
  5
2691
330
1F
100
AcDbEntity
  8
SPOJOVACÍ
  6
DASHED
100
AcDbLine
 10
396.3163185891849
 20
410.637937265386
 30
0.0
 11
396.6864169369896
 21
410.4237177795998
 31
0.0
  0
LINE
  5
2692
330
1F
100
AcDbEntity
  8
SPOJOVACÍ
  6
DASHED
100
AcDbLine
 10
396.3163185891849
 20
410.637937265386
 30
0.0
 11
401.0200315529168
 21
409.4620090244529
 31
0.0
  0
LINE
  5
2693
330
1F
100
AcDbEntity
  8
SPOJOVACÍ
  6
DASHED
100
AcDbLine
 10
397.6718265719632
 20
395.5988177921221
 30
0.0
 11
399.7830279705908
 21
395.2943526506637
 31
0.0
  0
LINE
  5
2694
330
1F
100
AcDbEntity
  8
SPOJOVACÍ
  6
DASHED
100
AcDbLine
 10
398.0419249154897
 20
395.9689161377878
 30
0.0
 11
399.4129296270644
 21
395.5076605642548
 31
0.0
  0
LINE
  5
2695
330
1F
100
AcDbEntity
  8
SPOJOVACÍ
  6
DASHED
100
AcDbLine
 10
398.0419249154897
 20
395.3845983063434
 30
0.0
 11
399.4129296270644
 21
394.9233427328104
 31
0.0
  0
LINE
  5
2696
330
1F
100
AcDbEntity
  8
SPOJOVACÍ
  6
DASHED
100
AcDbLine
 10
399.7830279705908
 20
395.2943526506637
 30
0.0
 11
399.4129296270644
 21
395.5076605642548
 31
0.0
  0
LINE
  5
2697
330
1F
100
AcDbEntity
  8
SPOJOVACÍ
  6
DASHED
100
AcDbLine
 10
399.7830279705908
 20
395.2943526506637
 30
0.0
 11
399.4129296270644
 21
394.9233427328104
 31
0.0
  0
LINE
  5
2698
330
1F
100
AcDbEntity
  8
SPOJOVACÍ
  6
DASHED
100
AcDbLine
 10
397.6718265719632
 20
395.5988177921221
 30
0.0
 11
398.0419249154897
 21
395.9689161377878
 31
0.0
  0
LINE
  5
2699
330
1F
100
AcDbEntity
  8
SPOJOVACÍ
  6
DASHED
100
AcDbLine
 10
397.6718265719632
 20
395.5988177921221
 30
0.0
 11
398.0419249154897
 21
395.3845983063434
 31
0.0
  0
LINE
  5
269A
330
1F
100
AcDbEntity
  8
SPOJOVACÍ
  6
DASHED
100
AcDbLine
 10
397.1185021957012
 20
398.5523119788754
 30
0.0
 11
400.1722693338037
 21
397.9315312564408
 31
0.0
  0
LINE
  5
269B
330
1F
100
AcDbEntity
  8
SPOJOVACÍ
  6
DASHED
100
AcDbLine
 10
397.488600543506
 20
398.9233218969998
 30
0.0
 11
399.8021709902772
 21
398.1448391697681
 31
0.0
  0
LINE
  5
269C
330
1F
100
AcDbEntity
  8
SPOJOVACÍ
  6
DASHED
100
AcDbLine
 10
397.488600543506
 20
398.3390040655481
 30
0.0
 11
399.8021709902772
 21
397.5605213385875
 31
0.0
  0
LINE
  5
269D
330
1F
100
AcDbEntity
  8
SPOJOVACÍ
  6
DASHED
100
AcDbLine
 10
400.1722693338037
 20
397.9315312564408
 30
0.0
 11
399.8021709902772
 21
398.1448391697681
 31
0.0
  0
LINE
  5
269E
330
1F
100
AcDbEntity
  8
SPOJOVACÍ
  6
DASHED
100
AcDbLine
 10
400.1722693338037
 20
397.9315312564408
 30
0.0
 11
399.8021709902772
 21
397.5605213385875
 31
0.0
  0
LINE
  5
269F
330
1F
100
AcDbEntity
  8
SPOJOVACÍ
  6
DASHED
100
AcDbLine
 10
397.1185021957012
 20
398.5523119788754
 30
0.0
 11
397.488600543506
 21
398.9233218969998
 31
0.0
  0
LINE
  5
26A0
330
1F
100
AcDbEntity
  8
SPOJOVACÍ
  6
DASHED
100
AcDbLine
 10
397.1185021957012
 20
398.5523119788754
 30
0.0
 11
397.488600543506
 21
398.3390040655481
 31
0.0
  0
LINE
  5
26A1
330
1F
100
AcDbEntity
  8
SPOJOVACÍ
  6
DASHED
100
AcDbLine
 10
396.5651778237175
 20
401.5067177380874
 30
0.0
 11
400.6080008834056
 21
400.5532131334289
 31
0.0
  0
LINE
  5
26A2
330
1F
100
AcDbEntity
  8
SPOJOVACÍ
  6
DASHED
100
AcDbLine
 10
396.936187741036
 20
401.876816083753
 30
0.0
 11
400.237902539879
 21
400.7665210467562
 31
0.0
  0
LINE
  5
26A3
330
1F
100
AcDbEntity
  8
SPOJOVACÍ
  6
DASHED
100
AcDbLine
 10
396.936187741036
 20
401.2924982523013
 30
0.0
 11
400.237902539879
 21
400.1822032153045
 31
0.0
  0
LINE
  5
26A4
330
1F
100
AcDbEntity
  8
SPOJOVACÍ
  6
DASHED
100
AcDbLine
 10
400.6080008834056
 20
400.5532131334289
 30
0.0
 11
400.237902539879
 21
400.7665210467562
 31
0.0
  0
LINE
  5
26A5
330
1F
100
AcDbEntity
  8
SPOJOVACÍ
  6
DASHED
100
AcDbLine
 10
400.6080008834056
 20
400.5532131334289
 30
0.0
 11
400.237902539879
 21
400.1822032153045
 31
0.0
  0
LINE
  5
26A6
330
1F
100
AcDbEntity
  8
SPOJOVACÍ
  6
DASHED
100
AcDbLine
 10
396.5651778237175
 20
401.5067177380874
 30
0.0
 11
396.936187741036
 21
401.876816083753
 31
0.0
  0
LINE
  5
26A7
330
1F
100
AcDbEntity
  8
SPOJOVACÍ
  6
DASHED
100
AcDbLine
 10
396.5651778237175
 20
401.5067177380874
 30
0.0
 11
396.936187741036
 21
401.2924982523013
 31
0.0
  0
LINE
  5
26A8
330
1F
100
AcDbEntity
  8
SPOJOVACÍ
  6
DASHED
100
AcDbLine
 10
396.6864169369896
 20
414.0654490379051
 30
0.0
 11
400.6499332093904
 21
412.7336419368216
 31
0.0
  0
LINE
  5
26A9
330
1F
100
AcDbEntity
  8
SPOJOVACÍ
  6
DASHED
100
AcDbLine
 10
396.6864169369896
 20
413.4811312064535
 30
0.0
 11
400.6499332093904
 21
412.1493241056409
 31
0.0
  0
LINE
  5
26AA
330
1F
100
AcDbEntity
  8
SPOJOVACÍ
  6
DASHED
100
AcDbLine
 10
401.0200315529168
 20
412.5194224510355
 30
0.0
 11
400.6499332093904
 21
412.7336419368216
 31
0.0
  0
LINE
  5
26AB
330
1F
100
AcDbEntity
  8
SPOJOVACÍ
  6
DASHED
100
AcDbLine
 10
401.0200315529168
 20
412.5194224510355
 30
0.0
 11
400.6499332093904
 21
412.1493241056409
 31
0.0
  0
LINE
  5
26AC
330
1F
100
AcDbEntity
  8
SPOJOVACÍ
  6
DASHED
100
AcDbLine
 10
396.3163185891849
 20
413.6953506922395
 30
0.0
 11
396.6864169369896
 21
414.0654490379051
 31
0.0
  0
LINE
  5
26AD
330
1F
100
AcDbEntity
  8
SPOJOVACÍ
  6
DASHED
100
AcDbLine
 10
396.3163185891849
 20
413.6953506922395
 30
0.0
 11
396.6864169369896
 21
413.4811312064535
 31
0.0
  0
LINE
  5
26AE
330
1F
100
AcDbEntity
  8
SPOJOVACÍ
  6
DASHED
100
AcDbLine
 10
396.3163185891849
 20
413.6953506922395
 30
0.0
 11
401.0200315529168
 21
412.5194224510355
 31
0.0
  0
LINE
  5
26AF
330
1F
100
AcDbEntity
  8
SPOJOVACÍ
  6
DASHED
100
AcDbLine
 10
396.6864169369896
 20
417.1237740366755
 30
0.0
 11
400.6499332093904
 21
415.7910553636752
 31
0.0
  0
LINE
  5
26B0
330
1F
100
AcDbEntity
  8
SPOJOVACÍ
  6
DASHED
100
AcDbLine
 10
396.6864169369896
 20
416.5394562054948
 30
0.0
 11
400.6499332093904
 21
415.2067375322235
 31
0.0
  0
LINE
  5
26B1
330
1F
100
AcDbEntity
  8
SPOJOVACÍ
  6
DASHED
100
AcDbLine
 10
401.0200315529168
 20
415.5768358778891
 30
0.0
 11
400.6499332093904
 21
415.7910553636752
 31
0.0
  0
LINE
  5
26B2
330
1F
100
AcDbEntity
  8
SPOJOVACÍ
  6
DASHED
100
AcDbLine
 10
401.0200315529168
 20
415.5768358778891
 30
0.0
 11
400.6499332093904
 21
415.2067375322235
 31
0.0
  0
LINE
  5
26B3
330
1F
100
AcDbEntity
  8
SPOJOVACÍ
  6
DASHED
100
AcDbLine
 10
396.3163185891849
 20
416.7527641188221
 30
0.0
 11
396.6864169369896
 21
417.1237740366755
 31
0.0
  0
LINE
  5
26B4
330
1F
100
AcDbEntity
  8
SPOJOVACÍ
  6
DASHED
100
AcDbLine
 10
396.3163185891849
 20
416.7527641188221
 30
0.0
 11
396.6864169369896
 21
416.5394562054948
 31
0.0
  0
LINE
  5
26B5
330
1F
100
AcDbEntity
  8
SPOJOVACÍ
  6
DASHED
100
AcDbLine
 10
396.3163185891849
 20
416.7527641188221
 30
0.0
 11
401.0200315529168
 21
415.5768358778891
 31
0.0
  0
LINE
  5
26B6
330
1F
100
AcDbEntity
  8
SPOJOVACÍ
  6
DASHED
100
AcDbLine
 10
399.7502113696923
 20
400.9397197800785
 30
0.0
 11
399.9908664529307
 21
402.871341441139
 31
0.0
  0
LINE
  5
26B7
330
1F
100
AcDbEntity
  8
SPOJOVACÍ
  6
DASHED
100
AcDbLine
 10
399.4183990569822
 20
398.2870444454979
 30
0.0
 11
399.680020303213
 21
400.3809259722943
 31
0.0
  0
LINE
  5
26B8
330
1F
100
AcDbEntity
  8
SPOJOVACÍ
  6
DASHED
100
AcDbLine
 10
399.0856751790365
 20
395.6243418160534
 30
0.0
 11
399.3482079947812
 21
397.7264274933381
 31
0.0
  0
LINE
  5
26B9
330
1F
100
AcDbEntity
  8
SPOJOVACÍ
  6
DASHED
100
AcDbLine
 10
398.2898725762302
 20
395.3144072409336
 30
0.0
 11
398.6681750710508
 21
392.2870756994848
 31
0.0
  0
LINE
  5
26BA
330
1F
100
AcDbEntity
  8
SPOJOVACÍ
  6
DASHED
100
AcDbLine
 10
397.9298015273038
 20
398.1967987898183
 30
0.0
 11
398.2142120755547
 21
395.92242595167
 31
0.0
  0
LINE
  5
26BB
330
1F
100
AcDbEntity
  8
SPOJOVACÍ
  6
DASHED
100
AcDbLine
 10
397.5679073307933
 20
401.090129206033
 30
0.0
 11
397.8523178833225
 21
398.8148447956896
 31
0.0
  0
LINE
  5
26BC
330
1F
100
AcDbEntity
  8
SPOJOVACÍ
  6
DASHED
100
AcDbLine
 10
398.6681750710508
 20
392.2870756994848
 30
0.0
 11
399.0154841125572
 21
395.0664595807279
 31
0.0
  0
LINE
  5
26BD
330
1F
100
AcDbEntity
  8
SPOJOVACÍ
  6
DASHED
100
AcDbLine
 10
397.3454836934493
 20
402.871341441139
 30
0.0
 11
397.4922468301178
 21
401.6981479167693
 31
0.0
  0
LINE
  5
26BE
330
1F
100
AcDbEntity
  8
SPOJOVACÍ
  6
DASHED
100
AcDbLine
 10
399.9908664529307
 20
403.2013306062649
 30
0.0
 11
399.9908664529307
 21
402.871341441139
 31
0.0
  0
LINE
  5
26BF
330
1F
100
AcDbEntity
  8
SPOJOVACÍ
  6
DASHED
100
AcDbLine
 10
399.9908664529307
 20
406.2614787499455
 30
0.0
 11
399.9908664529307
 21
403.7929410160172
 31
0.0
  0
LINE
  5
26C0
330
1F
100
AcDbEntity
  8
SPOJOVACÍ
  6
DASHED
100
AcDbLine
 10
397.3454836934493
 20
404.0937598681898
 30
0.0
 11
397.3454836934493
 21
402.871341441139
 31
0.0
  0
LINE
  5
26C1
330
1F
100
AcDbEntity
  8
SPOJOVACÍ
  6
DASHED
100
AcDbLine
 10
397.3454836934493
 20
407.1457038613821
 30
0.0
 11
397.3454836934493
 21
404.6780776996415
 31
0.0
  0
LINE
  5
26C2
330
1F
100
AcDbEntity
  8
SPOJOVACÍ
  6
DASHED
100
AcDbLine
 10
399.9908664529307
 20
409.3207153211746
 30
0.0
 11
399.9908664529307
 21
406.8503544425998
 31
0.0
  0
LINE
  5
26C3
330
1F
100
AcDbEntity
  8
SPOJOVACÍ
  6
DASHED
100
AcDbLine
 10
399.9908664529307
 20
412.3808634645915
 30
0.0
 11
399.9908664529307
 21
409.9032100079798
 31
0.0
  0
LINE
  5
26C4
330
1F
100
AcDbEntity
  8
SPOJOVACÍ
  6
DASHED
100
AcDbLine
 10
399.9908664529307
 20
415.4337190299716
 30
0.0
 11
399.9908664529307
 21
412.9651812960433
 31
0.0
  0
LINE
  5
26C5
330
1F
100
AcDbEntity
  8
SPOJOVACÍ
  6
DASHED
100
AcDbLine
 10
397.3454836934493
 20
410.2158792999339
 30
0.0
 11
397.3454836934493
 21
407.7382258433222
 31
0.0
  0
LINE
  5
26C6
330
1F
100
AcDbEntity
  8
SPOJOVACÍ
  6
DASHED
100
AcDbLine
 10
397.3454836934493
 20
413.2687348653139
 30
0.0
 11
397.3454836934493
 21
410.7983739867391
 31
0.0
  0
LINE
  5
26C7
330
1F
100
AcDbEntity
  8
SPOJOVACÍ
  6
DASHED
100
AcDbLine
 10
397.3454836934493
 20
416.3288830087308
 30
0.0
 11
397.3454836934493
 21
413.8603452748025
 31
0.0
  0
LINE
  5
26C8
330
1F
100
AcDbEntity
  8
SPOJOVACÍ
  6
DASHED
100
AcDbLine
 10
397.3454836934493
 20
420.8694245348101
 30
0.0
 11
397.3454836934493
 21
416.9122892677237
 31
0.0
  0
LINE
  5
26C9
330
1F
100
AcDbEntity
  8
SPOJOVACÍ
  6
DASHED
100
AcDbLine
 10
399.9908664529307
 20
420.8694245348101
 30
0.0
 11
399.9908664529307
 21
416.0253294394602
 31
0.0
  0
LINE
  5
26CA
330
1F
100
AcDbEntity
  8
SPOJOVACÍ
  6
DASHED
100
AcDbLine
 10
396.8614388141527
 20
423.0918377531793
 30
0.0
 11
397.2807620611661
 21
421.6406146834701
 31
0.0
  0
LINE
  5
26CB
330
1F
100
AcDbEntity
  8
SPOJOVACÍ
  6
DASHED
100
AcDbLine
 10
397.2807620611661
 20
421.6406146834701
 30
0.0
 11
397.3454836934493
 21
420.8694245348101
 31
0.0
  0
LINE
  5
26CC
330
1F
100
AcDbEntity
  8
SPOJOVACÍ
  6
DASHED
100
AcDbLine
 10
399.9908664529307
 20
420.8694245348101
 30
0.0
 11
400.2132900859964
 21
422.3625799291708
 31
0.0
  0
LINE
  5
26CD
330
1F
100
AcDbEntity
  8
SPOJOVACÍ
  6
DASHED
100
AcDbLine
 10
400.2132900859964
 20
422.3625799291708
 30
0.0
 11
400.8140162181612
 21
423.74816979468
 31
0.0
  0
HATCH
  5
26CE
330
1F
100
AcDbEntity
  8
izolace
100
AcDbHatch
 10
0.0
 20
0.0
 30
0.0
210
0.0
220
0.0
230
1.0
  2
SOLID
 70
     1
 71
     0
 91
        1
 92
        7
 72
     0
 73
     1
 93
        4
 10
379.26009697193
 20
383.3370298604764
 10
379.2600969719336
 20
380.3370298604763
 10
402.9018296817652
 20
380.3370298604763
 10
402.9018296817688
 20
383.3370298604764
 97
        0
 75
     0
 76
     1
 47
0.1901250437635136
 98
        1
 10
388.6178917302735
 20
382.5202183093965
  0
LWPOLYLINE
  5
26CF
330
1F
100
AcDbEntity
  8
izolace
100
AcDbPolyline
 90
        4
 70
     1
 43
0.0
 10
402.9018296817652
 20
383.3370298604764
 10
379.26009697193
 20
383.3370298604764
 10
379.26009697193
 20
380.3370298604763
 10
402.9018296817652
 20
380.3370298604763
  0
LWPOLYLINE
  5
26D0
330
1F
100
AcDbEntity
  8
izolace
100
AcDbPolyline
 90
        4
 70
     1
 43
0.0
 10
416.0754301703949
 20
383.3370298604764
 10
356.0754301703949
 20
383.3370298604764
 10
356.0754301703949
 20
403.3370298604763
 10
416.0754301703949
 20
403.3370298604763
  0
LWPOLYLINE
  5
26D1
330
1F
100
AcDbEntity
  8
STAVBA OBRYS
100
AcDbPolyline
 90
        7
 70
     0
 43
0.0
 10
360.5901986500779
 20
403.3370298604763
 42
-0.0203924744732807
 10
359.6881146656691
 20
402.3238998313222
 42
-0.0273961979096945
 10
358.8382503154738
 20
401.5357234572961
 42
-0.0243529190212958
 10
357.6751298230541
 20
400.6619641126285
 42
-0.0398020282482987
 10
356.9001712854936
 20
400.222335369182
 42
-0.104168275620852
 10
356.5137601491536
 20
400.1323189090048
 42
-0.007272956268647
 10
356.0754301703949
 20
400.1138655577101
 42
-0.007272956268647
  0
POLYLINE
  5
26D2
330
1F
100
AcDbEntity
  8
STAVBA OBRYS
100
AcDb2dPolyline
 66
     1
 10
0.0
 20
0.0
 30
0.0
  0
VERTEX
  5
26D3
330
26D2
100
AcDbEntity
  8
STAVBA OBRYS
100
AcDbVertex
100
AcDb2dVertex
 10
365.9398849845952
 20
403.3370298604745
 30
0.0
 42
-0.0064239028828688
  0
VERTEX
  5
26D4
330
26D2
100
AcDbEntity
  8
STAVBA OBRYS
100
AcDbVertex
100
AcDb2dVertex
 10
365.9010165444147
 20
403.1179162011244
 30
0.0
 42
-0.0832048017309575
  0
VERTEX
  5
26D5
330
26D2
100
AcDbEntity
  8
STAVBA OBRYS
100
AcDbVertex
100
AcDb2dVertex
 10
365.1168339417331
 20
400.7877026214696
 30
0.0
 42
-0.0336767237692336
  0
VERTEX
  5
26D6
330
26D2
100
AcDbEntity
  8
STAVBA OBRYS
100
AcDbVertex
100
AcDb2dVertex
 10
363.4140173828114
 20
398.0594281020089
 30
0.0
 42
-0.0844635135812105
  0
VERTEX
  5
26D7
330
26D2
100
AcDbEntity
  8
STAVBA OBRYS
100
AcDbVertex
100
AcDb2dVertex
 10
362.4942076229185
 20
397.1550064970138
 30
0.0
 42
-0.0495829410719565
  0
VERTEX
  5
26D8
330
26D2
100
AcDbEntity
  8
STAVBA OBRYS
100
AcDbVertex
100
AcDb2dVertex
 10
360.7455291855644
 20
396.1783569897011
 30
0.0
 42
-0.0322692699774654
  0
VERTEX
  5
26D9
330
26D2
100
AcDbEntity
  8
STAVBA OBRYS
100
AcDbVertex
100
AcDb2dVertex
 10
357.8541750044737
 20
395.1368334883004
 30
0.0
 42
-0.0276160659512937
  0
VERTEX
  5
26DA
330
26D2
100
AcDbEntity
  8
STAVBA OBRYS
100
AcDbVertex
100
AcDb2dVertex
 10
356.9985985661864
 20
394.9400980593559
 30
0.0
 42
-0.0126891984598699
  0
VERTEX
  5
26DB
330
26D2
100
AcDbEntity
  8
STAVBA OBRYS
100
AcDbVertex
100
AcDb2dVertex
 10
356.075430170395
 20
394.8048956698144
 30
0.0
  0
SEQEND
  5
26DC
330
26D2
100
AcDbEntity
  8
STAVBA OBRYS
  0
LWPOLYLINE
  5
26DD
330
1F
100
AcDbEntity
  8
STAVBA OBRYS
100
AcDbPolyline
 90
        5
 70
     0
 43
0.0
 10
397.6089886325702
 20
403.3370298604763
 42
-0.0128837512779298
 10
397.3241966723456
 20
400.00386503873
 42
-0.0351641677647434
 10
396.6964369508226
 20
396.4001555843911
 42
-0.0187319685742942
 10
393.3124210698318
 20
384.6419182422483
 42
-0.0205166500055637
 10
392.8231728409213
 20
383.3370298604764
 42
-0.0205166500055637
  0
LWPOLYLINE
  5
26DE
330
1F
100
AcDbEntity
  8
STAVBA OBRYS
100
AcDbPolyline
 90
        3
 70
     0
 43
0.0
 10
382.0764052533435
 20
396.8378602912212
 10
402.0726576853361
 20
387.6218312407013
 10
406.0725953190507
 20
386.9764337653591
  0
LWPOLYLINE
  5
26DF
330
1F
100
AcDbEntity
  8
STAVBA OBRYS
100
AcDbPolyline
 90
        2
 70
     0
 43
0.0
 10
407.7987182365744
 20
403.3370298604763
 42
-0.0133702840819155
 10
404.1488511757619
 20
383.3370298604764
 42
-0.0133702840819155
  0
LWPOLYLINE
  5
26E0
330
1F
100
AcDbEntity
  8
STAVBA OBRYS
100
AcDbPolyline
 90
        7
 70
     0
 43
0.0
 10
388.9847732525289
 20
403.3370298604763
 42
-0.0120721047703132
 10
388.915790562491
 20
401.6031417217322
 42
-0.044358077361292
 10
388.5201628278176
 20
398.9073417033155
 42
-0.0188067511131767
 10
386.5003393794344
 20
391.6651125280091
 42
-0.0457786284636091
 10
385.2923164898187
 20
388.8165021451291
 42
-0.0295006114745606
 10
382.8762560355193
 20
384.889602931727
 42
-0.0094449184784486
 10
381.7455895949991
 20
383.3370298604764
 42
-0.0094449184784486
  0
LWPOLYLINE
  5
26E1
330
1F
100
AcDbEntity
  8
STAVBA OBRYS
100
AcDbPolyline
 90
        3
 70
     0
 43
0.0
 10
362.7838276280984
 20
397.8196991649579
 10
379.5390452478262
 20
389.4359582969896
 10
385.6273901846528
 20
383.3370298604764
  0
POLYLINE
  5
26E2
330
1F
100
AcDbEntity
  8
STAVBA OBRYS
100
AcDb2dPolyline
 66
     1
 10
0.0
 20
0.0
 30
0.0
  0
VERTEX
  5
26E3
330
26E2
100
AcDbEntity
  8
STAVBA OBRYS
100
AcDbVertex
100
AcDb2dVertex
 10
373.1679360053335
 20
403.3370298604745
 30
0.0
 42
-0.0072417954699014
  0
VERTEX
  5
26E4
330
26E2
100
AcDbEntity
  8
STAVBA OBRYS
100
AcDbVertex
100
AcDb2dVertex
 10
373.1123656374898
 20
402.9256246492
 30
0.0
 42
-0.0707158694326265
  0
VERTEX
  5
26E5
330
26E2
100
AcDbEntity
  8
STAVBA OBRYS
100
AcDbVertex
100
AcDb2dVertex
 10
372.5812391210697
 20
400.9895211966063
 30
0.0
 42
-0.033952657250207
  0
VERTEX
  5
26E6
330
26E2
100
AcDbEntity
  8
STAVBA OBRYS
100
AcDbVertex
100
AcDb2dVertex
 10
370.3325832816612
 20
396.6364834714326
 30
0.0
 42
-0.0571374688189033
  0
VERTEX
  5
26E7
330
26E2
100
AcDbEntity
  8
STAVBA OBRYS
100
AcDbVertex
100
AcDb2dVertex
 10
368.5464265218092
 20
394.3295591877463
 30
0.0
 42
-0.0274923553235744
  0
VERTEX
  5
26E8
330
26E2
100
AcDbEntity
  8
STAVBA OBRYS
100
AcDbVertex
100
AcDb2dVertex
 10
365.9491207912565
 20
391.9444838646118
 30
0.0
 42
-0.0255412025538677
  0
VERTEX
  5
26E9
330
26E2
100
AcDbEntity
  8
STAVBA OBRYS
100
AcDbVertex
100
AcDb2dVertex
 10
362.8976907535457
 20
389.6877701875924
 30
0.0
 42
-0.0272796991712396
  0
VERTEX
  5
26EA
330
26E2
100
AcDbEntity
  8
STAVBA OBRYS
100
AcDbVertex
100
AcDb2dVertex
 10
358.7846916003604
 20
387.2714343059301
 30
0.0
 42
-0.056967459841729
  0
VERTEX
  5
26EB
330
26E2
100
AcDbEntity
  8
STAVBA OBRYS
100
AcDbVertex
100
AcDb2dVertex
 10
356.6437443196286
 20
386.4586984707307
 30
0.0
 42
-0.0373408083348504
  0
VERTEX
  5
26EC
330
26E2
100
AcDbEntity
  8
STAVBA OBRYS
100
AcDbVertex
100
AcDb2dVertex
 10
356.4213899441551
 20
386.4195329297795
 30
0.0
 42
-0.0052305969362967
  0
VERTEX
  5
26ED
330
26E2
100
AcDbEntity
  8
STAVBA OBRYS
100
AcDbVertex
100
AcDb2dVertex
 10
356.075430170395
 20
386.3885759628751
 30
0.0
  0
SEQEND
  5
26EE
330
26E2
100
AcDbEntity
  8
STAVBA OBRYS
  0
LWPOLYLINE
  5
26EF
330
1F
100
AcDbEntity
  8
STAVBA OBRYS
100
AcDbPolyline
 90
        8
 70
     0
 43
0.0
 10
380.1177140290186
 20
403.3370298604763
 42
-0.0168162630274195
 10
379.9826884499547
 20
401.6459917083571
 42
-0.0575155827655532
 10
379.3026561696118
 20
398.5463670476397
 42
-0.0310289133982999
 10
376.2998548247836
 20
391.301339522995
 42
-0.0882970623535771
 10
374.6626329046906
 20
389.0609704721951
 42
-0.0171636441953577
 10
371.8492688428326
 20
386.5470531169498
 42
-0.0157521173632038
 10
368.6104140057963
 20
384.0155570644433
 42
-0.0014948023799519
 10
367.6777021582842
 20
383.3370298604764
 42
-0.0014948023799519
  0
LWPOLYLINE
  5
26F0
330
1F
100
AcDbEntity
  8
STAVBA OBRYS
100
AcDbPolyline
 90
        2
 70
     0
 43
0.0
 10
416.0754301703949
 20
389.9535069701519
 42
-0.0070027860950108
 10
414.2514589704245
 20
383.3370298604764
  0
POLYLINE
  5
26F1
330
1F
100
AcDbEntity
  8
STAVBA OBRYS
100
AcDb2dPolyline
 66
     1
 10
0.0
 20
0.0
 30
0.0
  0
VERTEX
  5
26F2
330
26F1
100
AcDbEntity
  8
STAVBA OBRYS
100
AcDbVertex
100
AcDb2dVertex
 10
440.9398849845952
 20
403.3370298604745
 30
0.0
 42
-0.0064239028828688
  0
VERTEX
  5
26F3
330
26F1
100
AcDbEntity
  8
STAVBA OBRYS
100
AcDbVertex
100
AcDb2dVertex
 10
440.9010165444146
 20
403.1179162011244
 30
0.0
 42
-0.0832048017309575
  0
VERTEX
  5
26F4
330
26F1
100
AcDbEntity
  8
STAVBA OBRYS
100
AcDbVertex
100
AcDb2dVertex
 10
440.1168339417331
 20
400.7877026214696
 30
0.0
 42
-0.0336767237692336
  0
VERTEX
  5
26F5
330
26F1
100
AcDbEntity
  8
STAVBA OBRYS
100
AcDbVertex
100
AcDb2dVertex
 10
438.4140173828114
 20
398.0594281020089
 30
0.0
 42
-0.0844635135812105
  0
VERTEX
  5
26F6
330
26F1
100
AcDbEntity
  8
STAVBA OBRYS
100
AcDbVertex
100
AcDb2dVertex
 10
437.4942076229185
 20
397.1550064970138
 30
0.0
 42
-0.0495829410719565
  0
VERTEX
  5
26F7
330
26F1
100
AcDbEntity
  8
STAVBA OBRYS
100
AcDbVertex
100
AcDb2dVertex
 10
435.7455291855644
 20
396.1783569897011
 30
0.0
 42
-0.0322692699774654
  0
VERTEX
  5
26F8
330
26F1
100
AcDbEntity
  8
STAVBA OBRYS
100
AcDbVertex
100
AcDb2dVertex
 10
432.8541750044737
 20
395.1368334883004
 30
0.0
 42
-0.0276160659512937
  0
VERTEX
  5
26F9
330
26F1
100
AcDbEntity
  8
STAVBA OBRYS
100
AcDbVertex
100
AcDb2dVertex
 10
431.9985985661864
 20
394.9400980593559
 30
0.0
 42
-0.0126891984598699
  0
VERTEX
  5
26FA
330
26F1
100
AcDbEntity
  8
STAVBA OBRYS
100
AcDbVertex
100
AcDb2dVertex
 10
431.075430170395
 20
394.8048956698144
 30
0.0
  0
SEQEND
  5
26FB
330
26F1
100
AcDbEntity
  8
STAVBA OBRYS
  0
LWPOLYLINE
  5
26FC
330
1F
100
AcDbEntity
  8
STAVBA OBRYS
100
AcDbPolyline
 90
        7
 70
     0
 43
0.0
 10
435.5901986500779
 20
403.3370298604763
 42
-0.0203924744732807
 10
434.6881146656691
 20
402.3238998313222
 42
-0.0273961979096945
 10
433.8382503154738
 20
401.5357234572961
 42
-0.0243529190212958
 10
432.6751298230541
 20
400.6619641126285
 42
-0.0398020282482987
 10
431.9001712854936
 20
400.222335369182
 42
-0.104168275620852
 10
431.5137601491536
 20
400.1323189090048
 42
-0.007272956268647
 10
431.075430170395
 20
400.1138655577101
 42
-0.007272956268647
  0
TEXT
  5
26FD
330
1F
100
AcDbEntity
  8
POPIS
100
AcDbText
 10
404.3451412656818
 20
303.0895972331632
 30
0.0
 40
25.0
  1
03
 41
0.85
  7
SIMPLEX7
100
AcDbText
  0
LINE
  5
26FE
330
1F
100
AcDbEntity
  8
POPIS
100
AcDbLine
 10
420.8543226171518
 20
335.7214352800961
 30
0.0
 11
420.8543226171518
 21
398.5268082957695
 31
0.0
  0
LWPOLYLINE
  5
26FF
330
1F
100
AcDbEntity
  8
izolace
100
AcDbPolyline
 90
        4
 70
     1
 43
0.0
 10
355.6183642620948
 20
383.3370298604764
 10
331.9766315522596
 20
383.3370298604764
 10
331.9766315522596
 20
380.3370298604763
 10
355.6183642620948
 20
380.3370298604763
  0
HATCH
  5
2700
330
1F
100
AcDbEntity
  8
izolace
100
AcDbHatch
 10
0.0
 20
0.0
 30
0.0
210
0.0
220
0.0
230
1.0
  2
SOLID
 70
     1
 71
     0
 91
        1
 92
        7
 72
     0
 73
     1
 93
        4
 10
331.9766315522632
 20
383.3370298604764
 10
331.9766315522632
 20
380.3370298604763
 10
355.6183642620984
 20
380.3370298604763
 10
355.6183642620984
 20
383.3370298604764
 97
        0
 75
     0
 76
     1
 47
0.1901250437635136
 98
        1
 10
341.3344263106031
 20
382.5202183093965
  0
INSERT
  5
2701
330
1F
100
AcDbEntity
  8
POPIS
100
AcDbBlockReference
  2
E_PUNKT
 10
357.9441541738947
 20
399.000527532708
 30
0.0
 50
270.0
  0
LINE
  5
2702
330
1F
100
AcDbEntity
  8
POPIS
100
AcDbLine
 10
357.8810015542317
 20
335.7214352800961
 30
0.0
 11
357.8810015542317
 21
398.5268082957695
 31
0.0
  0
TEXT
  5
2703
330
1F
100
AcDbEntity
  8
POPIS
100
AcDbText
 10
341.3718202027617
 20
303.0895972331632
 30
0.0
 40
25.0
  1
07
 41
0.85
  7
SIMPLEX7
100
AcDbText
  0
HATCH
  5
2704
330
1F
100
AcDbEntity
  8
izolace
100
AcDbHatch
 10
0.0
 20
0.0
 30
0.0
210
0.0
220
0.0
230
1.0
  2
SOLID
 70
     1
 71
     0
 91
        1
 92
        7
 72
     0
 73
     1
 93
        4
 10
473.8270278112744
 20
383.3370298604764
 10
473.8270278112744
 20
380.3370298604763
 10
497.4687605211096
 20
380.3370298604763
 10
497.4687605211096
 20
383.3370298604764
 97
        0
 75
     0
 76
     1
 47
0.1901250437635136
 98
        1
 10
483.1848225696143
 20
382.5202183093965
  0
LWPOLYLINE
  5
2705
330
1F
100
AcDbEntity
  8
izolace
100
AcDbPolyline
 90
        4
 70
     1
 43
0.0
 10
497.468760521106
 20
383.3370298604764
 10
473.8270278112707
 20
383.3370298604764
 10
473.8270278112707
 20
380.3370298604763
 10
497.468760521106
 20
380.3370298604763
  0
HATCH
  5
2706
330
1F
100
AcDbEntity
  8
izolace
100
AcDbHatch
 10
0.0
 20
0.0
 30
0.0
210
0.0
220
0.0
230
1.0
  2
SOLID
 70
     1
 71
     0
 91
        1
 92
        7
 72
     0
 73
     1
 93
        4
 10
521.1104932309411
 20
383.3370298604764
 10
521.1104932309448
 20
380.3370298604763
 10
544.75222594078
 20
380.3370298604763
 10
544.7522259407691
 20
383.3370298604764
 97
        0
 75
     0
 76
     1
 47
0.1901250437635136
 98
        1
 10
530.4682879892847
 20
382.5202183093965
  0
LWPOLYLINE
  5
2707
330
1F
100
AcDbEntity
  8
izolace
100
AcDbPolyline
 90
        4
 70
     1
 43
0.0
 10
544.7522259407763
 20
383.3370298604764
 10
521.1104932309411
 20
383.3370298604764
 10
521.1104932309411
 20
380.3370298604763
 10
544.7522259407763
 20
380.3370298604763
  0
HATCH
  5
2708
330
1F
100
AcDbEntity
  8
izolace
100
AcDbHatch
 10
0.0
 20
0.0
 30
0.0
210
0.0
220
0.0
230
1.0
  2
SOLID
 70
     1
 71
     0
 91
        1
 92
        7
 72
     0
 73
     1
 93
        4
 10
568.3939586506116
 20
383.3370298604764
 10
568.3939586506152
 20
380.3370298604763
 10
592.0356913604504
 20
380.3370298604763
 10
592.0356913604504
 20
383.3370298604764
 97
        0
 75
     0
 76
     1
 47
0.1901250437635136
 98
        1
 10
577.751753408955
 20
382.5202183093965
  0
LWPOLYLINE
  5
2709
330
1F
100
AcDbEntity
  8
izolace
100
AcDbPolyline
 90
        4
 70
     1
 43
0.0
 10
592.0356913604467
 20
383.3370298604764
 10
568.3939586506116
 20
383.3370298604764
 10
568.3939586506116
 20
380.3370298604763
 10
592.0356913604467
 20
380.3370298604763
  0
INSERT
  5
270A
330
1F
100
AcDbEntity
  8
POPIS
100
AcDbBlockReference
  2
E_PUNKT
 10
571.0663026496026
 20
420.3104549060322
 30
0.0
 50
270.0
  0
LINE
  5
270B
330
1F
100
AcDbEntity
  8
SPOJOVACÍ
  6
DASHED
100
AcDbLine
 10
446.9375702547936
 20
422.3625799291708
 30
0.0
 11
446.3368441226289
 21
423.74816979468
 31
0.0
  0
LINE
  5
270C
330
1F
100
AcDbEntity
  8
SPOJOVACÍ
  6
DASHED
100
AcDbLine
 10
447.1599938878593
 20
420.8694245348101
 30
0.0
 11
446.9375702547936
 21
422.3625799291708
 31
0.0
  0
LINE
  5
270D
330
1F
100
AcDbEntity
  8
SPOJOVACÍ
  6
DASHED
100
AcDbLine
 10
449.870098279624
 20
421.6406146834701
 30
0.0
 11
449.8053766473408
 21
420.8694245348101
 31
0.0
  0
LINE
  5
270E
330
1F
100
AcDbEntity
  8
SPOJOVACÍ
  6
DASHED
100
AcDbLine
 10
450.2894215266374
 20
423.0918377531793
 30
0.0
 11
449.870098279624
 21
421.6406146834701
 31
0.0
  0
LINE
  5
270F
330
1F
100
AcDbEntity
  8
SPOJOVACÍ
  6
DASHED
100
AcDbLine
 10
447.1599938878593
 20
420.8694245348101
 30
0.0
 11
447.1599938878593
 21
416.0253294394602
 31
0.0
  0
LINE
  5
2710
330
1F
100
AcDbEntity
  8
SPOJOVACÍ
  6
DASHED
100
AcDbLine
 10
449.8053766473408
 20
420.8694245348101
 30
0.0
 11
449.8053766473408
 21
416.9122892677237
 31
0.0
  0
LINE
  5
2711
330
1F
100
AcDbEntity
  8
SPOJOVACÍ
  6
DASHED
100
AcDbLine
 10
449.8053766473408
 20
416.3288830087308
 30
0.0
 11
449.8053766473408
 21
413.8603452748025
 31
0.0
  0
LINE
  5
2712
330
1F
100
AcDbEntity
  8
SPOJOVACÍ
  6
DASHED
100
AcDbLine
 10
449.8053766473408
 20
413.2687348653139
 30
0.0
 11
449.8053766473408
 21
410.7983739867391
 31
0.0
  0
LINE
  5
2713
330
1F
100
AcDbEntity
  8
SPOJOVACÍ
  6
DASHED
100
AcDbLine
 10
449.8053766473408
 20
410.2158792999339
 30
0.0
 11
449.8053766473408
 21
407.7382258433222
 31
0.0
  0
LINE
  5
2714
330
1F
100
AcDbEntity
  8
SPOJOVACÍ
  6
DASHED
100
AcDbLine
 10
447.1599938878593
 20
415.4337190299716
 30
0.0
 11
447.1599938878593
 21
412.9651812960433
 31
0.0
  0
LINE
  5
2715
330
1F
100
AcDbEntity
  8
SPOJOVACÍ
  6
DASHED
100
AcDbLine
 10
447.1599938878593
 20
412.3808634645915
 30
0.0
 11
447.1599938878593
 21
409.9032100079798
 31
0.0
  0
LINE
  5
2716
330
1F
100
AcDbEntity
  8
SPOJOVACÍ
  6
DASHED
100
AcDbLine
 10
447.1599938878593
 20
409.3207153211746
 30
0.0
 11
447.1599938878593
 21
406.8503544425998
 31
0.0
  0
LINE
  5
2717
330
1F
100
AcDbEntity
  8
SPOJOVACÍ
  6
DASHED
100
AcDbLine
 10
449.8053766473408
 20
407.1457038613821
 30
0.0
 11
449.8053766473408
 21
404.6780776996415
 31
0.0
  0
LINE
  5
2718
330
1F
100
AcDbEntity
  8
SPOJOVACÍ
  6
DASHED
100
AcDbLine
 10
449.8053766473408
 20
404.0937598681898
 30
0.0
 11
449.8053766473408
 21
402.871341441139
 31
0.0
  0
LINE
  5
2719
330
1F
100
AcDbEntity
  8
SPOJOVACÍ
  6
DASHED
100
AcDbLine
 10
447.1599938878593
 20
406.2614787499455
 30
0.0
 11
447.1599938878593
 21
403.7929410160172
 31
0.0
  0
LINE
  5
271A
330
1F
100
AcDbEntity
  8
SPOJOVACÍ
  6
DASHED
100
AcDbLine
 10
447.1599938878593
 20
403.2013306062649
 30
0.0
 11
447.1599938878593
 21
402.871341441139
 31
0.0
  0
LINE
  5
271B
330
1F
100
AcDbEntity
  8
SPOJOVACÍ
  6
DASHED
100
AcDbLine
 10
449.8053766473408
 20
402.871341441139
 30
0.0
 11
449.6586135106722
 21
401.6981479167693
 31
0.0
  0
LINE
  5
271C
330
1F
100
AcDbEntity
  8
SPOJOVACÍ
  6
DASHED
100
AcDbLine
 10
448.4826852697392
 20
392.2870756994848
 30
0.0
 11
448.1353762282329
 21
395.0664595807279
 31
0.0
  0
LINE
  5
271D
330
1F
100
AcDbEntity
  8
SPOJOVACÍ
  6
DASHED
100
AcDbLine
 10
449.5829530099967
 20
401.090129206033
 30
0.0
 11
449.2985424574676
 21
398.8148447956896
 31
0.0
  0
LINE
  5
271E
330
1F
100
AcDbEntity
  8
SPOJOVACÍ
  6
DASHED
100
AcDbLine
 10
449.2210588134862
 20
398.1967987898183
 30
0.0
 11
448.9366482652354
 21
395.92242595167
 31
0.0
  0
LINE
  5
271F
330
1F
100
AcDbEntity
  8
SPOJOVACÍ
  6
DASHED
100
AcDbLine
 10
448.8609877645599
 20
395.3144072409336
 30
0.0
 11
448.4826852697392
 21
392.2870756994848
 31
0.0
  0
LINE
  5
2720
330
1F
100
AcDbEntity
  8
SPOJOVACÍ
  6
DASHED
100
AcDbLine
 10
448.0651851617535
 20
395.6243418160534
 30
0.0
 11
447.8026523460089
 21
397.7264274933381
 31
0.0
  0
LINE
  5
2721
330
1F
100
AcDbEntity
  8
SPOJOVACÍ
  6
DASHED
100
AcDbLine
 10
447.7324612838079
 20
398.2870444454979
 30
0.0
 11
447.4708400375771
 21
400.3809259722943
 31
0.0
  0
LINE
  5
2722
330
1F
100
AcDbEntity
  8
SPOJOVACÍ
  6
DASHED
100
AcDbLine
 10
447.4006489710977
 20
400.9397197800785
 30
0.0
 11
447.1599938878593
 21
402.871341441139
 31
0.0
  0
LINE
  5
2723
330
1F
100
AcDbEntity
  8
SPOJOVACÍ
  6
DASHED
100
AcDbLine
 10
450.8345417516052
 20
416.7527641188221
 30
0.0
 11
446.1308287878733
 21
415.5768358778891
 31
0.0
  0
LINE
  5
2724
330
1F
100
AcDbEntity
  8
SPOJOVACÍ
  6
DASHED
100
AcDbLine
 10
450.8345417516052
 20
416.7527641188221
 30
0.0
 11
450.4644434038005
 21
416.5394562054948
 31
0.0
  0
LINE
  5
2725
330
1F
100
AcDbEntity
  8
SPOJOVACÍ
  6
DASHED
100
AcDbLine
 10
450.8345417516052
 20
416.7527641188221
 30
0.0
 11
450.4644434038005
 21
417.1237740366755
 31
0.0
  0
LINE
  5
2726
330
1F
100
AcDbEntity
  8
SPOJOVACÍ
  6
DASHED
100
AcDbLine
 10
446.1308287878733
 20
415.5768358778891
 30
0.0
 11
446.5009271313997
 21
415.2067375322235
 31
0.0
  0
LINE
  5
2727
330
1F
100
AcDbEntity
  8
SPOJOVACÍ
  6
DASHED
100
AcDbLine
 10
446.1308287878733
 20
415.5768358778891
 30
0.0
 11
446.5009271313997
 21
415.7910553636752
 31
0.0
  0
LINE
  5
2728
330
1F
100
AcDbEntity
  8
SPOJOVACÍ
  6
DASHED
100
AcDbLine
 10
450.4644434038005
 20
416.5394562054948
 30
0.0
 11
446.5009271313997
 21
415.2067375322235
 31
0.0
  0
LINE
  5
2729
330
1F
100
AcDbEntity
  8
SPOJOVACÍ
  6
DASHED
100
AcDbLine
 10
450.4644434038005
 20
417.1237740366755
 30
0.0
 11
446.5009271313997
 21
415.7910553636752
 31
0.0
  0
LINE
  5
272A
330
1F
100
AcDbEntity
  8
SPOJOVACÍ
  6
DASHED
100
AcDbLine
 10
450.8345417516052
 20
413.6953506922395
 30
0.0
 11
446.1308287878733
 21
412.5194224510355
 31
0.0
  0
LINE
  5
272B
330
1F
100
AcDbEntity
  8
SPOJOVACÍ
  6
DASHED
100
AcDbLine
 10
450.8345417516052
 20
413.6953506922395
 30
0.0
 11
450.4644434038005
 21
413.4811312064535
 31
0.0
  0
LINE
  5
272C
330
1F
100
AcDbEntity
  8
SPOJOVACÍ
  6
DASHED
100
AcDbLine
 10
450.8345417516052
 20
413.6953506922395
 30
0.0
 11
450.4644434038005
 21
414.0654490379051
 31
0.0
  0
LINE
  5
272D
330
1F
100
AcDbEntity
  8
SPOJOVACÍ
  6
DASHED
100
AcDbLine
 10
446.1308287878733
 20
412.5194224510355
 30
0.0
 11
446.5009271313997
 21
412.1493241056409
 31
0.0
  0
LINE
  5
272E
330
1F
100
AcDbEntity
  8
SPOJOVACÍ
  6
DASHED
100
AcDbLine
 10
446.1308287878733
 20
412.5194224510355
 30
0.0
 11
446.5009271313997
 21
412.7336419368216
 31
0.0
  0
LINE
  5
272F
330
1F
100
AcDbEntity
  8
SPOJOVACÍ
  6
DASHED
100
AcDbLine
 10
450.4644434038005
 20
413.4811312064535
 30
0.0
 11
446.5009271313997
 21
412.1493241056409
 31
0.0
  0
LINE
  5
2730
330
1F
100
AcDbEntity
  8
SPOJOVACÍ
  6
DASHED
100
AcDbLine
 10
450.4644434038005
 20
414.0654490379051
 30
0.0
 11
446.5009271313997
 21
412.7336419368216
 31
0.0
  0
LINE
  5
2731
330
1F
100
AcDbEntity
  8
SPOJOVACÍ
  6
DASHED
100
AcDbLine
 10
450.5856825170726
 20
401.5067177380874
 30
0.0
 11
450.214672599754
 21
401.2924982523013
 31
0.0
  0
LINE
  5
2732
330
1F
100
AcDbEntity
  8
SPOJOVACÍ
  6
DASHED
100
AcDbLine
 10
450.5856825170726
 20
401.5067177380874
 30
0.0
 11
450.214672599754
 21
401.876816083753
 31
0.0
  0
LINE
  5
2733
330
1F
100
AcDbEntity
  8
SPOJOVACÍ
  6
DASHED
100
AcDbLine
 10
446.5428594573845
 20
400.5532131334289
 30
0.0
 11
446.912957800911
 21
400.1822032153045
 31
0.0
  0
LINE
  5
2734
330
1F
100
AcDbEntity
  8
SPOJOVACÍ
  6
DASHED
100
AcDbLine
 10
446.5428594573845
 20
400.5532131334289
 30
0.0
 11
446.912957800911
 21
400.7665210467562
 31
0.0
  0
LINE
  5
2735
330
1F
100
AcDbEntity
  8
SPOJOVACÍ
  6
DASHED
100
AcDbLine
 10
450.214672599754
 20
401.2924982523013
 30
0.0
 11
446.912957800911
 21
400.1822032153045
 31
0.0
  0
LINE
  5
2736
330
1F
100
AcDbEntity
  8
SPOJOVACÍ
  6
DASHED
100
AcDbLine
 10
450.214672599754
 20
401.876816083753
 30
0.0
 11
446.912957800911
 21
400.7665210467562
 31
0.0
  0
LINE
  5
2737
330
1F
100
AcDbEntity
  8
SPOJOVACÍ
  6
DASHED
100
AcDbLine
 10
450.5856825170726
 20
401.5067177380874
 30
0.0
 11
446.5428594573845
 21
400.5532131334289
 31
0.0
  0
LINE
  5
2738
330
1F
100
AcDbEntity
  8
SPOJOVACÍ
  6
DASHED
100
AcDbLine
 10
450.0323581450889
 20
398.5523119788754
 30
0.0
 11
449.6622597972841
 21
398.3390040655481
 31
0.0
  0
LINE
  5
2739
330
1F
100
AcDbEntity
  8
SPOJOVACÍ
  6
DASHED
100
AcDbLine
 10
450.0323581450889
 20
398.5523119788754
 30
0.0
 11
449.6622597972841
 21
398.9233218969998
 31
0.0
  0
LINE
  5
273A
330
1F
100
AcDbEntity
  8
SPOJOVACÍ
  6
DASHED
100
AcDbLine
 10
446.9785910069863
 20
397.9315312564408
 30
0.0
 11
447.3486893505127
 21
397.5605213385875
 31
0.0
  0
LINE
  5
273B
330
1F
100
AcDbEntity
  8
SPOJOVACÍ
  6
DASHED
100
AcDbLine
 10
446.9785910069863
 20
397.9315312564408
 30
0.0
 11
447.3486893505127
 21
398.1448391697681
 31
0.0
  0
LINE
  5
273C
330
1F
100
AcDbEntity
  8
SPOJOVACÍ
  6
DASHED
100
AcDbLine
 10
449.6622597972841
 20
398.3390040655481
 30
0.0
 11
447.3486893505127
 21
397.5605213385875
 31
0.0
  0
LINE
  5
273D
330
1F
100
AcDbEntity
  8
SPOJOVACÍ
  6
DASHED
100
AcDbLine
 10
449.6622597972841
 20
398.9233218969998
 30
0.0
 11
447.3486893505127
 21
398.1448391697681
 31
0.0
  0
LINE
  5
273E
330
1F
100
AcDbEntity
  8
SPOJOVACÍ
  6
DASHED
100
AcDbLine
 10
450.0323581450889
 20
398.5523119788754
 30
0.0
 11
446.9785910069863
 21
397.9315312564408
 31
0.0
  0
LINE
  5
273F
330
1F
100
AcDbEntity
  8
SPOJOVACÍ
  6
DASHED
100
AcDbLine
 10
449.4790337688268
 20
395.5988177921221
 30
0.0
 11
449.1089354253004
 21
395.3845983063434
 31
0.0
  0
LINE
  5
2740
330
1F
100
AcDbEntity
  8
SPOJOVACÍ
  6
DASHED
100
AcDbLine
 10
449.4790337688268
 20
395.5988177921221
 30
0.0
 11
449.1089354253004
 21
395.9689161377878
 31
0.0
  0
LINE
  5
2741
330
1F
100
AcDbEntity
  8
SPOJOVACÍ
  6
DASHED
100
AcDbLine
 10
447.3678323701992
 20
395.2943526506637
 30
0.0
 11
447.7379307137257
 21
394.9233427328104
 31
0.0
  0
LINE
  5
2742
330
1F
100
AcDbEntity
  8
SPOJOVACÍ
  6
DASHED
100
AcDbLine
 10
447.3678323701992
 20
395.2943526506637
 30
0.0
 11
447.7379307137257
 21
395.5076605642548
 31
0.0
  0
LINE
  5
2743
330
1F
100
AcDbEntity
  8
SPOJOVACÍ
  6
DASHED
100
AcDbLine
 10
449.1089354253004
 20
395.3845983063434
 30
0.0
 11
447.7379307137257
 21
394.9233427328104
 31
0.0
  0
LINE
  5
2744
330
1F
100
AcDbEntity
  8
SPOJOVACÍ
  6
DASHED
100
AcDbLine
 10
449.1089354253004
 20
395.9689161377878
 30
0.0
 11
447.7379307137257
 21
395.5076605642548
 31
0.0
  0
LINE
  5
2745
330
1F
100
AcDbEntity
  8
SPOJOVACÍ
  6
DASHED
100
AcDbLine
 10
449.4790337688268
 20
395.5988177921221
 30
0.0
 11
447.3678323701992
 21
395.2943526506637
 31
0.0
  0
LINE
  5
2746
330
1F
100
AcDbEntity
  8
SPOJOVACÍ
  6
DASHED
100
AcDbLine
 10
450.8345417516052
 20
410.637937265386
 30
0.0
 11
446.1308287878733
 21
409.4620090244529
 31
0.0
  0
LINE
  5
2747
330
1F
100
AcDbEntity
  8
SPOJOVACÍ
  6
DASHED
100
AcDbLine
 10
450.8345417516052
 20
410.637937265386
 30
0.0
 11
450.4644434038005
 21
410.4237177795998
 31
0.0
  0
LINE
  5
2748
330
1F
100
AcDbEntity
  8
SPOJOVACÍ
  6
DASHED
100
AcDbLine
 10
450.8345417516052
 20
410.637937265386
 30
0.0
 11
450.4644434038005
 21
411.0080356110516
 31
0.0
  0
LINE
  5
2749
330
1F
100
AcDbEntity
  8
SPOJOVACÍ
  6
DASHED
100
AcDbLine
 10
446.1308287878733
 20
409.4620090244529
 30
0.0
 11
446.5009271313997
 21
409.0909991065996
 31
0.0
  0
LINE
  5
274A
330
1F
100
AcDbEntity
  8
SPOJOVACÍ
  6
DASHED
100
AcDbLine
 10
446.1308287878733
 20
409.4620090244529
 30
0.0
 11
446.5009271313997
 21
409.6753169380439
 31
0.0
  0
LINE
  5
274B
330
1F
100
AcDbEntity
  8
SPOJOVACÍ
  6
DASHED
100
AcDbLine
 10
450.4644434038005
 20
410.4237177795998
 30
0.0
 11
446.5009271313997
 21
409.0909991065996
 31
0.0
  0
LINE
  5
274C
330
1F
100
AcDbEntity
  8
SPOJOVACÍ
  6
DASHED
100
AcDbLine
 10
450.4644434038005
 20
411.0080356110516
 30
0.0
 11
446.5009271313997
 21
409.6753169380439
 31
0.0
  0
LINE
  5
274D
330
1F
100
AcDbEntity
  8
SPOJOVACÍ
  6
DASHED
100
AcDbLine
 10
450.8345417516052
 20
407.5805238387961
 30
0.0
 11
446.1308287878733
 21
406.4045955978631
 31
0.0
  0
LINE
  5
274E
330
1F
100
AcDbEntity
  8
SPOJOVACÍ
  6
DASHED
100
AcDbLine
 10
450.8345417516052
 20
407.5805238387961
 30
0.0
 11
450.4644434038005
 21
407.3663043530173
 31
0.0
  0
LINE
  5
274F
330
1F
100
AcDbEntity
  8
SPOJOVACÍ
  6
DASHED
100
AcDbLine
 10
450.8345417516052
 20
407.5805238387961
 30
0.0
 11
450.4644434038005
 21
407.9506221844617
 31
0.0
  0
LINE
  5
2750
330
1F
100
AcDbEntity
  8
SPOJOVACÍ
  6
DASHED
100
AcDbLine
 10
446.1308287878733
 20
406.4045955978631
 30
0.0
 11
446.5009271313997
 21
406.0335856800097
 31
0.0
  0
LINE
  5
2751
330
1F
100
AcDbEntity
  8
SPOJOVACÍ
  6
DASHED
100
AcDbLine
 10
446.1308287878733
 20
406.4045955978631
 30
0.0
 11
446.5009271313997
 21
406.6179035111904
 31
0.0
  0
LINE
  5
2752
330
1F
100
AcDbEntity
  8
SPOJOVACÍ
  6
DASHED
100
AcDbLine
 10
450.4644434038005
 20
407.3663043530173
 30
0.0
 11
446.5009271313997
 21
406.0335856800097
 31
0.0
  0
LINE
  5
2753
330
1F
100
AcDbEntity
  8
SPOJOVACÍ
  6
DASHED
100
AcDbLine
 10
450.4644434038005
 20
407.9506221844617
 30
0.0
 11
446.5009271313997
 21
406.6179035111904
 31
0.0
  0
LINE
  5
2754
330
1F
100
AcDbEntity
  8
SPOJOVACÍ
  6
DASHED
100
AcDbLine
 10
450.8345417516052
 20
404.5221988397547
 30
0.0
 11
446.1308287878733
 21
403.3462705988218
 31
0.0
  0
LINE
  5
2755
330
1F
100
AcDbEntity
  8
SPOJOVACÍ
  6
DASHED
100
AcDbLine
 10
450.8345417516052
 20
404.5221988397547
 30
0.0
 11
450.4644434038005
 21
404.3088909264274
 31
0.0
  0
LINE
  5
2756
330
1F
100
AcDbEntity
  8
SPOJOVACÍ
  6
DASHED
100
AcDbLine
 10
450.8345417516052
 20
404.5221988397547
 30
0.0
 11
450.4644434038005
 21
404.8932087578791
 31
0.0
  0
LINE
  5
2757
330
1F
100
AcDbEntity
  8
SPOJOVACÍ
  6
DASHED
100
AcDbLine
 10
446.1308287878733
 20
403.3462705988218
 30
0.0
 11
446.5009271313997
 21
402.9761722531561
 31
0.0
  0
LINE
  5
2758
330
1F
100
AcDbEntity
  8
SPOJOVACÍ
  6
DASHED
100
AcDbLine
 10
446.1308287878733
 20
403.3462705988218
 30
0.0
 11
446.5009271313997
 21
403.5604900846078
 31
0.0
  0
LINE
  5
2759
330
1F
100
AcDbEntity
  8
SPOJOVACÍ
  6
DASHED
100
AcDbLine
 10
450.4644434038005
 20
404.3088909264274
 30
0.0
 11
446.5009271313997
 21
402.9761722531561
 31
0.0
  0
LINE
  5
275A
330
1F
100
AcDbEntity
  8
SPOJOVACÍ
  6
DASHED
100
AcDbLine
 10
450.4644434038005
 20
404.8932087578791
 30
0.0
 11
446.5009271313997
 21
403.5604900846078
 31
0.0
  0
LWPOLYLINE
  5
275B
330
1F
100
AcDbEntity
  8
STAVBA OBRYS
100
AcDbPolyline
 90
        2
 70
     0
 43
0.0
 10
491.0754301703949
 20
389.9535069701519
 42
-0.0070027860950108
 10
489.2514589704245
 20
383.3370298604764
  0
LWPOLYLINE
  5
275C
330
1F
100
AcDbEntity
  8
STAVBA OBRYS
100
AcDbPolyline
 90
        2
 70
     0
 43
0.0
 10
482.7987182365744
 20
403.3370298604763
 42
-0.0133702840819155
 10
479.1488511757619
 20
383.3370298604764
 42
-0.0133702840819155
  0
LWPOLYLINE
  5
275D
330
1F
100
AcDbEntity
  8
STAVBA OBRYS
100
AcDbPolyline
 90
        3
 70
     0
 43
0.0
 10
457.0764052533434
 20
396.8378602912212
 10
477.0726576853361
 20
387.6218312407013
 10
481.0725953190507
 20
386.9764337653591
  0
LWPOLYLINE
  5
275E
330
1F
100
AcDbEntity
  8
STAVBA OBRYS
100
AcDbPolyline
 90
        7
 70
     0
 43
0.0
 10
463.9847732525289
 20
403.3370298604763
 42
-0.0120721047703132
 10
463.915790562491
 20
401.6031417217322
 42
-0.044358077361292
 10
463.5201628278176
 20
398.9073417033155
 42
-0.0188067511131767
 10
461.5003393794344
 20
391.6651125280091
 42
-0.0457786284636091
 10
460.2923164898187
 20
388.8165021451291
 42
-0.0295006114745606
 10
457.8762560355193
 20
384.889602931727
 42
-0.0094449184784486
 10
456.7455895949991
 20
383.3370298604764
 42
-0.0094449184784486
  0
LWPOLYLINE
  5
275F
330
1F
100
AcDbEntity
  8
STAVBA OBRYS
100
AcDbPolyline
 90
        5
 70
     0
 43
0.0
 10
472.6089886325702
 20
403.3370298604763
 42
-0.0128837512779298
 10
472.3241966723456
 20
400.00386503873
 42
-0.0351641677647434
 10
471.6964369508226
 20
396.4001555843911
 42
-0.0187319685742942
 10
468.3124210698318
 20
384.6419182422483
 42
-0.0205166500055637
 10
467.8231728409213
 20
383.3370298604764
 42
-0.0205166500055637
  0
LINE
  5
2760
330
1F
100
AcDbEntity
  8
POPIS
100
AcDbLine
 10
485.8338415270977
 20
335.7214352800961
 30
0.0
 11
485.8338415270977
 21
398.5268082957695
 31
0.0
  0
TEXT
  5
2761
330
1F
100
AcDbEntity
  8
POPIS
100
AcDbText
 10
469.3246601756277
 20
303.0895972331632
 30
0.0
 40
25.0
  1
07
 41
0.85
  7
SIMPLEX7
100
AcDbText
  0
INSERT
  5
2762
330
1F
100
AcDbEntity
  8
POPIS
100
AcDbBlockReference
  2
E_PUNKT
 10
485.8969941467607
 20
399.000527532708
 30
0.0
 50
270.0
  0
LINE
  5
2763
330
1F
100
AcDbEntity
  8
POPIS
100
AcDbLine
 10
565.3489293875995
 20
335.7214352800961
 30
0.0
 11
565.3489293875995
 21
398.5268082957695
 31
0.0
  0
TEXT
  5
2764
330
1F
100
AcDbEntity
  8
POPIS
100
AcDbText
 10
548.8397480361295
 20
303.0895972331632
 30
0.0
 40
25.0
  1
08
 41
0.85
  7
SIMPLEX7
100
AcDbText
  0
INSERT
  5
2765
330
1F
100
AcDbEntity
  8
POPIS
100
AcDbBlockReference
  2
E_PUNKT
 10
565.3198610567256
 20
397.94279169013
 30
0.0
 50
270.0
  0
HATCH
  5
2766
330
1F
100
AcDbEntity
  8
izolace
100
AcDbHatch
 10
0.0
 20
0.0
 30
0.0
210
0.0
220
0.0
230
1.0
  2
SOLID
 70
     1
 71
     0
 91
        1
 92
        7
 72
     0
 73
     1
 93
       12
 10
428.1121138080256
 20
434.2972792489431
 10
419.0387465327643
 20
434.2972792489413
 10
419.0387465327643
 20
429.2783979725168
 10
408.5498054479743
 20
429.2783979725168
 10
408.5498054479743
 20
428.3407062458095
 10
420.1006780452793
 20
428.3407062458095
 10
420.1006780452793
 20
433.2014986015187
 10
427.0501822955106
 20
433.2014986015178
 10
427.0501822955142
 20
428.3407062458095
 10
438.6010548928156
 20
428.3407062458095
 10
438.6010548928119
 20
429.2783979725168
 10
428.1121138080256
 20
429.2783979725168
 97
        0
 75
     0
 76
     1
 47
0.1079746841384943
 98
        1
 10
420.6263519690895
 20
433.8698910008202
  0
LINE
  5
2767
330
1F
100
AcDbEntity
  8
nášlap_vrstvy
100
AcDbLine
 10
428.8941898268699
 20
429.9587902229936
 30
0.0
 11
428.8941898268699
 21
434.2972792489413
 31
0.0
  0
LINE
  5
2768
330
1F
100
AcDbEntity
  8
izolace
100
AcDbLine
 10
420.1006780452794
 20
433.2014986015187
 30
0.0
 11
427.0501822955107
 21
433.2014986015178
 31
0.0
  0
LINE
  5
2769
330
1F
100
AcDbEntity
  8
izolace
100
AcDbLine
 10
427.0501822955107
 20
433.2014986015178
 30
0.0
 11
427.0501822955107
 21
428.3407062458095
 31
0.0
  0
LINE
  5
276A
330
1F
100
AcDbEntity
  8
izolace
100
AcDbLine
 10
428.1121138080257
 20
434.2972792489422
 30
0.0
 11
428.1121138080257
 21
429.2783979725168
 31
0.0
  0
LINE
  5
276B
330
1F
100
AcDbEntity
  8
izolace
100
AcDbLine
 10
438.6010548928156
 20
429.2783979725168
 30
0.0
 11
428.1121138080257
 21
429.2783979725168
 31
0.0
  0
LINE
  5
276C
330
1F
100
AcDbEntity
  8
izolace
100
AcDbLine
 10
438.6010548928156
 20
428.3407062458095
 30
0.0
 11
427.0501822955107
 21
428.3407062458095
 31
0.0
  0
LINE
  5
276D
330
1F
100
AcDbEntity
  8
izolace
100
AcDbLine
 10
438.6010548928156
 20
428.3407062458095
 30
0.0
 11
438.6010548928156
 21
429.2783979725168
 31
0.0
  0
LINE
  5
276E
330
1F
100
AcDbEntity
  8
izolace
100
AcDbLine
 10
408.5498054479744
 20
428.3407062458095
 30
0.0
 11
408.5498054479744
 21
429.2783979725168
 31
0.0
  0
LINE
  5
276F
330
1F
100
AcDbEntity
  8
izolace
100
AcDbLine
 10
408.5498054479744
 20
428.3407062458095
 30
0.0
 11
420.1006780452794
 21
428.3407062458095
 31
0.0
  0
LINE
  5
2770
330
1F
100
AcDbEntity
  8
izolace
100
AcDbLine
 10
408.5498054479744
 20
429.2783979725168
 30
0.0
 11
419.0387465327644
 21
429.2783979725168
 31
0.0
  0
LINE
  5
2771
330
1F
100
AcDbEntity
  8
izolace
100
AcDbLine
 10
419.0387465327644
 20
434.2972792489413
 30
0.0
 11
419.0387465327644
 21
429.2783979725168
 31
0.0
  0
LINE
  5
2772
330
1F
100
AcDbEntity
  8
izolace
100
AcDbLine
 10
420.1006780452794
 20
433.2014986015187
 30
0.0
 11
420.1006780452794
 21
428.3407062458095
 31
0.0
  0
LINE
  5
2773
330
1F
100
AcDbEntity
  8
izolace
100
AcDbLine
 10
419.0387465327644
 20
434.2972792489413
 30
0.0
 11
428.1121138080257
 21
434.2972792489422
 31
0.0
  0
LINE
  5
2774
330
1F
100
AcDbEntity
  8
SPOJOVACÍ
  6
DASHED
100
AcDbLine
 10
393.6700242601896
 20
426.1611016192796
 30
0.0
 11
394.9927156420694
 21
425.4318437955348
 31
0.0
  0
LINE
  5
2775
330
1F
100
AcDbEntity
  8
SPOJOVACÍ
  6
DASHED
100
AcDbLine
 10
394.9927156420694
 20
425.4318437955348
 30
0.0
 11
396.0811329444209
 21
424.3844472459109
 31
0.0
  0
LINE
  5
2776
330
1F
100
AcDbEntity
  8
SPOJOVACÍ
  6
DASHED
100
AcDbLine
 10
401.7529356667459
 20
424.9313906139209
 30
0.0
 11
402.9653267994676
 21
425.8311124541537
 31
0.0
  0
LINE
  5
2777
330
1F
100
AcDbEntity
  8
SPOJOVACÍ
  6
DASHED
100
AcDbLine
 10
402.9653267994676
 20
425.8311124541537
 30
0.0
 11
403.6663258819121
 21
426.1611016192796
 31
0.0
  0
LINE
  5
2778
330
1F
100
AcDbEntity
  8
SPOJOVACÍ
  6
DASHED
100
AcDbLine
 10
393.6700242601896
 20
426.1611016192796
 30
0.0
 11
403.6663258819121
 21
426.1611016192796
 31
0.0
  0
LINE
  5
2779
330
1F
100
AcDbEntity
  8
SPOJOVACÍ
  6
DASHED
100
AcDbLine
 10
393.6700242601896
 20
427.3370298604763
 30
0.0
 11
393.6700242601896
 21
426.1611016192796
 31
0.0
  0
LINE
  5
277A
330
1F
100
AcDbEntity
  8
SPOJOVACÍ
  6
DASHED
100
AcDbLine
 10
393.6700242601896
 20
427.3370298604763
 30
0.0
 11
403.6663258819121
 21
427.3370298604763
 31
0.0
  0
LINE
  5
277B
330
1F
100
AcDbEntity
  8
SPOJOVACÍ
  6
DASHED
100
AcDbLine
 10
403.6663258819121
 20
427.3370298604763
 30
0.0
 11
403.6663258819121
 21
426.1611016192796
 31
0.0
  0
LINE
  5
277C
330
1F
100
AcDbEntity
  8
nášlap_vrstvy
100
AcDbLine
 10
428.8941898268699
 20
434.2972792489413
 30
0.0
 11
428.8941898268699
 21
429.9587902229936
 31
0.0
  0
LINE
  5
277D
330
1F
100
AcDbEntity
  8
nášlap_vrstvy
100
AcDbLine
 10
418.2566705139201
 20
429.9587902229936
 30
0.0
 11
418.2566705139201
 21
434.2972792489413
 31
0.0
  0
INSERT
  5
277E
330
1F
100
AcDbEntity
  8
POPIS
100
AcDbBlockReference
  2
E_PUNKT
 10
423.034456123331
 20
435.989813055538
 30
0.0
 50
270.0
  0
LINE
  5
277F
330
1F
100
AcDbEntity
  8
POPIS
100
AcDbLine
 10
423.5205617502638
 20
499.6304886136636
 30
0.0
 11
423.5205617502638
 21
434.798752246927
 31
0.0
  0
TEXT
  5
2780
330
1F
100
AcDbEntity
  8
POPIS
100
AcDbText
 10
406.6228908184589
 20
508.4798496863872
 30
0.0
 40
25.0
  1
01
 41
0.85
  7
SIMPLEX7
100
AcDbText
  0
TEXT
  5
2781
330
1F
100
AcDbEntity
  8
POPIS
100
AcDbText
 10
500.1451510579158
 20
508.4798496863872
 30
0.0
 40
25.0
  1
02
 41
0.85
  7
SIMPLEX7
100
AcDbText
  0
LINE
  5
2782
330
1F
100
AcDbEntity
  8
POPIS
100
AcDbLine
 10
518.9407444696285
 20
499.6304886136636
 30
0.0
 11
518.9407444696285
 21
434.2184328122835
 31
0.0
  0
TEXT
  5
2783
330
1F
100
AcDbEntity
  8
POPIS
100
AcDbText
 10
554.1977000486717
 20
508.4798496863872
 30
0.0
 40
25.0
  1
04
 41
0.85
  7
SIMPLEX7
100
AcDbText
  0
LINE
  5
2784
330
1F
100
AcDbEntity
  8
SPOJOVACÍ
  6
DASHED
100
AcDbLine
 10
443.4845344588779
 20
427.3370298604763
 30
0.0
 11
443.4845344588779
 21
426.1611016192796
 31
0.0
  0
LINE
  5
2785
330
1F
100
AcDbEntity
  8
SPOJOVACÍ
  6
DASHED
100
AcDbLine
 10
453.4808360806005
 20
427.3370298604763
 30
0.0
 11
443.4845344588779
 21
427.3370298604763
 31
0.0
  0
LINE
  5
2786
330
1F
100
AcDbEntity
  8
SPOJOVACÍ
  6
DASHED
100
AcDbLine
 10
453.4808360806005
 20
427.3370298604763
 30
0.0
 11
453.4808360806005
 21
426.1611016192796
 31
0.0
  0
LINE
  5
2787
330
1F
100
AcDbEntity
  8
SPOJOVACÍ
  6
DASHED
100
AcDbLine
 10
453.4808360806005
 20
426.1611016192796
 30
0.0
 11
443.4845344588779
 21
426.1611016192796
 31
0.0
  0
LINE
  5
2788
330
1F
100
AcDbEntity
  8
SPOJOVACÍ
  6
DASHED
100
AcDbLine
 10
444.1855335413224
 20
425.8311124541537
 30
0.0
 11
443.4845344588779
 21
426.1611016192796
 31
0.0
  0
LINE
  5
2789
330
1F
100
AcDbEntity
  8
SPOJOVACÍ
  6
DASHED
100
AcDbLine
 10
445.3979246740441
 20
424.9313906139209
 30
0.0
 11
444.1855335413224
 21
425.8311124541537
 31
0.0
  0
LINE
  5
278A
330
1F
100
AcDbEntity
  8
SPOJOVACÍ
  6
DASHED
100
AcDbLine
 10
452.1581446987206
 20
425.4318437955348
 30
0.0
 11
451.0697273963692
 21
424.3844472459109
 31
0.0
  0
LINE
  5
278B
330
1F
100
AcDbEntity
  8
SPOJOVACÍ
  6
DASHED
100
AcDbLine
 10
453.4808360806005
 20
426.1611016192796
 30
0.0
 11
452.1581446987206
 21
425.4318437955348
 31
0.0
  0
INSERT
  5
278C
330
1F
100
AcDbEntity
  8
POPIS
100
AcDbBlockReference
  2
E_PUNKT
 10
518.9924766238059
 20
435.989813055538
 30
0.0
 50
270.0
  0
LINE
  5
278D
330
1F
100
AcDbEntity
  8
SPOJOVACÍ
  6
DASHED
100
AcDbLine
 10
716.9820243276758
 20
423.74816979468
 30
0.0
 11
717.9209437762606
 21
424.9313906139209
 31
0.0
  0
LINE
  5
278E
330
1F
100
AcDbEntity
  8
SPOJOVACÍ
  6
DASHED
100
AcDbLine
 10
712.2491410539355
 20
424.3844472459109
 30
0.0
 11
713.0294469236673
 21
423.0918377531793
 31
0.0
  0
LINE
  5
278F
330
1F
100
AcDbEntity
  8
CETRIS
100
AcDbLine
 10
690.8667797147905
 20
427.337029860475
 30
0.0
 11
690.8667797147905
 21
415.3370298604763
 31
0.0
  0
LINE
  5
2790
330
1F
100
AcDbEntity
  8
POPIS
100
AcDbLine
 10
617.977685794644
 20
499.6304886136636
 30
0.0
 11
617.977685794644
 21
409.8917324247845
 31
0.0
  0
LINE
  5
2791
330
1F
100
AcDbEntity
  8
POPIS
100
AcDbLine
 10
667.0662012589295
 20
499.6304886136636
 30
0.0
 11
667.0662012589295
 21
420.2828445304053
 31
0.0
  0
TEXT
  5
2792
330
1F
100
AcDbEntity
  8
POPIS
100
AcDbText
 10
854.0907492458778
 20
402.9003897701182
 30
0.0
 40
25.0
  1
08
 41
0.85
  7
SIMPLEX7
100
AcDbText
  0
LINE
  5
2793
330
1F
100
AcDbEntity
  8
SPOJOVACÍ
  6
DASHED
100
AcDbLine
 10
669.4844183756454
 20
424.3844472459109
 30
0.0
 11
668.7041125059136
 21
423.0918377531793
 31
0.0
  0
LINE
  5
2794
330
1F
100
AcDbEntity
  8
SPOJOVACÍ
  6
DASHED
100
AcDbLine
 10
664.7515351019051
 20
423.74816979468
 30
0.0
 11
663.8126156533203
 21
424.9313906139209
 31
0.0
  0
LINE
  5
2795
330
1F
100
AcDbEntity
  8
SPOJOVACÍ
  6
DASHED
100
AcDbLine
 10
712.4843266986995
 20
416.7527641188221
 30
0.0
 11
717.1880396624315
 21
415.5768358778891
 31
0.0
  0
LINE
  5
2796
330
1F
100
AcDbEntity
  8
SPOJOVACÍ
  6
DASHED
100
AcDbLine
 10
712.4843266986995
 20
416.7527641188221
 30
0.0
 11
712.8544250465043
 21
416.5394562054948
 31
0.0
  0
LINE
  5
2797
330
1F
100
AcDbEntity
  8
SPOJOVACÍ
  6
DASHED
100
AcDbLine
 10
712.4843266986995
 20
416.7527641188221
 30
0.0
 11
712.8544250465043
 21
417.1237740366755
 31
0.0
  0
LINE
  5
2798
330
1F
100
AcDbEntity
  8
SPOJOVACÍ
  6
DASHED
100
AcDbLine
 10
712.4843266986995
 20
413.6953506922395
 30
0.0
 11
717.1880396624315
 21
412.5194224510355
 31
0.0
  0
LINE
  5
2799
330
1F
100
AcDbEntity
  8
SPOJOVACÍ
  6
DASHED
100
AcDbLine
 10
712.4843266986995
 20
413.6953506922395
 30
0.0
 11
712.8544250465043
 21
413.4811312064535
 31
0.0
  0
LINE
  5
279A
330
1F
100
AcDbEntity
  8
SPOJOVACÍ
  6
DASHED
100
AcDbLine
 10
712.4843266986995
 20
413.6953506922395
 30
0.0
 11
712.8544250465043
 21
414.0654490379051
 31
0.0
  0
LINE
  5
279B
330
1F
100
AcDbEntity
  8
SPOJOVACÍ
  6
DASHED
100
AcDbLine
 10
712.4843266986995
 20
410.637937265386
 30
0.0
 11
717.1880396624315
 21
409.4620090244529
 31
0.0
  0
LINE
  5
279C
330
1F
100
AcDbEntity
  8
SPOJOVACÍ
  6
DASHED
100
AcDbLine
 10
712.4843266986995
 20
410.637937265386
 30
0.0
 11
712.8544250465043
 21
410.4237177795998
 31
0.0
  0
LINE
  5
279D
330
1F
100
AcDbEntity
  8
SPOJOVACÍ
  6
DASHED
100
AcDbLine
 10
712.4843266986995
 20
410.637937265386
 30
0.0
 11
712.8544250465043
 21
411.0080356110516
 31
0.0
  0
LINE
  5
279E
330
1F
100
AcDbEntity
  8
SPOJOVACÍ
  6
DASHED
100
AcDbLine
 10
712.4843266986995
 20
407.5805238387961
 30
0.0
 11
717.1880396624315
 21
406.4045955978631
 31
0.0
  0
LINE
  5
279F
330
1F
100
AcDbEntity
  8
SPOJOVACÍ
  6
DASHED
100
AcDbLine
 10
712.4843266986995
 20
407.5805238387961
 30
0.0
 11
712.8544250465043
 21
407.3663043530173
 31
0.0
  0
LINE
  5
27A0
330
1F
100
AcDbEntity
  8
SPOJOVACÍ
  6
DASHED
100
AcDbLine
 10
712.4843266986995
 20
407.5805238387961
 30
0.0
 11
712.8544250465043
 21
407.9506221844617
 31
0.0
  0
LINE
  5
27A1
330
1F
100
AcDbEntity
  8
SPOJOVACÍ
  6
DASHED
100
AcDbLine
 10
712.4843266986995
 20
404.5221988397547
 30
0.0
 11
717.1880396624315
 21
403.3462705988218
 31
0.0
  0
LINE
  5
27A2
330
1F
100
AcDbEntity
  8
SPOJOVACÍ
  6
DASHED
100
AcDbLine
 10
712.4843266986995
 20
404.5221988397547
 30
0.0
 11
712.8544250465043
 21
404.3088909264274
 31
0.0
  0
LINE
  5
27A3
330
1F
100
AcDbEntity
  8
SPOJOVACÍ
  6
DASHED
100
AcDbLine
 10
712.4843266986995
 20
404.5221988397547
 30
0.0
 11
712.8544250465043
 21
404.8932087578791
 31
0.0
  0
LINE
  5
27A4
330
1F
100
AcDbEntity
  8
SPOJOVACÍ
  6
DASHED
100
AcDbLine
 10
716.1588745624453
 20
420.8694245348101
 30
0.0
 11
716.1588745624453
 21
416.0253294394602
 31
0.0
  0
LINE
  5
27A5
330
1F
100
AcDbEntity
  8
SPOJOVACÍ
  6
DASHED
100
AcDbLine
 10
713.5134918029639
 20
420.8694245348101
 30
0.0
 11
713.5134918029639
 21
416.9122892677237
 31
0.0
  0
LINE
  5
27A6
330
1F
100
AcDbEntity
  8
SPOJOVACÍ
  6
DASHED
100
AcDbLine
 10
713.5134918029639
 20
416.3288830087308
 30
0.0
 11
713.5134918029639
 21
413.8603452748025
 31
0.0
  0
LINE
  5
27A7
330
1F
100
AcDbEntity
  8
SPOJOVACÍ
  6
DASHED
100
AcDbLine
 10
713.5134918029639
 20
413.2687348653139
 30
0.0
 11
713.5134918029639
 21
410.7983739867391
 31
0.0
  0
LINE
  5
27A8
330
1F
100
AcDbEntity
  8
SPOJOVACÍ
  6
DASHED
100
AcDbLine
 10
713.5134918029639
 20
410.2158792999339
 30
0.0
 11
713.5134918029639
 21
407.7382258433222
 31
0.0
  0
LINE
  5
27A9
330
1F
100
AcDbEntity
  8
SPOJOVACÍ
  6
DASHED
100
AcDbLine
 10
716.1588745624453
 20
415.4337190299716
 30
0.0
 11
716.1588745624453
 21
412.9651812960433
 31
0.0
  0
LINE
  5
27AA
330
1F
100
AcDbEntity
  8
SPOJOVACÍ
  6
DASHED
100
AcDbLine
 10
716.1588745624453
 20
412.3808634645915
 30
0.0
 11
716.1588745624453
 21
409.9032100079798
 31
0.0
  0
LINE
  5
27AB
330
1F
100
AcDbEntity
  8
SPOJOVACÍ
  6
DASHED
100
AcDbLine
 10
716.1588745624453
 20
409.3207153211746
 30
0.0
 11
716.1588745624453
 21
406.8503544425998
 31
0.0
  0
LINE
  5
27AC
330
1F
100
AcDbEntity
  8
SPOJOVACÍ
  6
DASHED
100
AcDbLine
 10
713.5134918029639
 20
407.1457038613821
 30
0.0
 11
713.5134918029639
 21
404.6780776996415
 31
0.0
  0
LINE
  5
27AD
330
1F
100
AcDbEntity
  8
SPOJOVACÍ
  6
DASHED
100
AcDbLine
 10
713.5134918029639
 20
404.0937598681898
 30
0.0
 11
713.5134918029639
 21
402.871341441139
 31
0.0
  0
LINE
  5
27AE
330
1F
100
AcDbEntity
  8
SPOJOVACÍ
  6
DASHED
100
AcDbLine
 10
716.1588745624453
 20
406.2614787499455
 30
0.0
 11
716.1588745624453
 21
403.7929410160172
 31
0.0
  0
LINE
  5
27AF
330
1F
100
AcDbEntity
  8
SPOJOVACÍ
  6
DASHED
100
AcDbLine
 10
716.1588745624453
 20
403.2013306062649
 30
0.0
 11
716.1588745624453
 21
402.871341441139
 31
0.0
  0
LINE
  5
27B0
330
1F
100
AcDbEntity
  8
SPOJOVACÍ
  6
DASHED
100
AcDbLine
 10
713.5134918029639
 20
402.871341441139
 30
0.0
 11
713.6602549396325
 21
401.6981479167693
 31
0.0
  0
LINE
  5
27B1
330
1F
100
AcDbEntity
  8
SPOJOVACÍ
  6
DASHED
100
AcDbLine
 10
714.8361831805654
 20
392.2870756994848
 30
0.0
 11
715.1834922220719
 21
395.0664595807279
 31
0.0
  0
LINE
  5
27B2
330
1F
100
AcDbEntity
  8
SPOJOVACÍ
  6
DASHED
100
AcDbLine
 10
713.7359154403079
 20
401.090129206033
 30
0.0
 11
714.020325992837
 21
398.8148447956896
 31
0.0
  0
LINE
  5
27B3
330
1F
100
AcDbEntity
  8
SPOJOVACÍ
  6
DASHED
100
AcDbLine
 10
714.0978096368185
 20
398.1967987898183
 30
0.0
 11
714.3822201850694
 21
395.92242595167
 31
0.0
  0
LINE
  5
27B4
330
1F
100
AcDbEntity
  8
SPOJOVACÍ
  6
DASHED
100
AcDbLine
 10
714.4578806857448
 20
395.3144072409336
 30
0.0
 11
714.8361831805654
 21
392.2870756994848
 31
0.0
  0
LINE
  5
27B5
330
1F
100
AcDbEntity
  8
SPOJOVACÍ
  6
DASHED
100
AcDbLine
 10
715.2536832885512
 20
395.6243418160534
 30
0.0
 11
715.5162161042958
 21
397.7264274933381
 31
0.0
  0
LINE
  5
27B6
330
1F
100
AcDbEntity
  8
SPOJOVACÍ
  6
DASHED
100
AcDbLine
 10
715.5864071664969
 20
398.2870444454979
 30
0.0
 11
715.8480284127277
 21
400.3809259722943
 31
0.0
  0
LINE
  5
27B7
330
1F
100
AcDbEntity
  8
SPOJOVACÍ
  6
DASHED
100
AcDbLine
 10
715.9182194792069
 20
400.9397197800785
 30
0.0
 11
716.1588745624453
 21
402.871341441139
 31
0.0
  0
LINE
  5
27B8
330
1F
100
AcDbEntity
  8
SPOJOVACÍ
  6
DASHED
100
AcDbLine
 10
717.1880396624315
 20
415.5768358778891
 30
0.0
 11
716.817941318905
 21
415.2067375322235
 31
0.0
  0
LINE
  5
27B9
330
1F
100
AcDbEntity
  8
SPOJOVACÍ
  6
DASHED
100
AcDbLine
 10
717.1880396624315
 20
415.5768358778891
 30
0.0
 11
716.817941318905
 21
415.7910553636752
 31
0.0
  0
LINE
  5
27BA
330
1F
100
AcDbEntity
  8
SPOJOVACÍ
  6
DASHED
100
AcDbLine
 10
712.8544250465043
 20
416.5394562054948
 30
0.0
 11
716.817941318905
 21
415.2067375322235
 31
0.0
  0
LINE
  5
27BB
330
1F
100
AcDbEntity
  8
SPOJOVACÍ
  6
DASHED
100
AcDbLine
 10
712.8544250465043
 20
417.1237740366755
 30
0.0
 11
716.817941318905
 21
415.7910553636752
 31
0.0
  0
LINE
  5
27BC
330
1F
100
AcDbEntity
  8
SPOJOVACÍ
  6
DASHED
100
AcDbLine
 10
717.1880396624315
 20
412.5194224510355
 30
0.0
 11
716.817941318905
 21
412.1493241056409
 31
0.0
  0
LINE
  5
27BD
330
1F
100
AcDbEntity
  8
SPOJOVACÍ
  6
DASHED
100
AcDbLine
 10
717.1880396624315
 20
412.5194224510355
 30
0.0
 11
716.817941318905
 21
412.7336419368216
 31
0.0
  0
LINE
  5
27BE
330
1F
100
AcDbEntity
  8
SPOJOVACÍ
  6
DASHED
100
AcDbLine
 10
712.8544250465043
 20
413.4811312064535
 30
0.0
 11
716.817941318905
 21
412.1493241056409
 31
0.0
  0
LINE
  5
27BF
330
1F
100
AcDbEntity
  8
SPOJOVACÍ
  6
DASHED
100
AcDbLine
 10
712.8544250465043
 20
414.0654490379051
 30
0.0
 11
716.817941318905
 21
412.7336419368216
 31
0.0
  0
LINE
  5
27C0
330
1F
100
AcDbEntity
  8
SPOJOVACÍ
  6
DASHED
100
AcDbLine
 10
712.7331859332321
 20
401.5067177380874
 30
0.0
 11
713.1041958505506
 21
401.2924982523013
 31
0.0
  0
LINE
  5
27C1
330
1F
100
AcDbEntity
  8
SPOJOVACÍ
  6
DASHED
100
AcDbLine
 10
712.7331859332321
 20
401.5067177380874
 30
0.0
 11
713.1041958505506
 21
401.876816083753
 31
0.0
  0
LINE
  5
27C2
330
1F
100
AcDbEntity
  8
SPOJOVACÍ
  6
DASHED
100
AcDbLine
 10
716.7760089929202
 20
400.5532131334289
 30
0.0
 11
716.4059106493937
 21
400.1822032153045
 31
0.0
  0
LINE
  5
27C3
330
1F
100
AcDbEntity
  8
SPOJOVACÍ
  6
DASHED
100
AcDbLine
 10
716.7760089929202
 20
400.5532131334289
 30
0.0
 11
716.4059106493937
 21
400.7665210467562
 31
0.0
  0
LINE
  5
27C4
330
1F
100
AcDbEntity
  8
SPOJOVACÍ
  6
DASHED
100
AcDbLine
 10
713.1041958505506
 20
401.2924982523013
 30
0.0
 11
716.4059106493937
 21
400.1822032153045
 31
0.0
  0
LINE
  5
27C5
330
1F
100
AcDbEntity
  8
SPOJOVACÍ
  6
DASHED
100
AcDbLine
 10
713.1041958505506
 20
401.876816083753
 30
0.0
 11
716.4059106493937
 21
400.7665210467562
 31
0.0
  0
LINE
  5
27C6
330
1F
100
AcDbEntity
  8
SPOJOVACÍ
  6
DASHED
100
AcDbLine
 10
712.7331859332321
 20
401.5067177380874
 30
0.0
 11
716.7760089929202
 21
400.5532131334289
 31
0.0
  0
LINE
  5
27C7
330
1F
100
AcDbEntity
  8
SPOJOVACÍ
  6
DASHED
100
AcDbLine
 10
713.2865103052158
 20
398.5523119788754
 30
0.0
 11
713.6566086530206
 21
398.3390040655481
 31
0.0
  0
LINE
  5
27C8
330
1F
100
AcDbEntity
  8
SPOJOVACÍ
  6
DASHED
100
AcDbLine
 10
713.2865103052158
 20
398.5523119788754
 30
0.0
 11
713.6566086530206
 21
398.9233218969998
 31
0.0
  0
LINE
  5
27C9
330
1F
100
AcDbEntity
  8
SPOJOVACÍ
  6
DASHED
100
AcDbLine
 10
716.3402774433184
 20
397.9315312564408
 30
0.0
 11
715.9701790997919
 21
397.5605213385875
 31
0.0
  0
LINE
  5
27CA
330
1F
100
AcDbEntity
  8
SPOJOVACÍ
  6
DASHED
100
AcDbLine
 10
716.3402774433184
 20
397.9315312564408
 30
0.0
 11
715.9701790997919
 21
398.1448391697681
 31
0.0
  0
LINE
  5
27CB
330
1F
100
AcDbEntity
  8
SPOJOVACÍ
  6
DASHED
100
AcDbLine
 10
713.6566086530206
 20
398.3390040655481
 30
0.0
 11
715.9701790997919
 21
397.5605213385875
 31
0.0
  0
LINE
  5
27CC
330
1F
100
AcDbEntity
  8
SPOJOVACÍ
  6
DASHED
100
AcDbLine
 10
713.6566086530206
 20
398.9233218969998
 30
0.0
 11
715.9701790997919
 21
398.1448391697681
 31
0.0
  0
LINE
  5
27CD
330
1F
100
AcDbEntity
  8
SPOJOVACÍ
  6
DASHED
100
AcDbLine
 10
713.2865103052158
 20
398.5523119788754
 30
0.0
 11
716.3402774433184
 21
397.9315312564408
 31
0.0
  0
LINE
  5
27CE
330
1F
100
AcDbEntity
  8
SPOJOVACÍ
  6
DASHED
100
AcDbLine
 10
713.8398346814779
 20
395.5988177921221
 30
0.0
 11
714.2099330250044
 21
395.3845983063434
 31
0.0
  0
LINE
  5
27CF
330
1F
100
AcDbEntity
  8
SPOJOVACÍ
  6
DASHED
100
AcDbLine
 10
713.8398346814779
 20
395.5988177921221
 30
0.0
 11
714.2099330250044
 21
395.9689161377878
 31
0.0
  0
LINE
  5
27D0
330
1F
100
AcDbEntity
  8
SPOJOVACÍ
  6
DASHED
100
AcDbLine
 10
715.9510360801054
 20
395.2943526506637
 30
0.0
 11
715.580937736579
 21
394.9233427328104
 31
0.0
  0
LINE
  5
27D1
330
1F
100
AcDbEntity
  8
SPOJOVACÍ
  6
DASHED
100
AcDbLine
 10
715.9510360801054
 20
395.2943526506637
 30
0.0
 11
715.580937736579
 21
395.5076605642548
 31
0.0
  0
LINE
  5
27D2
330
1F
100
AcDbEntity
  8
SPOJOVACÍ
  6
DASHED
100
AcDbLine
 10
714.2099330250044
 20
395.3845983063434
 30
0.0
 11
715.580937736579
 21
394.9233427328104
 31
0.0
  0
LINE
  5
27D3
330
1F
100
AcDbEntity
  8
SPOJOVACÍ
  6
DASHED
100
AcDbLine
 10
714.2099330250044
 20
395.9689161377878
 30
0.0
 11
715.580937736579
 21
395.5076605642548
 31
0.0
  0
LINE
  5
27D4
330
1F
100
AcDbEntity
  8
SPOJOVACÍ
  6
DASHED
100
AcDbLine
 10
713.8398346814779
 20
395.5988177921221
 30
0.0
 11
715.9510360801054
 21
395.2943526506637
 31
0.0
  0
LINE
  5
27D5
330
1F
100
AcDbEntity
  8
SPOJOVACÍ
  6
DASHED
100
AcDbLine
 10
717.1880396624315
 20
409.4620090244529
 30
0.0
 11
716.817941318905
 21
409.0909991065996
 31
0.0
  0
LINE
  5
27D6
330
1F
100
AcDbEntity
  8
SPOJOVACÍ
  6
DASHED
100
AcDbLine
 10
717.1880396624315
 20
409.4620090244529
 30
0.0
 11
716.817941318905
 21
409.6753169380439
 31
0.0
  0
LINE
  5
27D7
330
1F
100
AcDbEntity
  8
SPOJOVACÍ
  6
DASHED
100
AcDbLine
 10
712.8544250465043
 20
410.4237177795998
 30
0.0
 11
716.817941318905
 21
409.0909991065996
 31
0.0
  0
LINE
  5
27D8
330
1F
100
AcDbEntity
  8
SPOJOVACÍ
  6
DASHED
100
AcDbLine
 10
712.8544250465043
 20
411.0080356110516
 30
0.0
 11
716.817941318905
 21
409.6753169380439
 31
0.0
  0
LINE
  5
27D9
330
1F
100
AcDbEntity
  8
SPOJOVACÍ
  6
DASHED
100
AcDbLine
 10
717.1880396624315
 20
406.4045955978631
 30
0.0
 11
716.817941318905
 21
406.0335856800097
 31
0.0
  0
LINE
  5
27DA
330
1F
100
AcDbEntity
  8
SPOJOVACÍ
  6
DASHED
100
AcDbLine
 10
717.1880396624315
 20
406.4045955978631
 30
0.0
 11
716.817941318905
 21
406.6179035111904
 31
0.0
  0
LINE
  5
27DB
330
1F
100
AcDbEntity
  8
SPOJOVACÍ
  6
DASHED
100
AcDbLine
 10
712.8544250465043
 20
407.3663043530173
 30
0.0
 11
716.817941318905
 21
406.0335856800097
 31
0.0
  0
LINE
  5
27DC
330
1F
100
AcDbEntity
  8
SPOJOVACÍ
  6
DASHED
100
AcDbLine
 10
712.8544250465043
 20
407.9506221844617
 30
0.0
 11
716.817941318905
 21
406.6179035111904
 31
0.0
  0
LINE
  5
27DD
330
1F
100
AcDbEntity
  8
SPOJOVACÍ
  6
DASHED
100
AcDbLine
 10
717.1880396624315
 20
403.3462705988218
 30
0.0
 11
716.817941318905
 21
402.9761722531561
 31
0.0
  0
LINE
  5
27DE
330
1F
100
AcDbEntity
  8
SPOJOVACÍ
  6
DASHED
100
AcDbLine
 10
717.1880396624315
 20
403.3462705988218
 30
0.0
 11
716.817941318905
 21
403.5604900846078
 31
0.0
  0
LINE
  5
27DF
330
1F
100
AcDbEntity
  8
SPOJOVACÍ
  6
DASHED
100
AcDbLine
 10
712.8544250465043
 20
404.3088909264274
 30
0.0
 11
716.817941318905
 21
402.9761722531561
 31
0.0
  0
LINE
  5
27E0
330
1F
100
AcDbEntity
  8
SPOJOVACÍ
  6
DASHED
100
AcDbLine
 10
712.8544250465043
 20
404.8932087578791
 30
0.0
 11
716.817941318905
 21
403.5604900846078
 31
0.0
  0
LINE
  5
27E1
330
1F
100
AcDbEntity
  8
SPOJOVACÍ
  6
DASHED
100
AcDbLine
 10
716.3812981955111
 20
422.3625799291708
 30
0.0
 11
716.9820243276758
 21
423.74816979468
 31
0.0
  0
LINE
  5
27E2
330
1F
100
AcDbEntity
  8
SPOJOVACÍ
  6
DASHED
100
AcDbLine
 10
716.1588745624453
 20
420.8694245348101
 30
0.0
 11
716.3812981955111
 21
422.3625799291708
 31
0.0
  0
LINE
  5
27E3
330
1F
100
AcDbEntity
  8
SPOJOVACÍ
  6
DASHED
100
AcDbLine
 10
713.4487701706807
 20
421.6406146834701
 30
0.0
 11
713.5134918029639
 21
420.8694245348101
 31
0.0
  0
LINE
  5
27E4
330
1F
100
AcDbEntity
  8
SPOJOVACÍ
  6
DASHED
100
AcDbLine
 10
713.0294469236673
 20
423.0918377531793
 30
0.0
 11
713.4487701706807
 21
421.6406146834701
 31
0.0
  0
INSERT
  5
27E5
330
1F
100
AcDbEntity
  8
POPIS
100
AcDbBlockReference
  2
E_PUNKT
 10
617.94861746377
 20
408.6693428004114
 30
0.0
 50
270.0
  0
INSERT
  5
27E6
330
1F
100
AcDbEntity
  8
POPIS
100
AcDbBlockReference
  2
E_PUNKT
 10
667.0371329280555
 20
420.3104549060322
 30
0.0
 50
270.0
  0
LINE
  5
27E7
330
1F
100
AcDbEntity
  8
POPIS
100
AcDbLine
 10
619.9897579106459
 20
335.7214352800961
 30
0.0
 11
619.9897579106459
 21
380.3370298604763
 31
0.0
  0
TEXT
  5
27E8
330
1F
100
AcDbEntity
  8
POPIS
100
AcDbText
 10
603.4805765591759
 20
303.0895972331632
 30
0.0
 40
25.0
  1
09
 41
0.85
  7
SIMPLEX7
100
AcDbText
  0
LINE
  5
27E9
330
1F
100
AcDbEntity
  8
POPIS
100
AcDbLine
 10
677.0590624909914
 20
335.7214352800961
 30
0.0
 11
677.0590624909914
 21
367.1241217879328
 31
0.0
  0
TEXT
  5
27EA
330
1F
100
AcDbEntity
  8
POPIS
100
AcDbText
 10
660.5498811395213
 20
303.0895972331632
 30
0.0
 40
25.0
  1
10
 41
0.85
  7
SIMPLEX7
100
AcDbText
  0
LWPOLYLINE
  5
27EB
330
1F
100
AcDbEntity
  8
izolace
100
AcDbPolyline
 90
        4
 70
     1
 43
0.0
 10
639.3191567801172
 20
383.3370298604764
 10
615.6774240702819
 20
383.3370298604764
 10
615.6774240702819
 20
380.3370298604763
 10
639.3191567801172
 20
380.3370298604763
  0
HATCH
  5
27EC
330
1F
100
AcDbEntity
  8
izolace
100
AcDbHatch
 10
0.0
 20
0.0
 30
0.0
210
0.0
220
0.0
230
1.0
  2
SOLID
 70
     1
 71
     0
 91
        1
 92
        7
 72
     0
 73
     1
 93
        4
 10
615.6774240702819
 20
383.3370298604764
 10
615.6774240702856
 20
380.3370298604763
 10
639.3191567801208
 20
380.3370298604763
 10
639.3191567801208
 20
383.3370298604764
 97
        0
 75
     0
 76
     1
 47
0.1901250437635136
 98
        1
 10
625.0352188286255
 20
382.5202183093965
  0
LWPOLYLINE
  5
27ED
330
1F
100
AcDbEntity
  8
izolace
100
AcDbPolyline
 90
        4
 70
     1
 43
0.0
 10
686.6026221997875
 20
383.3370298604764
 10
662.9608894899523
 20
383.3370298604764
 10
662.9608894899523
 20
380.3370298604763
 10
686.6026221997875
 20
380.3370298604763
  0
HATCH
  5
27EE
330
1F
100
AcDbEntity
  8
izolace
100
AcDbHatch
 10
0.0
 20
0.0
 30
0.0
210
0.0
220
0.0
230
1.0
  2
SOLID
 70
     1
 71
     0
 91
        1
 92
        7
 72
     0
 73
     1
 93
        4
 10
662.9608894899523
 20
383.3370298604764
 10
662.9608894899559
 20
380.3370298604763
 10
686.6026221997912
 20
380.3370298604763
 10
686.6026221997912
 20
383.3370298604764
 97
        0
 75
     0
 76
     1
 47
0.1901250437635136
 98
        1
 10
672.3186842482959
 20
382.5202183093965
  0
LWPOLYLINE
  5
27EF
330
1F
100
AcDbEntity
  8
izolace
100
AcDbPolyline
 90
        4
 70
     1
 43
0.0
 10
679.8007785987342
 20
383.3370298604764
 10
656.1590458888989
 20
383.3370298604764
 10
656.1590458888989
 20
380.3370298604763
 10
679.8007785987342
 20
380.3370298604763
  0
HATCH
  5
27F0
330
1F
100
AcDbEntity
  8
izolace
100
AcDbHatch
 10
0.0
 20
0.0
 30
0.0
210
0.0
220
0.0
230
1.0
  2
SOLID
 70
     1
 71
     0
 91
        1
 92
        7
 72
     0
 73
     1
 93
        4
 10
656.1590458888989
 20
383.3370298604764
 10
656.1590458889026
 20
380.3370298604763
 10
679.8007785987378
 20
380.3370298604763
 10
679.8007785987378
 20
383.3370298604764
 97
        0
 75
     0
 76
     1
 47
0.1901250437635136
 98
        1
 10
665.5168406472425
 20
382.5202183093965
  0
LINE
  5
27F1
330
1F
100
AcDbEntity
  8
SPOJOVACÍ
  6
DASHED
100
AcDbLine
 10
668.8791343830766
 20
404.8932087578791
 30
0.0
 11
664.9156181106759
 21
403.5604900846078
 31
0.0
  0
LINE
  5
27F2
330
1F
100
AcDbEntity
  8
SPOJOVACÍ
  6
DASHED
100
AcDbLine
 10
668.8791343830766
 20
404.3088909264274
 30
0.0
 11
664.9156181106759
 21
402.9761722531561
 31
0.0
  0
LINE
  5
27F3
330
1F
100
AcDbEntity
  8
SPOJOVACÍ
  6
DASHED
100
AcDbLine
 10
664.5455197671495
 20
403.3462705988218
 30
0.0
 11
664.9156181106759
 21
403.5604900846078
 31
0.0
  0
LINE
  5
27F4
330
1F
100
AcDbEntity
  8
SPOJOVACÍ
  6
DASHED
100
AcDbLine
 10
664.5455197671495
 20
403.3462705988218
 30
0.0
 11
664.9156181106759
 21
402.9761722531561
 31
0.0
  0
LINE
  5
27F5
330
1F
100
AcDbEntity
  8
SPOJOVACÍ
  6
DASHED
100
AcDbLine
 10
669.2492327308814
 20
404.5221988397547
 30
0.0
 11
668.8791343830766
 21
404.8932087578791
 31
0.0
  0
LINE
  5
27F6
330
1F
100
AcDbEntity
  8
SPOJOVACÍ
  6
DASHED
100
AcDbLine
 10
669.2492327308814
 20
404.5221988397547
 30
0.0
 11
668.8791343830766
 21
404.3088909264274
 31
0.0
  0
LINE
  5
27F7
330
1F
100
AcDbEntity
  8
SPOJOVACÍ
  6
DASHED
100
AcDbLine
 10
669.2492327308814
 20
404.5221988397547
 30
0.0
 11
664.5455197671495
 21
403.3462705988218
 31
0.0
  0
LINE
  5
27F8
330
1F
100
AcDbEntity
  8
SPOJOVACÍ
  6
DASHED
100
AcDbLine
 10
668.8791343830766
 20
407.9506221844617
 30
0.0
 11
664.9156181106759
 21
406.6179035111904
 31
0.0
  0
LINE
  5
27F9
330
1F
100
AcDbEntity
  8
SPOJOVACÍ
  6
DASHED
100
AcDbLine
 10
668.8791343830766
 20
407.3663043530173
 30
0.0
 11
664.9156181106759
 21
406.0335856800097
 31
0.0
  0
LINE
  5
27FA
330
1F
100
AcDbEntity
  8
SPOJOVACÍ
  6
DASHED
100
AcDbLine
 10
664.5455197671495
 20
406.4045955978631
 30
0.0
 11
664.9156181106759
 21
406.6179035111904
 31
0.0
  0
LINE
  5
27FB
330
1F
100
AcDbEntity
  8
SPOJOVACÍ
  6
DASHED
100
AcDbLine
 10
664.5455197671495
 20
406.4045955978631
 30
0.0
 11
664.9156181106759
 21
406.0335856800097
 31
0.0
  0
LINE
  5
27FC
330
1F
100
AcDbEntity
  8
SPOJOVACÍ
  6
DASHED
100
AcDbLine
 10
669.2492327308814
 20
407.5805238387961
 30
0.0
 11
668.8791343830766
 21
407.9506221844617
 31
0.0
  0
LINE
  5
27FD
330
1F
100
AcDbEntity
  8
SPOJOVACÍ
  6
DASHED
100
AcDbLine
 10
669.2492327308814
 20
407.5805238387961
 30
0.0
 11
668.8791343830766
 21
407.3663043530173
 31
0.0
  0
LINE
  5
27FE
330
1F
100
AcDbEntity
  8
SPOJOVACÍ
  6
DASHED
100
AcDbLine
 10
669.2492327308814
 20
407.5805238387961
 30
0.0
 11
664.5455197671495
 21
406.4045955978631
 31
0.0
  0
LINE
  5
27FF
330
1F
100
AcDbEntity
  8
SPOJOVACÍ
  6
DASHED
100
AcDbLine
 10
668.8791343830766
 20
411.0080356110516
 30
0.0
 11
664.9156181106759
 21
409.6753169380439
 31
0.0
  0
LINE
  5
2800
330
1F
100
AcDbEntity
  8
SPOJOVACÍ
  6
DASHED
100
AcDbLine
 10
668.8791343830766
 20
410.4237177795998
 30
0.0
 11
664.9156181106759
 21
409.0909991065996
 31
0.0
  0
LINE
  5
2801
330
1F
100
AcDbEntity
  8
SPOJOVACÍ
  6
DASHED
100
AcDbLine
 10
664.5455197671495
 20
409.4620090244529
 30
0.0
 11
664.9156181106759
 21
409.6753169380439
 31
0.0
  0
LINE
  5
2802
330
1F
100
AcDbEntity
  8
SPOJOVACÍ
  6
DASHED
100
AcDbLine
 10
664.5455197671495
 20
409.4620090244529
 30
0.0
 11
664.9156181106759
 21
409.0909991065996
 31
0.0
  0
LINE
  5
2803
330
1F
100
AcDbEntity
  8
SPOJOVACÍ
  6
DASHED
100
AcDbLine
 10
669.2492327308814
 20
410.637937265386
 30
0.0
 11
668.8791343830766
 21
411.0080356110516
 31
0.0
  0
LINE
  5
2804
330
1F
100
AcDbEntity
  8
SPOJOVACÍ
  6
DASHED
100
AcDbLine
 10
669.2492327308814
 20
410.637937265386
 30
0.0
 11
668.8791343830766
 21
410.4237177795998
 31
0.0
  0
LINE
  5
2805
330
1F
100
AcDbEntity
  8
SPOJOVACÍ
  6
DASHED
100
AcDbLine
 10
669.2492327308814
 20
410.637937265386
 30
0.0
 11
664.5455197671495
 21
409.4620090244529
 31
0.0
  0
LINE
  5
2806
330
1F
100
AcDbEntity
  8
SPOJOVACÍ
  6
DASHED
100
AcDbLine
 10
667.893724748103
 20
395.5988177921221
 30
0.0
 11
665.7825233494754
 21
395.2943526506637
 31
0.0
  0
LINE
  5
2807
330
1F
100
AcDbEntity
  8
SPOJOVACÍ
  6
DASHED
100
AcDbLine
 10
667.5236264045765
 20
395.9689161377878
 30
0.0
 11
666.152621693002
 21
395.5076605642548
 31
0.0
  0
LINE
  5
2808
330
1F
100
AcDbEntity
  8
SPOJOVACÍ
  6
DASHED
100
AcDbLine
 10
667.5236264045765
 20
395.3845983063434
 30
0.0
 11
666.152621693002
 21
394.9233427328104
 31
0.0
  0
LINE
  5
2809
330
1F
100
AcDbEntity
  8
SPOJOVACÍ
  6
DASHED
100
AcDbLine
 10
665.7825233494754
 20
395.2943526506637
 30
0.0
 11
666.152621693002
 21
395.5076605642548
 31
0.0
  0
LINE
  5
280A
330
1F
100
AcDbEntity
  8
SPOJOVACÍ
  6
DASHED
100
AcDbLine
 10
665.7825233494754
 20
395.2943526506637
 30
0.0
 11
666.152621693002
 21
394.9233427328104
 31
0.0
  0
LINE
  5
280B
330
1F
100
AcDbEntity
  8
SPOJOVACÍ
  6
DASHED
100
AcDbLine
 10
667.893724748103
 20
395.5988177921221
 30
0.0
 11
667.5236264045765
 21
395.9689161377878
 31
0.0
  0
LINE
  5
280C
330
1F
100
AcDbEntity
  8
SPOJOVACÍ
  6
DASHED
100
AcDbLine
 10
667.893724748103
 20
395.5988177921221
 30
0.0
 11
667.5236264045765
 21
395.3845983063434
 31
0.0
  0
LINE
  5
280D
330
1F
100
AcDbEntity
  8
SPOJOVACÍ
  6
DASHED
100
AcDbLine
 10
668.4470491243651
 20
398.5523119788754
 30
0.0
 11
665.3932819862625
 21
397.9315312564408
 31
0.0
  0
LINE
  5
280E
330
1F
100
AcDbEntity
  8
SPOJOVACÍ
  6
DASHED
100
AcDbLine
 10
668.0769507765603
 20
398.9233218969998
 30
0.0
 11
665.763380329789
 21
398.1448391697681
 31
0.0
  0
LINE
  5
280F
330
1F
100
AcDbEntity
  8
SPOJOVACÍ
  6
DASHED
100
AcDbLine
 10
668.0769507765603
 20
398.3390040655481
 30
0.0
 11
665.763380329789
 21
397.5605213385875
 31
0.0
  0
LINE
  5
2810
330
1F
100
AcDbEntity
  8
SPOJOVACÍ
  6
DASHED
100
AcDbLine
 10
665.3932819862625
 20
397.9315312564408
 30
0.0
 11
665.763380329789
 21
398.1448391697681
 31
0.0
  0
LINE
  5
2811
330
1F
100
AcDbEntity
  8
SPOJOVACÍ
  6
DASHED
100
AcDbLine
 10
665.3932819862625
 20
397.9315312564408
 30
0.0
 11
665.763380329789
 21
397.5605213385875
 31
0.0
  0
LINE
  5
2812
330
1F
100
AcDbEntity
  8
SPOJOVACÍ
  6
DASHED
100
AcDbLine
 10
668.4470491243651
 20
398.5523119788754
 30
0.0
 11
668.0769507765603
 21
398.9233218969998
 31
0.0
  0
LINE
  5
2813
330
1F
100
AcDbEntity
  8
SPOJOVACÍ
  6
DASHED
100
AcDbLine
 10
668.4470491243651
 20
398.5523119788754
 30
0.0
 11
668.0769507765603
 21
398.3390040655481
 31
0.0
  0
LINE
  5
2814
330
1F
100
AcDbEntity
  8
SPOJOVACÍ
  6
DASHED
100
AcDbLine
 10
669.0003734963489
 20
401.5067177380874
 30
0.0
 11
664.9575504366607
 21
400.5532131334289
 31
0.0
  0
LINE
  5
2815
330
1F
100
AcDbEntity
  8
SPOJOVACÍ
  6
DASHED
100
AcDbLine
 10
668.6293635790303
 20
401.876816083753
 30
0.0
 11
665.3276487801872
 21
400.7665210467562
 31
0.0
  0
LINE
  5
2816
330
1F
100
AcDbEntity
  8
SPOJOVACÍ
  6
DASHED
100
AcDbLine
 10
668.6293635790303
 20
401.2924982523013
 30
0.0
 11
665.3276487801872
 21
400.1822032153045
 31
0.0
  0
LINE
  5
2817
330
1F
100
AcDbEntity
  8
SPOJOVACÍ
  6
DASHED
100
AcDbLine
 10
664.9575504366607
 20
400.5532131334289
 30
0.0
 11
665.3276487801872
 21
400.7665210467562
 31
0.0
  0
LINE
  5
2818
330
1F
100
AcDbEntity
  8
SPOJOVACÍ
  6
DASHED
100
AcDbLine
 10
664.9575504366607
 20
400.5532131334289
 30
0.0
 11
665.3276487801872
 21
400.1822032153045
 31
0.0
  0
LINE
  5
2819
330
1F
100
AcDbEntity
  8
SPOJOVACÍ
  6
DASHED
100
AcDbLine
 10
669.0003734963489
 20
401.5067177380874
 30
0.0
 11
668.6293635790303
 21
401.876816083753
 31
0.0
  0
LINE
  5
281A
330
1F
100
AcDbEntity
  8
SPOJOVACÍ
  6
DASHED
100
AcDbLine
 10
669.0003734963489
 20
401.5067177380874
 30
0.0
 11
668.6293635790303
 21
401.2924982523013
 31
0.0
  0
LINE
  5
281B
330
1F
100
AcDbEntity
  8
SPOJOVACÍ
  6
DASHED
100
AcDbLine
 10
668.8791343830766
 20
414.0654490379051
 30
0.0
 11
664.9156181106759
 21
412.7336419368216
 31
0.0
  0
LINE
  5
281C
330
1F
100
AcDbEntity
  8
SPOJOVACÍ
  6
DASHED
100
AcDbLine
 10
668.8791343830766
 20
413.4811312064535
 30
0.0
 11
664.9156181106759
 21
412.1493241056409
 31
0.0
  0
LINE
  5
281D
330
1F
100
AcDbEntity
  8
SPOJOVACÍ
  6
DASHED
100
AcDbLine
 10
664.5455197671495
 20
412.5194224510355
 30
0.0
 11
664.9156181106759
 21
412.7336419368216
 31
0.0
  0
LINE
  5
281E
330
1F
100
AcDbEntity
  8
SPOJOVACÍ
  6
DASHED
100
AcDbLine
 10
664.5455197671495
 20
412.5194224510355
 30
0.0
 11
664.9156181106759
 21
412.1493241056409
 31
0.0
  0
LINE
  5
281F
330
1F
100
AcDbEntity
  8
SPOJOVACÍ
  6
DASHED
100
AcDbLine
 10
669.2492327308814
 20
413.6953506922395
 30
0.0
 11
668.8791343830766
 21
414.0654490379051
 31
0.0
  0
LINE
  5
2820
330
1F
100
AcDbEntity
  8
SPOJOVACÍ
  6
DASHED
100
AcDbLine
 10
669.2492327308814
 20
413.6953506922395
 30
0.0
 11
668.8791343830766
 21
413.4811312064535
 31
0.0
  0
LINE
  5
2821
330
1F
100
AcDbEntity
  8
SPOJOVACÍ
  6
DASHED
100
AcDbLine
 10
669.2492327308814
 20
413.6953506922395
 30
0.0
 11
664.5455197671495
 21
412.5194224510355
 31
0.0
  0
LINE
  5
2822
330
1F
100
AcDbEntity
  8
SPOJOVACÍ
  6
DASHED
100
AcDbLine
 10
668.8791343830766
 20
417.1237740366755
 30
0.0
 11
664.9156181106759
 21
415.7910553636752
 31
0.0
  0
LINE
  5
2823
330
1F
100
AcDbEntity
  8
SPOJOVACÍ
  6
DASHED
100
AcDbLine
 10
668.8791343830766
 20
416.5394562054948
 30
0.0
 11
664.9156181106759
 21
415.2067375322235
 31
0.0
  0
LINE
  5
2824
330
1F
100
AcDbEntity
  8
SPOJOVACÍ
  6
DASHED
100
AcDbLine
 10
664.5455197671495
 20
415.5768358778891
 30
0.0
 11
664.9156181106759
 21
415.7910553636752
 31
0.0
  0
LINE
  5
2825
330
1F
100
AcDbEntity
  8
SPOJOVACÍ
  6
DASHED
100
AcDbLine
 10
664.5455197671495
 20
415.5768358778891
 30
0.0
 11
664.9156181106759
 21
415.2067375322235
 31
0.0
  0
LINE
  5
2826
330
1F
100
AcDbEntity
  8
SPOJOVACÍ
  6
DASHED
100
AcDbLine
 10
669.2492327308814
 20
416.7527641188221
 30
0.0
 11
668.8791343830766
 21
417.1237740366755
 31
0.0
  0
LINE
  5
2827
330
1F
100
AcDbEntity
  8
SPOJOVACÍ
  6
DASHED
100
AcDbLine
 10
669.2492327308814
 20
416.7527641188221
 30
0.0
 11
668.8791343830766
 21
416.5394562054948
 31
0.0
  0
LINE
  5
2828
330
1F
100
AcDbEntity
  8
SPOJOVACÍ
  6
DASHED
100
AcDbLine
 10
669.2492327308814
 20
416.7527641188221
 30
0.0
 11
664.5455197671495
 21
415.5768358778891
 31
0.0
  0
LINE
  5
2829
330
1F
100
AcDbEntity
  8
SPOJOVACÍ
  6
DASHED
100
AcDbLine
 10
665.8153399503739
 20
400.9397197800785
 30
0.0
 11
665.5746848671356
 21
402.871341441139
 31
0.0
  0
LINE
  5
282A
330
1F
100
AcDbEntity
  8
SPOJOVACÍ
  6
DASHED
100
AcDbLine
 10
666.147152263084
 20
398.2870444454979
 30
0.0
 11
665.8855310168533
 21
400.3809259722943
 31
0.0
  0
LINE
  5
282B
330
1F
100
AcDbEntity
  8
SPOJOVACÍ
  6
DASHED
100
AcDbLine
 10
666.4798761410297
 20
395.6243418160534
 30
0.0
 11
666.2173433252851
 21
397.7264274933381
 31
0.0
  0
LINE
  5
282C
330
1F
100
AcDbEntity
  8
SPOJOVACÍ
  6
DASHED
100
AcDbLine
 10
667.2756787438361
 20
395.3144072409336
 30
0.0
 11
666.8973762490154
 21
392.2870756994848
 31
0.0
  0
LINE
  5
282D
330
1F
100
AcDbEntity
  8
SPOJOVACÍ
  6
DASHED
100
AcDbLine
 10
667.6357497927624
 20
398.1967987898183
 30
0.0
 11
667.3513392445116
 21
395.92242595167
 31
0.0
  0
LINE
  5
282E
330
1F
100
AcDbEntity
  8
SPOJOVACÍ
  6
DASHED
100
AcDbLine
 10
667.997643989273
 20
401.090129206033
 30
0.0
 11
667.7132334367438
 21
398.8148447956896
 31
0.0
  0
LINE
  5
282F
330
1F
100
AcDbEntity
  8
SPOJOVACÍ
  6
DASHED
100
AcDbLine
 10
666.8973762490154
 20
392.2870756994848
 30
0.0
 11
666.550067207509
 21
395.0664595807279
 31
0.0
  0
LINE
  5
2830
330
1F
100
AcDbEntity
  8
SPOJOVACÍ
  6
DASHED
100
AcDbLine
 10
668.220067626617
 20
402.871341441139
 30
0.0
 11
668.0733044899484
 21
401.6981479167693
 31
0.0
  0
LINE
  5
2831
330
1F
100
AcDbEntity
  8
SPOJOVACÍ
  6
DASHED
100
AcDbLine
 10
665.5746848671356
 20
403.2013306062649
 30
0.0
 11
665.5746848671356
 21
402.871341441139
 31
0.0
  0
LINE
  5
2832
330
1F
100
AcDbEntity
  8
SPOJOVACÍ
  6
DASHED
100
AcDbLine
 10
665.5746848671356
 20
406.2614787499455
 30
0.0
 11
665.5746848671356
 21
403.7929410160172
 31
0.0
  0
LINE
  5
2833
330
1F
100
AcDbEntity
  8
SPOJOVACÍ
  6
DASHED
100
AcDbLine
 10
668.220067626617
 20
404.0937598681898
 30
0.0
 11
668.220067626617
 21
402.871341441139
 31
0.0
  0
LINE
  5
2834
330
1F
100
AcDbEntity
  8
SPOJOVACÍ
  6
DASHED
100
AcDbLine
 10
668.220067626617
 20
407.1457038613821
 30
0.0
 11
668.220067626617
 21
404.6780776996415
 31
0.0
  0
LINE
  5
2835
330
1F
100
AcDbEntity
  8
SPOJOVACÍ
  6
DASHED
100
AcDbLine
 10
665.5746848671356
 20
409.3207153211746
 30
0.0
 11
665.5746848671356
 21
406.8503544425998
 31
0.0
  0
LINE
  5
2836
330
1F
100
AcDbEntity
  8
SPOJOVACÍ
  6
DASHED
100
AcDbLine
 10
665.5746848671356
 20
412.3808634645915
 30
0.0
 11
665.5746848671356
 21
409.9032100079798
 31
0.0
  0
LINE
  5
2837
330
1F
100
AcDbEntity
  8
SPOJOVACÍ
  6
DASHED
100
AcDbLine
 10
665.5746848671356
 20
415.4337190299716
 30
0.0
 11
665.5746848671356
 21
412.9651812960433
 31
0.0
  0
LINE
  5
2838
330
1F
100
AcDbEntity
  8
SPOJOVACÍ
  6
DASHED
100
AcDbLine
 10
668.220067626617
 20
410.2158792999339
 30
0.0
 11
668.220067626617
 21
407.7382258433222
 31
0.0
  0
LINE
  5
2839
330
1F
100
AcDbEntity
  8
SPOJOVACÍ
  6
DASHED
100
AcDbLine
 10
668.220067626617
 20
413.2687348653139
 30
0.0
 11
668.220067626617
 21
410.7983739867391
 31
0.0
  0
LINE
  5
283A
330
1F
100
AcDbEntity
  8
SPOJOVACÍ
  6
DASHED
100
AcDbLine
 10
668.220067626617
 20
416.3288830087308
 30
0.0
 11
668.220067626617
 21
413.8603452748025
 31
0.0
  0
LINE
  5
283B
330
1F
100
AcDbEntity
  8
SPOJOVACÍ
  6
DASHED
100
AcDbLine
 10
668.220067626617
 20
420.8694245348101
 30
0.0
 11
668.220067626617
 21
416.9122892677237
 31
0.0
  0
LINE
  5
283C
330
1F
100
AcDbEntity
  8
SPOJOVACÍ
  6
DASHED
100
AcDbLine
 10
665.5746848671356
 20
420.8694245348101
 30
0.0
 11
665.5746848671356
 21
416.0253294394602
 31
0.0
  0
LINE
  5
283D
330
1F
100
AcDbEntity
  8
SPOJOVACÍ
  6
DASHED
100
AcDbLine
 10
668.7041125059136
 20
423.0918377531793
 30
0.0
 11
668.2847892589002
 21
421.6406146834701
 31
0.0
  0
LINE
  5
283E
330
1F
100
AcDbEntity
  8
SPOJOVACÍ
  6
DASHED
100
AcDbLine
 10
668.2847892589002
 20
421.6406146834701
 30
0.0
 11
668.220067626617
 21
420.8694245348101
 31
0.0
  0
LINE
  5
283F
330
1F
100
AcDbEntity
  8
SPOJOVACÍ
  6
DASHED
100
AcDbLine
 10
665.5746848671356
 20
420.8694245348101
 30
0.0
 11
665.3522612340698
 21
422.3625799291708
 31
0.0
  0
LINE
  5
2840
330
1F
100
AcDbEntity
  8
SPOJOVACÍ
  6
DASHED
100
AcDbLine
 10
665.3522612340698
 20
422.3625799291708
 30
0.0
 11
664.7515351019051
 21
423.74816979468
 31
0.0
  0
INSERT
  5
2841
330
1F
100
AcDbEntity
  8
POPIS
100
AcDbBlockReference
  2
E_PUNKT
 10
619.9606895797719
 20
379.7530132548367
 30
0.0
 50
270.0
  0
TEXT
  5
2842
330
1F
100
AcDbEntity
  8
POPIS
100
AcDbText
 10
854.0907492458778
 20
367.3747488688163
 30
0.0
 40
25.0
  1
09
 41
0.85
  7
SIMPLEX7
100
AcDbText
  0
TEXT
  5
2843
330
1F
100
AcDbEntity
  8
POPIS
100
AcDbText
 10
854.0907492458778
 20
332.0891226761172
 30
0.0
 40
25.0
  1
10
 41
0.85
  7
SIMPLEX7
100
AcDbText
  0
LINE
  5
2844
330
1F
100
AcDbEntity
  8
SPOJOVACÍ
  6
DASHED
100
AcDbLine
 10
719.8343339914267
 20
427.3370298604763
 30
0.0
 11
719.8343339914267
 21
426.1611016192796
 31
0.0
  0
LINE
  5
2845
330
1F
100
AcDbEntity
  8
SPOJOVACÍ
  6
DASHED
100
AcDbLine
 10
709.8380323697043
 20
427.3370298604763
 30
0.0
 11
719.8343339914267
 21
427.3370298604763
 31
0.0
  0
LINE
  5
2846
330
1F
100
AcDbEntity
  8
SPOJOVACÍ
  6
DASHED
100
AcDbLine
 10
709.8380323697043
 20
427.3370298604763
 30
0.0
 11
709.8380323697043
 21
426.1611016192796
 31
0.0
  0
LINE
  5
2847
330
1F
100
AcDbEntity
  8
SPOJOVACÍ
  6
DASHED
100
AcDbLine
 10
709.8380323697043
 20
426.1611016192796
 30
0.0
 11
719.8343339914267
 21
426.1611016192796
 31
0.0
  0
LINE
  5
2848
330
1F
100
AcDbEntity
  8
SPOJOVACÍ
  6
DASHED
100
AcDbLine
 10
719.1333349089823
 20
425.8311124541537
 30
0.0
 11
719.8343339914267
 21
426.1611016192796
 31
0.0
  0
LINE
  5
2849
330
1F
100
AcDbEntity
  8
SPOJOVACÍ
  6
DASHED
100
AcDbLine
 10
717.9209437762606
 20
424.9313906139209
 30
0.0
 11
719.1333349089823
 21
425.8311124541537
 31
0.0
  0
LINE
  5
284A
330
1F
100
AcDbEntity
  8
SPOJOVACÍ
  6
DASHED
100
AcDbLine
 10
711.1607237515841
 20
425.4318437955348
 30
0.0
 11
712.2491410539355
 21
424.3844472459109
 31
0.0
  0
LINE
  5
284B
330
1F
100
AcDbEntity
  8
SPOJOVACÍ
  6
DASHED
100
AcDbLine
 10
709.8380323697043
 20
426.1611016192796
 30
0.0
 11
711.1607237515841
 21
425.4318437955348
 31
0.0
  0
TEXT
  5
284C
330
1F
100
AcDbEntity
  8
POPIS
100
AcDbText
 10
601.0800148628391
 20
508.4798496863872
 30
0.0
 40
25.0
  1
05
 41
0.85
  7
SIMPLEX7
100
AcDbText
  0
TEXT
  5
284D
330
1F
100
AcDbEntity
  8
POPIS
100
AcDbText
 10
650.1685303271247
 20
508.4798496863872
 30
0.0
 40
25.0
  1
06
 41
0.85
  7
SIMPLEX7
100
AcDbText
  0
LINE
  5
284E
330
1F
100
AcDbEntity
  8
SPOJOVACÍ
  6
DASHED
100
AcDbLine
 10
671.8955270598767
 20
426.1611016192796
 30
0.0
 11
670.5728356779968
 21
425.4318437955348
 31
0.0
  0
LINE
  5
284F
330
1F
100
AcDbEntity
  8
SPOJOVACÍ
  6
DASHED
100
AcDbLine
 10
670.5728356779968
 20
425.4318437955348
 30
0.0
 11
669.4844183756454
 21
424.3844472459109
 31
0.0
  0
LINE
  5
2850
330
1F
100
AcDbEntity
  8
SPOJOVACÍ
  6
DASHED
100
AcDbLine
 10
663.8126156533203
 20
424.9313906139209
 30
0.0
 11
662.6002245205986
 21
425.8311124541537
 31
0.0
  0
LINE
  5
2851
330
1F
100
AcDbEntity
  8
SPOJOVACÍ
  6
DASHED
100
AcDbLine
 10
662.6002245205986
 20
425.8311124541537
 30
0.0
 11
661.8992254381542
 21
426.1611016192796
 31
0.0
  0
LINE
  5
2852
330
1F
100
AcDbEntity
  8
SPOJOVACÍ
  6
DASHED
100
AcDbLine
 10
671.8955270598767
 20
426.1611016192796
 30
0.0
 11
661.8992254381542
 21
426.1611016192796
 31
0.0
  0
LINE
  5
2853
330
1F
100
AcDbEntity
  8
SPOJOVACÍ
  6
DASHED
100
AcDbLine
 10
671.8955270598767
 20
427.3370298604763
 30
0.0
 11
671.8955270598767
 21
426.1611016192796
 31
0.0
  0
LINE
  5
2854
330
1F
100
AcDbEntity
  8
SPOJOVACÍ
  6
DASHED
100
AcDbLine
 10
671.8955270598767
 20
427.3370298604763
 30
0.0
 11
661.8992254381542
 21
427.3370298604763
 31
0.0
  0
LINE
  5
2855
330
1F
100
AcDbEntity
  8
SPOJOVACÍ
  6
DASHED
100
AcDbLine
 10
661.8992254381542
 20
427.3370298604763
 30
0.0
 11
661.8992254381542
 21
426.1611016192796
 31
0.0
  0
TEXT
  5
2856
330
1F
100
AcDbEntity
  8
POPIS
100
AcDbText
 10
854.0907492458778
 20
439.7359297730104
 30
0.0
 40
25.0
  1
07
 41
0.85
  7
SIMPLEX7
100
AcDbText
  0
TEXT
  5
2857
330
1F
100
AcDbEntity
  8
POPIS
100
AcDbText
 10
854.0907492458778
 20
509.025362530459
 30
0.0
 40
25.0
  1
05
 41
0.85
  7
SIMPLEX7
100
AcDbText
  0
TEXT
  5
2858
330
1F
100
AcDbEntity
  8
POPIS
100
AcDbText
 10
854.0907492458778
 20
473.6212013122963
 30
0.0
 40
25.0
  1
06
 41
0.85
  7
SIMPLEX7
100
AcDbText
  0
TEXT
  5
2859
330
1F
100
AcDbEntity
  8
POPIS
100
AcDbText
 10
854.0907492458778
 20
654.2184962132392
 30
0.0
 40
25.0
  1
01
 41
0.85
  7
SIMPLEX7
100
AcDbText
  0
TEXT
  5
285A
330
1F
100
AcDbEntity
  8
POPIS
100
AcDbText
 10
854.0907492458778
 20
617.6234845976118
 30
0.0
 40
25.0
  1
02
 41
0.85
  7
SIMPLEX7
100
AcDbText
  0
TEXT
  5
285B
330
1F
100
AcDbEntity
  8
POPIS
100
AcDbText
 10
908.43445240562
 20
582.6873814814766
 30
0.0
 40
25.0
  1
Dilatační spára tl. 15 mm
 41
0.7
  7
SIMPLEX7
100
AcDbText
  0
CIRCLE
  5
285C
330
1F
100
AcDbEntity
  8
POPIS
100
AcDbCircle
 10
1082.128388189287
 20
572.8352413064417
 30
0.0
 40
7.795592338044182
  0
TEXT
  5
285D
330
1F
100
AcDbEntity
  8
POPIS
100
AcDbText
 10
1078.797067850659
 20
568.9534992849498
 30
0.0
 40
8.399999999999998
  1
R
 41
0.85
  7
SIMPLEX7
100
AcDbText
  0
TEXT
  5
285E
330
1F
100
AcDbEntity
  8
POPIS
100
AcDbText
 10
908.43445240562
 20
547.3303629666929
 30
0.0
 40
25.0
  1
Deska CETRIS    tl. 12 mm horní, předvrtaná
 41
0.7
  7
SIMPLEX7
100
AcDbText
  0
TEXT
  5
285F
330
1F
100
AcDbEntity
  8
POPIS
100
AcDbText
 10
908.43445240562
 20
509.1908793602065
 30
0.0
 40
25.0
  1
Deska CETRIS    tl. 12 mm, spodní
 41
0.7
  7
SIMPLEX7
100
AcDbText
  0
TEXT
  5
2860
330
1F
100
AcDbEntity
  8
POPIS
100
AcDbText
 10
908.43445240562
 20
403.2415182816944
 30
0.0
 40
25.0
  1
Izolační deska IZOPLAT
 41
0.7
  7
SIMPLEX7
100
AcDbText
  0
TEXT
  5
2861
330
1F
100
AcDbEntity
  8
POPIS
100
AcDbText
 10
908.43445240562
 20
369.3562467424085
 30
0.0
 40
25.0
  1
Parozábrana
 41
0.7
  7
SIMPLEX7
100
AcDbText
  0
TEXT
  5
2862
330
1F
100
AcDbEntity
  8
POPIS
100
AcDbText
 10
908.43445240562
 20
332.5207067395163
 30
0.0
 40
25.0
  1
Stropní konstrukce
 41
0.7
  7
SIMPLEX7
100
AcDbText
  0
TEXT
  5
2863
330
1F
100
AcDbEntity
  8
POPIS
100
AcDbText
 10
908.43445240562
 20
472.5958677445792
 30
0.0
 40
25.0
  1
Vrut Bűhnen 4,2x35 mm
 41
0.7
  7
SIMPLEX7
100
AcDbText
  0
TEXT
  5
2864
330
1F
100
AcDbEntity
  8
POPIS
100
AcDbText
 10
908.43445240562
 20
438.6456794998571
 30
0.0
 40
25.0
  1
Podkladní dřevěná lišta
 41
0.7
  7
SIMPLEX7
100
AcDbText
  0
CIRCLE
  5
2865
330
1F
100
AcDbEntity
  8
POPIS
100
AcDbCircle
 10
1081.742972480881
 20
531.766488768742
 30
0.0
 40
7.795592338044182
  0
TEXT
  5
2866
330
1F
100
AcDbEntity
  8
POPIS
100
AcDbText
 10
1078.411652142253
 20
527.884746747251
 30
0.0
 40
8.399999999999998
  1
R
 41
0.85
  7
SIMPLEX7
100
AcDbText
  0
TEXT
  5
2867
330
1F
100
AcDbEntity
  8
POPIS
100
AcDbText
 10
908.43445240562
 20
653.2486084455954
 30
0.0
 40
25.0
  1
Dilatační profil Schlűter DILEX-BWB
 41
0.7
  7
SIMPLEX7
100
AcDbText
  0
TEXT
  5
2868
330
1F
100
AcDbEntity
  8
POPIS
100
AcDbText
 10
908.43445240562
 20
619.2823930971039
 30
0.0
 40
25.0
  1
Nášlapná vrstva
 41
0.7
  7
SIMPLEX7
100
AcDbText
  0
TEXT
  5
286F
330
1F
100
AcDbEntity
  8
POPIS
100
AcDbText
 10
1148.975763673141
 20
679.1741449668466
 30
0.0
 40
8.399999999999998
  1
R
 41
0.85
  7
SIMPLEX7
100
AcDbText
  0
CIRCLE
  5
2870
330
1F
100
AcDbEntity
  8
POPIS
100
AcDbCircle
 10
1152.307084011769
 20
683.0558869883384
 30
0.0
 40
7.795592338044182
  0
ENDSEC
  0
SECTION
  2
OBJECTS
  0
DICTIONARY
  5
C
330
0
100
AcDbDictionary
281
     1
  3
ACAD_GROUP
350
D
  3
ACAD_LAYOUT
350
1A
  3
ACAD_MLINESTYLE
350
17
  3
ACAD_PLOTSETTINGS
350
19
  3
ACAD_PLOTSTYLENAME
350
E
  0
DICTIONARY
  5
D
102
{ACAD_REACTORS
330
C
102
}
330
C
100
AcDbDictionary
281
     1
  0
DICTIONARY
  5
1A
102
{ACAD_REACTORS
330
C
102
}
330
C
100
AcDbDictionary
281
     1
  3
Model
350
22
  3
Rozvržení1
350
1E
  3
Rozvržení2
350
26
  0
DICTIONARY
  5
17
102
{ACAD_REACTORS
330
C
102
}
330
C
100
AcDbDictionary
281
     1
  3
Standard
350
18
  0
DICTIONARY
  5
19
102
{ACAD_REACTORS
330
C
102
}
330
C
100
AcDbDictionary
281
     1
  0
ACDBDICTIONARYWDFLT
  5
E
102
{ACAD_REACTORS
330
C
102
}
330
C
100
AcDbDictionary
281
     1
  3
Normal
350
F
100
AcDbDictionaryWithDefault
340
F
  0
LAYOUT
  5
22
102
{ACAD_REACTORS
330
1A
102
}
330
1A
100
AcDbPlotSettings
  1

  2
HP DeskJet 690C
  4

  6

 40
0.0
 41
0.0
 42
0.0
 43
0.0
 44
0.0
 45
0.0
 46
0.0
 47
0.0
 48
0.0
 49
0.0
140
0.0
141
0.0
142
1.0
143
1.0
 70
  1712
 72
     0
 73
     0
 74
     0
  7
monochrome.ctb
 75
     0
147
1.0
148
0.0
149
0.0
100
AcDbLayout
  1
Model
 70
     1
 71
     0
 10
0.0
 20
0.0
 11
12.0
 21
9.0
 12
0.0
 22
0.0
 32
0.0
 14
0.0
 24
0.0
 34
0.0
 15
0.0
 25
0.0
 35
0.0
146
0.0
 13
0.0
 23
0.0
 33
0.0
 16
1.0
 26
0.0
 36
0.0
 17
0.0
 27
1.0
 37
0.0
 76
     0
330
1F
  0
LAYOUT
  5
1E
102
{ACAD_REACTORS
330
1A
102
}
330
1A
100
AcDbPlotSettings
  1

  2
HP DeskJet 690C
  4

  6

 40
0.0
 41
0.0
 42
0.0
 43
0.0
 44
0.0
 45
0.0
 46
0.0
 47
0.0
 48
0.0
 49
0.0
140
0.0
141
0.0
142
1.0
143
1.0
 70
   688
 72
     0
 73
     0
 74
     5
  7
monochrome.ctb
 75
    16
147
1.0
148
0.0
149
0.0
100
AcDbLayout
  1
Rozvržení1
 70
     1
 71
     1
 10
0.0
 20
0.0
 11
420.0
 21
297.0
 12
0.0
 22
0.0
 32
0.0
 14
1.000000000000000E+20
 24
1.000000000000000E+20
 34
1.000000000000000E+20
 15
-1.000000000000000E+20
 25
-1.000000000000000E+20
 35
-1.000000000000000E+20
146
0.0
 13
0.0
 23
0.0
 33
0.0
 16
1.0
 26
0.0
 36
0.0
 17
0.0
 27
1.0
 37
0.0
 76
     0
330
1B
  0
LAYOUT
  5
26
102
{ACAD_REACTORS
330
1A
102
}
330
1A
100
AcDbPlotSettings
  1

  2
HP DeskJet 690C
  4

  6

 40
0.0
 41
0.0
 42
0.0
 43
0.0
 44
0.0
 45
0.0
 46
0.0
 47
0.0
 48
0.0
 49
0.0
140
0.0
141
0.0
142
1.0
143
1.0
 70
   688
 72
     0
 73
     0
 74
     5
  7
monochrome.ctb
 75
    16
147
1.0
148
0.0
149
0.0
100
AcDbLayout
  1
Rozvržení2
 70
     1
 71
     2
 10
0.0
 20
0.0
 11
12.0
 21
9.0
 12
0.0
 22
0.0
 32
0.0
 14
0.0
 24
0.0
 34
0.0
 15
0.0
 25
0.0
 35
0.0
146
0.0
 13
0.0
 23
0.0
 33
0.0
 16
1.0
 26
0.0
 36
0.0
 17
0.0
 27
1.0
 37
0.0
 76
     0
330
23
  0
MLINESTYLE
  5
18
102
{ACAD_REACTORS
330
17
102
}
330
17
100
AcDbMlineStyle
  2
STANDARD
 70
     0
  3

 62
   256
 51
90.0
 52
90.0
 71
     2
 49
0.5
 62
   256
  6
BYLAYER
 49
-0.5
 62
   256
  6
BYLAYER
  0
ACDBPLACEHOLDER
  5
F
102
{ACAD_REACTORS
330
E
102
}
330
E
  0
ENDSEC
  0
EOF
