  0
SECTION
  2
HEADER
  9
$ACADVER
  1
AC1015
  9
$ACADMAINTVER
 70
    10
  9
$DWGCODEPAGE
  3
ANSI_1250
  9
$INSBASE
 10
0.0
 20
0.0
 30
0.0
  9
$EXTMIN
 10
-22.39399708797418
 20
192.0637698383616
 30
0.0
  9
$EXTMAX
 10
1301.54018450506
 20
746.6991623080852
 30
0.0
  9
$LIMMIN
 10
0.0
 20
0.0
  9
$LIMMAX
 10
420.0
 20
297.0
  9
$ORTHOMODE
 70
     1
  9
$REGENMODE
 70
     1
  9
$FILLMODE
 70
     1
  9
$QTEXTMODE
 70
     0
  9
$MIRRTEXT
 70
     1
  9
$LTSCALE
 40
1.0
  9
$ATTMODE
 70
     1
  9
$TEXTSIZE
 40
2.5
  9
$TRACEWID
 40
1.0
  9
$TEXTSTYLE
  7
Standard
  9
$CLAYER
  8
0
  9
$CELTYPE
  6
ByLayer
  9
$CECOLOR
 62
   256
  9
$CELTSCALE
 40
1.0
  9
$DISPSILH
 70
     0
  9
$DIMSCALE
 40
1.0
  9
$DIMASZ
 40
2.5
  9
$DIMEXO
 40
0.625
  9
$DIMDLI
 40
3.75
  9
$DIMRND
 40
0.0
  9
$DIMDLE
 40
0.0
  9
$DIMEXE
 40
1.25
  9
$DIMTP
 40
0.0
  9
$DIMTM
 40
0.0
  9
$DIMTXT
 40
2.5
  9
$DIMCEN
 40
2.5
  9
$DIMTSZ
 40
0.0
  9
$DIMTOL
 70
     0
  9
$DIMLIM
 70
     0
  9
$DIMTIH
 70
     0
  9
$DIMTOH
 70
     0
  9
$DIMSE1
 70
     0
  9
$DIMSE2
 70
     0
  9
$DIMTAD
 70
     1
  9
$DIMZIN
 70
     8
  9
$DIMBLK
  1

  9
$DIMASO
 70
     1
  9
$DIMSHO
 70
     1
  9
$DIMPOST
  1

  9
$DIMAPOST
  1

  9
$DIMALT
 70
     0
  9
$DIMALTD
 70
     3
  9
$DIMALTF
 40
0.03937007874016
  9
$DIMLFAC
 40
1.0
  9
$DIMTOFL
 70
     1
  9
$DIMTVP
 40
0.0
  9
$DIMTIX
 70
     0
  9
$DIMSOXD
 70
     0
  9
$DIMSAH
 70
     0
  9
$DIMBLK1
  1

  9
$DIMBLK2
  1

  9
$DIMSTYLE
  2
ISO-25
  9
$DIMCLRD
 70
     0
  9
$DIMCLRE
 70
     0
  9
$DIMCLRT
 70
     0
  9
$DIMTFAC
 40
1.0
  9
$DIMGAP
 40
0.625
  9
$DIMJUST
 70
     0
  9
$DIMSD1
 70
     0
  9
$DIMSD2
 70
     0
  9
$DIMTOLJ
 70
     0
  9
$DIMTZIN
 70
     8
  9
$DIMALTZ
 70
     0
  9
$DIMALTTZ
 70
     0
  9
$DIMUPT
 70
     0
  9
$DIMDEC
 70
     2
  9
$DIMTDEC
 70
     2
  9
$DIMALTU
 70
     2
  9
$DIMALTTD
 70
     3
  9
$DIMTXSTY
  7
Standard
  9
$DIMAUNIT
 70
     0
  9
$DIMADEC
 70
     0
  9
$DIMALTRND
 40
0.0
  9
$DIMAZIN
 70
     0
  9
$DIMDSEP
 70
    44
  9
$DIMATFIT
 70
     3
  9
$DIMFRAC
 70
     0
  9
$DIMLDRBLK
  1

  9
$DIMLUNIT
 70
     2
  9
$DIMLWD
 70
    -2
  9
$DIMLWE
 70
    -2
  9
$DIMTMOVE
 70
     0
  9
$LUNITS
 70
     2
  9
$LUPREC
 70
     4
  9
$SKETCHINC
 40
1.0
  9
$FILLETRAD
 40
10.0
  9
$AUNITS
 70
     0
  9
$AUPREC
 70
     0
  9
$MENU
  1
.
  9
$ELEVATION
 40
0.0
  9
$PELEVATION
 40
0.0
  9
$THICKNESS
 40
0.0
  9
$LIMCHECK
 70
     0
  9
$CHAMFERA
 40
10.0
  9
$CHAMFERB
 40
10.0
  9
$CHAMFERC
 40
20.0
  9
$CHAMFERD
 40
0.0
  9
$SKPOLY
 70
     0
  9
$TDCREATE
 40
2452332.337407754
  9
$TDUCREATE
 40
2452332.295741087
  9
$TDUPDATE
 40
2452653.394208796
  9
$TDUUPDATE
 40
2452653.352542129
  9
$TDINDWG
 40
0.0403029051
  9
$TDUSRTIMER
 40
0.0403029051
  9
$USRTIMER
 70
     1
  9
$ANGBASE
 50
0.0
  9
$ANGDIR
 70
     0
  9
$PDMODE
 70
     0
  9
$PDSIZE
 40
0.0
  9
$PLINEWID
 40
0.0
  9
$SPLFRAME
 70
     0
  9
$SPLINETYPE
 70
     6
  9
$SPLINESEGS
 70
     8
  9
$HANDSEED
  5
22AF
  9
$SURFTAB1
 70
     6
  9
$SURFTAB2
 70
     6
  9
$SURFTYPE
 70
     6
  9
$SURFU
 70
     6
  9
$SURFV
 70
     6
  9
$UCSBASE
  2

  9
$UCSNAME
  2

  9
$UCSORG
 10
0.0
 20
0.0
 30
0.0
  9
$UCSXDIR
 10
1.0
 20
0.0
 30
0.0
  9
$UCSYDIR
 10
0.0
 20
1.0
 30
0.0
  9
$UCSORTHOREF
  2

  9
$UCSORTHOVIEW
 70
     0
  9
$UCSORGTOP
 10
0.0
 20
0.0
 30
0.0
  9
$UCSORGBOTTOM
 10
0.0
 20
0.0
 30
0.0
  9
$UCSORGLEFT
 10
0.0
 20
0.0
 30
0.0
  9
$UCSORGRIGHT
 10
0.0
 20
0.0
 30
0.0
  9
$UCSORGFRONT
 10
0.0
 20
0.0
 30
0.0
  9
$UCSORGBACK
 10
0.0
 20
0.0
 30
0.0
  9
$PUCSBASE
  2

  9
$PUCSNAME
  2

  9
$PUCSORG
 10
0.0
 20
0.0
 30
0.0
  9
$PUCSXDIR
 10
1.0
 20
0.0
 30
0.0
  9
$PUCSYDIR
 10
0.0
 20
1.0
 30
0.0
  9
$PUCSORTHOREF
  2

  9
$PUCSORTHOVIEW
 70
     0
  9
$PUCSORGTOP
 10
0.0
 20
0.0
 30
0.0
  9
$PUCSORGBOTTOM
 10
0.0
 20
0.0
 30
0.0
  9
$PUCSORGLEFT
 10
0.0
 20
0.0
 30
0.0
  9
$PUCSORGRIGHT
 10
0.0
 20
0.0
 30
0.0
  9
$PUCSORGFRONT
 10
0.0
 20
0.0
 30
0.0
  9
$PUCSORGBACK
 10
0.0
 20
0.0
 30
0.0
  9
$USERI1
 70
     0
  9
$USERI2
 70
     0
  9
$USERI3
 70
     0
  9
$USERI4
 70
     0
  9
$USERI5
 70
     0
  9
$USERR1
 40
0.0
  9
$USERR2
 40
0.0
  9
$USERR3
 40
0.0
  9
$USERR4
 40
0.0
  9
$USERR5
 40
0.0
  9
$WORLDVIEW
 70
     1
  9
$SHADEDGE
 70
     3
  9
$SHADEDIF
 70
    70
  9
$TILEMODE
 70
     1
  9
$MAXACTVP
 70
    64
  9
$PINSBASE
 10
0.0
 20
0.0
 30
0.0
  9
$PLIMCHECK
 70
     0
  9
$PEXTMIN
 10
1.000000000000000E+20
 20
1.000000000000000E+20
 30
1.000000000000000E+20
  9
$PEXTMAX
 10
-1.000000000000000E+20
 20
-1.000000000000000E+20
 30
-1.000000000000000E+20
  9
$PLIMMIN
 10
0.0
 20
0.0
  9
$PLIMMAX
 10
420.0
 20
297.0
  9
$UNITMODE
 70
     0
  9
$VISRETAIN
 70
     1
  9
$PLINEGEN
 70
     0
  9
$PSLTSCALE
 70
     1
  9
$TREEDEPTH
 70
  3020
  9
$CMLSTYLE
  2
Standard
  9
$CMLJUST
 70
     0
  9
$CMLSCALE
 40
20.0
  9
$PROXYGRAPHICS
 70
     1
  9
$MEASUREMENT
 70
     1
  9
$CELWEIGHT
370
    -1
  9
$ENDCAPS
280
     0
  9
$JOINSTYLE
280
     0
  9
$LWDISPLAY
290
     0
  9
$INSUNITS
 70
     4
  9
$HYPERLINKBASE
  1

  9
$STYLESHEET
  1

  9
$XEDIT
290
     1
  9
$CEPSNTYPE
380
     0
  9
$PSTYLEMODE
290
     1
  9
$FINGERPRINTGUID
  2
{B968C5BB-500F-458D-B9F8-13F88C7D245D}
  9
$VERSIONGUID
  2
{98D49074-DEF5-4AFD-A6AF-6C5480AB333E}
  9
$EXTNAMES
290
     1
  9
$PSVPSCALE
 40
0.0
  9
$OLESTARTUP
290
     0
  0
ENDSEC
  0
SECTION
  2
CLASSES
  0
CLASS
  1
ACDBDICTIONARYWDFLT
  2
AcDbDictionaryWithDefault
  3
AutoCAD 2000
 90
        0
280
     0
281
     0
  0
CLASS
  1
ACDBPLACEHOLDER
  2
AcDbPlaceHolder
  3
AutoCAD 2000
 90
        0
280
     0
281
     0
  0
CLASS
  1
LAYOUT
  2
AcDbLayout
  3
AutoCAD 2000
 90
        0
280
     0
281
     0
  0
ENDSEC
  0
SECTION
  2
TABLES
  0
TABLE
  2
VPORT
  5
8
330
0
100
AcDbSymbolTable
 70
     2
  0
VPORT
  5
22AE
330
8
100
AcDbSymbolTableRecord
100
AcDbViewportTableRecord
  2
*Active
 70
     0
 10
0.0
 20
0.0
 11
1.0
 21
1.0
 12
605.450634249641
 22
449.694030578757
 13
0.0
 23
0.0
 14
10.0
 24
10.0
 15
10.0
 25
10.0
 16
0.0
 26
0.0
 36
1.0
 17
0.0
 27
0.0
 37
0.0
 40
626.1010563631953
 41
2.084474885844748
 42
50.0
 43
0.0
 44
0.0
 50
0.0
 51
0.0
 71
     0
 72
   100
 73
     1
 74
     3
 75
     0
 76
     0
 77
     0
 78
     0
281
     0
 65
     1
110
0.0
120
0.0
130
0.0
111
1.0
121
0.0
131
0.0
112
0.0
122
1.0
132
0.0
 79
     0
146
0.0
  0
ENDTAB
  0
TABLE
  2
LTYPE
  5
5
330
0
100
AcDbSymbolTable
 70
     3
  0
LTYPE
  5
14
330
5
100
AcDbSymbolTableRecord
100
AcDbLinetypeTableRecord
  2
ByBlock
 70
     0
  3

 72
    65
 73
     0
 40
0.0
  0
LTYPE
  5
15
330
5
100
AcDbSymbolTableRecord
100
AcDbLinetypeTableRecord
  2
ByLayer
 70
     0
  3

 72
    65
 73
     0
 40
0.0
  0
LTYPE
  5
16
330
5
100
AcDbSymbolTableRecord
100
AcDbLinetypeTableRecord
  2
Continuous
 70
     0
  3
Solid line
 72
    65
 73
     0
 40
0.0
  0
LTYPE
  5
1F51
330
5
100
AcDbSymbolTableRecord
100
AcDbLinetypeTableRecord
  2
DASHED
 70
     0
  3
Dashed __ __ __ __ __ __ __ __ __ __ __ __ __ _
 72
    65
 73
     2
 40
19.04999999999999
 49
12.7
 74
     0
 49
-6.349999999999999
 74
     0
  0
LTYPE
  5
1F52
330
5
100
AcDbSymbolTableRecord
100
AcDbLinetypeTableRecord
  2
IZOLACE
 70
     0
  3
Izolace SSSSSSSSSSSSSSSSSSSSSSSSSSSSSSSSSSSSSSS
 72
    65
 73
     4
 40
10.16253999999999
 49
0.00254
 74
     0
 49
-2.54
 74
     4
 75
   134
340
1F5A
 46
2.54
 50
0.0
 44
-2.54
 45
0.0
 49
-5.08
 74
     4
 75
   134
340
1F5A
 46
2.54
 50
180.0
 44
2.54
 45
0.0
 49
-2.54
 74
     0
  0
ENDTAB
  0
TABLE
  2
LAYER
  5
2
330
0
100
AcDbSymbolTable
 70
     7
  0
LAYER
  5
10
330
2
100
AcDbSymbolTableRecord
100
AcDbLayerTableRecord
  2
0
 70
     0
 62
     7
  6
Continuous
370
    -3
390
F
  0
LAYER
  5
1F53
330
2
100
AcDbSymbolTableRecord
100
AcDbLayerTableRecord
  2
POPIS
 70
     0
 62
    30
  6
Continuous
370
    -3
390
F
  0
LAYER
  5
1F54
330
2
100
AcDbSymbolTableRecord
100
AcDbLayerTableRecord
  2
SPOJOVACÍ
 70
     0
 62
   180
  6
Continuous
370
    -3
390
F
  0
LAYER
  5
1F55
330
2
100
AcDbSymbolTableRecord
100
AcDbLayerTableRecord
  2
CETRIS
 70
     0
 62
     1
  6
Continuous
370
    -3
390
F
  0
LAYER
  5
1F56
330
2
100
AcDbSymbolTableRecord
100
AcDbLayerTableRecord
  2
izolace
 70
     0
 62
    33
  6
Continuous
370
    -3
390
F
  0
LAYER
  5
1F57
330
2
100
AcDbSymbolTableRecord
100
AcDbLayerTableRecord
  2
nášlap_vrstvy
 70
     0
 62
    73
  6
Continuous
370
    -3
390
F
  0
LAYER
  5
1F58
330
2
100
AcDbSymbolTableRecord
100
AcDbLayerTableRecord
  2
STAVBA OBRYS
 70
     0
 62
     6
  6
Continuous
370
    -3
390
F
  0
ENDTAB
  0
TABLE
  2
STYLE
  5
3
330
0
100
AcDbSymbolTable
 70
     3
  0
STYLE
  5
11
330
3
100
AcDbSymbolTableRecord
100
AcDbTextStyleTableRecord
  2
Standard
 70
     0
 40
0.0
 41
1.0
 50
0.0
 71
     0
 42
2.5
  3
txt
  4

  0
STYLE
  5
1F59
330
3
100
AcDbSymbolTableRecord
100
AcDbTextStyleTableRecord
  2
SIMPLEX7
 70
     0
 40
0.0
 41
0.85
 50
0.0
 71
     0
 42
102.0
  3

  4

1001
ACAD
1000
Arial CE
1071
    60962
  0
STYLE
  5
1F5A
330
3
100
AcDbSymbolTableRecord
100
AcDbTextStyleTableRecord
  2

 70
     1
 40
0.0
 41
1.0
 50
0.0
 71
     0
 42
2.5
  3
ltypeshp.shx
  4

  0
ENDTAB
  0
TABLE
  2
VIEW
  5
6
330
0
100
AcDbSymbolTable
 70
     0
  0
ENDTAB
  0
TABLE
  2
UCS
  5
7
330
0
100
AcDbSymbolTable
 70
     0
  0
ENDTAB
  0
TABLE
  2
APPID
  5
9
330
0
100
AcDbSymbolTable
 70
     1
  0
APPID
  5
12
330
9
100
AcDbSymbolTableRecord
100
AcDbRegAppTableRecord
  2
ACAD
 70
     0
  0
ENDTAB
  0
TABLE
  2
DIMSTYLE
  5
A
330
0
100
AcDbSymbolTable
 70
     1
100
AcDbDimStyleTable
 71
     0
  0
DIMSTYLE
105
27
330
A
100
AcDbSymbolTableRecord
100
AcDbDimStyleTableRecord
  2
ISO-25
 70
     0
 41
2.5
 42
0.625
 43
3.75
 44
1.25
 73
     0
 74
     0
 77
     1
 78
     8
140
2.5
141
2.5
143
0.03937007874016
147
0.625
171
     3
172
     1
271
     2
272
     2
274
     3
278
    44
283
     0
284
     8
340
11
  0
ENDTAB
  0
TABLE
  2
BLOCK_RECORD
  5
1
330
0
100
AcDbSymbolTable
 70
     2
  0
BLOCK_RECORD
  5
1F
330
1
100
AcDbSymbolTableRecord
100
AcDbBlockTableRecord
  2
*Model_Space
340
22
  0
BLOCK_RECORD
  5
1B
330
1
100
AcDbSymbolTableRecord
100
AcDbBlockTableRecord
  2
*Paper_Space
340
1E
  0
BLOCK_RECORD
  5
23
330
1
100
AcDbSymbolTableRecord
100
AcDbBlockTableRecord
  2
*Paper_Space0
340
26
  0
BLOCK_RECORD
  5
1F4D
330
1
100
AcDbSymbolTableRecord
100
AcDbBlockTableRecord
  2
E_PUNKT
340
0
102
{BLKREFS
331
2102
331
2117
331
211B
331
2183
331
21DE
331
21F3
331
21F4
331
21F8
331
2220
102
}
  0
ENDTAB
  0
ENDSEC
  0
SECTION
  2
BLOCKS
  0
BLOCK
  5
20
330
1F
100
AcDbEntity
  8
0
100
AcDbBlockBegin
  2
*Model_Space
 70
     0
 10
0.0
 20
0.0
 30
0.0
  3
*Model_Space
  1

  0
ENDBLK
  5
21
330
1F
100
AcDbEntity
  8
0
100
AcDbBlockEnd
  0
BLOCK
  5
1C
330
1B
100
AcDbEntity
 67
     1
  8
0
100
AcDbBlockBegin
  2
*Paper_Space
 70
     0
 10
0.0
 20
0.0
 30
0.0
  3
*Paper_Space
  1

  0
ENDBLK
  5
1D
330
1B
100
AcDbEntity
 67
     1
  8
0
100
AcDbBlockEnd
  0
BLOCK
  5
24
330
23
100
AcDbEntity
  8
0
100
AcDbBlockBegin
  2
*Paper_Space0
 70
     0
 10
0.0
 20
0.0
 30
0.0
  3
*Paper_Space0
  1

  0
ENDBLK
  5
25
330
23
100
AcDbEntity
  8
0
100
AcDbBlockEnd
  0
BLOCK
  5
1F4F
330
1F4D
100
AcDbEntity
  8
0
100
AcDbBlockBegin
  2
E_PUNKT
 70
     0
 10
0.0
 20
0.0
 30
0.0
  3
E_PUNKT
  1

  0
LWPOLYLINE
  5
1F4E
330
1F4D
100
AcDbEntity
  8
POPIS
100
AcDbPolyline
 90
        2
 70
     1
 43
2.5
 10
1.27761037562675
 20
0.0290683308725193
 42
-1.0
 10
-1.222389624373249
 20
0.0290683308725193
 42
-1.0
  0
ENDBLK
  5
1F50
330
1F4D
100
AcDbEntity
  8
0
100
AcDbBlockEnd
  0
ENDSEC
  0
SECTION
  2
ENTITIES
  0
LWPOLYLINE
  5
2100
330
1F
100
AcDbEntity
  8
izolace
100
AcDbPolyline
 90
        4
 70
     1
 43
0.0
 10
215.0337414466397
 20
324.8866979392619
 10
191.3920087368045
 20
324.8866979392619
 10
191.3920087368045
 20
321.8866979392619
 10
215.0337414466397
 20
321.8866979392619
  0
HATCH
  5
2101
330
1F
100
AcDbEntity
  8
izolace
100
AcDbHatch
 10
0.0
 20
0.0
 30
0.0
210
0.0
220
0.0
230
1.0
  2
SOLID
 70
     1
 71
     0
 91
        1
 92
        7
 72
     0
 73
     1
 93
        4
 10
191.3920087368081
 20
324.8866979392619
 10
191.3920087368081
 20
321.8866979392619
 10
215.0337414466434
 20
321.8866979392619
 10
215.0337414466434
 20
324.8866979392619
 97
        0
 75
     0
 76
     1
 47
0.1901250437635136
 98
        1
 10
200.749803495148
 20
324.0698863881821
  0
INSERT
  5
2102
330
1F
100
AcDbEntity
  8
POPIS
100
AcDbBlockReference
  2
E_PUNKT
 10
197.2168355749986
 20
339.4924597689155
 30
0.0
 50
270.0
  0
TEXT
  5
2103
330
1F
100
AcDbEntity
  8
POPIS
100
AcDbText
 10
-22.39399708797418
 20
683.4658744499679
 30
0.0
 40
50.0
  1
Přechod na jinou podlahu
 41
0.85
  7
SIMPLEX7
100
AcDbText
  0
TEXT
  5
2104
330
1F
100
AcDbEntity
  8
POPIS
100
AcDbText
 10
-22.39399708797418
 20
628.841131424167
 30
0.0
 40
35.0
  1
SVISLÝ ŘEZ
 41
0.85
  7
SIMPLEX7
100
AcDbText
  0
LWPOLYLINE
  5
2105
330
1F
100
AcDbEntity
  8
nášlap_vrstvy
100
AcDbPolyline
 90
        2
 70
     0
 43
0.0
 10
324.9555131181354
 20
375.8469473277268
 10
-15.15577036883553
 20
375.8469473277268
  0
TEXT
  5
2106
330
1F
100
AcDbEntity
  8
POPIS
100
AcDbText
 10
180.7367225544026
 20
244.6392653119487
 30
0.0
 40
25.0
  1
08
 41
0.85
  7
SIMPLEX7
100
AcDbText
  0
LINE
  5
2107
330
1F
100
AcDbEntity
  8
STAVBA OBRYS
100
AcDbLine
 10
-15.15577036883541
 20
192.0637698383648
 30
0.0
 11
642.789892142237
 21
192.0637698383648
 31
0.0
  0
LINE
  5
2108
330
1F
100
AcDbEntity
  8
STAVBA OBRYS
100
AcDbLine
 10
-15.15577036883178
 20
202.0637698383648
 30
0.0
 11
642.789892142237
 21
202.0637698383657
 31
0.0
  0
LWPOLYLINE
  5
2109
330
1F
100
AcDbEntity
  8
izolace
100
AcDbPolyline
 90
        4
 70
     0
 43
0.0
 10
-15.15577036883553
 20
324.8866979392619
 10
337.7742727746102
 20
324.8866979392619
 10
337.7742727746138
 20
321.8866979392619
 10
-15.15577036883553
 20
321.8866979392619
  0
LWPOLYLINE
  5
210A
330
1F
100
AcDbEntity
  8
nášlap_vrstvy
100
AcDbPolyline
 90
        2
 70
     0
 43
0.0
 10
-15.15577036883553
 20
371.5084583017792
 10
324.9555131181354
 20
371.5084583017792
  0
LINE
  5
210B
330
1F
100
AcDbEntity
  8
CETRIS
100
AcDbLine
 10
-15.15577036883541
 20
356.8866979392619
 30
0.0
 11
322.7742727746103
 21
356.8866979392619
 31
0.0
  0
LINE
  5
210C
330
1F
100
AcDbEntity
  8
izolace
  6
IZOLACE
 48
0.95
100
AcDbLine
 10
-15.15577036883541
 20
334.8866979392619
 30
0.0
 11
262.7742727746103
 21
334.8866979392619
 31
0.0
  0
LINE
  5
210D
330
1F
100
AcDbEntity
  8
CETRIS
100
AcDbLine
 10
-15.15577036883541
 20
344.8866979392619
 30
0.0
 11
300.2742727746103
 21
344.8866979392619
 31
0.0
  0
LINE
  5
210E
330
1F
100
AcDbEntity
  8
CETRIS
100
AcDbLine
 10
-15.15577036883541
 20
368.8866979392619
 30
0.0
 11
322.7742727746103
 21
368.8866979392619
 31
0.0
  0
HATCH
  5
210F
330
1F
100
AcDbEntity
  8
STAVBA OBRYS
100
AcDbHatch
 10
0.0
 20
0.0
 30
0.0
210
0.0
220
0.0
230
1.0
  2
AR-CONC
 70
     0
 71
     0
 91
        1
 92
        7
 72
     0
 73
     1
 93
        4
 10
642.7898921422332
 20
202.0637698383666
 10
-15.15577036883553
 20
202.0637698383648
 10
-15.15577036883553
 20
192.0637698383648
 10
642.7898921422369
 20
192.0637698383648
 97
        0
 75
     0
 76
     1
 52
90.0
 41
0.1
 77
     0
 78
    13
 53
140.0
 43
-29188.83346609
 44
4209.476824943203
 45
1.593908553890309
 46
18.2184668996004
 79
     2
 49
1.905
 49
-20.955
 53
85.00000000000001
 43
-29188.83346609
 44
4209.476824943203
 45
-19.10566428821799
 46
-3.524282597566697
 79
     2
 49
1.524
 49
-16.764
 53
190.4509999999999
 43
-29188.70064108999
 44
4210.995024943204
 45
-17.51166878202918
 46
14.69425016659592
 79
     2
 49
1.619
 49
-17.809
 53
136.1841999999999
 43
-29193.91346609
 44
4209.476824943203
 45
4.204232793272717
 46
27.10790408921299
 79
     2
 49
2.857499999999999
 49
-31.4325
 53
186.6355999999999
 43
-29193.56311609
 44
4211.735814943204
 45
-24.74255558900492
 46
23.74042344662371
 79
     2
 49
2.4285
 49
-26.7135
 53
81.18400000000004
 43
-29193.91346609
 44
4209.476824943203
 45
-24.74251178605976
 46
23.74046058139339
 79
     2
 49
2.286
 49
-25.146
 53
111.0
 43
-29192.64346609
 44
4212.016824943203
 45
10.22655185167625
 46
15.16148798353833
 79
     2
 49
1.905
 49
-20.955
 53
56.00000000000004
 43
-29192.64346609
 44
4212.016824943203
 45
-18.41879661223192
 46
6.180202834764708
 79
     2
 49
1.524
 49
-16.764
 53
161.4514
 43
-29191.79125609
 44
4213.280274943203
 45
-8.192285771605742
 46
21.34164907701245
 79
     2
 49
1.618999999999997
 49
-17.80899999999995
 53
127.5
 43
-29188.83346609
 44
4209.476824943203
 45
-8.455503887315311
 46
0.3088603250591822
 79
     6
 49
0.0
 49
-16.5608
 49
0.0
 49
-17.018
 49
0.0
 49
-16.8275
 53
97.49999999999985
 43
-29188.83346609
 44
4209.476824943203
 45
-10.01805748181195
 46
6.681966251030575
 79
     6
 49
0.0
 49
-9.702799999999998
 49
0.0
 49
-16.17979999999999
 49
0.0
 49
-6.413499999999999
 53
57.5
 43
-29188.83346609
 44
4203.812624943203
 45
0.5728743992673473
 46
13.55905951668713
 79
     6
 49
0.0
 49
-6.35
 49
0.0
 49
-19.812
 49
0.0
 49
-26.289
 53
47.5
 43
-29188.83346609
 44
4201.272624943203
 45
-2.5426491033333
 46
14.8129181386018
 79
     6
 49
0.0
 49
-8.255
 49
0.0
 49
-13.1572
 49
0.0
 49
-18.669
 47
1.084445008349079
 98
        1
 10
350.9887652628298
 20
195.6624890324087
  0
HATCH
  5
2110
330
1F
100
AcDbEntity
  8
STAVBA OBRYS
100
AcDbHatch
 10
0.0
 20
0.0
 30
0.0
210
0.0
220
0.0
230
1.0
  2
ANSI35
 70
     0
 71
     0
 91
        7
 92
        7
 72
     1
 73
     1
 93
        8
 10
642.7898921422332
 20
321.8866979392619
 42
0.0
 10
337.7742727746138
 20
321.8866979392619
 42
0.0
 10
124.7289268846346
 20
321.8866979392619
 42
-0.4142135623730951
 10
123.4789268846346
 20
320.6366979392619
 42
-0.4142135623730951
 10
122.2289268846346
 20
321.8866979392619
 42
0.0
 10
-15.15577036883189
 20
321.8866979392619
 42
0.0
 10
-15.1557703688428
 20
202.0637698383648
 42
0.0
 10
642.7898921422296
 20
202.0637698383666
 42
0.0
 97
        0
 92
       22
 72
     1
 73
     1
 93
        2
 10
55.18889991013782
 20
307.4237898667183
 42
-1.0
 10
55.18889991013782
 20
309.9237898667183
 42
-1.0
 97
        0
 92
       24
 93
        4
 72
     1
 10
304.6575582218741
 20
237.8094563078561
 11
345.4975138835419
 21
237.8094563078561
 72
     1
 10
345.4975138835419
 20
237.8094563078561
 11
345.4975138835419
 21
276.1280101959869
 72
     1
 10
345.4975138835419
 20
276.1280101959869
 11
304.6575582218741
 21
276.1280101959869
 72
     1
 10
304.6575582218741
 20
276.1280101959869
 11
304.6575582218741
 21
237.8094563078561
 97
        0
 92
       24
 93
        4
 72
     1
 10
174.3545602078833
 20
237.83077281536
 11
215.1859892665473
 21
237.83077281536
 72
     1
 10
215.1859892665473
 20
237.83077281536
 11
215.1859892665473
 21
276.1237468944859
 72
     1
 10
215.1859892665473
 20
276.1237468944859
 11
174.3545602078833
 21
276.1237468944859
 72
     1
 10
174.3545602078833
 20
276.1237468944859
 11
174.3545602078833
 21
237.83077281536
 97
        0
 92
       24
 93
        4
 72
     1
 10
100.5875831866454
 20
237.83077281536
 11
141.4190122453095
 21
237.83077281536
 72
     1
 10
141.4190122453095
 20
237.83077281536
 11
141.4190122453095
 21
276.1237468944859
 72
     1
 10
141.4190122453095
 20
276.1237468944859
 11
100.5875831866454
 21
276.1237468944859
 72
     1
 10
100.5875831866454
 20
276.1237468944859
 11
100.5875831866454
 21
237.83077281536
 97
        0
 92
       24
 93
        4
 72
     1
 10
32.29755621214497
 20
237.83077281536
 11
73.12898527080903
 21
237.83077281536
 72
     1
 10
73.12898527080903
 20
237.83077281536
 11
73.12898527080903
 21
276.1237468944859
 72
     1
 10
73.12898527080903
 20
276.1237468944859
 11
32.29755621214497
 21
276.1237468944859
 72
     1
 10
32.29755621214497
 20
276.1237468944859
 11
32.29755621214497
 21
237.83077281536
 97
        0
 92
       24
 93
        4
 72
     1
 10
256.3947784803407
 20
237.83077281536
 11
297.2262075390048
 21
237.83077281536
 72
     1
 10
297.2262075390048
 20
237.83077281536
 11
297.2262075390048
 21
276.1237468944859
 72
     1
 10
297.2262075390048
 20
276.1237468944859
 11
256.3947784803407
 21
276.1237468944859
 72
     1
 10
256.3947784803407
 20
276.1237468944859
 11
256.3947784803407
 21
237.83077281536
 97
        0
 75
     0
 76
     1
 52
0.0
 41
3.0
 77
     0
 78
     2
 53
45.0
 43
-29268.85946456511
 44
5092.680422031221
 45
-13.47038418160372
 46
13.47038418160373
 79
     0
 53
45.0
 43
-29255.38907456511
 44
5092.680422031221
 45
-13.47038418160372
 46
13.47038418160373
 79
     4
 49
23.8125
 49
-4.762499999999999
 49
0.0
 49
-4.762499999999999
 47
0.982776911858359
 98
        2
 10
420.7646850213771
 20
268.3992730966142
 10
420.7646850213771
 20
268.3992730966142
  0
HATCH
  5
2111
330
1F
100
AcDbEntity
  8
CETRIS
100
AcDbHatch
 10
0.0
 20
0.0
 30
0.0
210
0.0
220
0.0
230
1.0
  2
ANSI31
 70
     0
 71
     0
 91
        1
 92
        7
 72
     1
 73
     1
 93
       49
 10
303.3852595412048
 20
348.9159724318056
 42
0.0
 10
303.0151611934037
 20
349.1301919175834
 42
0.0
 10
303.3852595412084
 20
349.5002902632454
 42
0.0
 10
304.0443262976645
 20
349.278681340033
 42
0.0
 10
304.0443262976645
 20
351.7517769352175
 42
0.0
 10
303.3852595412084
 20
351.9733858583863
 42
0.0
 10
303.0151611933964
 20
352.1876053441724
 42
0.0
 10
303.3852595412012
 20
352.5577036898362
 42
0.0
 10
304.0443262976645
 20
352.3360947666656
 42
0.0
 10
304.0443262976681
 20
354.8093419413439
 42
0.0
 10
303.3852595412194
 20
355.0307992852344
 42
0.0
 10
303.0151611934037
 20
355.2450187710242
 42
0.0
 10
303.3852595412048
 20
355.6151171166907
 42
0.0
 10
304.0443262976645
 20
355.3936597727529
 42
0.0
 10
304.0443262976645
 20
356.8866979392628
 42
0.0
 10
179.3666700733105
 20
356.8866979392619
 42
0.0
 10
179.3666700733105
 20
351.4414005035701
 42
-1.0
 10
179.3666700733105
 20
348.9414005035701
 42
-1.0
 10
179.3666700733105
 20
351.4414005035701
 42
0.0
 10
179.3666700733105
 20
356.8866979392619
 42
0.0
 10
130.9410264667188
 20
356.8866979392619
 42
0.0
 10
130.8107341392154
 20
356.75640561101
 42
0.0
 10
130.4232436856385
 20
356.8866979392619
 42
0.0
 10
130.151667382763
 20
356.8866979392619
 42
0.0
 10
130.1516673827667
 20
354.5047673595449
 42
0.0
 10
130.8107341392263
 20
354.2833100156062
 42
0.0
 10
131.1808324827528
 20
354.0690905298211
 42
0.0
 10
130.8107341392263
 20
353.6989921844256
 42
0.0
 10
130.1516673827594
 20
353.9204495283206
 42
0.0
 10
130.1516673827594
 20
351.4465939400011
 42
0.0
 10
130.81073413923
 20
351.224985016825
 42
0.0
 10
131.1808324827492
 20
351.0116771032403
 42
0.0
 10
130.8107341392227
 20
350.640667185386
 42
0.0
 10
130.151667382763
 20
350.862276108553
 42
0.0
 10
130.1516673827594
 20
348.3891805131884
 42
0.0
 10
130.81073413923
 20
348.167571589975
 42
0.0
 10
131.1808324827419
 20
347.9542636766495
 42
0.0
 10
130.8107341392227
 20
347.5832537587953
 42
0.0
 10
130.1516673827703
 20
347.804862681965
 42
0.0
 10
130.1516673827558
 20
345.3317670866085
 42
0.0
 10
130.8107341392263
 20
345.1101581633943
 42
0.0
 10
131.1777188345789
 20
344.8977409123995
 42
0.0
 10
304.0443262976608
 20
344.8977409124004
 42
0.0
 10
304.0443262976645
 20
345.6369500819996
 42
0.0
 10
303.3852595412012
 20
345.858559005213
 42
0.0
 10
303.0151611934037
 20
346.0718669185403
 42
0.0
 10
303.3852595412048
 20
346.4428768366628
 42
0.0
 10
304.0443262976645
 20
346.2212679134477
 42
0.0
 10
304.0443262976645
 20
348.6943635086322
 42
0.0
 97
        0
 75
     0
 76
     1
 52
0.0
 41
1.0
 77
     0
 78
     1
 53
45.0
 43
-29268.85946456511
 44
5092.680422031221
 45
-2.245064030267287
 46
2.245064030267288
 79
     0
 47
0.2602611707434061
 98
        2
 10
315.824627495231
 20
351.6602951065992
 10
270.250975925583
 20
348.7974238384245
  0
HATCH
  5
2112
330
1F
100
AcDbEntity
  8
CETRIS
100
AcDbHatch
 10
0.0
 20
0.0
 30
0.0
210
0.0
220
0.0
230
1.0
  2
ANSI31
 70
     0
 71
     0
 91
        4
 92
        7
 72
     1
 73
     1
 93
       20
 10
303.5602814183752
 20
364.6415058319758
 42
0.0
 10
302.7799755486397
 20
365.9341153246892
 42
0.0
 10
301.6915582462846
 20
366.9815118743231
 42
0.0
 10
300.3688668644012
 20
367.7107696980669
 42
0.0
 10
300.3688668643975
 20
368.8866979392619
 42
0.0
 10
230.4525927577691
 20
368.8866979392619
 42
0.0
 10
230.4525927577655
 20
363.0825126091908
 42
-1.0
 10
230.4525927577655
 20
360.5825126091908
 42
-1.0
 10
230.4525927577655
 20
363.0825126091908
 42
0.0
 10
230.4525927577655
 20
368.8866979392619
 42
0.0
 10
179.3666700733068
 20
368.8866979392619
 42
0.0
 10
179.3666700733032
 20
356.8866979392628
 42
0.0
 10
304.0443262976608
 20
356.8866979392619
 42
0.0
 10
304.0443262976608
 20
357.8675153610652
 42
0.0
 10
303.3852595412048
 20
358.0891242842795
 42
0.0
 10
303.0151611934001
 20
358.3024321976086
 42
0.0
 10
303.3852595412084
 20
358.673442115461
 42
0.0
 10
304.0443262976645
 20
358.4518331922931
 42
0.0
 10
304.0443262976608
 20
362.4190926136229
 42
0.0
 10
303.9796046653886
 20
363.190282762273
 42
0.0
 97
        0
 92
        7
 72
     0
 73
     1
 93
       13
 10
322.7742727746102
 20
368.8866979392619
 10
310.3651684861237
 20
368.8866979392619
 10
310.3651684861273
 20
367.7107696980679
 10
309.6641694036974
 20
367.3807805329347
 10
308.4517782709502
 20
366.4810586926964
 10
307.5128588223873
 20
365.2978378734601
 10
306.912132690208
 20
363.9122480079409
 10
306.6897090571459
 20
362.4190926136002
 10
306.6897090571423
 20
357.5623323656305
 10
307.3487758136092
 20
357.3407234424617
 10
307.7188741571357
 20
357.1265039566747
 10
307.4790681411126
 20
356.8866979392619
 10
322.7742727746102
 20
356.8866979392619
 97
        0
 92
        7
 72
     0
 73
     1
 93
       13
 10
179.3666700733068
 20
368.8866979392619
 10
133.8271268117481
 20
368.8866979392619
 10
133.8271268117481
 20
367.7107696980688
 10
133.1261277292963
 20
367.3807805329492
 10
131.9137365965783
 20
366.4810586927046
 10
130.9748171479935
 20
365.2978378734674
 10
130.3740910158288
 20
363.9122480079545
 10
130.151667382763
 20
362.4190926136329
 10
130.1516673827667
 20
357.5623323656286
 10
130.8107341392191
 20
357.3407234424607
 10
131.1808324827455
 20
357.1265039566719
 10
130.9410264667225
 20
356.8866979392628
 10
179.3666700733068
 20
356.8866979392628
 97
        0
 92
        7
 72
     0
 73
     1
 93
       15
 10
127.5062846232743
 20
362.4190926136329
 10
127.4415629910021
 20
363.1902827622693
 10
127.0222397439778
 20
364.6415058319766
 10
126.2419338742496
 20
365.9341153247073
 10
125.1535165719091
 20
366.9815118743249
 10
123.8308251900292
 20
367.7107696980633
 10
123.8308251900256
 20
368.886697939261
 10
-15.15577036883189
 20
368.8866979392628
 10
-15.15577036883189
 20
356.8866979392628
 10
127.5062846232816
 20
356.8866979392619
 10
127.5062846232816
 20
357.867515361067
 10
126.8472178668183
 20
358.0891242842803
 10
126.4771195190208
 20
358.3024321976095
 10
126.8472178668183
 20
358.6734421154619
 10
127.5062846232816
 20
358.4518331922931
 97
        0
 75
     0
 76
     1
 52
90.0
 41
1.0
 77
     0
 78
     1
 53
135.0
 43
-29268.85946456511
 44
5092.680422031221
 45
-2.245064030267288
 46
-2.245064030267287
 79
     0
 47
0.6948296927952456
 98
        4
 10
291.3083001117541
 20
364.437874957844
 10
313.5564708272635
 20
363.0481988282022
 10
154.342770786074
 20
361.6585494246405
 10
98.02700690452036
 20
360.9637247228615
  0
TEXT
  5
2113
330
1F
100
AcDbEntity
  8
POPIS
100
AcDbText
 10
111.7233920054445
 20
450.0295177651728
 30
0.0
 40
25.0
  1
06
 41
0.85
  7
SIMPLEX7
100
AcDbText
  0
TEXT
  5
2114
330
1F
100
AcDbEntity
  8
POPIS
100
AcDbText
 10
162.4689991415057
 20
450.0295177651728
 30
0.0
 40
25.0
  1
05
 41
0.85
  7
SIMPLEX7
100
AcDbText
  0
LINE
  5
2115
330
1F
100
AcDbEntity
  8
POPIS
100
AcDbLine
 10
123.4789268846347
 20
277.2711033588816
 30
0.0
 11
123.4789268846347
 21
321.8866979392619
 31
0.0
  0
LINE
  5
2116
330
1F
100
AcDbEntity
  8
POPIS
100
AcDbLine
 10
197.2459039058726
 20
277.2711033588816
 30
0.0
 11
197.2459039058726
 21
340.0764763745551
 31
0.0
  0
INSERT
  5
2117
330
1F
100
AcDbEntity
  8
POPIS
100
AcDbBlockReference
  2
E_PUNKT
 10
123.4498585537608
 20
321.9143083148888
 30
0.0
 50
270.0
  0
TEXT
  5
2118
330
1F
100
AcDbEntity
  8
POPIS
100
AcDbText
 10
38.6797185586679
 20
244.6392653119487
 30
0.0
 40
25.0
  1
10
 41
0.85
  7
SIMPLEX7
100
AcDbText
  0
LINE
  5
2119
330
1F
100
AcDbEntity
  8
POPIS
100
AcDbLine
 10
55.18889991013793
 20
277.2711033588816
 30
0.0
 11
55.18889991013793
 21
308.6737898667184
 31
0.0
  0
TEXT
  5
211A
330
1F
100
AcDbEntity
  8
POPIS
100
AcDbText
 10
106.9697455331647
 20
244.6392653119487
 30
0.0
 40
25.0
  1
09
 41
0.85
  7
SIMPLEX7
100
AcDbText
  0
INSERT
  5
211B
330
1F
100
AcDbEntity
  8
POPIS
100
AcDbBlockReference
  2
E_PUNKT
 10
55.15983157926394
 20
308.7014002423452
 30
0.0
 50
270.0
  0
HATCH
  5
211C
330
1F
100
AcDbEntity
  8
CETRIS
100
AcDbHatch
 10
0.0
 20
0.0
 30
0.0
210
0.0
220
0.0
230
1.0
  2
ANSI31
 70
     0
 71
     0
 91
        1
 92
        7
 72
     0
 73
     1
 93
       24
 10
126.4771195190172
 20
352.1876053441733
 10
126.847217866822
 20
352.5577036898362
 10
127.506284623278
 20
352.3360947666647
 10
127.506284623278
 20
354.8093419413439
 10
126.8472178668329
 20
355.030799285239
 10
126.4771195190172
 20
355.2450187710242
 10
126.8472178668256
 20
355.6151171166916
 10
127.506284623278
 20
355.3936597727547
 10
127.5062846232816
 20
356.8866979392619
 10
-15.15577036883189
 20
356.8866979392619
 10
-15.15577036883553
 20
344.8866979392619
 10
127.506284623278
 20
344.8866979392628
 10
127.5062846232816
 20
345.6369500819996
 10
126.8472178668111
 20
345.8585590052148
 10
126.4771195190136
 20
346.071866918543
 10
126.8472178668183
 20
346.4428768366638
 10
127.5062846232816
 20
346.2212679134486
 10
127.5062846232816
 20
348.694363508634
 10
126.8472178668074
 20
348.9159724318046
 10
126.4771195190172
 20
349.1301919175834
 10
126.847217866822
 20
349.5002902632454
 10
127.5062846232889
 20
349.2786813400302
 10
127.5062846232816
 20
351.7517769352184
 10
126.847217866822
 20
351.9733858583872
 97
        0
 75
     0
 76
     1
 52
0.0
 41
1.0
 77
     0
 78
     1
 53
45.0
 43
-29268.85946456511
 44
5092.680422031221
 45
-2.245064030267287
 46
2.245064030267288
 79
     0
 47
0.6948296927952456
 98
        1
 10
10.42468247331851
 20
351.9309234214756
  0
LWPOLYLINE
  5
211D
330
1F
100
AcDbEntity
  8
izolace
100
AcDbPolyline
 90
        4
 70
     1
 43
0.0
 10
25.89987976795816
 20
324.8866979392619
 10
2.258147058122972
 20
324.8866979392619
 10
2.258147058122972
 20
321.8866979392619
 10
25.89987976795816
 20
321.8866979392619
  0
HATCH
  5
211E
330
1F
100
AcDbEntity
  8
izolace
100
AcDbHatch
 10
0.0
 20
0.0
 30
0.0
210
0.0
220
0.0
230
1.0
  2
SOLID
 70
     1
 71
     0
 91
        1
 92
        7
 72
     0
 73
     1
 93
        4
 10
2.258147058122972
 20
324.8866979392619
 10
2.25814705812661
 20
321.8866979392619
 10
25.8998797679618
 20
321.8866979392619
 10
25.8998797679618
 20
324.8866979392619
 97
        0
 75
     0
 76
     1
 47
0.1901250437635136
 98
        1
 10
11.61594181646648
 20
324.0698863881821
  0
LINE
  5
211F
330
1F
100
AcDbEntity
  8
izolace
100
AcDbLine
 10
-15.15577036883541
 20
321.8866979392619
 30
0.0
 11
23.73484782366222
 21
321.8866979392619
 31
0.0
  0
LWPOLYLINE
  5
2120
330
1F
100
AcDbEntity
  8
izolace
100
AcDbPolyline
 90
        4
 70
     1
 43
0.0
 10
167.7502760269693
 20
324.8866979392619
 10
144.1085433171341
 20
324.8866979392619
 10
144.1085433171341
 20
321.8866979392619
 10
167.7502760269693
 20
321.8866979392619
  0
HATCH
  5
2121
330
1F
100
AcDbEntity
  8
izolace
100
AcDbHatch
 10
0.0
 20
0.0
 30
0.0
210
0.0
220
0.0
230
1.0
  2
SOLID
 70
     1
 71
     0
 91
        1
 92
        7
 72
     0
 73
     1
 93
        4
 10
144.1085433171341
 20
324.8866979392619
 10
144.1085433171377
 20
321.8866979392619
 10
167.7502760269729
 20
321.8866979392619
 10
167.7502760269729
 20
324.8866979392619
 97
        0
 75
     0
 76
     1
 47
0.1901250437635136
 98
        1
 10
153.4663380754776
 20
324.0698863881821
  0
LWPOLYLINE
  5
2122
330
1F
100
AcDbEntity
  8
izolace
100
AcDbPolyline
 90
        4
 70
     1
 43
0.0
 10
120.4668106072989
 20
324.8866979392619
 10
96.82507789746376
 20
324.8866979392619
 10
96.82507789746376
 20
321.8866979392619
 10
120.4668106072989
 20
321.8866979392619
  0
HATCH
  5
2123
330
1F
100
AcDbEntity
  8
izolace
100
AcDbHatch
 10
0.0
 20
0.0
 30
0.0
210
0.0
220
0.0
230
1.0
  2
SOLID
 70
     1
 71
     0
 91
        1
 92
        7
 72
     0
 73
     1
 93
        4
 10
96.82507789746376
 20
324.8866979392619
 10
96.82507789746376
 20
321.8866979392619
 10
120.4668106073025
 20
321.8866979392619
 10
120.4668106073025
 20
324.8866979392619
 97
        0
 75
     0
 76
     1
 47
0.1901250437635136
 98
        1
 10
106.1828726558072
 20
324.0698863881821
  0
LWPOLYLINE
  5
2124
330
1F
100
AcDbEntity
  8
izolace
100
AcDbPolyline
 90
        4
 70
     1
 43
0.0
 10
73.18334518762856
 20
324.8866979392619
 10
49.54161247779336
 20
324.8866979392619
 10
49.54161247779336
 20
321.8866979392619
 10
73.18334518762856
 20
321.8866979392619
  0
HATCH
  5
2125
330
1F
100
AcDbEntity
  8
izolace
100
AcDbHatch
 10
0.0
 20
0.0
 30
0.0
210
0.0
220
0.0
230
1.0
  2
SOLID
 70
     1
 71
     0
 91
        1
 92
        7
 72
     0
 73
     1
 93
        4
 10
49.541612477797
 20
324.8866979392619
 10
49.54161247779336
 20
321.8866979392619
 10
73.1833451876322
 20
321.8866979392619
 10
73.1833451876322
 20
324.8866979392619
 97
        0
 75
     0
 76
     1
 47
0.1901250437635136
 98
        1
 10
58.89940723613688
 20
324.0698863881821
  0
LINE
  5
2126
330
1F
100
AcDbEntity
  8
CETRIS
100
AcDbLine
 10
105.7373118616715
 20
368.8866979392619
 30
0.0
 11
105.7373118616715
 21
356.8866979392619
 31
0.0
  0
LINE
  5
2127
330
1F
100
AcDbEntity
  8
SPOJOVACÍ
  6
DASHED
100
AcDbLine
 10
86.67227843938826
 20
365.2978378734656
 30
0.0
 11
87.61119788797305
 21
366.4810586927064
 31
0.0
  0
LINE
  5
2128
330
1F
100
AcDbEntity
  8
SPOJOVACÍ
  6
DASHED
100
AcDbLine
 10
86.07155230722355
 20
363.9122480079563
 30
0.0
 11
86.67227843938826
 21
365.2978378734656
 31
0.0
  0
LINE
  5
2129
330
1F
100
AcDbEntity
  8
SPOJOVACÍ
  6
DASHED
100
AcDbLine
 10
85.84912867415779
 20
362.4190926135956
 30
0.0
 11
86.07155230722355
 21
363.9122480079563
 31
0.0
  0
LINE
  5
212A
330
1F
100
AcDbEntity
  8
SPOJOVACÍ
  6
DASHED
100
AcDbLine
 10
89.52458810313919
 20
368.8866979392619
 30
0.0
 11
89.52458810313919
 21
367.7107696980651
 31
0.0
  0
LINE
  5
212B
330
1F
100
AcDbEntity
  8
SPOJOVACÍ
  6
DASHED
100
AcDbLine
 10
79.52828648141667
 20
368.8866979392619
 30
0.0
 11
89.52458810313919
 21
368.8866979392619
 31
0.0
  0
LINE
  5
212C
330
1F
100
AcDbEntity
  8
SPOJOVACÍ
  6
DASHED
100
AcDbLine
 10
79.52828648141667
 20
368.8866979392619
 30
0.0
 11
79.52828648141667
 21
367.7107696980651
 31
0.0
  0
LINE
  5
212D
330
1F
100
AcDbEntity
  8
SPOJOVACÍ
  6
DASHED
100
AcDbLine
 10
79.52828648141667
 20
367.7107696980651
 30
0.0
 11
89.52458810313919
 21
367.7107696980651
 31
0.0
  0
LINE
  5
212E
330
1F
100
AcDbEntity
  8
SPOJOVACÍ
  6
DASHED
100
AcDbLine
 10
88.82358902069473
 20
367.3807805329392
 30
0.0
 11
89.52458810313919
 21
367.7107696980651
 31
0.0
  0
LINE
  5
212F
330
1F
100
AcDbEntity
  8
SPOJOVACÍ
  6
DASHED
100
AcDbLine
 10
87.61119788797305
 20
366.4810586927064
 30
0.0
 11
88.82358902069473
 21
367.3807805329392
 31
0.0
  0
LINE
  5
2130
330
1F
100
AcDbEntity
  8
SPOJOVACÍ
  6
DASHED
100
AcDbLine
 10
83.13902428239316
 20
363.1902827622557
 30
0.0
 11
83.20374591467635
 21
362.4190926135956
 31
0.0
  0
LINE
  5
2131
330
1F
100
AcDbEntity
  8
SPOJOVACÍ
  6
DASHED
100
AcDbLine
 10
82.71970103537979
 20
364.6415058319648
 30
0.0
 11
83.13902428239316
 21
363.1902827622557
 31
0.0
  0
LINE
  5
2132
330
1F
100
AcDbEntity
  8
SPOJOVACÍ
  6
DASHED
100
AcDbLine
 10
81.93939516564796
 20
365.9341153246964
 30
0.0
 11
82.71970103537979
 21
364.6415058319648
 31
0.0
  0
LINE
  5
2133
330
1F
100
AcDbEntity
  8
SPOJOVACÍ
  6
DASHED
100
AcDbLine
 10
80.85097786329653
 20
366.9815118743203
 30
0.0
 11
81.93939516564796
 21
365.9341153246964
 31
0.0
  0
LINE
  5
2134
330
1F
100
AcDbEntity
  8
SPOJOVACÍ
  6
DASHED
100
AcDbLine
 10
79.52828648141667
 20
367.7107696980651
 30
0.0
 11
80.85097786329653
 21
366.9815118743203
 31
0.0
  0
LINE
  5
2135
330
1F
100
AcDbEntity
  8
SPOJOVACÍ
  6
DASHED
100
AcDbLine
 10
85.84912867415779
 20
362.4190926135956
 30
0.0
 11
85.84912867415779
 21
357.5749975182457
 31
0.0
  0
LINE
  5
2136
330
1F
100
AcDbEntity
  8
SPOJOVACÍ
  6
DASHED
100
AcDbLine
 10
83.20374591467635
 20
362.4190926135956
 30
0.0
 11
83.20374591467635
 21
358.4619573465092
 31
0.0
  0
LINE
  5
2137
330
1F
100
AcDbEntity
  8
SPOJOVACÍ
  6
DASHED
100
AcDbLine
 10
83.20374591467635
 20
357.8785510875163
 30
0.0
 11
83.20374591467635
 21
355.410013353588
 31
0.0
  0
LINE
  5
2138
330
1F
100
AcDbEntity
  8
SPOJOVACÍ
  6
DASHED
100
AcDbLine
 10
83.20374591467635
 20
354.8184029440994
 30
0.0
 11
83.20374591467635
 21
352.3480420655246
 31
0.0
  0
LINE
  5
2139
330
1F
100
AcDbEntity
  8
SPOJOVACÍ
  6
DASHED
100
AcDbLine
 10
83.20374591467635
 20
351.7655473787194
 30
0.0
 11
83.20374591467635
 21
349.2878939221077
 31
0.0
  0
LINE
  5
213A
330
1F
100
AcDbEntity
  8
SPOJOVACÍ
  6
DASHED
100
AcDbLine
 10
85.84912867415779
 20
356.9833871087571
 30
0.0
 11
85.84912867415779
 21
354.5148493748288
 31
0.0
  0
LINE
  5
213B
330
1F
100
AcDbEntity
  8
SPOJOVACÍ
  6
DASHED
100
AcDbLine
 10
85.84912867415779
 20
353.9305315433771
 30
0.0
 11
85.84912867415779
 21
351.4528780867653
 31
0.0
  0
LINE
  5
213C
330
1F
100
AcDbEntity
  8
SPOJOVACÍ
  6
DASHED
100
AcDbLine
 10
85.84912867415779
 20
350.8703833999602
 30
0.0
 11
85.84912867415779
 21
348.4000225213853
 31
0.0
  0
LINE
  5
213D
330
1F
100
AcDbEntity
  8
SPOJOVACÍ
  6
DASHED
100
AcDbLine
 10
83.20374591467635
 20
348.6953719401676
 30
0.0
 11
83.20374591467635
 21
346.2277457784271
 31
0.0
  0
LINE
  5
213E
330
1F
100
AcDbEntity
  8
SPOJOVACÍ
  6
DASHED
100
AcDbLine
 10
83.20374591467635
 20
345.6434279469754
 30
0.0
 11
83.20374591467635
 21
344.4210095199246
 31
0.0
  0
LINE
  5
213F
330
1F
100
AcDbEntity
  8
SPOJOVACÍ
  6
DASHED
100
AcDbLine
 10
85.84912867415779
 20
347.8111468287311
 30
0.0
 11
85.84912867415779
 21
345.3426090948028
 31
0.0
  0
LINE
  5
2140
330
1F
100
AcDbEntity
  8
SPOJOVACÍ
  6
DASHED
100
AcDbLine
 10
85.84912867415779
 20
344.7509986850505
 30
0.0
 11
85.84912867415779
 21
344.4210095199246
 31
0.0
  0
LINE
  5
2141
330
1F
100
AcDbEntity
  8
SPOJOVACÍ
  6
DASHED
100
AcDbLine
 10
83.20374591467635
 20
344.4210095199246
 30
0.0
 11
83.35050905134494
 21
343.2478159955548
 31
0.0
  0
LINE
  5
2142
330
1F
100
AcDbEntity
  8
SPOJOVACÍ
  6
DASHED
100
AcDbLine
 10
84.52643729227792
 20
333.8367437782703
 30
0.0
 11
84.87374633378431
 21
336.6161276595135
 31
0.0
  0
LINE
  5
2143
330
1F
100
AcDbEntity
  8
SPOJOVACÍ
  6
DASHED
100
AcDbLine
 10
83.42616955202037
 20
342.6397972848185
 30
0.0
 11
83.71058010454953
 21
340.3645128744751
 31
0.0
  0
LINE
  5
2144
330
1F
100
AcDbEntity
  8
SPOJOVACÍ
  6
DASHED
100
AcDbLine
 10
83.78806374853093
 20
339.7464668686038
 30
0.0
 11
84.07247429678182
 21
337.4720940304555
 31
0.0
  0
LINE
  5
2145
330
1F
100
AcDbEntity
  8
SPOJOVACÍ
  6
DASHED
100
AcDbLine
 10
84.14813479745726
 20
336.8640753197191
 30
0.0
 11
84.52643729227792
 21
333.8367437782703
 31
0.0
  0
LINE
  5
2146
330
1F
100
AcDbEntity
  8
SPOJOVACÍ
  6
DASHED
100
AcDbLine
 10
84.94393740026362
 20
337.1740098948389
 30
0.0
 11
85.20647021600826
 21
339.2760955721237
 31
0.0
  0
LINE
  5
2147
330
1F
100
AcDbEntity
  8
SPOJOVACÍ
  6
DASHED
100
AcDbLine
 10
85.2766612782093
 20
339.8367125242835
 30
0.0
 11
85.53828252444009
 21
341.9305940510799
 31
0.0
  0
LINE
  5
2148
330
1F
100
AcDbEntity
  8
SPOJOVACÍ
  6
DASHED
100
AcDbLine
 10
85.6084735909194
 20
342.4893878588641
 30
0.0
 11
85.84912867415779
 21
344.4210095199246
 31
0.0
  0
LINE
  5
2149
330
1F
100
AcDbEntity
  8
SPOJOVACÍ
  6
DASHED
100
AcDbLine
 10
82.17458081041195
 20
358.3024321976076
 30
0.0
 11
86.87829377414391
 21
357.1265039566747
 31
0.0
  0
LINE
  5
214A
330
1F
100
AcDbEntity
  8
SPOJOVACÍ
  6
DASHED
100
AcDbLine
 10
82.17458081041195
 20
358.3024321976076
 30
0.0
 11
82.54467915821669
 21
358.0891242842803
 31
0.0
  0
LINE
  5
214B
330
1F
100
AcDbEntity
  8
SPOJOVACÍ
  6
DASHED
100
AcDbLine
 10
82.17458081041195
 20
358.3024321976076
 30
0.0
 11
82.54467915821669
 21
358.673442115461
 31
0.0
  0
LINE
  5
214C
330
1F
100
AcDbEntity
  8
SPOJOVACÍ
  6
DASHED
100
AcDbLine
 10
86.87829377414391
 20
357.1265039566747
 30
0.0
 11
86.50819543061743
 21
356.756405611009
 31
0.0
  0
LINE
  5
214D
330
1F
100
AcDbEntity
  8
SPOJOVACÍ
  6
DASHED
100
AcDbLine
 10
86.87829377414391
 20
357.1265039566747
 30
0.0
 11
86.50819543061743
 21
357.3407234424607
 31
0.0
  0
LINE
  5
214E
330
1F
100
AcDbEntity
  8
SPOJOVACÍ
  6
DASHED
100
AcDbLine
 10
82.54467915821669
 20
358.0891242842803
 30
0.0
 11
86.50819543061743
 21
356.756405611009
 31
0.0
  0
LINE
  5
214F
330
1F
100
AcDbEntity
  8
SPOJOVACÍ
  6
DASHED
100
AcDbLine
 10
82.54467915821669
 20
358.673442115461
 30
0.0
 11
86.50819543061743
 21
357.3407234424607
 31
0.0
  0
LINE
  5
2150
330
1F
100
AcDbEntity
  8
SPOJOVACÍ
  6
DASHED
100
AcDbLine
 10
82.17458081041195
 20
355.2450187710251
 30
0.0
 11
86.87829377414391
 21
354.0690905298211
 31
0.0
  0
LINE
  5
2151
330
1F
100
AcDbEntity
  8
SPOJOVACÍ
  6
DASHED
100
AcDbLine
 10
82.17458081041195
 20
355.2450187710251
 30
0.0
 11
82.54467915821669
 21
355.030799285239
 31
0.0
  0
LINE
  5
2152
330
1F
100
AcDbEntity
  8
SPOJOVACÍ
  6
DASHED
100
AcDbLine
 10
82.17458081041195
 20
355.2450187710251
 30
0.0
 11
82.54467915821669
 21
355.6151171166907
 31
0.0
  0
LINE
  5
2153
330
1F
100
AcDbEntity
  8
SPOJOVACÍ
  6
DASHED
100
AcDbLine
 10
86.87829377414391
 20
354.0690905298211
 30
0.0
 11
86.50819543061743
 21
353.6989921844265
 31
0.0
  0
LINE
  5
2154
330
1F
100
AcDbEntity
  8
SPOJOVACÍ
  6
DASHED
100
AcDbLine
 10
86.87829377414391
 20
354.0690905298211
 30
0.0
 11
86.50819543061743
 21
354.2833100156071
 31
0.0
  0
LINE
  5
2155
330
1F
100
AcDbEntity
  8
SPOJOVACÍ
  6
DASHED
100
AcDbLine
 10
82.54467915821669
 20
355.030799285239
 30
0.0
 11
86.50819543061743
 21
353.6989921844265
 31
0.0
  0
LINE
  5
2156
330
1F
100
AcDbEntity
  8
SPOJOVACÍ
  6
DASHED
100
AcDbLine
 10
82.54467915821669
 20
355.6151171166907
 30
0.0
 11
86.50819543061743
 21
354.2833100156071
 31
0.0
  0
LINE
  5
2157
330
1F
100
AcDbEntity
  8
SPOJOVACÍ
  6
DASHED
100
AcDbLine
 10
82.42344004494453
 20
343.056385816873
 30
0.0
 11
82.79444996226311
 21
342.8421663310869
 31
0.0
  0
LINE
  5
2158
330
1F
100
AcDbEntity
  8
SPOJOVACÍ
  6
DASHED
100
AcDbLine
 10
82.42344004494453
 20
343.056385816873
 30
0.0
 11
82.79444996226311
 21
343.4264841625386
 31
0.0
  0
LINE
  5
2159
330
1F
100
AcDbEntity
  8
SPOJOVACÍ
  6
DASHED
100
AcDbLine
 10
86.46626310463261
 20
342.1028812122144
 30
0.0
 11
86.09616476110614
 21
341.73187129409
 31
0.0
  0
LINE
  5
215A
330
1F
100
AcDbEntity
  8
SPOJOVACÍ
  6
DASHED
100
AcDbLine
 10
86.46626310463261
 20
342.1028812122144
 30
0.0
 11
86.09616476110614
 21
342.3161891255417
 31
0.0
  0
LINE
  5
215B
330
1F
100
AcDbEntity
  8
SPOJOVACÍ
  6
DASHED
100
AcDbLine
 10
82.79444996226311
 20
342.8421663310869
 30
0.0
 11
86.09616476110614
 21
341.73187129409
 31
0.0
  0
LINE
  5
215C
330
1F
100
AcDbEntity
  8
SPOJOVACÍ
  6
DASHED
100
AcDbLine
 10
82.79444996226311
 20
343.4264841625386
 30
0.0
 11
86.09616476110614
 21
342.3161891255417
 31
0.0
  0
LINE
  5
215D
330
1F
100
AcDbEntity
  8
SPOJOVACÍ
  6
DASHED
100
AcDbLine
 10
82.42344004494453
 20
343.056385816873
 30
0.0
 11
86.46626310463261
 21
342.1028812122144
 31
0.0
  0
LINE
  5
215E
330
1F
100
AcDbEntity
  8
SPOJOVACÍ
  6
DASHED
100
AcDbLine
 10
82.97676441692829
 20
340.1019800576609
 30
0.0
 11
83.34686276473304
 21
339.8886721443336
 31
0.0
  0
LINE
  5
215F
330
1F
100
AcDbEntity
  8
SPOJOVACÍ
  6
DASHED
100
AcDbLine
 10
82.97676441692829
 20
340.1019800576609
 30
0.0
 11
83.34686276473304
 21
340.4729899757853
 31
0.0
  0
LINE
  5
2160
330
1F
100
AcDbEntity
  8
SPOJOVACÍ
  6
DASHED
100
AcDbLine
 10
86.03053155503085
 20
339.4811993352263
 30
0.0
 11
85.66043321150436
 21
339.110189417373
 31
0.0
  0
LINE
  5
2161
330
1F
100
AcDbEntity
  8
SPOJOVACÍ
  6
DASHED
100
AcDbLine
 10
86.03053155503085
 20
339.4811993352263
 30
0.0
 11
85.66043321150436
 21
339.6945072485536
 31
0.0
  0
LINE
  5
2162
330
1F
100
AcDbEntity
  8
SPOJOVACÍ
  6
DASHED
100
AcDbLine
 10
83.34686276473304
 20
339.8886721443336
 30
0.0
 11
85.66043321150436
 21
339.110189417373
 31
0.0
  0
LINE
  5
2163
330
1F
100
AcDbEntity
  8
SPOJOVACÍ
  6
DASHED
100
AcDbLine
 10
83.34686276473304
 20
340.4729899757853
 30
0.0
 11
85.66043321150436
 21
339.6945072485536
 31
0.0
  0
LINE
  5
2164
330
1F
100
AcDbEntity
  8
SPOJOVACÍ
  6
DASHED
100
AcDbLine
 10
82.97676441692829
 20
340.1019800576609
 30
0.0
 11
86.03053155503085
 21
339.4811993352263
 31
0.0
  0
LINE
  5
2165
330
1F
100
AcDbEntity
  8
SPOJOVACÍ
  6
DASHED
100
AcDbLine
 10
83.53008879319032
 20
337.1484858709077
 30
0.0
 11
83.90018713671679
 21
336.9342663851289
 31
0.0
  0
LINE
  5
2166
330
1F
100
AcDbEntity
  8
SPOJOVACÍ
  6
DASHED
100
AcDbLine
 10
83.53008879319032
 20
337.1484858709077
 30
0.0
 11
83.90018713671679
 21
337.5185842165733
 31
0.0
  0
LINE
  5
2167
330
1F
100
AcDbEntity
  8
SPOJOVACÍ
  6
DASHED
100
AcDbLine
 10
85.64129019181791
 20
336.8440207294493
 30
0.0
 11
85.27119184829144
 21
336.4730108115959
 31
0.0
  0
LINE
  5
2168
330
1F
100
AcDbEntity
  8
SPOJOVACÍ
  6
DASHED
100
AcDbLine
 10
85.64129019181791
 20
336.8440207294493
 30
0.0
 11
85.27119184829144
 21
337.0573286430403
 31
0.0
  0
LINE
  5
2169
330
1F
100
AcDbEntity
  8
SPOJOVACÍ
  6
DASHED
100
AcDbLine
 10
83.90018713671679
 20
336.9342663851289
 30
0.0
 11
85.27119184829144
 21
336.4730108115959
 31
0.0
  0
LINE
  5
216A
330
1F
100
AcDbEntity
  8
SPOJOVACÍ
  6
DASHED
100
AcDbLine
 10
83.90018713671679
 20
337.5185842165733
 30
0.0
 11
85.27119184829144
 21
337.0573286430403
 31
0.0
  0
LINE
  5
216B
330
1F
100
AcDbEntity
  8
SPOJOVACÍ
  6
DASHED
100
AcDbLine
 10
83.53008879319032
 20
337.1484858709077
 30
0.0
 11
85.64129019181791
 21
336.8440207294493
 31
0.0
  0
LINE
  5
216C
330
1F
100
AcDbEntity
  8
SPOJOVACÍ
  6
DASHED
100
AcDbLine
 10
82.17458081041195
 20
352.1876053441715
 30
0.0
 11
86.87829377414391
 21
351.0116771032385
 31
0.0
  0
LINE
  5
216D
330
1F
100
AcDbEntity
  8
SPOJOVACÍ
  6
DASHED
100
AcDbLine
 10
82.17458081041195
 20
352.1876053441715
 30
0.0
 11
82.54467915821669
 21
351.9733858583854
 31
0.0
  0
LINE
  5
216E
330
1F
100
AcDbEntity
  8
SPOJOVACÍ
  6
DASHED
100
AcDbLine
 10
82.17458081041195
 20
352.1876053441715
 30
0.0
 11
82.54467915821669
 21
352.5577036898371
 31
0.0
  0
LINE
  5
216F
330
1F
100
AcDbEntity
  8
SPOJOVACÍ
  6
DASHED
100
AcDbLine
 10
86.87829377414391
 20
351.0116771032385
 30
0.0
 11
86.50819543061743
 21
350.6406671853851
 31
0.0
  0
LINE
  5
2170
330
1F
100
AcDbEntity
  8
SPOJOVACÍ
  6
DASHED
100
AcDbLine
 10
86.87829377414391
 20
351.0116771032385
 30
0.0
 11
86.50819543061743
 21
351.2249850168295
 31
0.0
  0
LINE
  5
2171
330
1F
100
AcDbEntity
  8
SPOJOVACÍ
  6
DASHED
100
AcDbLine
 10
82.54467915821669
 20
351.9733858583854
 30
0.0
 11
86.50819543061743
 21
350.6406671853851
 31
0.0
  0
LINE
  5
2172
330
1F
100
AcDbEntity
  8
SPOJOVACÍ
  6
DASHED
100
AcDbLine
 10
82.54467915821669
 20
352.5577036898371
 30
0.0
 11
86.50819543061743
 21
351.2249850168295
 31
0.0
  0
LINE
  5
2173
330
1F
100
AcDbEntity
  8
SPOJOVACÍ
  6
DASHED
100
AcDbLine
 10
82.17458081041195
 20
349.1301919175816
 30
0.0
 11
86.87829377414391
 21
347.9542636766487
 31
0.0
  0
LINE
  5
2174
330
1F
100
AcDbEntity
  8
SPOJOVACÍ
  6
DASHED
100
AcDbLine
 10
82.17458081041195
 20
349.1301919175816
 30
0.0
 11
82.54467915821669
 21
348.9159724318028
 31
0.0
  0
LINE
  5
2175
330
1F
100
AcDbEntity
  8
SPOJOVACÍ
  6
DASHED
100
AcDbLine
 10
82.17458081041195
 20
349.1301919175816
 30
0.0
 11
82.54467915821669
 21
349.5002902632472
 31
0.0
  0
LINE
  5
2176
330
1F
100
AcDbEntity
  8
SPOJOVACÍ
  6
DASHED
100
AcDbLine
 10
86.87829377414391
 20
347.9542636766487
 30
0.0
 11
86.50819543061743
 21
347.5832537587953
 31
0.0
  0
LINE
  5
2177
330
1F
100
AcDbEntity
  8
SPOJOVACÍ
  6
DASHED
100
AcDbLine
 10
86.87829377414391
 20
347.9542636766487
 30
0.0
 11
86.50819543061743
 21
348.1675715899759
 31
0.0
  0
LINE
  5
2178
330
1F
100
AcDbEntity
  8
SPOJOVACÍ
  6
DASHED
100
AcDbLine
 10
82.54467915821669
 20
348.9159724318028
 30
0.0
 11
86.50819543061743
 21
347.5832537587953
 31
0.0
  0
LINE
  5
2179
330
1F
100
AcDbEntity
  8
SPOJOVACÍ
  6
DASHED
100
AcDbLine
 10
82.54467915821669
 20
349.5002902632472
 30
0.0
 11
86.50819543061743
 21
348.1675715899759
 31
0.0
  0
LINE
  5
217A
330
1F
100
AcDbEntity
  8
SPOJOVACÍ
  6
DASHED
100
AcDbLine
 10
82.17458081041195
 20
346.0718669185403
 30
0.0
 11
86.87829377414391
 21
344.8959386776073
 31
0.0
  0
LINE
  5
217B
330
1F
100
AcDbEntity
  8
SPOJOVACÍ
  6
DASHED
100
AcDbLine
 10
82.17458081041195
 20
346.0718669185403
 30
0.0
 11
82.54467915821669
 21
345.858559005213
 31
0.0
  0
LINE
  5
217C
330
1F
100
AcDbEntity
  8
SPOJOVACÍ
  6
DASHED
100
AcDbLine
 10
82.17458081041195
 20
346.0718669185403
 30
0.0
 11
82.54467915821669
 21
346.4428768366647
 31
0.0
  0
LINE
  5
217D
330
1F
100
AcDbEntity
  8
SPOJOVACÍ
  6
DASHED
100
AcDbLine
 10
86.87829377414391
 20
344.8959386776073
 30
0.0
 11
86.50819543061743
 21
344.5258403319417
 31
0.0
  0
LINE
  5
217E
330
1F
100
AcDbEntity
  8
SPOJOVACÍ
  6
DASHED
100
AcDbLine
 10
86.87829377414391
 20
344.8959386776073
 30
0.0
 11
86.50819543061743
 21
345.1101581633934
 31
0.0
  0
LINE
  5
217F
330
1F
100
AcDbEntity
  8
SPOJOVACÍ
  6
DASHED
100
AcDbLine
 10
82.54467915821669
 20
345.858559005213
 30
0.0
 11
86.50819543061743
 21
344.5258403319417
 31
0.0
  0
LINE
  5
2180
330
1F
100
AcDbEntity
  8
SPOJOVACÍ
  6
DASHED
100
AcDbLine
 10
82.54467915821669
 20
346.4428768366647
 30
0.0
 11
86.50819543061743
 21
345.1101581633934
 31
0.0
  0
LINE
  5
2181
330
1F
100
AcDbEntity
  8
POPIS
100
AcDbLine
 10
128.6210629372494
 20
441.1801566924491
 30
0.0
 11
128.6210629372494
 21
361.8325126091908
 31
0.0
  0
LINE
  5
2182
330
1F
100
AcDbEntity
  8
POPIS
100
AcDbLine
 10
179.3666700733106
 20
441.1801566924491
 30
0.0
 11
179.3666700733106
 21
351.4414005035701
 31
0.0
  0
INSERT
  5
2183
330
1F
100
AcDbEntity
  8
POPIS
100
AcDbBlockReference
  2
E_PUNKT
 10
179.3376017424366
 20
350.2190108791969
 30
0.0
 50
270.0
  0
LINE
  5
2184
330
1F
100
AcDbEntity
  8
SPOJOVACÍ
  6
DASHED
100
AcDbLine
 10
126.8472178668221
 20
346.4428768366647
 30
0.0
 11
130.8107341392228
 21
345.1101581633934
 31
0.0
  0
LINE
  5
2185
330
1F
100
AcDbEntity
  8
SPOJOVACÍ
  6
DASHED
100
AcDbLine
 10
126.8472178668221
 20
345.858559005213
 30
0.0
 11
130.8107341392228
 21
344.5258403319417
 31
0.0
  0
LINE
  5
2186
330
1F
100
AcDbEntity
  8
SPOJOVACÍ
  6
DASHED
100
AcDbLine
 10
131.1808324827493
 20
344.8959386776073
 30
0.0
 11
130.8107341392228
 21
345.1101581633934
 31
0.0
  0
LINE
  5
2187
330
1F
100
AcDbEntity
  8
SPOJOVACÍ
  6
DASHED
100
AcDbLine
 10
131.1808324827493
 20
344.8959386776073
 30
0.0
 11
130.8107341392228
 21
344.5258403319417
 31
0.0
  0
LINE
  5
2188
330
1F
100
AcDbEntity
  8
SPOJOVACÍ
  6
DASHED
100
AcDbLine
 10
126.4771195190173
 20
346.0718669185403
 30
0.0
 11
126.8472178668221
 21
346.4428768366647
 31
0.0
  0
LINE
  5
2189
330
1F
100
AcDbEntity
  8
SPOJOVACÍ
  6
DASHED
100
AcDbLine
 10
126.4771195190173
 20
346.0718669185403
 30
0.0
 11
126.8472178668221
 21
345.858559005213
 31
0.0
  0
LINE
  5
218A
330
1F
100
AcDbEntity
  8
SPOJOVACÍ
  6
DASHED
100
AcDbLine
 10
126.4771195190173
 20
346.0718669185403
 30
0.0
 11
131.1808324827493
 21
344.8959386776073
 31
0.0
  0
LINE
  5
218B
330
1F
100
AcDbEntity
  8
SPOJOVACÍ
  6
DASHED
100
AcDbLine
 10
126.8472178668221
 20
349.5002902632472
 30
0.0
 11
130.8107341392228
 21
348.1675715899759
 31
0.0
  0
LINE
  5
218C
330
1F
100
AcDbEntity
  8
SPOJOVACÍ
  6
DASHED
100
AcDbLine
 10
126.8472178668221
 20
348.9159724318028
 30
0.0
 11
130.8107341392228
 21
347.5832537587953
 31
0.0
  0
LINE
  5
218D
330
1F
100
AcDbEntity
  8
SPOJOVACÍ
  6
DASHED
100
AcDbLine
 10
131.1808324827493
 20
347.9542636766487
 30
0.0
 11
130.8107341392228
 21
348.1675715899759
 31
0.0
  0
LINE
  5
218E
330
1F
100
AcDbEntity
  8
SPOJOVACÍ
  6
DASHED
100
AcDbLine
 10
131.1808324827493
 20
347.9542636766487
 30
0.0
 11
130.8107341392228
 21
347.5832537587953
 31
0.0
  0
LINE
  5
218F
330
1F
100
AcDbEntity
  8
SPOJOVACÍ
  6
DASHED
100
AcDbLine
 10
126.4771195190173
 20
349.1301919175816
 30
0.0
 11
126.8472178668221
 21
349.5002902632472
 31
0.0
  0
LINE
  5
2190
330
1F
100
AcDbEntity
  8
SPOJOVACÍ
  6
DASHED
100
AcDbLine
 10
126.4771195190173
 20
349.1301919175816
 30
0.0
 11
126.8472178668221
 21
348.9159724318028
 31
0.0
  0
LINE
  5
2191
330
1F
100
AcDbEntity
  8
SPOJOVACÍ
  6
DASHED
100
AcDbLine
 10
126.4771195190173
 20
349.1301919175816
 30
0.0
 11
131.1808324827493
 21
347.9542636766487
 31
0.0
  0
LINE
  5
2192
330
1F
100
AcDbEntity
  8
SPOJOVACÍ
  6
DASHED
100
AcDbLine
 10
126.8472178668221
 20
352.5577036898371
 30
0.0
 11
130.8107341392228
 21
351.2249850168295
 31
0.0
  0
LINE
  5
2193
330
1F
100
AcDbEntity
  8
SPOJOVACÍ
  6
DASHED
100
AcDbLine
 10
126.8472178668221
 20
351.9733858583854
 30
0.0
 11
130.8107341392228
 21
350.6406671853851
 31
0.0
  0
LINE
  5
2194
330
1F
100
AcDbEntity
  8
SPOJOVACÍ
  6
DASHED
100
AcDbLine
 10
131.1808324827493
 20
351.0116771032385
 30
0.0
 11
130.8107341392228
 21
351.2249850168295
 31
0.0
  0
LINE
  5
2195
330
1F
100
AcDbEntity
  8
SPOJOVACÍ
  6
DASHED
100
AcDbLine
 10
131.1808324827493
 20
351.0116771032385
 30
0.0
 11
130.8107341392228
 21
350.6406671853851
 31
0.0
  0
LINE
  5
2196
330
1F
100
AcDbEntity
  8
SPOJOVACÍ
  6
DASHED
100
AcDbLine
 10
126.4771195190173
 20
352.1876053441715
 30
0.0
 11
126.8472178668221
 21
352.5577036898371
 31
0.0
  0
LINE
  5
2197
330
1F
100
AcDbEntity
  8
SPOJOVACÍ
  6
DASHED
100
AcDbLine
 10
126.4771195190173
 20
352.1876053441715
 30
0.0
 11
126.8472178668221
 21
351.9733858583854
 31
0.0
  0
LINE
  5
2198
330
1F
100
AcDbEntity
  8
SPOJOVACÍ
  6
DASHED
100
AcDbLine
 10
126.4771195190173
 20
352.1876053441715
 30
0.0
 11
131.1808324827493
 21
351.0116771032385
 31
0.0
  0
LINE
  5
2199
330
1F
100
AcDbEntity
  8
SPOJOVACÍ
  6
DASHED
100
AcDbLine
 10
127.8326275017957
 20
337.1484858709077
 30
0.0
 11
129.9438289004233
 21
336.8440207294493
 31
0.0
  0
LINE
  5
219A
330
1F
100
AcDbEntity
  8
SPOJOVACÍ
  6
DASHED
100
AcDbLine
 10
128.2027258453222
 20
337.5185842165733
 30
0.0
 11
129.5737305568968
 21
337.0573286430403
 31
0.0
  0
LINE
  5
219B
330
1F
100
AcDbEntity
  8
SPOJOVACÍ
  6
DASHED
100
AcDbLine
 10
128.2027258453222
 20
336.9342663851289
 30
0.0
 11
129.5737305568968
 21
336.4730108115959
 31
0.0
  0
LINE
  5
219C
330
1F
100
AcDbEntity
  8
SPOJOVACÍ
  6
DASHED
100
AcDbLine
 10
129.9438289004233
 20
336.8440207294493
 30
0.0
 11
129.5737305568968
 21
337.0573286430403
 31
0.0
  0
LINE
  5
219D
330
1F
100
AcDbEntity
  8
SPOJOVACÍ
  6
DASHED
100
AcDbLine
 10
129.9438289004233
 20
336.8440207294493
 30
0.0
 11
129.5737305568968
 21
336.4730108115959
 31
0.0
  0
LINE
  5
219E
330
1F
100
AcDbEntity
  8
SPOJOVACÍ
  6
DASHED
100
AcDbLine
 10
127.8326275017957
 20
337.1484858709077
 30
0.0
 11
128.2027258453222
 21
337.5185842165733
 31
0.0
  0
LINE
  5
219F
330
1F
100
AcDbEntity
  8
SPOJOVACÍ
  6
DASHED
100
AcDbLine
 10
127.8326275017957
 20
337.1484858709077
 30
0.0
 11
128.2027258453222
 21
336.9342663851289
 31
0.0
  0
LINE
  5
21A0
330
1F
100
AcDbEntity
  8
SPOJOVACÍ
  6
DASHED
100
AcDbLine
 10
127.2793031255337
 20
340.1019800576609
 30
0.0
 11
130.3330702636362
 21
339.4811993352263
 31
0.0
  0
LINE
  5
21A1
330
1F
100
AcDbEntity
  8
SPOJOVACÍ
  6
DASHED
100
AcDbLine
 10
127.6494014733384
 20
340.4729899757853
 30
0.0
 11
129.9629719201097
 21
339.6945072485536
 31
0.0
  0
LINE
  5
21A2
330
1F
100
AcDbEntity
  8
SPOJOVACÍ
  6
DASHED
100
AcDbLine
 10
127.6494014733384
 20
339.8886721443336
 30
0.0
 11
129.9629719201097
 21
339.110189417373
 31
0.0
  0
LINE
  5
21A3
330
1F
100
AcDbEntity
  8
SPOJOVACÍ
  6
DASHED
100
AcDbLine
 10
130.3330702636362
 20
339.4811993352263
 30
0.0
 11
129.9629719201097
 21
339.6945072485536
 31
0.0
  0
LINE
  5
21A4
330
1F
100
AcDbEntity
  8
SPOJOVACÍ
  6
DASHED
100
AcDbLine
 10
130.3330702636362
 20
339.4811993352263
 30
0.0
 11
129.9629719201097
 21
339.110189417373
 31
0.0
  0
LINE
  5
21A5
330
1F
100
AcDbEntity
  8
SPOJOVACÍ
  6
DASHED
100
AcDbLine
 10
127.2793031255337
 20
340.1019800576609
 30
0.0
 11
127.6494014733384
 21
340.4729899757853
 31
0.0
  0
LINE
  5
21A6
330
1F
100
AcDbEntity
  8
SPOJOVACÍ
  6
DASHED
100
AcDbLine
 10
127.2793031255337
 20
340.1019800576609
 30
0.0
 11
127.6494014733384
 21
339.8886721443336
 31
0.0
  0
LINE
  5
21A7
330
1F
100
AcDbEntity
  8
SPOJOVACÍ
  6
DASHED
100
AcDbLine
 10
126.7259787535499
 20
343.056385816873
 30
0.0
 11
130.768801813238
 21
342.1028812122144
 31
0.0
  0
LINE
  5
21A8
330
1F
100
AcDbEntity
  8
SPOJOVACÍ
  6
DASHED
100
AcDbLine
 10
127.0969886708685
 20
343.4264841625386
 30
0.0
 11
130.3987034697115
 21
342.3161891255417
 31
0.0
  0
LINE
  5
21A9
330
1F
100
AcDbEntity
  8
SPOJOVACÍ
  6
DASHED
100
AcDbLine
 10
127.0969886708685
 20
342.8421663310869
 30
0.0
 11
130.3987034697115
 21
341.73187129409
 31
0.0
  0
LINE
  5
21AA
330
1F
100
AcDbEntity
  8
SPOJOVACÍ
  6
DASHED
100
AcDbLine
 10
130.768801813238
 20
342.1028812122144
 30
0.0
 11
130.3987034697115
 21
342.3161891255417
 31
0.0
  0
LINE
  5
21AB
330
1F
100
AcDbEntity
  8
SPOJOVACÍ
  6
DASHED
100
AcDbLine
 10
130.768801813238
 20
342.1028812122144
 30
0.0
 11
130.3987034697115
 21
341.73187129409
 31
0.0
  0
LINE
  5
21AC
330
1F
100
AcDbEntity
  8
SPOJOVACÍ
  6
DASHED
100
AcDbLine
 10
126.7259787535499
 20
343.056385816873
 30
0.0
 11
127.0969886708685
 21
343.4264841625386
 31
0.0
  0
LINE
  5
21AD
330
1F
100
AcDbEntity
  8
SPOJOVACÍ
  6
DASHED
100
AcDbLine
 10
126.7259787535499
 20
343.056385816873
 30
0.0
 11
127.0969886708685
 21
342.8421663310869
 31
0.0
  0
LINE
  5
21AE
330
1F
100
AcDbEntity
  8
SPOJOVACÍ
  6
DASHED
100
AcDbLine
 10
126.8472178668221
 20
355.6151171166907
 30
0.0
 11
130.8107341392228
 21
354.2833100156071
 31
0.0
  0
LINE
  5
21AF
330
1F
100
AcDbEntity
  8
SPOJOVACÍ
  6
DASHED
100
AcDbLine
 10
126.8472178668221
 20
355.030799285239
 30
0.0
 11
130.8107341392228
 21
353.6989921844265
 31
0.0
  0
LINE
  5
21B0
330
1F
100
AcDbEntity
  8
SPOJOVACÍ
  6
DASHED
100
AcDbLine
 10
131.1808324827493
 20
354.0690905298211
 30
0.0
 11
130.8107341392228
 21
354.2833100156071
 31
0.0
  0
LINE
  5
21B1
330
1F
100
AcDbEntity
  8
SPOJOVACÍ
  6
DASHED
100
AcDbLine
 10
131.1808324827493
 20
354.0690905298211
 30
0.0
 11
130.8107341392228
 21
353.6989921844265
 31
0.0
  0
LINE
  5
21B2
330
1F
100
AcDbEntity
  8
SPOJOVACÍ
  6
DASHED
100
AcDbLine
 10
126.4771195190173
 20
355.2450187710251
 30
0.0
 11
126.8472178668221
 21
355.6151171166907
 31
0.0
  0
LINE
  5
21B3
330
1F
100
AcDbEntity
  8
SPOJOVACÍ
  6
DASHED
100
AcDbLine
 10
126.4771195190173
 20
355.2450187710251
 30
0.0
 11
126.8472178668221
 21
355.030799285239
 31
0.0
  0
LINE
  5
21B4
330
1F
100
AcDbEntity
  8
SPOJOVACÍ
  6
DASHED
100
AcDbLine
 10
126.4771195190173
 20
355.2450187710251
 30
0.0
 11
131.1808324827493
 21
354.0690905298211
 31
0.0
  0
LINE
  5
21B5
330
1F
100
AcDbEntity
  8
SPOJOVACÍ
  6
DASHED
100
AcDbLine
 10
126.8472178668221
 20
358.673442115461
 30
0.0
 11
130.8107341392228
 21
357.3407234424607
 31
0.0
  0
LINE
  5
21B6
330
1F
100
AcDbEntity
  8
SPOJOVACÍ
  6
DASHED
100
AcDbLine
 10
126.8472178668221
 20
358.0891242842803
 30
0.0
 11
130.8107341392228
 21
356.756405611009
 31
0.0
  0
LINE
  5
21B7
330
1F
100
AcDbEntity
  8
SPOJOVACÍ
  6
DASHED
100
AcDbLine
 10
131.1808324827493
 20
357.1265039566747
 30
0.0
 11
130.8107341392228
 21
357.3407234424607
 31
0.0
  0
LINE
  5
21B8
330
1F
100
AcDbEntity
  8
SPOJOVACÍ
  6
DASHED
100
AcDbLine
 10
131.1808324827493
 20
357.1265039566747
 30
0.0
 11
130.8107341392228
 21
356.756405611009
 31
0.0
  0
LINE
  5
21B9
330
1F
100
AcDbEntity
  8
SPOJOVACÍ
  6
DASHED
100
AcDbLine
 10
126.4771195190173
 20
358.3024321976076
 30
0.0
 11
126.8472178668221
 21
358.673442115461
 31
0.0
  0
LINE
  5
21BA
330
1F
100
AcDbEntity
  8
SPOJOVACÍ
  6
DASHED
100
AcDbLine
 10
126.4771195190173
 20
358.3024321976076
 30
0.0
 11
126.8472178668221
 21
358.0891242842803
 31
0.0
  0
LINE
  5
21BB
330
1F
100
AcDbEntity
  8
SPOJOVACÍ
  6
DASHED
100
AcDbLine
 10
126.4771195190173
 20
358.3024321976076
 30
0.0
 11
131.1808324827493
 21
357.1265039566747
 31
0.0
  0
LINE
  5
21BC
330
1F
100
AcDbEntity
  8
SPOJOVACÍ
  6
DASHED
100
AcDbLine
 10
129.9110122995248
 20
342.4893878588641
 30
0.0
 11
130.1516673827632
 21
344.4210095199246
 31
0.0
  0
LINE
  5
21BD
330
1F
100
AcDbEntity
  8
SPOJOVACÍ
  6
DASHED
100
AcDbLine
 10
129.5791999868147
 20
339.8367125242835
 30
0.0
 11
129.8408212330455
 21
341.9305940510799
 31
0.0
  0
LINE
  5
21BE
330
1F
100
AcDbEntity
  8
SPOJOVACÍ
  6
DASHED
100
AcDbLine
 10
129.246476108869
 20
337.1740098948389
 30
0.0
 11
129.5090089246136
 21
339.2760955721237
 31
0.0
  0
LINE
  5
21BF
330
1F
100
AcDbEntity
  8
SPOJOVACÍ
  6
DASHED
100
AcDbLine
 10
128.4506735060626
 20
336.8640753197191
 30
0.0
 11
128.8289760008833
 21
333.8367437782703
 31
0.0
  0
LINE
  5
21C0
330
1F
100
AcDbEntity
  8
SPOJOVACÍ
  6
DASHED
100
AcDbLine
 10
128.0906024571363
 20
339.7464668686038
 30
0.0
 11
128.3750130053872
 21
337.4720940304555
 31
0.0
  0
LINE
  5
21C1
330
1F
100
AcDbEntity
  8
SPOJOVACÍ
  6
DASHED
100
AcDbLine
 10
127.7287082606258
 20
342.6397972848185
 30
0.0
 11
128.0131188131549
 21
340.3645128744751
 31
0.0
  0
LINE
  5
21C2
330
1F
100
AcDbEntity
  8
SPOJOVACÍ
  6
DASHED
100
AcDbLine
 10
128.8289760008833
 20
333.8367437782703
 30
0.0
 11
129.1762850423897
 21
336.6161276595135
 31
0.0
  0
LINE
  5
21C3
330
1F
100
AcDbEntity
  8
SPOJOVACÍ
  6
DASHED
100
AcDbLine
 10
127.5062846232817
 20
344.4210095199246
 30
0.0
 11
127.6530477599503
 21
343.2478159955548
 31
0.0
  0
LINE
  5
21C4
330
1F
100
AcDbEntity
  8
SPOJOVACÍ
  6
DASHED
100
AcDbLine
 10
130.1516673827632
 20
344.7509986850505
 30
0.0
 11
130.1516673827632
 21
344.4210095199246
 31
0.0
  0
LINE
  5
21C5
330
1F
100
AcDbEntity
  8
SPOJOVACÍ
  6
DASHED
100
AcDbLine
 10
130.1516673827632
 20
347.8111468287311
 30
0.0
 11
130.1516673827632
 21
345.3426090948028
 31
0.0
  0
LINE
  5
21C6
330
1F
100
AcDbEntity
  8
SPOJOVACÍ
  6
DASHED
100
AcDbLine
 10
127.5062846232817
 20
345.6434279469754
 30
0.0
 11
127.5062846232817
 21
344.4210095199246
 31
0.0
  0
LINE
  5
21C7
330
1F
100
AcDbEntity
  8
SPOJOVACÍ
  6
DASHED
100
AcDbLine
 10
127.5062846232817
 20
348.6953719401676
 30
0.0
 11
127.5062846232817
 21
346.2277457784271
 31
0.0
  0
LINE
  5
21C8
330
1F
100
AcDbEntity
  8
SPOJOVACÍ
  6
DASHED
100
AcDbLine
 10
130.1516673827632
 20
350.8703833999602
 30
0.0
 11
130.1516673827632
 21
348.4000225213853
 31
0.0
  0
LINE
  5
21C9
330
1F
100
AcDbEntity
  8
SPOJOVACÍ
  6
DASHED
100
AcDbLine
 10
130.1516673827632
 20
353.9305315433771
 30
0.0
 11
130.1516673827632
 21
351.4528780867653
 31
0.0
  0
LINE
  5
21CA
330
1F
100
AcDbEntity
  8
SPOJOVACÍ
  6
DASHED
100
AcDbLine
 10
130.1516673827632
 20
356.9833871087571
 30
0.0
 11
130.1516673827632
 21
354.5148493748288
 31
0.0
  0
LINE
  5
21CB
330
1F
100
AcDbEntity
  8
SPOJOVACÍ
  6
DASHED
100
AcDbLine
 10
127.5062846232817
 20
351.7655473787194
 30
0.0
 11
127.5062846232817
 21
349.2878939221077
 31
0.0
  0
LINE
  5
21CC
330
1F
100
AcDbEntity
  8
SPOJOVACÍ
  6
DASHED
100
AcDbLine
 10
127.5062846232817
 20
354.8184029440994
 30
0.0
 11
127.5062846232817
 21
352.3480420655246
 31
0.0
  0
LINE
  5
21CD
330
1F
100
AcDbEntity
  8
SPOJOVACÍ
  6
DASHED
100
AcDbLine
 10
127.5062846232817
 20
357.8785510875163
 30
0.0
 11
127.5062846232817
 21
355.410013353588
 31
0.0
  0
LINE
  5
21CE
330
1F
100
AcDbEntity
  8
SPOJOVACÍ
  6
DASHED
100
AcDbLine
 10
127.5062846232817
 20
362.4190926135956
 30
0.0
 11
127.5062846232817
 21
358.4619573465092
 31
0.0
  0
LINE
  5
21CF
330
1F
100
AcDbEntity
  8
SPOJOVACÍ
  6
DASHED
100
AcDbLine
 10
130.1516673827632
 20
362.4190926135956
 30
0.0
 11
130.1516673827632
 21
357.5749975182457
 31
0.0
  0
LINE
  5
21D0
330
1F
100
AcDbEntity
  8
SPOJOVACÍ
  6
DASHED
100
AcDbLine
 10
123.8308251900221
 20
367.7107696980651
 30
0.0
 11
125.1535165719019
 21
366.9815118743203
 31
0.0
  0
LINE
  5
21D1
330
1F
100
AcDbEntity
  8
SPOJOVACÍ
  6
DASHED
100
AcDbLine
 10
125.1535165719019
 20
366.9815118743203
 30
0.0
 11
126.2419338742533
 21
365.9341153246964
 31
0.0
  0
LINE
  5
21D2
330
1F
100
AcDbEntity
  8
SPOJOVACÍ
  6
DASHED
100
AcDbLine
 10
126.2419338742533
 20
365.9341153246964
 30
0.0
 11
127.0222397439852
 21
364.6415058319648
 31
0.0
  0
LINE
  5
21D3
330
1F
100
AcDbEntity
  8
SPOJOVACÍ
  6
DASHED
100
AcDbLine
 10
127.0222397439852
 20
364.6415058319648
 30
0.0
 11
127.4415629909986
 21
363.1902827622557
 31
0.0
  0
LINE
  5
21D4
330
1F
100
AcDbEntity
  8
SPOJOVACÍ
  6
DASHED
100
AcDbLine
 10
127.4415629909986
 20
363.1902827622557
 30
0.0
 11
127.5062846232817
 21
362.4190926135956
 31
0.0
  0
LINE
  5
21D5
330
1F
100
AcDbEntity
  8
SPOJOVACÍ
  6
DASHED
100
AcDbLine
 10
131.9137365965784
 20
366.4810586927064
 30
0.0
 11
133.1261277293001
 21
367.3807805329392
 31
0.0
  0
LINE
  5
21D6
330
1F
100
AcDbEntity
  8
SPOJOVACÍ
  6
DASHED
100
AcDbLine
 10
133.1261277293001
 20
367.3807805329392
 30
0.0
 11
133.8271268117446
 21
367.7107696980651
 31
0.0
  0
LINE
  5
21D7
330
1F
100
AcDbEntity
  8
SPOJOVACÍ
  6
DASHED
100
AcDbLine
 10
123.8308251900221
 20
367.7107696980651
 30
0.0
 11
133.8271268117446
 21
367.7107696980651
 31
0.0
  0
LINE
  5
21D8
330
1F
100
AcDbEntity
  8
SPOJOVACÍ
  6
DASHED
100
AcDbLine
 10
123.8308251900221
 20
368.8866979392619
 30
0.0
 11
123.8308251900221
 21
367.7107696980651
 31
0.0
  0
LINE
  5
21D9
330
1F
100
AcDbEntity
  8
SPOJOVACÍ
  6
DASHED
100
AcDbLine
 10
123.8308251900221
 20
368.8866979392619
 30
0.0
 11
133.8271268117446
 21
368.8866979392619
 31
0.0
  0
LINE
  5
21DA
330
1F
100
AcDbEntity
  8
SPOJOVACÍ
  6
DASHED
100
AcDbLine
 10
133.8271268117446
 20
368.8866979392619
 30
0.0
 11
133.8271268117446
 21
367.7107696980651
 31
0.0
  0
LINE
  5
21DB
330
1F
100
AcDbEntity
  8
SPOJOVACÍ
  6
DASHED
100
AcDbLine
 10
130.1516673827632
 20
362.4190926135956
 30
0.0
 11
130.3740910158289
 21
363.9122480079563
 31
0.0
  0
LINE
  5
21DC
330
1F
100
AcDbEntity
  8
SPOJOVACÍ
  6
DASHED
100
AcDbLine
 10
130.3740910158289
 20
363.9122480079563
 30
0.0
 11
130.9748171479936
 21
365.2978378734656
 31
0.0
  0
LINE
  5
21DD
330
1F
100
AcDbEntity
  8
SPOJOVACÍ
  6
DASHED
100
AcDbLine
 10
130.9748171479936
 20
365.2978378734656
 30
0.0
 11
131.9137365965784
 21
366.4810586927064
 31
0.0
  0
INSERT
  5
21DE
330
1F
100
AcDbEntity
  8
POPIS
100
AcDbBlockReference
  2
E_PUNKT
 10
128.5919946063754
 20
366.9774462452191
 30
0.0
 50
270.0
  0
TEXT
  5
21DF
330
1F
100
AcDbEntity
  8
POPIS
100
AcDbText
 10
313.3217334226742
 20
450.0295177651728
 30
0.0
 40
25.0
  1
01
 41
0.85
  7
SIMPLEX7
100
AcDbText
  0
TEXT
  5
21E0
330
1F
100
AcDbEntity
  8
POPIS
100
AcDbText
 10
926.6361371519801
 20
469.4344148260365
 30
0.0
 40
8.399999999999998
  1
R
 41
0.85
  7
SIMPLEX7
100
AcDbText
  0
CIRCLE
  5
21E1
330
1F
100
AcDbEntity
  8
POPIS
100
AcDbCircle
 10
929.9674574906079
 20
473.3161568475274
 30
0.0
 40
7.795592338044182
  0
TEXT
  5
21E2
330
1F
100
AcDbEntity
  8
POPIS
100
AcDbText
 10
702.3152342556045
 20
450.5750306092445
 30
0.0
 40
25.0
  1
05
 41
0.85
  7
SIMPLEX7
100
AcDbText
  0
TEXT
  5
21E3
330
1F
100
AcDbEntity
  8
POPIS
100
AcDbText
 10
756.6589374153468
 20
450.740547438992
 30
0.0
 40
25.0
  1
Deska CETRIS    tl. 12 mm, spodní
 41
0.7
  7
SIMPLEX7
100
AcDbText
  0
TEXT
  5
21E4
330
1F
100
AcDbEntity
  8
POPIS
100
AcDbText
 10
213.5549218259607
 20
450.0295177651728
 30
0.0
 40
25.0
  1
04
 41
0.85
  7
SIMPLEX7
100
AcDbText
  0
TEXT
  5
21E5
330
1F
100
AcDbEntity
  8
POPIS
100
AcDbText
 10
258.9795572315074
 20
450.0295177651728
 30
0.0
 40
25.0
  1
02
 41
0.85
  7
SIMPLEX7
100
AcDbText
  0
LWPOLYLINE
  5
21E6
330
1F
100
AcDbEntity
  8
nášlap_vrstvy
100
AcDbPolyline
 90
        4
 70
     0
 43
0.0
 10
335.5930324310851
 20
371.5084583017792
 10
642.7898921422332
 20
371.5084583017792
 10
642.7898921422332
 20
375.8469473277268
 10
335.5930324310851
 20
375.8469473277268
  0
LINE
  5
21E7
330
1F
100
AcDbEntity
  8
STAVBA OBRYS
100
AcDbLine
 10
337.774272774614
 20
321.8866979392619
 30
0.0
 11
642.7898921422406
 21
321.8866979392619
 31
0.0
  0
LINE
  5
21E8
330
1F
100
AcDbEntity
  8
STAVBA OBRYS
100
AcDbLine
 10
337.774272774614
 20
356.8866979392619
 30
0.0
 11
642.7898921422406
 21
356.8866979392619
 31
0.0
  0
HATCH
  5
21E9
330
1F
100
AcDbEntity
  8
STAVBA OBRYS
100
AcDbHatch
 10
0.0
 20
0.0
 30
0.0
210
0.0
220
0.0
230
1.0
  2
ANSI35
 70
     0
 71
     0
 91
        1
 92
        7
 72
     1
 73
     1
 93
       15
 10
642.7898921422332
 20
356.8866979392619
 42
0.0
 10
524.6765283988628
 20
356.8866979392609
 42
0.0
 10
524.6765283988592
 20
351.4414005035701
 42
-1.0
 10
524.6765283988592
 20
348.9414005035701
 42
-1.0
 10
524.6765283988592
 20
351.4414005035701
 42
0.0
 10
524.6765283988592
 20
356.8866979392619
 42
0.0
 10
337.7742727746102
 20
356.8866979392619
 42
0.0
 10
337.7742727746102
 20
324.8866979392619
 42
0.0
 10
337.7742727746066
 20
321.8866979392619
 42
0.0
 10
472.0477719918111
 20
321.8866979392619
 42
0.0
 10
472.0477719918148
 20
338.2148493932886
 42
-1.0
 10
472.0477719918148
 20
340.7148493932886
 42
-1.0
 10
472.0477719918148
 20
338.2148493932886
 42
0.0
 10
472.0477719918111
 20
321.8866979392619
 42
0.0
 10
642.7898921422369
 20
321.8866979392619
 42
0.0
 97
        0
 75
     0
 76
     1
 52
90.0
 41
3.0
 77
     0
 78
     2
 53
135.0
 43
-29268.85946456511
 44
5092.680422031221
 45
-13.47038418160373
 46
-13.47038418160372
 79
     0
 53
135.0
 43
-29268.85946456511
 44
5106.150812031221
 45
-13.47038418160373
 46
-13.47038418160372
 79
     4
 49
23.8125
 49
-4.762499999999999
 49
0.0
 49
-4.762499999999999
 47
0.6232788170057386
 98
        1
 10
541.5673596120744
 20
336.2317016458851
  0
HATCH
  5
21EA
330
1F
100
AcDbEntity
  8
STAVBA OBRYS
100
AcDbHatch
 10
0.0
 20
0.0
 30
0.0
210
0.0
220
0.0
230
1.0
  2
AR-CONC
 70
     0
 71
     0
 91
        1
 92
        7
 72
     1
 73
     1
 93
       13
 10
524.6765283988592
 20
371.5084583017783
 42
0.0
 10
477.7942135846882
 20
371.5084583017783
 42
0.0
 10
477.7942135846918
 20
363.0825126091908
 42
-1.0
 10
477.7942135846918
 20
360.5825126091908
 42
-1.0
 10
477.7942135846918
 20
363.0825126091908
 42
0.0
 10
477.7942135846882
 20
371.5084583017792
 42
0.0
 10
337.7742727746102
 20
371.5084583017783
 42
0.0
 10
337.7742727746102
 20
370.8280660513023
 42
0.0
 10
345.2998974970308
 20
370.8280660513023
 42
0.0
 10
345.2998974970272
 20
369.8903743245951
 42
0.0
 10
337.7742727746066
 20
369.8903743245951
 42
0.0
 10
337.7742727746138
 20
356.8866979392609
 42
0.0
 10
524.6765283988592
 20
356.8866979392619
 42
0.0
 97
        0
 75
     0
 76
     1
 52
90.0
 41
0.15
 77
     0
 78
    13
 53
140.0
 43
-29268.85946456511
 44
5092.680422031221
 45
2.390862830835464
 46
27.3277003494006
 79
     2
 49
2.857499999999999
 49
-31.4325
 53
85.00000000000001
 43
-29268.85946456511
 44
5092.680422031221
 45
-28.65849643232699
 46
-5.286423896350046
 79
     2
 49
2.286
 49
-25.14599999999999
 53
190.4509999999999
 43
-29268.6602270651
 44
5094.957722031221
 45
-26.26750317304378
 46
22.04137524989388
 79
     2
 49
2.4285
 49
-26.7135
 53
136.1841999999999
 43
-29276.4794645651
 44
5092.680422031221
 45
6.306349189909074
 46
40.66185613381948
 79
     2
 49
4.286249999999999
 49
-47.14875
 53
186.6355999999999
 43
-29275.95393956511
 44
5096.06890703122
 45
-37.11383338350738
 46
35.61063516993557
 79
     2
 49
3.642749999999999
 49
-40.07024999999999
 53
81.18400000000004
 43
-29276.4794645651
 44
5092.680422031221
 45
-37.11376767908964
 46
35.61069087209009
 79
     2
 49
3.428999999999999
 49
-37.719
 53
111.0
 43
-29274.57446456511
 44
5096.490422031219
 45
15.33982777751437
 46
22.74223197530749
 79
     2
 49
2.857499999999999
 49
-31.4325
 53
56.00000000000004
 43
-29274.57446456511
 44
5096.490422031219
 45
-27.62819491834789
 46
9.270304252147061
 79
     2
 49
2.286
 49
-25.14599999999999
 53
161.4514
 43
-29273.29614956511
 44
5098.385597031221
 45
-12.28842865740861
 46
32.01247361551866
 79
     2
 49
2.428499999999996
 49
-26.71349999999997
 53
127.5
 43
-29268.85946456511
 44
5092.680422031221
 45
-12.68325583097296
 46
0.4632904875887732
 79
     6
 49
0.0
 49
-24.8412
 49
0.0
 49
-25.527
 49
0.0
 49
-25.24125
 53
97.49999999999992
 43
-29268.85946456511
 44
5092.680422031221
 45
-15.02708622271792
 46
10.02294937654586
 79
     6
 49
0.0
 49
-14.55419999999999
 49
0.0
 49
-24.2697
 49
0.0
 49
-9.62025
 53
57.5
 43
-29268.85946456511
 44
5084.184122031221
 45
0.8593115989010209
 46
20.3385892750307
 79
     6
 49
0.0
 49
-9.525
 49
0.0
 49
-29.71799999999999
 49
0.0
 49
-39.43349999999999
 53
47.5
 43
-29268.85946456511
 44
5080.37412203122
 45
-3.81397365499995
 46
22.2193772079027
 79
     6
 49
0.0
 49
-12.38249999999999
 49
0.0
 49
-19.7358
 49
0.0
 49
-28.00349999999999
 47
0.56013321377044
 98
        1
 10
415.8153644573161
 20
360.152481204213
  0
LINE
  5
21EB
330
1F
100
AcDbEntity
  8
POPIS
100
AcDbLine
 10
279.28612217833
 20
277.2711033588816
 30
0.0
 11
279.28612217833
 21
340.0764763745551
 31
0.0
  0
LINE
  5
21EC
330
1F
100
AcDbEntity
  8
POPIS
100
AcDbLine
 10
327.5531652213671
 20
277.2711033588816
 30
0.0
 11
327.5531652213671
 21
340.0764763745551
 31
0.0
  0
TEXT
  5
21ED
330
1F
100
AcDbEntity
  8
POPIS
100
AcDbText
 10
262.77694082686
 20
244.6392653119487
 30
0.0
 40
25.0
  1
07
 41
0.85
  7
SIMPLEX7
100
AcDbText
  0
TEXT
  5
21EE
330
1F
100
AcDbEntity
  8
POPIS
100
AcDbText
 10
311.0439838698971
 20
244.6392653119487
 30
0.0
 40
25.0
  1
03
 41
0.85
  7
SIMPLEX7
100
AcDbText
  0
LWPOLYLINE
  5
21EF
330
1F
100
AcDbEntity
  8
izolace
100
AcDbPolyline
 90
        4
 70
     1
 43
0.0
 10
337.7742727746138
 20
324.8866979392619
 10
333.2424049958157
 20
324.8866979392619
 10
333.2424049958157
 20
321.8866979392619
 10
337.7742727746102
 20
321.8866979392619
  0
LWPOLYLINE
  5
21F0
330
1F
100
AcDbEntity
  8
izolace
100
AcDbPolyline
 90
        4
 70
     1
 43
0.0
 10
309.6006722859805
 20
324.8866979392619
 10
285.9589395761453
 20
324.8866979392619
 10
285.9589395761453
 20
321.8866979392619
 10
309.6006722859805
 20
321.8866979392619
  0
HATCH
  5
21F1
330
1F
100
AcDbEntity
  8
izolace
100
AcDbHatch
 10
0.0
 20
0.0
 30
0.0
210
0.0
220
0.0
230
1.0
  2
SOLID
 70
     1
 71
     0
 91
        1
 92
        7
 72
     0
 73
     1
 93
        4
 10
285.9589395761453
 20
324.8866979392619
 10
285.9589395761489
 20
321.8866979392619
 10
309.6006722859805
 20
321.8866979392619
 10
309.6006722859841
 20
324.8866979392619
 97
        0
 75
     0
 76
     1
 47
0.1901250437635136
 98
        1
 10
295.3167343344888
 20
324.0698863881821
  0
HATCH
  5
21F2
330
1F
100
AcDbEntity
  8
izolace
100
AcDbHatch
 10
0.0
 20
0.0
 30
0.0
210
0.0
220
0.0
230
1.0
  2
SOLID
 70
     1
 71
     0
 91
        1
 92
        7
 72
     0
 73
     1
 93
        4
 10
337.7742727746102
 20
324.8866979392619
 10
333.2424049958157
 20
324.8866979392628
 10
333.242404995812
 20
321.8866979392619
 10
337.7742727746102
 20
321.8866979392619
 97
        0
 75
     0
 76
     1
 47
0.1987085112534441
 98
        1
 10
335.2131619607556
 20
323.1791531370777
  0
INSERT
  5
21F3
330
1F
100
AcDbEntity
  8
POPIS
100
AcDbBlockReference
  2
E_PUNKT
 10
277.8268827973974
 20
377.5394811343235
 30
0.0
 50
270.0
  0
INSERT
  5
21F4
330
1F
100
AcDbEntity
  8
POPIS
100
AcDbBlockReference
  2
E_PUNKT
 10
279.349274797993
 20
340.5501956114935
 30
0.0
 50
270.0
  0
LINE
  5
21F5
330
1F
100
AcDbEntity
  8
POPIS
100
AcDbLine
 10
330.2194043544791
 20
441.1801566924491
 30
0.0
 11
330.2194043544791
 21
376.3484203257125
 31
0.0
  0
HATCH
  5
21F6
330
1F
100
AcDbEntity
  8
izolace
100
AcDbHatch
 10
0.0
 20
0.0
 30
0.0
210
0.0
220
0.0
230
1.0
  2
SOLID
 70
     1
 71
     0
 91
        1
 92
        7
 72
     0
 73
     1
 93
        4
 10
238.6754741564785
 20
324.8866979392619
 10
238.6754741564785
 20
321.8866979392619
 10
262.3172068663137
 20
321.8866979392619
 10
262.3172068663137
 20
324.8866979392619
 97
        0
 75
     0
 76
     1
 47
0.1901250437635136
 98
        1
 10
248.0332689148184
 20
324.0698863881821
  0
LWPOLYLINE
  5
21F7
330
1F
100
AcDbEntity
  8
izolace
100
AcDbPolyline
 90
        4
 70
     1
 43
0.0
 10
262.3172068663101
 20
324.8866979392619
 10
238.6754741564749
 20
324.8866979392619
 10
238.6754741564749
 20
321.8866979392619
 10
262.3172068663101
 20
321.8866979392619
  0
INSERT
  5
21F8
330
1F
100
AcDbEntity
  8
POPIS
100
AcDbBlockReference
  2
E_PUNKT
 10
329.7332987275463
 20
377.5394811343235
 30
0.0
 50
270.0
  0
LINE
  5
21F9
330
1F
100
AcDbEntity
  8
nášlap_vrstvy
100
AcDbLine
 10
324.9555131181355
 20
371.5084583017792
 30
0.0
 11
324.9555131181355
 21
375.8469473277268
 31
0.0
  0
LINE
  5
21FA
330
1F
100
AcDbEntity
  8
nášlap_vrstvy
100
AcDbLine
 10
335.5930324310852
 20
375.8469473277268
 30
0.0
 11
335.5930324310852
 21
371.5084583017792
 31
0.0
  0
LWPOLYLINE
  5
21FB
330
1F
100
AcDbEntity
  8
STAVBA OBRYS
100
AcDbPolyline
 90
        2
 70
     0
 43
0.0
 10
322.7742727746102
 20
331.5031750489374
 42
-0.0070027860950108
 10
320.9503015746398
 20
324.8866979392619
  0
LWPOLYLINE
  5
21FC
330
1F
100
AcDbEntity
  8
STAVBA OBRYS
100
AcDbPolyline
 90
        8
 70
     0
 43
0.0
 10
286.816556633234
 20
344.8866979392619
 42
-0.0168162630274195
 10
286.68153105417
 20
343.1956597871426
 42
-0.0575155827655532
 10
286.0014987738271
 20
340.0960351264252
 42
-0.0310289133982999
 10
282.9986974289989
 20
332.8510076017805
 42
-0.0882970623535771
 10
281.361475508906
 20
330.6106385509806
 42
-0.0171636441953577
 10
278.5481114470479
 20
328.0967211957354
 42
-0.0157521173632038
 10
275.3092566100116
 20
325.5652251432288
 42
-0.0014948023799519
 10
274.3765447624995
 20
324.8866979392619
 42
-0.0014948023799519
  0
POLYLINE
  5
21FD
330
1F
100
AcDbEntity
  8
STAVBA OBRYS
100
AcDb2dPolyline
 66
     1
 10
0.0
 20
0.0
 30
0.0
  0
VERTEX
  5
21FE
330
21FD
100
AcDbEntity
  8
STAVBA OBRYS
100
AcDbVertex
100
AcDb2dVertex
 10
279.8667786095488
 20
344.8866979392601
 30
0.0
 42
-0.0072417954699014
  0
VERTEX
  5
21FF
330
21FD
100
AcDbEntity
  8
STAVBA OBRYS
100
AcDbVertex
100
AcDb2dVertex
 10
279.8112082417051
 20
344.4752927279855
 30
0.0
 42
-0.0707158694326265
  0
VERTEX
  5
2200
330
21FD
100
AcDbEntity
  8
STAVBA OBRYS
100
AcDbVertex
100
AcDb2dVertex
 10
279.280081725285
 20
342.5391892753919
 30
0.0
 42
-0.033952657250207
  0
VERTEX
  5
2201
330
21FD
100
AcDbEntity
  8
STAVBA OBRYS
100
AcDbVertex
100
AcDb2dVertex
 10
277.0314258858766
 20
338.1861515502182
 30
0.0
 42
-0.0571374688189033
  0
VERTEX
  5
2202
330
21FD
100
AcDbEntity
  8
STAVBA OBRYS
100
AcDbVertex
100
AcDb2dVertex
 10
275.2452691260245
 20
335.8792272665318
 30
0.0
 42
-0.0274923553235744
  0
VERTEX
  5
2203
330
21FD
100
AcDbEntity
  8
STAVBA OBRYS
100
AcDbVertex
100
AcDb2dVertex
 10
272.6479633954718
 20
333.4941519433973
 30
0.0
 42
-0.0255412025538677
  0
VERTEX
  5
2204
330
21FD
100
AcDbEntity
  8
STAVBA OBRYS
100
AcDbVertex
100
AcDb2dVertex
 10
269.596533357761
 20
331.2374382663779
 30
0.0
 42
-0.0272796991712396
  0
VERTEX
  5
2205
330
21FD
100
AcDbEntity
  8
STAVBA OBRYS
100
AcDbVertex
100
AcDb2dVertex
 10
265.4835342045757
 20
328.8211023847157
 30
0.0
 42
-0.056967459841729
  0
VERTEX
  5
2206
330
21FD
100
AcDbEntity
  8
STAVBA OBRYS
100
AcDbVertex
100
AcDb2dVertex
 10
263.342586923844
 20
328.0083665495162
 30
0.0
 42
-0.0373408083348504
  0
VERTEX
  5
2207
330
21FD
100
AcDbEntity
  8
STAVBA OBRYS
100
AcDbVertex
100
AcDb2dVertex
 10
263.1202325483704
 20
327.969201008565
 30
0.0
 42
-0.0052305969362967
  0
VERTEX
  5
2208
330
21FD
100
AcDbEntity
  8
STAVBA OBRYS
100
AcDbVertex
100
AcDb2dVertex
 10
262.7742727746103
 20
327.9382440416607
 30
0.0
  0
SEQEND
  5
2209
330
21FD
100
AcDbEntity
  8
STAVBA OBRYS
  0
LWPOLYLINE
  5
220A
330
1F
100
AcDbEntity
  8
STAVBA OBRYS
100
AcDbPolyline
 90
        3
 70
     0
 43
0.0
 10
269.4826702323138
 20
339.3693672437434
 10
286.2378878520416
 20
330.9856263757751
 10
292.3262327888682
 20
324.8866979392619
  0
LWPOLYLINE
  5
220B
330
1F
100
AcDbEntity
  8
STAVBA OBRYS
100
AcDbPolyline
 90
        7
 70
     0
 43
0.0
 10
295.6836158567442
 20
344.8866979392619
 42
-0.0120721047703132
 10
295.6146331667063
 20
343.1528098005178
 42
-0.044358077361292
 10
295.2190054320329
 20
340.457009782101
 42
-0.0188067511131767
 10
293.1991819836497
 20
333.2147806067946
 42
-0.0457786284636091
 10
291.991159094034
 20
330.3661702239146
 42
-0.0295006114745606
 10
289.5750986397345
 20
326.4392710105125
 42
-0.0094449184784486
 10
288.4444321992144
 20
324.8866979392619
 42
-0.0094449184784486
  0
LWPOLYLINE
  5
220C
330
1F
100
AcDbEntity
  8
STAVBA OBRYS
100
AcDbPolyline
 90
        2
 70
     0
 43
0.0
 10
314.4975608407897
 20
344.8866979392619
 42
-0.0133702840819155
 10
310.8476937799772
 20
324.8866979392619
 42
-0.0133702840819155
  0
LWPOLYLINE
  5
220D
330
1F
100
AcDbEntity
  8
STAVBA OBRYS
100
AcDbPolyline
 90
        3
 70
     0
 43
0.0
 10
288.7752478575588
 20
338.3875283700067
 10
308.7715002895514
 20
329.1714993194868
 10
312.771437923266
 20
328.5261018441447
  0
LWPOLYLINE
  5
220E
330
1F
100
AcDbEntity
  8
STAVBA OBRYS
100
AcDbPolyline
 90
        5
 70
     0
 43
0.0
 10
304.3078312367855
 20
344.8866979392619
 42
-0.0128837512779298
 10
304.023039276561
 20
341.5535331175155
 42
-0.0351641677647434
 10
303.3952795550379
 20
337.9498236631766
 42
-0.0187319685742942
 10
300.0112636740472
 20
326.1915863210337
 42
-0.0205166500055637
 10
299.5220154451366
 20
324.8866979392619
 42
-0.0205166500055637
  0
POLYLINE
  5
220F
330
1F
100
AcDbEntity
  8
STAVBA OBRYS
100
AcDb2dPolyline
 66
     1
 10
0.0
 20
0.0
 30
0.0
  0
VERTEX
  5
2210
330
220F
100
AcDbEntity
  8
STAVBA OBRYS
100
AcDbVertex
100
AcDb2dVertex
 10
272.6387275888105
 20
344.8866979392601
 30
0.0
 42
-0.0064239028828688
  0
VERTEX
  5
2211
330
220F
100
AcDbEntity
  8
STAVBA OBRYS
100
AcDbVertex
100
AcDb2dVertex
 10
272.59985914863
 20
344.6675842799099
 30
0.0
 42
-0.0832048017309575
  0
VERTEX
  5
2212
330
220F
100
AcDbEntity
  8
STAVBA OBRYS
100
AcDbVertex
100
AcDb2dVertex
 10
271.8156765459484
 20
342.3373707002551
 30
0.0
 42
-0.0336767237692336
  0
VERTEX
  5
2213
330
220F
100
AcDbEntity
  8
STAVBA OBRYS
100
AcDbVertex
100
AcDb2dVertex
 10
270.1128599870266
 20
339.6090961807944
 30
0.0
 42
-0.0844635135812105
  0
VERTEX
  5
2214
330
220F
100
AcDbEntity
  8
STAVBA OBRYS
100
AcDbVertex
100
AcDb2dVertex
 10
269.1930502271338
 20
338.7046745757993
 30
0.0
 42
-0.0495829410719565
  0
VERTEX
  5
2215
330
220F
100
AcDbEntity
  8
STAVBA OBRYS
100
AcDbVertex
100
AcDb2dVertex
 10
267.4443717897797
 20
337.7280250684866
 30
0.0
 42
-0.0322692699774654
  0
VERTEX
  5
2216
330
220F
100
AcDbEntity
  8
STAVBA OBRYS
100
AcDbVertex
100
AcDb2dVertex
 10
264.553017608689
 20
336.6865015670859
 30
0.0
 42
-0.0276160659512937
  0
VERTEX
  5
2217
330
220F
100
AcDbEntity
  8
STAVBA OBRYS
100
AcDbVertex
100
AcDb2dVertex
 10
263.6974411704018
 20
336.4897661381414
 30
0.0
 42
-0.0126891984598699
  0
VERTEX
  5
2218
330
220F
100
AcDbEntity
  8
STAVBA OBRYS
100
AcDbVertex
100
AcDb2dVertex
 10
262.7742727746103
 20
336.3545637485999
 30
0.0
  0
SEQEND
  5
2219
330
220F
100
AcDbEntity
  8
STAVBA OBRYS
  0
LWPOLYLINE
  5
221A
330
1F
100
AcDbEntity
  8
STAVBA OBRYS
100
AcDbPolyline
 90
        7
 70
     0
 43
0.0
 10
267.2890412542932
 20
344.8866979392619
 42
-0.0203924744732807
 10
266.3869572698844
 20
343.8735679101077
 42
-0.0273961979096945
 10
265.5370929196891
 20
343.0853915360817
 42
-0.0243529190212958
 10
264.3739724272694
 20
342.2116321914141
 42
-0.0398020282482987
 10
263.5990138897089
 20
341.7720034479675
 42
-0.104168275620852
 10
263.2126027533689
 20
341.6819869877904
 42
-0.007272956268647
 10
262.7742727746102
 20
341.6635336364957
 42
-0.007272956268647
  0
LINE
  5
221B
330
1F
100
AcDbEntity
  8
izolace
  6
IZOLACE
 48
0.7
100
AcDbLine
 10
330.2742727746103
 20
324.8866979392619
 30
0.0
 11
330.2742727746103
 21
368.8866979392619
 31
0.0
  0
LWPOLYLINE
  5
221C
330
1F
100
AcDbEntity
  8
izolace
100
AcDbPolyline
 90
        4
 70
     1
 43
0.0
 10
322.7742727746102
 20
324.8866979392619
 10
262.7742727746102
 20
324.8866979392619
 10
262.7742727746102
 20
344.8866979392619
 10
322.7742727746102
 20
344.8866979392619
  0
LWPOLYLINE
  5
221D
330
1F
100
AcDbEntity
  8
izolace
100
AcDbPolyline
 90
        4
 70
     1
 43
0.0
 10
322.7742727746102
 20
368.8866979392619
 10
337.7742727746102
 20
368.8866979392619
 10
337.7742727746102
 20
324.8866979392619
 10
322.7742727746102
 20
324.8866979392619
  0
LINE
  5
221E
330
1F
100
AcDbEntity
  8
POPIS
100
AcDbLine
 10
230.4525927577656
 20
441.1801566924491
 30
0.0
 11
230.4525927577656
 21
361.8325126091908
 31
0.0
  0
LINE
  5
221F
330
1F
100
AcDbEntity
  8
POPIS
100
AcDbLine
 10
277.77515064322
 20
441.1801566924491
 30
0.0
 11
277.77515064322
 21
375.768100891069
 31
0.0
  0
INSERT
  5
2220
330
1F
100
AcDbEntity
  8
POPIS
100
AcDbBlockReference
  2
E_PUNKT
 10
230.4235244268916
 20
361.8601229848177
 30
0.0
 50
270.0
  0
LINE
  5
2221
330
1F
100
AcDbEntity
  8
SPOJOVACÍ
  6
DASHED
100
AcDbLine
 10
307.5128588223765
 20
365.2978378734656
 30
0.0
 11
308.4517782709613
 21
366.4810586927064
 31
0.0
  0
LINE
  5
2222
330
1F
100
AcDbEntity
  8
SPOJOVACÍ
  6
DASHED
100
AcDbLine
 10
306.9121326902118
 20
363.9122480079563
 30
0.0
 11
307.5128588223765
 21
365.2978378734656
 31
0.0
  0
LINE
  5
2223
330
1F
100
AcDbEntity
  8
SPOJOVACÍ
  6
DASHED
100
AcDbLine
 10
306.689709057146
 20
362.4190926135956
 30
0.0
 11
306.9121326902118
 21
363.9122480079563
 31
0.0
  0
LINE
  5
2224
330
1F
100
AcDbEntity
  8
SPOJOVACÍ
  6
DASHED
100
AcDbLine
 10
310.3651684861274
 20
368.8866979392619
 30
0.0
 11
310.3651684861274
 21
367.7107696980651
 31
0.0
  0
LINE
  5
2225
330
1F
100
AcDbEntity
  8
SPOJOVACÍ
  6
DASHED
100
AcDbLine
 10
300.3688668644049
 20
368.8866979392619
 30
0.0
 11
310.3651684861274
 21
368.8866979392619
 31
0.0
  0
LINE
  5
2226
330
1F
100
AcDbEntity
  8
SPOJOVACÍ
  6
DASHED
100
AcDbLine
 10
300.3688668644049
 20
368.8866979392619
 30
0.0
 11
300.3688668644049
 21
367.7107696980651
 31
0.0
  0
LINE
  5
2227
330
1F
100
AcDbEntity
  8
SPOJOVACÍ
  6
DASHED
100
AcDbLine
 10
300.3688668644049
 20
367.7107696980651
 30
0.0
 11
310.3651684861274
 21
367.7107696980651
 31
0.0
  0
LINE
  5
2228
330
1F
100
AcDbEntity
  8
SPOJOVACÍ
  6
DASHED
100
AcDbLine
 10
309.6641694036829
 20
367.3807805329392
 30
0.0
 11
310.3651684861274
 21
367.7107696980651
 31
0.0
  0
LINE
  5
2229
330
1F
100
AcDbEntity
  8
SPOJOVACÍ
  6
DASHED
100
AcDbLine
 10
308.4517782709613
 20
366.4810586927064
 30
0.0
 11
309.6641694036829
 21
367.3807805329392
 31
0.0
  0
LINE
  5
222A
330
1F
100
AcDbEntity
  8
SPOJOVACÍ
  6
DASHED
100
AcDbLine
 10
303.9796046653814
 20
363.1902827622557
 30
0.0
 11
304.0443262976646
 21
362.4190926135956
 31
0.0
  0
LINE
  5
222B
330
1F
100
AcDbEntity
  8
SPOJOVACÍ
  6
DASHED
100
AcDbLine
 10
303.560281418368
 20
364.6415058319648
 30
0.0
 11
303.9796046653814
 21
363.1902827622557
 31
0.0
  0
LINE
  5
222C
330
1F
100
AcDbEntity
  8
SPOJOVACÍ
  6
DASHED
100
AcDbLine
 10
302.7799755486362
 20
365.9341153246964
 30
0.0
 11
303.560281418368
 21
364.6415058319648
 31
0.0
  0
LINE
  5
222D
330
1F
100
AcDbEntity
  8
SPOJOVACÍ
  6
DASHED
100
AcDbLine
 10
301.6915582462847
 20
366.9815118743203
 30
0.0
 11
302.7799755486362
 21
365.9341153246964
 31
0.0
  0
LINE
  5
222E
330
1F
100
AcDbEntity
  8
SPOJOVACÍ
  6
DASHED
100
AcDbLine
 10
300.3688668644049
 20
367.7107696980651
 30
0.0
 11
301.6915582462847
 21
366.9815118743203
 31
0.0
  0
LINE
  5
222F
330
1F
100
AcDbEntity
  8
SPOJOVACÍ
  6
DASHED
100
AcDbLine
 10
306.689709057146
 20
362.4190926135956
 30
0.0
 11
306.689709057146
 21
357.5749975182457
 31
0.0
  0
LINE
  5
2230
330
1F
100
AcDbEntity
  8
SPOJOVACÍ
  6
DASHED
100
AcDbLine
 10
304.0443262976646
 20
362.4190926135956
 30
0.0
 11
304.0443262976646
 21
358.4619573465092
 31
0.0
  0
LINE
  5
2231
330
1F
100
AcDbEntity
  8
SPOJOVACÍ
  6
DASHED
100
AcDbLine
 10
304.0443262976646
 20
357.8785510875163
 30
0.0
 11
304.0443262976646
 21
355.410013353588
 31
0.0
  0
LINE
  5
2232
330
1F
100
AcDbEntity
  8
SPOJOVACÍ
  6
DASHED
100
AcDbLine
 10
304.0443262976646
 20
354.8184029440994
 30
0.0
 11
304.0443262976646
 21
352.3480420655246
 31
0.0
  0
LINE
  5
2233
330
1F
100
AcDbEntity
  8
SPOJOVACÍ
  6
DASHED
100
AcDbLine
 10
304.0443262976646
 20
351.7655473787194
 30
0.0
 11
304.0443262976646
 21
349.2878939221077
 31
0.0
  0
LINE
  5
2234
330
1F
100
AcDbEntity
  8
SPOJOVACÍ
  6
DASHED
100
AcDbLine
 10
306.689709057146
 20
356.9833871087571
 30
0.0
 11
306.689709057146
 21
354.5148493748288
 31
0.0
  0
LINE
  5
2235
330
1F
100
AcDbEntity
  8
SPOJOVACÍ
  6
DASHED
100
AcDbLine
 10
306.689709057146
 20
353.9305315433771
 30
0.0
 11
306.689709057146
 21
351.4528780867653
 31
0.0
  0
LINE
  5
2236
330
1F
100
AcDbEntity
  8
SPOJOVACÍ
  6
DASHED
100
AcDbLine
 10
306.689709057146
 20
350.8703833999602
 30
0.0
 11
306.689709057146
 21
348.4000225213853
 31
0.0
  0
LINE
  5
2237
330
1F
100
AcDbEntity
  8
SPOJOVACÍ
  6
DASHED
100
AcDbLine
 10
304.0443262976646
 20
348.6953719401676
 30
0.0
 11
304.0443262976646
 21
346.2277457784271
 31
0.0
  0
LINE
  5
2238
330
1F
100
AcDbEntity
  8
SPOJOVACÍ
  6
DASHED
100
AcDbLine
 10
304.0443262976646
 20
345.6434279469754
 30
0.0
 11
304.0443262976646
 21
344.4210095199246
 31
0.0
  0
LINE
  5
2239
330
1F
100
AcDbEntity
  8
SPOJOVACÍ
  6
DASHED
100
AcDbLine
 10
306.689709057146
 20
347.8111468287311
 30
0.0
 11
306.689709057146
 21
345.3426090948028
 31
0.0
  0
LINE
  5
223A
330
1F
100
AcDbEntity
  8
SPOJOVACÍ
  6
DASHED
100
AcDbLine
 10
306.689709057146
 20
344.7509986850505
 30
0.0
 11
306.689709057146
 21
344.4210095199246
 31
0.0
  0
LINE
  5
223B
330
1F
100
AcDbEntity
  8
SPOJOVACÍ
  6
DASHED
100
AcDbLine
 10
304.0443262976646
 20
344.4210095199246
 30
0.0
 11
304.1910894343331
 21
343.2478159955548
 31
0.0
  0
LINE
  5
223C
330
1F
100
AcDbEntity
  8
SPOJOVACÍ
  6
DASHED
100
AcDbLine
 10
305.3670176752662
 20
333.8367437782703
 30
0.0
 11
305.7143267167725
 21
336.6161276595135
 31
0.0
  0
LINE
  5
223D
330
1F
100
AcDbEntity
  8
SPOJOVACÍ
  6
DASHED
100
AcDbLine
 10
304.2667499350086
 20
342.6397972848185
 30
0.0
 11
304.5511604875378
 21
340.3645128744751
 31
0.0
  0
LINE
  5
223E
330
1F
100
AcDbEntity
  8
SPOJOVACÍ
  6
DASHED
100
AcDbLine
 10
304.6286441315192
 20
339.7464668686038
 30
0.0
 11
304.91305467977
 21
337.4720940304555
 31
0.0
  0
LINE
  5
223F
330
1F
100
AcDbEntity
  8
SPOJOVACÍ
  6
DASHED
100
AcDbLine
 10
304.9887151804455
 20
336.8640753197191
 30
0.0
 11
305.3670176752662
 21
333.8367437782703
 31
0.0
  0
LINE
  5
2240
330
1F
100
AcDbEntity
  8
SPOJOVACÍ
  6
DASHED
100
AcDbLine
 10
305.7845177832518
 20
337.1740098948389
 30
0.0
 11
306.0470505989965
 21
339.2760955721237
 31
0.0
  0
LINE
  5
2241
330
1F
100
AcDbEntity
  8
SPOJOVACÍ
  6
DASHED
100
AcDbLine
 10
306.1172416611975
 20
339.8367125242835
 30
0.0
 11
306.3788629074283
 21
341.9305940510799
 31
0.0
  0
LINE
  5
2242
330
1F
100
AcDbEntity
  8
SPOJOVACÍ
  6
DASHED
100
AcDbLine
 10
306.4490539739076
 20
342.4893878588641
 30
0.0
 11
306.689709057146
 21
344.4210095199246
 31
0.0
  0
LINE
  5
2243
330
1F
100
AcDbEntity
  8
SPOJOVACÍ
  6
DASHED
100
AcDbLine
 10
303.0151611934002
 20
358.3024321976076
 30
0.0
 11
307.7188741571321
 21
357.1265039566747
 31
0.0
  0
LINE
  5
2244
330
1F
100
AcDbEntity
  8
SPOJOVACÍ
  6
DASHED
100
AcDbLine
 10
303.0151611934002
 20
358.3024321976076
 30
0.0
 11
303.3852595412049
 21
358.0891242842803
 31
0.0
  0
LINE
  5
2245
330
1F
100
AcDbEntity
  8
SPOJOVACÍ
  6
DASHED
100
AcDbLine
 10
303.0151611934002
 20
358.3024321976076
 30
0.0
 11
303.3852595412049
 21
358.673442115461
 31
0.0
  0
LINE
  5
2246
330
1F
100
AcDbEntity
  8
SPOJOVACÍ
  6
DASHED
100
AcDbLine
 10
307.7188741571321
 20
357.1265039566747
 30
0.0
 11
307.3487758136057
 21
356.756405611009
 31
0.0
  0
LINE
  5
2247
330
1F
100
AcDbEntity
  8
SPOJOVACÍ
  6
DASHED
100
AcDbLine
 10
307.7188741571321
 20
357.1265039566747
 30
0.0
 11
307.3487758136057
 21
357.3407234424607
 31
0.0
  0
LINE
  5
2248
330
1F
100
AcDbEntity
  8
SPOJOVACÍ
  6
DASHED
100
AcDbLine
 10
303.3852595412049
 20
358.0891242842803
 30
0.0
 11
307.3487758136057
 21
356.756405611009
 31
0.0
  0
LINE
  5
2249
330
1F
100
AcDbEntity
  8
SPOJOVACÍ
  6
DASHED
100
AcDbLine
 10
303.3852595412049
 20
358.673442115461
 30
0.0
 11
307.3487758136057
 21
357.3407234424607
 31
0.0
  0
LINE
  5
224A
330
1F
100
AcDbEntity
  8
SPOJOVACÍ
  6
DASHED
100
AcDbLine
 10
303.0151611934002
 20
355.2450187710251
 30
0.0
 11
307.7188741571321
 21
354.0690905298211
 31
0.0
  0
LINE
  5
224B
330
1F
100
AcDbEntity
  8
SPOJOVACÍ
  6
DASHED
100
AcDbLine
 10
303.0151611934002
 20
355.2450187710251
 30
0.0
 11
303.3852595412049
 21
355.030799285239
 31
0.0
  0
LINE
  5
224C
330
1F
100
AcDbEntity
  8
SPOJOVACÍ
  6
DASHED
100
AcDbLine
 10
303.0151611934002
 20
355.2450187710251
 30
0.0
 11
303.3852595412049
 21
355.6151171166907
 31
0.0
  0
LINE
  5
224D
330
1F
100
AcDbEntity
  8
SPOJOVACÍ
  6
DASHED
100
AcDbLine
 10
307.7188741571321
 20
354.0690905298211
 30
0.0
 11
307.3487758136057
 21
353.6989921844265
 31
0.0
  0
LINE
  5
224E
330
1F
100
AcDbEntity
  8
SPOJOVACÍ
  6
DASHED
100
AcDbLine
 10
307.7188741571321
 20
354.0690905298211
 30
0.0
 11
307.3487758136057
 21
354.2833100156071
 31
0.0
  0
LINE
  5
224F
330
1F
100
AcDbEntity
  8
SPOJOVACÍ
  6
DASHED
100
AcDbLine
 10
303.3852595412049
 20
355.030799285239
 30
0.0
 11
307.3487758136057
 21
353.6989921844265
 31
0.0
  0
LINE
  5
2250
330
1F
100
AcDbEntity
  8
SPOJOVACÍ
  6
DASHED
100
AcDbLine
 10
303.3852595412049
 20
355.6151171166907
 30
0.0
 11
307.3487758136057
 21
354.2833100156071
 31
0.0
  0
LINE
  5
2251
330
1F
100
AcDbEntity
  8
SPOJOVACÍ
  6
DASHED
100
AcDbLine
 10
303.2640204279327
 20
343.056385816873
 30
0.0
 11
303.6350303452513
 21
342.8421663310869
 31
0.0
  0
LINE
  5
2252
330
1F
100
AcDbEntity
  8
SPOJOVACÍ
  6
DASHED
100
AcDbLine
 10
303.2640204279327
 20
343.056385816873
 30
0.0
 11
303.6350303452513
 21
343.4264841625386
 31
0.0
  0
LINE
  5
2253
330
1F
100
AcDbEntity
  8
SPOJOVACÍ
  6
DASHED
100
AcDbLine
 10
307.3068434876208
 20
342.1028812122144
 30
0.0
 11
306.9367451440943
 21
341.73187129409
 31
0.0
  0
LINE
  5
2254
330
1F
100
AcDbEntity
  8
SPOJOVACÍ
  6
DASHED
100
AcDbLine
 10
307.3068434876208
 20
342.1028812122144
 30
0.0
 11
306.9367451440943
 21
342.3161891255417
 31
0.0
  0
LINE
  5
2255
330
1F
100
AcDbEntity
  8
SPOJOVACÍ
  6
DASHED
100
AcDbLine
 10
303.6350303452513
 20
342.8421663310869
 30
0.0
 11
306.9367451440943
 21
341.73187129409
 31
0.0
  0
LINE
  5
2256
330
1F
100
AcDbEntity
  8
SPOJOVACÍ
  6
DASHED
100
AcDbLine
 10
303.6350303452513
 20
343.4264841625386
 30
0.0
 11
306.9367451440943
 21
342.3161891255417
 31
0.0
  0
LINE
  5
2257
330
1F
100
AcDbEntity
  8
SPOJOVACÍ
  6
DASHED
100
AcDbLine
 10
303.2640204279327
 20
343.056385816873
 30
0.0
 11
307.3068434876208
 21
342.1028812122144
 31
0.0
  0
LINE
  5
2258
330
1F
100
AcDbEntity
  8
SPOJOVACÍ
  6
DASHED
100
AcDbLine
 10
303.8173447999165
 20
340.1019800576609
 30
0.0
 11
304.1874431477213
 21
339.8886721443336
 31
0.0
  0
LINE
  5
2259
330
1F
100
AcDbEntity
  8
SPOJOVACÍ
  6
DASHED
100
AcDbLine
 10
303.8173447999165
 20
340.1019800576609
 30
0.0
 11
304.1874431477213
 21
340.4729899757853
 31
0.0
  0
LINE
  5
225A
330
1F
100
AcDbEntity
  8
SPOJOVACÍ
  6
DASHED
100
AcDbLine
 10
306.8711119380191
 20
339.4811993352263
 30
0.0
 11
306.5010135944926
 21
339.110189417373
 31
0.0
  0
LINE
  5
225B
330
1F
100
AcDbEntity
  8
SPOJOVACÍ
  6
DASHED
100
AcDbLine
 10
306.8711119380191
 20
339.4811993352263
 30
0.0
 11
306.5010135944926
 21
339.6945072485536
 31
0.0
  0
LINE
  5
225C
330
1F
100
AcDbEntity
  8
SPOJOVACÍ
  6
DASHED
100
AcDbLine
 10
304.1874431477213
 20
339.8886721443336
 30
0.0
 11
306.5010135944926
 21
339.110189417373
 31
0.0
  0
LINE
  5
225D
330
1F
100
AcDbEntity
  8
SPOJOVACÍ
  6
DASHED
100
AcDbLine
 10
304.1874431477213
 20
340.4729899757853
 30
0.0
 11
306.5010135944926
 21
339.6945072485536
 31
0.0
  0
LINE
  5
225E
330
1F
100
AcDbEntity
  8
SPOJOVACÍ
  6
DASHED
100
AcDbLine
 10
303.8173447999165
 20
340.1019800576609
 30
0.0
 11
306.8711119380191
 21
339.4811993352263
 31
0.0
  0
LINE
  5
225F
330
1F
100
AcDbEntity
  8
SPOJOVACÍ
  6
DASHED
100
AcDbLine
 10
304.3706691761785
 20
337.1484858709077
 30
0.0
 11
304.740767519705
 21
336.9342663851289
 31
0.0
  0
LINE
  5
2260
330
1F
100
AcDbEntity
  8
SPOJOVACÍ
  6
DASHED
100
AcDbLine
 10
304.3706691761785
 20
337.1484858709077
 30
0.0
 11
304.740767519705
 21
337.5185842165733
 31
0.0
  0
LINE
  5
2261
330
1F
100
AcDbEntity
  8
SPOJOVACÍ
  6
DASHED
100
AcDbLine
 10
306.4818705748062
 20
336.8440207294493
 30
0.0
 11
306.1117722312796
 21
336.4730108115959
 31
0.0
  0
LINE
  5
2262
330
1F
100
AcDbEntity
  8
SPOJOVACÍ
  6
DASHED
100
AcDbLine
 10
306.4818705748062
 20
336.8440207294493
 30
0.0
 11
306.1117722312796
 21
337.0573286430403
 31
0.0
  0
LINE
  5
2263
330
1F
100
AcDbEntity
  8
SPOJOVACÍ
  6
DASHED
100
AcDbLine
 10
304.740767519705
 20
336.9342663851289
 30
0.0
 11
306.1117722312796
 21
336.4730108115959
 31
0.0
  0
LINE
  5
2264
330
1F
100
AcDbEntity
  8
SPOJOVACÍ
  6
DASHED
100
AcDbLine
 10
304.740767519705
 20
337.5185842165733
 30
0.0
 11
306.1117722312796
 21
337.0573286430403
 31
0.0
  0
LINE
  5
2265
330
1F
100
AcDbEntity
  8
SPOJOVACÍ
  6
DASHED
100
AcDbLine
 10
304.3706691761785
 20
337.1484858709077
 30
0.0
 11
306.4818705748062
 21
336.8440207294493
 31
0.0
  0
LINE
  5
2266
330
1F
100
AcDbEntity
  8
SPOJOVACÍ
  6
DASHED
100
AcDbLine
 10
303.0151611934002
 20
352.1876053441715
 30
0.0
 11
307.7188741571321
 21
351.0116771032385
 31
0.0
  0
LINE
  5
2267
330
1F
100
AcDbEntity
  8
SPOJOVACÍ
  6
DASHED
100
AcDbLine
 10
303.0151611934002
 20
352.1876053441715
 30
0.0
 11
303.3852595412049
 21
351.9733858583854
 31
0.0
  0
LINE
  5
2268
330
1F
100
AcDbEntity
  8
SPOJOVACÍ
  6
DASHED
100
AcDbLine
 10
303.0151611934002
 20
352.1876053441715
 30
0.0
 11
303.3852595412049
 21
352.5577036898371
 31
0.0
  0
LINE
  5
2269
330
1F
100
AcDbEntity
  8
SPOJOVACÍ
  6
DASHED
100
AcDbLine
 10
307.7188741571321
 20
351.0116771032385
 30
0.0
 11
307.3487758136057
 21
350.6406671853851
 31
0.0
  0
LINE
  5
226A
330
1F
100
AcDbEntity
  8
SPOJOVACÍ
  6
DASHED
100
AcDbLine
 10
307.7188741571321
 20
351.0116771032385
 30
0.0
 11
307.3487758136057
 21
351.2249850168295
 31
0.0
  0
LINE
  5
226B
330
1F
100
AcDbEntity
  8
SPOJOVACÍ
  6
DASHED
100
AcDbLine
 10
303.3852595412049
 20
351.9733858583854
 30
0.0
 11
307.3487758136057
 21
350.6406671853851
 31
0.0
  0
LINE
  5
226C
330
1F
100
AcDbEntity
  8
SPOJOVACÍ
  6
DASHED
100
AcDbLine
 10
303.3852595412049
 20
352.5577036898371
 30
0.0
 11
307.3487758136057
 21
351.2249850168295
 31
0.0
  0
LINE
  5
226D
330
1F
100
AcDbEntity
  8
SPOJOVACÍ
  6
DASHED
100
AcDbLine
 10
303.0151611934002
 20
349.1301919175816
 30
0.0
 11
307.7188741571321
 21
347.9542636766487
 31
0.0
  0
LINE
  5
226E
330
1F
100
AcDbEntity
  8
SPOJOVACÍ
  6
DASHED
100
AcDbLine
 10
303.0151611934002
 20
349.1301919175816
 30
0.0
 11
303.3852595412049
 21
348.9159724318028
 31
0.0
  0
LINE
  5
226F
330
1F
100
AcDbEntity
  8
SPOJOVACÍ
  6
DASHED
100
AcDbLine
 10
303.0151611934002
 20
349.1301919175816
 30
0.0
 11
303.3852595412049
 21
349.5002902632472
 31
0.0
  0
LINE
  5
2270
330
1F
100
AcDbEntity
  8
SPOJOVACÍ
  6
DASHED
100
AcDbLine
 10
307.7188741571321
 20
347.9542636766487
 30
0.0
 11
307.3487758136057
 21
347.5832537587953
 31
0.0
  0
LINE
  5
2271
330
1F
100
AcDbEntity
  8
SPOJOVACÍ
  6
DASHED
100
AcDbLine
 10
307.7188741571321
 20
347.9542636766487
 30
0.0
 11
307.3487758136057
 21
348.1675715899759
 31
0.0
  0
LINE
  5
2272
330
1F
100
AcDbEntity
  8
SPOJOVACÍ
  6
DASHED
100
AcDbLine
 10
303.3852595412049
 20
348.9159724318028
 30
0.0
 11
307.3487758136057
 21
347.5832537587953
 31
0.0
  0
LINE
  5
2273
330
1F
100
AcDbEntity
  8
SPOJOVACÍ
  6
DASHED
100
AcDbLine
 10
303.3852595412049
 20
349.5002902632472
 30
0.0
 11
307.3487758136057
 21
348.1675715899759
 31
0.0
  0
LINE
  5
2274
330
1F
100
AcDbEntity
  8
SPOJOVACÍ
  6
DASHED
100
AcDbLine
 10
303.0151611934002
 20
346.0718669185403
 30
0.0
 11
307.7188741571321
 21
344.8959386776073
 31
0.0
  0
LINE
  5
2275
330
1F
100
AcDbEntity
  8
SPOJOVACÍ
  6
DASHED
100
AcDbLine
 10
303.0151611934002
 20
346.0718669185403
 30
0.0
 11
303.3852595412049
 21
345.858559005213
 31
0.0
  0
LINE
  5
2276
330
1F
100
AcDbEntity
  8
SPOJOVACÍ
  6
DASHED
100
AcDbLine
 10
303.0151611934002
 20
346.0718669185403
 30
0.0
 11
303.3852595412049
 21
346.4428768366647
 31
0.0
  0
LINE
  5
2277
330
1F
100
AcDbEntity
  8
SPOJOVACÍ
  6
DASHED
100
AcDbLine
 10
307.7188741571321
 20
344.8959386776073
 30
0.0
 11
307.3487758136057
 21
344.5258403319417
 31
0.0
  0
LINE
  5
2278
330
1F
100
AcDbEntity
  8
SPOJOVACÍ
  6
DASHED
100
AcDbLine
 10
307.7188741571321
 20
344.8959386776073
 30
0.0
 11
307.3487758136057
 21
345.1101581633934
 31
0.0
  0
LINE
  5
2279
330
1F
100
AcDbEntity
  8
SPOJOVACÍ
  6
DASHED
100
AcDbLine
 10
303.3852595412049
 20
345.858559005213
 30
0.0
 11
307.3487758136057
 21
344.5258403319417
 31
0.0
  0
LINE
  5
227A
330
1F
100
AcDbEntity
  8
SPOJOVACÍ
  6
DASHED
100
AcDbLine
 10
303.3852595412049
 20
346.4428768366647
 30
0.0
 11
307.3487758136057
 21
345.1101581633934
 31
0.0
  0
LINE
  5
227B
330
1F
100
AcDbEntity
  8
izolace
100
AcDbLine
 10
325.7375891369797
 20
375.8469473277268
 30
0.0
 11
334.810956412241
 21
375.8469473277277
 31
0.0
  0
LINE
  5
227C
330
1F
100
AcDbEntity
  8
izolace
100
AcDbLine
 10
326.7995206494947
 20
374.7511666803043
 30
0.0
 11
326.7995206494947
 21
369.8903743245951
 31
0.0
  0
LINE
  5
227D
330
1F
100
AcDbEntity
  8
izolace
100
AcDbLine
 10
325.7375891369797
 20
375.8469473277268
 30
0.0
 11
325.7375891369797
 21
370.8280660513023
 31
0.0
  0
LINE
  5
227E
330
1F
100
AcDbEntity
  8
izolace
100
AcDbLine
 10
315.2486480521897
 20
370.8280660513023
 30
0.0
 11
325.7375891369797
 21
370.8280660513023
 31
0.0
  0
LINE
  5
227F
330
1F
100
AcDbEntity
  8
izolace
100
AcDbLine
 10
315.2486480521897
 20
369.8903743245951
 30
0.0
 11
326.7995206494947
 21
369.8903743245951
 31
0.0
  0
LINE
  5
2280
330
1F
100
AcDbEntity
  8
izolace
100
AcDbLine
 10
315.2486480521897
 20
369.8903743245951
 30
0.0
 11
315.2486480521897
 21
370.8280660513023
 31
0.0
  0
LINE
  5
2281
330
1F
100
AcDbEntity
  8
izolace
100
AcDbLine
 10
345.2998974970309
 20
369.8903743245951
 30
0.0
 11
345.2998974970309
 21
370.8280660513023
 31
0.0
  0
LINE
  5
2282
330
1F
100
AcDbEntity
  8
izolace
100
AcDbLine
 10
345.2998974970309
 20
369.8903743245951
 30
0.0
 11
333.7490248997259
 21
369.8903743245951
 31
0.0
  0
LINE
  5
2283
330
1F
100
AcDbEntity
  8
izolace
100
AcDbLine
 10
345.2998974970309
 20
370.8280660513023
 30
0.0
 11
334.810956412241
 21
370.8280660513023
 31
0.0
  0
LINE
  5
2284
330
1F
100
AcDbEntity
  8
izolace
100
AcDbLine
 10
334.810956412241
 20
375.8469473277277
 30
0.0
 11
334.810956412241
 21
370.8280660513023
 31
0.0
  0
LINE
  5
2285
330
1F
100
AcDbEntity
  8
izolace
100
AcDbLine
 10
333.7490248997259
 20
374.7511666803034
 30
0.0
 11
333.7490248997259
 21
369.8903743245951
 31
0.0
  0
LINE
  5
2286
330
1F
100
AcDbEntity
  8
izolace
100
AcDbLine
 10
326.7995206494947
 20
374.7511666803043
 30
0.0
 11
333.7490248997259
 21
374.7511666803034
 31
0.0
  0
LINE
  5
2287
330
1F
100
AcDbEntity
  8
nášlap_vrstvy
100
AcDbLine
 10
335.5930324310852
 20
371.5084583017792
 30
0.0
 11
335.5930324310852
 21
375.8469473277268
 31
0.0
  0
HATCH
  5
2288
330
1F
100
AcDbEntity
  8
izolace
100
AcDbHatch
 10
0.0
 20
0.0
 30
0.0
210
0.0
220
0.0
230
1.0
  2
SOLID
 70
     1
 71
     0
 91
        1
 92
        7
 72
     0
 73
     1
 93
       12
 10
334.8109564122409
 20
375.8469473277286
 10
325.7375891369796
 20
375.8469473277268
 10
325.7375891369796
 20
370.8280660513023
 10
315.2486480521896
 20
370.8280660513023
 10
315.2486480521896
 20
369.8903743245951
 10
326.7995206494946
 20
369.8903743245951
 10
326.7995206494946
 20
374.7511666803043
 10
333.7490248997259
 20
374.7511666803034
 10
333.7490248997295
 20
369.8903743245951
 10
345.2998974970308
 20
369.8903743245951
 10
345.2998974970272
 20
370.8280660513023
 10
334.8109564122409
 20
370.8280660513023
 97
        0
 75
     0
 76
     1
 47
0.1079746841384943
 98
        1
 10
327.3251945733048
 20
375.4195590796057
  0
HATCH
  5
2289
330
1F
100
AcDbEntity
  8
CETRIS
100
AcDbHatch
 10
0.0
 20
0.0
 30
0.0
210
0.0
220
0.0
230
1.0
  2
ANSI31
 70
     0
 71
     0
 91
        1
 92
        1
 93
        4
 72
     1
 10
322.7742727746102
 20
356.8866979392619
 11
306.6883987928216
 21
356.8866979392619
 72
     1
 10
306.6883987928216
 20
356.8866979392619
 11
306.6883987928216
 21
344.8801551498886
 72
     1
 10
306.6883987928216
 20
344.8801551498886
 11
322.7742727746102
 21
344.8801551498886
 72
     1
 10
322.7742727746102
 20
344.8801551498886
 11
322.7742727746102
 21
356.8866979392619
 97
        0
 75
     0
 76
     1
 52
0.0
 41
1.0
 77
     0
 78
     1
 53
45.0
 43
-29268.85946456511
 44
5092.680422031221
 45
-2.245064030267287
 46
2.245064030267288
 79
     0
 98
        1
 10
-29268.85946456511
 20
5092.680422031221
  0
TEXT
  5
228A
330
1F
100
AcDbEntity
  8
POPIS
100
AcDbText
 10
702.3152342556045
 20
308.9244169476019
 30
0.0
 40
25.0
  1
09
 41
0.85
  7
SIMPLEX7
100
AcDbText
  0
TEXT
  5
228B
330
1F
100
AcDbEntity
  8
POPIS
100
AcDbText
 10
702.3152342556045
 20
273.6387907549028
 30
0.0
 40
25.0
  1
10
 41
0.85
  7
SIMPLEX7
100
AcDbText
  0
HATCH
  5
228C
330
1F
100
AcDbEntity
  8
STAVBA OBRYS
100
AcDbHatch
 10
0.0
 20
0.0
 30
0.0
210
0.0
220
0.0
230
1.0
  2
AR-CONC
 70
     0
 71
     0
 91
        1
 92
        7
 72
     0
 73
     1
 93
        4
 10
642.7898921422369
 20
371.5084583017783
 10
524.6765283988628
 20
371.5084583017792
 10
524.6765283988592
 20
356.8866979392609
 10
642.7898921422369
 20
356.8866979392609
 97
        0
 75
     0
 76
     1
 52
90.0
 41
0.15
 77
     0
 78
    13
 53
140.0
 43
-29268.85946456511
 44
5092.680422031221
 45
2.390862830835464
 46
27.3277003494006
 79
     2
 49
2.857499999999999
 49
-31.4325
 53
85.00000000000001
 43
-29268.85946456511
 44
5092.680422031221
 45
-28.65849643232699
 46
-5.286423896350046
 79
     2
 49
2.286
 49
-25.14599999999999
 53
190.4509999999999
 43
-29268.6602270651
 44
5094.957722031221
 45
-26.26750317304378
 46
22.04137524989388
 79
     2
 49
2.4285
 49
-26.7135
 53
136.1841999999999
 43
-29276.4794645651
 44
5092.680422031221
 45
6.306349189909074
 46
40.66185613381948
 79
     2
 49
4.286249999999999
 49
-47.14875
 53
186.6355999999999
 43
-29275.95393956511
 44
5096.06890703122
 45
-37.11383338350738
 46
35.61063516993557
 79
     2
 49
3.642749999999999
 49
-40.07024999999999
 53
81.18400000000004
 43
-29276.4794645651
 44
5092.680422031221
 45
-37.11376767908964
 46
35.61069087209009
 79
     2
 49
3.428999999999999
 49
-37.719
 53
111.0
 43
-29274.57446456511
 44
5096.490422031219
 45
15.33982777751437
 46
22.74223197530749
 79
     2
 49
2.857499999999999
 49
-31.4325
 53
56.00000000000004
 43
-29274.57446456511
 44
5096.490422031219
 45
-27.62819491834789
 46
9.270304252147061
 79
     2
 49
2.286
 49
-25.14599999999999
 53
161.4514
 43
-29273.29614956511
 44
5098.385597031221
 45
-12.28842865740861
 46
32.01247361551866
 79
     2
 49
2.428499999999996
 49
-26.71349999999997
 53
127.5
 43
-29268.85946456511
 44
5092.680422031221
 45
-12.68325583097296
 46
0.4632904875887732
 79
     6
 49
0.0
 49
-24.8412
 49
0.0
 49
-25.527
 49
0.0
 49
-25.24125
 53
97.49999999999992
 43
-29268.85946456511
 44
5092.680422031221
 45
-15.02708622271792
 46
10.02294937654586
 79
     6
 49
0.0
 49
-14.55419999999999
 49
0.0
 49
-24.2697
 49
0.0
 49
-9.62025
 53
57.5
 43
-29268.85946456511
 44
5084.184122031221
 45
0.8593115989010209
 46
20.3385892750307
 79
     6
 49
0.0
 49
-9.525
 49
0.0
 49
-29.71799999999999
 49
0.0
 49
-39.43349999999999
 53
47.5
 43
-29268.85946456511
 44
5080.37412203122
 45
-3.81397365499995
 46
22.2193772079027
 79
     6
 49
0.0
 49
-12.38249999999999
 49
0.0
 49
-19.7358
 49
0.0
 49
-28.00349999999999
 47
0.6232788170057386
 98
        1
 10
599.5679006856938
 20
364.279255656163
  0
TEXT
  5
228D
330
1F
100
AcDbEntity
  8
POPIS
100
AcDbText
 10
702.3152342556045
 20
344.4500578489037
 30
0.0
 40
25.0
  1
08
 41
0.85
  7
SIMPLEX7
100
AcDbText
  0
TEXT
  5
228E
330
1F
100
AcDbEntity
  8
POPIS
100
AcDbText
 10
702.3152342556045
 20
415.1708693910818
 30
0.0
 40
25.0
  1
06
 41
0.85
  7
SIMPLEX7
100
AcDbText
  0
TEXT
  5
228F
330
1F
100
AcDbEntity
  8
POPIS
100
AcDbText
 10
702.3152342556045
 20
381.2855978517959
 30
0.0
 40
25.0
  1
07
 41
0.85
  7
SIMPLEX7
100
AcDbText
  0
TEXT
  5
2290
330
1F
100
AcDbEntity
  8
POPIS
100
AcDbText
 10
756.6589374153468
 20
310.905914821194
 30
0.0
 40
25.0
  1
Parozábrana
 41
0.7
  7
SIMPLEX7
100
AcDbText
  0
TEXT
  5
2291
330
1F
100
AcDbEntity
  8
POPIS
100
AcDbText
 10
756.6589374153468
 20
274.0703748183018
 30
0.0
 40
25.0
  1
Stropní konstrukce
 41
0.7
  7
SIMPLEX7
100
AcDbText
  0
TEXT
  5
2292
330
1F
100
AcDbEntity
  8
POPIS
100
AcDbText
 10
756.6589374153468
 20
344.7911863604799
 30
0.0
 40
25.0
  1
Izolační deska IZOPLAT
 41
0.7
  7
SIMPLEX7
100
AcDbText
  0
TEXT
  5
2293
330
1F
100
AcDbEntity
  8
POPIS
100
AcDbText
 10
756.6589374153468
 20
380.1953475786426
 30
0.0
 40
25.0
  1
Podkladní dřevěná lišta
 41
0.7
  7
SIMPLEX7
100
AcDbText
  0
TEXT
  5
2294
330
1F
100
AcDbEntity
  8
POPIS
100
AcDbText
 10
756.6589374153468
 20
414.1455358233647
 30
0.0
 40
25.0
  1
Vrut Bűhnen 4,2x35 mm
 41
0.7
  7
SIMPLEX7
100
AcDbText
  0
TEXT
  5
2295
330
1F
100
AcDbEntity
  8
POPIS
100
AcDbText
 10
702.3152342556045
 20
595.7681642920247
 30
0.0
 40
25.0
  1
01
 41
0.85
  7
SIMPLEX7
100
AcDbText
  0
TEXT
  5
2296
330
1F
100
AcDbEntity
  8
POPIS
100
AcDbText
 10
702.3152342556045
 20
559.1731526763974
 30
0.0
 40
25.0
  1
02
 41
0.85
  7
SIMPLEX7
100
AcDbText
  0
TEXT
  5
2297
330
1F
100
AcDbEntity
  8
POPIS
100
AcDbText
 10
702.3152342556045
 20
488.4591156468318
 30
0.0
 40
25.0
  1
04
 41
0.85
  7
SIMPLEX7
100
AcDbText
  0
TEXT
  5
2298
330
1F
100
AcDbEntity
  8
POPIS
100
AcDbText
 10
702.3152342556045
 20
525.0541272624591
 30
0.0
 40
25.0
  1
03
 41
0.85
  7
SIMPLEX7
100
AcDbText
  0
TEXT
  5
2299
330
1F
100
AcDbEntity
  8
POPIS
100
AcDbText
 10
756.6589374153468
 20
488.8800310454785
 30
0.0
 40
25.0
  1
Deska CETRIS    tl. 12 mm horní, předvrtaná
 41
0.7
  7
SIMPLEX7
100
AcDbText
  0
TEXT
  5
229A
330
1F
100
AcDbEntity
  8
POPIS
100
AcDbText
 10
756.6589374153468
 20
594.798276524381
 30
0.0
 40
25.0
  1
Dilatační profil Schlűter DILEX-BWB
 41
0.7
  7
SIMPLEX7
100
AcDbText
  0
TEXT
  5
229B
330
1F
100
AcDbEntity
  8
POPIS
100
AcDbText
 10
756.6589374153468
 20
560.8320611758895
 30
0.0
 40
25.0
  1
Nášlapná vrstva
 41
0.7
  7
SIMPLEX7
100
AcDbText
  0
TEXT
  5
229C
330
1F
100
AcDbEntity
  8
POPIS
100
AcDbText
 10
756.6589374153468
 20
524.2370495602622
 30
0.0
 40
25.0
  1
Dilatační spára tl. 15 mm
 41
0.7
  7
SIMPLEX7
100
AcDbText
  0
TEXT
  5
229D
330
1F
100
AcDbEntity
  8
POPIS
100
AcDbText
 10
927.0215528603863
 20
510.5031673637354
 30
0.0
 40
8.399999999999998
  1
R
 41
0.85
  7
SIMPLEX7
100
AcDbText
  0
CIRCLE
  5
229E
330
1F
100
AcDbEntity
  8
POPIS
100
AcDbCircle
 10
930.3528731990141
 20
514.3849093852272
 30
0.0
 40
7.795592338044182
  0
CIRCLE
  5
22A6
330
1F
100
AcDbEntity
  8
POPIS
100
AcDbCircle
 10
1002.784145336971
 20
625.7568238412363
 30
0.0
 40
7.795592338044182
  0
TEXT
  5
22A7
330
1F
100
AcDbEntity
  8
POPIS
100
AcDbText
 10
999.4528249983437
 20
621.8750818197445
 30
0.0
 40
8.399999999999998
  1
R
 41
0.85
  7
SIMPLEX7
100
AcDbText
  0
ENDSEC
  0
SECTION
  2
OBJECTS
  0
DICTIONARY
  5
C
330
0
100
AcDbDictionary
281
     1
  3
ACAD_GROUP
350
D
  3
ACAD_LAYOUT
350
1A
  3
ACAD_MLINESTYLE
350
17
  3
ACAD_PLOTSETTINGS
350
19
  3
ACAD_PLOTSTYLENAME
350
E
  0
DICTIONARY
  5
D
102
{ACAD_REACTORS
330
C
102
}
330
C
100
AcDbDictionary
281
     1
  0
DICTIONARY
  5
1A
102
{ACAD_REACTORS
330
C
102
}
330
C
100
AcDbDictionary
281
     1
  3
Model
350
22
  3
Rozvržení1
350
1E
  3
Rozvržení2
350
26
  0
DICTIONARY
  5
17
102
{ACAD_REACTORS
330
C
102
}
330
C
100
AcDbDictionary
281
     1
  3
Standard
350
18
  0
DICTIONARY
  5
19
102
{ACAD_REACTORS
330
C
102
}
330
C
100
AcDbDictionary
281
     1
  0
ACDBDICTIONARYWDFLT
  5
E
102
{ACAD_REACTORS
330
C
102
}
330
C
100
AcDbDictionary
281
     1
  3
Normal
350
F
100
AcDbDictionaryWithDefault
340
F
  0
LAYOUT
  5
22
102
{ACAD_REACTORS
330
1A
102
}
330
1A
100
AcDbPlotSettings
  1

  2
HP DeskJet 690C
  4

  6

 40
0.0
 41
0.0
 42
0.0
 43
0.0
 44
0.0
 45
0.0
 46
0.0
 47
0.0
 48
0.0
 49
0.0
140
0.0
141
0.0
142
1.0
143
1.0
 70
  1712
 72
     0
 73
     0
 74
     0
  7
monochrome.ctb
 75
     0
147
1.0
148
0.0
149
0.0
100
AcDbLayout
  1
Model
 70
     1
 71
     0
 10
0.0
 20
0.0
 11
12.0
 21
9.0
 12
0.0
 22
0.0
 32
0.0
 14
0.0
 24
0.0
 34
0.0
 15
0.0
 25
0.0
 35
0.0
146
0.0
 13
0.0
 23
0.0
 33
0.0
 16
1.0
 26
0.0
 36
0.0
 17
0.0
 27
1.0
 37
0.0
 76
     0
330
1F
  0
LAYOUT
  5
1E
102
{ACAD_REACTORS
330
1A
102
}
330
1A
100
AcDbPlotSettings
  1

  2
HP DeskJet 690C
  4

  6

 40
0.0
 41
0.0
 42
0.0
 43
0.0
 44
0.0
 45
0.0
 46
0.0
 47
0.0
 48
0.0
 49
0.0
140
0.0
141
0.0
142
1.0
143
1.0
 70
   688
 72
     0
 73
     0
 74
     5
  7
monochrome.ctb
 75
    16
147
1.0
148
0.0
149
0.0
100
AcDbLayout
  1
Rozvržení1
 70
     1
 71
     1
 10
0.0
 20
0.0
 11
420.0
 21
297.0
 12
0.0
 22
0.0
 32
0.0
 14
1.000000000000000E+20
 24
1.000000000000000E+20
 34
1.000000000000000E+20
 15
-1.000000000000000E+20
 25
-1.000000000000000E+20
 35
-1.000000000000000E+20
146
0.0
 13
0.0
 23
0.0
 33
0.0
 16
1.0
 26
0.0
 36
0.0
 17
0.0
 27
1.0
 37
0.0
 76
     0
330
1B
  0
LAYOUT
  5
26
102
{ACAD_REACTORS
330
1A
102
}
330
1A
100
AcDbPlotSettings
  1

  2
HP DeskJet 690C
  4

  6

 40
0.0
 41
0.0
 42
0.0
 43
0.0
 44
0.0
 45
0.0
 46
0.0
 47
0.0
 48
0.0
 49
0.0
140
0.0
141
0.0
142
1.0
143
1.0
 70
   688
 72
     0
 73
     0
 74
     5
  7
monochrome.ctb
 75
    16
147
1.0
148
0.0
149
0.0
100
AcDbLayout
  1
Rozvržení2
 70
     1
 71
     2
 10
0.0
 20
0.0
 11
12.0
 21
9.0
 12
0.0
 22
0.0
 32
0.0
 14
0.0
 24
0.0
 34
0.0
 15
0.0
 25
0.0
 35
0.0
146
0.0
 13
0.0
 23
0.0
 33
0.0
 16
1.0
 26
0.0
 36
0.0
 17
0.0
 27
1.0
 37
0.0
 76
     0
330
23
  0
MLINESTYLE
  5
18
102
{ACAD_REACTORS
330
17
102
}
330
17
100
AcDbMlineStyle
  2
STANDARD
 70
     0
  3

 62
   256
 51
90.0
 52
90.0
 71
     2
 49
0.5
 62
   256
  6
BYLAYER
 49
-0.5
 62
   256
  6
BYLAYER
  0
ACDBPLACEHOLDER
  5
F
102
{ACAD_REACTORS
330
E
102
}
330
E
  0
ENDSEC
  0
EOF
