  0
SECTION
  2
HEADER
  9
$ACADVER
  1
AC1015
  9
$ACADMAINTVER
 70
    10
  9
$DWGCODEPAGE
  3
ANSI_1250
  9
$INSBASE
 10
0.0
 20
0.0
 30
0.0
  9
$EXTMIN
 10
90.88406065797187
 20
44.33785889943965
 30
0.0
  9
$EXTMAX
 10
1414.818242251006
 20
598.9732513691619
 30
0.0
  9
$LIMMIN
 10
0.0
 20
0.0
  9
$LIMMAX
 10
420.0
 20
297.0
  9
$ORTHOMODE
 70
     0
  9
$REGENMODE
 70
     1
  9
$FILLMODE
 70
     1
  9
$QTEXTMODE
 70
     0
  9
$MIRRTEXT
 70
     1
  9
$LTSCALE
 40
1.0
  9
$ATTMODE
 70
     1
  9
$TEXTSIZE
 40
2.5
  9
$TRACEWID
 40
1.0
  9
$TEXTSTYLE
  7
Standard
  9
$CLAYER
  8
0
  9
$CELTYPE
  6
ByLayer
  9
$CECOLOR
 62
   256
  9
$CELTSCALE
 40
1.0
  9
$DISPSILH
 70
     0
  9
$DIMSCALE
 40
1.0
  9
$DIMASZ
 40
2.5
  9
$DIMEXO
 40
0.625
  9
$DIMDLI
 40
3.75
  9
$DIMRND
 40
0.0
  9
$DIMDLE
 40
0.0
  9
$DIMEXE
 40
1.25
  9
$DIMTP
 40
0.0
  9
$DIMTM
 40
0.0
  9
$DIMTXT
 40
2.5
  9
$DIMCEN
 40
2.5
  9
$DIMTSZ
 40
0.0
  9
$DIMTOL
 70
     0
  9
$DIMLIM
 70
     0
  9
$DIMTIH
 70
     0
  9
$DIMTOH
 70
     0
  9
$DIMSE1
 70
     0
  9
$DIMSE2
 70
     0
  9
$DIMTAD
 70
     1
  9
$DIMZIN
 70
     8
  9
$DIMBLK
  1

  9
$DIMASO
 70
     1
  9
$DIMSHO
 70
     1
  9
$DIMPOST
  1

  9
$DIMAPOST
  1

  9
$DIMALT
 70
     0
  9
$DIMALTD
 70
     3
  9
$DIMALTF
 40
0.03937007874016
  9
$DIMLFAC
 40
1.0
  9
$DIMTOFL
 70
     1
  9
$DIMTVP
 40
0.0
  9
$DIMTIX
 70
     0
  9
$DIMSOXD
 70
     0
  9
$DIMSAH
 70
     0
  9
$DIMBLK1
  1

  9
$DIMBLK2
  1

  9
$DIMSTYLE
  2
ISO-25
  9
$DIMCLRD
 70
     0
  9
$DIMCLRE
 70
     0
  9
$DIMCLRT
 70
     0
  9
$DIMTFAC
 40
1.0
  9
$DIMGAP
 40
0.625
  9
$DIMJUST
 70
     0
  9
$DIMSD1
 70
     0
  9
$DIMSD2
 70
     0
  9
$DIMTOLJ
 70
     0
  9
$DIMTZIN
 70
     8
  9
$DIMALTZ
 70
     0
  9
$DIMALTTZ
 70
     0
  9
$DIMUPT
 70
     0
  9
$DIMDEC
 70
     2
  9
$DIMTDEC
 70
     2
  9
$DIMALTU
 70
     2
  9
$DIMALTTD
 70
     3
  9
$DIMTXSTY
  7
Standard
  9
$DIMAUNIT
 70
     0
  9
$DIMADEC
 70
     0
  9
$DIMALTRND
 40
0.0
  9
$DIMAZIN
 70
     0
  9
$DIMDSEP
 70
    44
  9
$DIMATFIT
 70
     3
  9
$DIMFRAC
 70
     0
  9
$DIMLDRBLK
  1

  9
$DIMLUNIT
 70
     2
  9
$DIMLWD
 70
    -2
  9
$DIMLWE
 70
    -2
  9
$DIMTMOVE
 70
     0
  9
$LUNITS
 70
     2
  9
$LUPREC
 70
     4
  9
$SKETCHINC
 40
1.0
  9
$FILLETRAD
 40
10.0
  9
$AUNITS
 70
     0
  9
$AUPREC
 70
     0
  9
$MENU
  1
.
  9
$ELEVATION
 40
0.0
  9
$PELEVATION
 40
0.0
  9
$THICKNESS
 40
0.0
  9
$LIMCHECK
 70
     0
  9
$CHAMFERA
 40
10.0
  9
$CHAMFERB
 40
10.0
  9
$CHAMFERC
 40
20.0
  9
$CHAMFERD
 40
0.0
  9
$SKPOLY
 70
     0
  9
$TDCREATE
 40
2452332.337407754
  9
$TDUCREATE
 40
2452332.295741087
  9
$TDUPDATE
 40
2452653.362859873
  9
$TDUUPDATE
 40
2452653.321193206
  9
$TDINDWG
 40
0.0031395486
  9
$TDUSRTIMER
 40
0.0031395486
  9
$USRTIMER
 70
     1
  9
$ANGBASE
 50
0.0
  9
$ANGDIR
 70
     0
  9
$PDMODE
 70
     0
  9
$PDSIZE
 40
0.0
  9
$PLINEWID
 40
0.0
  9
$SPLFRAME
 70
     0
  9
$SPLINETYPE
 70
     6
  9
$SPLINESEGS
 70
     8
  9
$HANDSEED
  5
70C
  9
$SURFTAB1
 70
     6
  9
$SURFTAB2
 70
     6
  9
$SURFTYPE
 70
     6
  9
$SURFU
 70
     6
  9
$SURFV
 70
     6
  9
$UCSBASE
  2

  9
$UCSNAME
  2

  9
$UCSORG
 10
0.0
 20
0.0
 30
0.0
  9
$UCSXDIR
 10
1.0
 20
0.0
 30
0.0
  9
$UCSYDIR
 10
0.0
 20
1.0
 30
0.0
  9
$UCSORTHOREF
  2

  9
$UCSORTHOVIEW
 70
     0
  9
$UCSORGTOP
 10
0.0
 20
0.0
 30
0.0
  9
$UCSORGBOTTOM
 10
0.0
 20
0.0
 30
0.0
  9
$UCSORGLEFT
 10
0.0
 20
0.0
 30
0.0
  9
$UCSORGRIGHT
 10
0.0
 20
0.0
 30
0.0
  9
$UCSORGFRONT
 10
0.0
 20
0.0
 30
0.0
  9
$UCSORGBACK
 10
0.0
 20
0.0
 30
0.0
  9
$PUCSBASE
  2

  9
$PUCSNAME
  2

  9
$PUCSORG
 10
0.0
 20
0.0
 30
0.0
  9
$PUCSXDIR
 10
1.0
 20
0.0
 30
0.0
  9
$PUCSYDIR
 10
0.0
 20
1.0
 30
0.0
  9
$PUCSORTHOREF
  2

  9
$PUCSORTHOVIEW
 70
     0
  9
$PUCSORGTOP
 10
0.0
 20
0.0
 30
0.0
  9
$PUCSORGBOTTOM
 10
0.0
 20
0.0
 30
0.0
  9
$PUCSORGLEFT
 10
0.0
 20
0.0
 30
0.0
  9
$PUCSORGRIGHT
 10
0.0
 20
0.0
 30
0.0
  9
$PUCSORGFRONT
 10
0.0
 20
0.0
 30
0.0
  9
$PUCSORGBACK
 10
0.0
 20
0.0
 30
0.0
  9
$USERI1
 70
     0
  9
$USERI2
 70
     0
  9
$USERI3
 70
     0
  9
$USERI4
 70
     0
  9
$USERI5
 70
     0
  9
$USERR1
 40
0.0
  9
$USERR2
 40
0.0
  9
$USERR3
 40
0.0
  9
$USERR4
 40
0.0
  9
$USERR5
 40
0.0
  9
$WORLDVIEW
 70
     1
  9
$SHADEDGE
 70
     3
  9
$SHADEDIF
 70
    70
  9
$TILEMODE
 70
     1
  9
$MAXACTVP
 70
    64
  9
$PINSBASE
 10
0.0
 20
0.0
 30
0.0
  9
$PLIMCHECK
 70
     0
  9
$PEXTMIN
 10
1.000000000000000E+20
 20
1.000000000000000E+20
 30
1.000000000000000E+20
  9
$PEXTMAX
 10
-1.000000000000000E+20
 20
-1.000000000000000E+20
 30
-1.000000000000000E+20
  9
$PLIMMIN
 10
0.0
 20
0.0
  9
$PLIMMAX
 10
420.0
 20
297.0
  9
$UNITMODE
 70
     0
  9
$VISRETAIN
 70
     1
  9
$PLINEGEN
 70
     0
  9
$PSLTSCALE
 70
     1
  9
$TREEDEPTH
 70
  3020
  9
$CMLSTYLE
  2
Standard
  9
$CMLJUST
 70
     0
  9
$CMLSCALE
 40
20.0
  9
$PROXYGRAPHICS
 70
     1
  9
$MEASUREMENT
 70
     1
  9
$CELWEIGHT
370
    -1
  9
$ENDCAPS
280
     0
  9
$JOINSTYLE
280
     0
  9
$LWDISPLAY
290
     0
  9
$INSUNITS
 70
     4
  9
$HYPERLINKBASE
  1

  9
$STYLESHEET
  1

  9
$XEDIT
290
     1
  9
$CEPSNTYPE
380
     0
  9
$PSTYLEMODE
290
     1
  9
$FINGERPRINTGUID
  2
{B968C5BB-500F-458D-B9F8-13F88C7D245D}
  9
$VERSIONGUID
  2
{1C62E8C8-DB6A-429C-89F5-CAB574E5EF2C}
  9
$EXTNAMES
290
     1
  9
$PSVPSCALE
 40
0.0
  9
$OLESTARTUP
290
     0
  0
ENDSEC
  0
SECTION
  2
CLASSES
  0
CLASS
  1
ACDBDICTIONARYWDFLT
  2
AcDbDictionaryWithDefault
  3
AutoCAD 2000
 90
        0
280
     0
281
     0
  0
CLASS
  1
ACDBPLACEHOLDER
  2
AcDbPlaceHolder
  3
AutoCAD 2000
 90
        0
280
     0
281
     0
  0
CLASS
  1
LAYOUT
  2
AcDbLayout
  3
AutoCAD 2000
 90
        0
280
     0
281
     0
  0
ENDSEC
  0
SECTION
  2
TABLES
  0
TABLE
  2
VPORT
  5
8
330
0
100
AcDbSymbolTable
 70
     2
  0
VPORT
  5
70B
330
8
100
AcDbSymbolTableRecord
100
AcDbViewportTableRecord
  2
*Active
 70
     0
 10
0.0
 20
0.0
 11
1.0
 21
1.0
 12
744.6460945423019
 22
321.3715618018311
 13
0.0
 23
0.0
 14
10.0
 24
10.0
 15
10.0
 25
10.0
 16
0.0
 26
0.0
 36
1.0
 17
0.0
 27
0.0
 37
0.0
 40
621.1357894026227
 41
2.215130023640662
 42
50.0
 43
0.0
 44
0.0
 50
0.0
 51
0.0
 71
     0
 72
   100
 73
     1
 74
     3
 75
     0
 76
     0
 77
     0
 78
     0
281
     0
 65
     1
110
0.0
120
0.0
130
0.0
111
1.0
121
0.0
131
0.0
112
0.0
122
1.0
132
0.0
 79
     0
146
0.0
  0
ENDTAB
  0
TABLE
  2
LTYPE
  5
5
330
0
100
AcDbSymbolTable
 70
     3
  0
LTYPE
  5
14
330
5
100
AcDbSymbolTableRecord
100
AcDbLinetypeTableRecord
  2
ByBlock
 70
     0
  3

 72
    65
 73
     0
 40
0.0
  0
LTYPE
  5
15
330
5
100
AcDbSymbolTableRecord
100
AcDbLinetypeTableRecord
  2
ByLayer
 70
     0
  3

 72
    65
 73
     0
 40
0.0
  0
LTYPE
  5
16
330
5
100
AcDbSymbolTableRecord
100
AcDbLinetypeTableRecord
  2
Continuous
 70
     0
  3
Solid line
 72
    65
 73
     0
 40
0.0
  0
LTYPE
  5
6F3
330
5
100
AcDbSymbolTableRecord
100
AcDbLinetypeTableRecord
  2
DASHED
 70
     0
  3
Dashed __ __ __ __ __ __ __ __ __ __ __ __ __ _
 72
    65
 73
     2
 40
19.04999999999999
 49
12.7
 74
     0
 49
-6.349999999999999
 74
     0
  0
LTYPE
  5
6F4
330
5
100
AcDbSymbolTableRecord
100
AcDbLinetypeTableRecord
  2
IZOLACE
 70
     0
  3
Izolace SSSSSSSSSSSSSSSSSSSSSSSSSSSSSSSSSSSSSSS
 72
    65
 73
     4
 40
10.16253999999999
 49
0.00254
 74
     0
 49
-2.54
 74
     4
 75
   134
340
6FC
 46
2.54
 50
0.0
 44
-2.54
 45
0.0
 49
-5.08
 74
     4
 75
   134
340
6FC
 46
2.54
 50
180.0
 44
2.54
 45
0.0
 49
-2.54
 74
     0
  0
ENDTAB
  0
TABLE
  2
LAYER
  5
2
330
0
100
AcDbSymbolTable
 70
     7
  0
LAYER
  5
10
330
2
100
AcDbSymbolTableRecord
100
AcDbLayerTableRecord
  2
0
 70
     0
 62
     7
  6
Continuous
370
    -3
390
F
  0
LAYER
  5
6F5
330
2
100
AcDbSymbolTableRecord
100
AcDbLayerTableRecord
  2
POPIS
 70
     0
 62
    30
  6
Continuous
370
    -3
390
F
  0
LAYER
  5
6F6
330
2
100
AcDbSymbolTableRecord
100
AcDbLayerTableRecord
  2
SPOJOVACÍ
 70
     0
 62
   180
  6
Continuous
370
    -3
390
F
  0
LAYER
  5
6F7
330
2
100
AcDbSymbolTableRecord
100
AcDbLayerTableRecord
  2
CETRIS
 70
     0
 62
     1
  6
Continuous
370
    -3
390
F
  0
LAYER
  5
6F8
330
2
100
AcDbSymbolTableRecord
100
AcDbLayerTableRecord
  2
izolace
 70
     0
 62
    33
  6
Continuous
370
    -3
390
F
  0
LAYER
  5
6F9
330
2
100
AcDbSymbolTableRecord
100
AcDbLayerTableRecord
  2
nášlap_vrstvy
 70
     0
 62
    73
  6
Continuous
370
    -3
390
F
  0
LAYER
  5
6FA
330
2
100
AcDbSymbolTableRecord
100
AcDbLayerTableRecord
  2
STAVBA OBRYS
 70
     0
 62
     6
  6
Continuous
370
    -3
390
F
  0
ENDTAB
  0
TABLE
  2
STYLE
  5
3
330
0
100
AcDbSymbolTable
 70
     3
  0
STYLE
  5
11
330
3
100
AcDbSymbolTableRecord
100
AcDbTextStyleTableRecord
  2
Standard
 70
     0
 40
0.0
 41
1.0
 50
0.0
 71
     0
 42
2.5
  3
txt
  4

  0
STYLE
  5
6FB
330
3
100
AcDbSymbolTableRecord
100
AcDbTextStyleTableRecord
  2
SIMPLEX7
 70
     0
 40
0.0
 41
0.85
 50
0.0
 71
     0
 42
102.0
  3

  4

1001
ACAD
1000
Arial CE
1071
    60962
  0
STYLE
  5
6FC
330
3
100
AcDbSymbolTableRecord
100
AcDbTextStyleTableRecord
  2

 70
     1
 40
0.0
 41
1.0
 50
0.0
 71
     0
 42
2.5
  3
ltypeshp.shx
  4

  0
ENDTAB
  0
TABLE
  2
VIEW
  5
6
330
0
100
AcDbSymbolTable
 70
     0
  0
ENDTAB
  0
TABLE
  2
UCS
  5
7
330
0
100
AcDbSymbolTable
 70
     0
  0
ENDTAB
  0
TABLE
  2
APPID
  5
9
330
0
100
AcDbSymbolTable
 70
     1
  0
APPID
  5
12
330
9
100
AcDbSymbolTableRecord
100
AcDbRegAppTableRecord
  2
ACAD
 70
     0
  0
ENDTAB
  0
TABLE
  2
DIMSTYLE
  5
A
330
0
100
AcDbSymbolTable
 70
     1
100
AcDbDimStyleTable
 71
     0
  0
DIMSTYLE
105
27
330
A
100
AcDbSymbolTableRecord
100
AcDbDimStyleTableRecord
  2
ISO-25
 70
     0
 41
2.5
 42
0.625
 43
3.75
 44
1.25
 73
     0
 74
     0
 77
     1
 78
     8
140
2.5
141
2.5
143
0.03937007874016
147
0.625
171
     3
172
     1
271
     2
272
     2
274
     3
278
    44
283
     0
284
     8
340
11
  0
ENDTAB
  0
TABLE
  2
BLOCK_RECORD
  5
1
330
0
100
AcDbSymbolTable
 70
     3
  0
BLOCK_RECORD
  5
1F
330
1
100
AcDbSymbolTableRecord
100
AcDbBlockTableRecord
  2
*Model_Space
340
22
  0
BLOCK_RECORD
  5
1B
330
1
100
AcDbSymbolTableRecord
100
AcDbBlockTableRecord
  2
*Paper_Space
340
1E
  0
BLOCK_RECORD
  5
23
330
1
100
AcDbSymbolTableRecord
100
AcDbBlockTableRecord
  2
*Paper_Space0
340
26
  0
BLOCK_RECORD
  5
408
330
1
100
AcDbSymbolTableRecord
100
AcDbBlockTableRecord
  2
E_PUNKT
340
0
102
{BLKREFS
331
5E2
331
5E1
331
681
331
5DE
331
5DD
331
499
331
498
331
437
331
6E5
331
683
331
682
102
}
  0
BLOCK_RECORD
  5
40C
330
1
100
AcDbSymbolTableRecord
100
AcDbBlockTableRecord
  2
2_1_02
340
0
310
28000000200000002000000001000800000000000004000000000000000000000000000000000000000000004000000080000000FF000000002000004020000080200000FF200000004000004040000080400000FF400000006000004060000080600000FF600000008000004080000080800000FF80000000A0000040A000
310
0080A00000FFA0000000C0000040C0000080C00000FFC0000000FF000040FF000080FF0000FFFF0000000020004000200080002000FF002000002020004020200080202000FF202000004020004040200080402000FF402000006020004060200080602000FF602000008020004080200080802000FF80200000A0200040A0
310
200080A02000FFA0200000C0200040C0200080C02000FFC0200000FF200040FF200080FF2000FFFF2000000040004000400080004000FF004000002040004020400080204000FF204000004040004040400080404000FF404000006040004060400080604000FF604000008040004080400080804000FF80400000A0400040
310
A0400080A04000FFA0400000C0400040C0400080C04000FFC0400000FF400040FF400080FF4000FFFF4000000060004000600080006000FF006000002060004020600080206000FF206000004060004040600080406000FF406000006060004060600080606000FF606000008060004080600080806000FF80600000A06000
310
40A0600080A06000FFA0600000C0600040C0600080C06000FFC0600000FF600040FF600080FF6000FFFF6000000080004000800080008000FF008000002080004020800080208000FF208000004080004040800080408000FF408000006080004060800080608000FF608000008080004080800080808000FF80800000A080
310
0040A0800080A08000FFA0800000C0800040C0800080C08000FFC0800000FF800040FF800080FF8000FFFF80000000A0004000A0008000A000FF00A0000020A0004020A0008020A000FF20A0000040A0004040A0008040A000FF40A0000060A0004060A0008060A000FF60A0000080A0004080A0008080A000FF80A00000A0
310
A00040A0A00080A0A000FFA0A00000C0A00040C0A00080C0A000FFC0A00000FFA00040FFA00080FFA000FFFFA0000000C0004000C0008000C000FF00C0000020C0004020C0008020C000FF20C0000040C0004040C0008040C000FF40C0000060C0004060C0008060C000FF60C0000080C0004080C0008080C000FF80C00000
310
A0C00040A0C00080A0C000FFA0C00000C0C00040C0C00080C0C000FFC0C00000FFC00040FFC00080FFC000FFFFC0000000FF004000FF008000FF00FF00FF000020FF004020FF008020FF00FF20FF000040FF004040FF008040FF00FF40FF000060FF004060FF008060FF00FF60FF000080FF004080FF008080FF00FF80FF00
310
00A0FF0040A0FF0080A0FF00FFA0FF0000C0FF0040C0FF0080C0FF00FFC0FF0000FFFF0040FFFF0080FFFF00FFFFFF00FFFFFFFFFFFFFFFFFFFFFFFFFFFFFFFFFFFFFFFFFFFFFFFFFFFFFFFFFFFFFFFFFFFFFFFFFFFFFFFFFFFFFFFFFFFFFFFFFFFFFFFFFFFFFFFFFFFFFFFFFFFFFFFFFFFFFFFFFFFFFFFFFFFFFFFFFFFFFF
310
FFFFFFFFFFFFFFFFFFFFFFFFFFFFFFFFFFFFFFFFFFFFFFFFFFFFFFFFFFFFFFFFFFFFFFFFFFFFFFFFFFFFFFFFFFFFFFFFFFFFFFFFFFFFFFFFFFFFFFFFFFFFFFFFFFFFFFFFFFFFFFFFFFFFFFFFFFFFFFFFFFFFFFFFFFFFFFFFFFFFFFFFFFFFFFFFFFFFFFFFFFFFFFFFFFFFFFFFFFFFFFFFFFFFFFFFFFFFFFFFFFFFFFFFFFFFFF
310
FFFFFFFFFFFFFFFFFFFFFFFFFFFFFFFFFFFFFFFFFFFFFFFFFFFFFFFFFFFFFFFFFFFFFFFFFFFFFFFFFFFFFFFFFFFFFFFFFFFFFFFFFFFFFFFFFFFFFFFFFFFFFFFFFFFFFFFFFFFFFFFFFFFFFFFFFFFFFFFFFFFFFFFFE3E3E3E3E3E3E3E3E3E3E3E3E3E3E3E3FFFFFFFFFFFFFFFFFFFFFFFFFFFFFFFFE3E3E3E3E3E3E3E3E3E3E3
310
E3E3E3E3E3FFFFFFFFFFFFFFFFFFFFFFFFFFFFFFFFE3E3E3E3E3E3E3E3E3E3E3E3E3E3E3E3FFFFFFFFFFFFFFFFFFFFFFFFFFFFFFFFADADADADADADE3E3E3E3E3ADADECEC23FFFFFFFFFFFFFFFFFFFFFFFFFFFFFFFFECECEC23ECE0E3E3E3ECE3ECE0E0E023FFFFFFFFFFFFFFFFFFFFFFFFFFFFFFFFECECECFFECFFE3E3E3E3
310
ECFFFFFFFFFFFFFFFFFFFFFFFFFFFFFFFFFFFFFFFFFFECECECFFECFFE3E3FFECECECFFFFFFFFFFFFFFFFFFFFFFECECFFFFFFFFFFFFFFFFFFFFFFFFFFE3E3FFE3FFFFFFFFFFFFFFFFFFFFFFFFFFECECFFFFFFFFFFFFFFFFFFFFFFFFFFE3E3FFE3FFFFFFFFFFFFFFFFFFFFFFFFFFFFFFFFFFFFFFFFFFFFFFFFFFFFFFFFE3E3FF
310
E3FFFFFFFFFFFFFFFFFFFFFFFFFFFFFFFFFFFFFFFFFFFFFFFFFFFFFFFFFFFFFFE3FFFFFFFFFFFFFFFFFFFFFFFFFFFFFFFFFFFFFFFFFFFFFFFFFFFFFFFFFFFFFFFFFFFFFFFFFFFFFFFFFFFFFFFFFFFFFFFFFFFFFFFFFFFFFFFFFFFFFFFFFFFFFFFFFFFFFFFFFFFFFFFFFFFFFFFFFFFFFFFFFFFFFFFFFFFFFFFFFFFFFFFFFFFF
310
FFFFFFFFFFFFFFFFFFFFFFFFFFFFFFFFFFFFFFFFFFFFFFFFFFFFFFFFFFFFFFFFFFFFFFFFFFFFFFFFFFFFFFFFFFFFFFFFFFFFFFFFFFFFFFFFFFFFFFFFFFFFFFFFFFFFFFFFFFFFFFFFFFFFFFFFFFFFFFFFFFFFFFFFFFFFFFFFFFFFFFFFFFFFFFFFFFFFFFFFFFFFFFFFFFFFFFFFFFFFFFFFFFFFFFFFFFFFFFFFFFFFFFFFFFFFFF
310
FFFFFFFFFFFFFFFFFFFFFFFFFFFFFFFFFFFFFFFFFFFFFFFFFFFFFFFFFFFFFFFFFFFFFFFFFFFFFFFFFFFFFFFFFFFFFFFFFFFFFFFFFFFFFFFFFFFFFFFFFFFFFFFFFFFFFFFFFFFFFFFFFFFFFFFFFFFFFFFFFFFFFFFFFFFFFFFFFFFFFFFFFFFFFFFFFFFFFFFFFFFFFFFFFFFFFFFFFFFFFFFFFFFFFFFFFFFFFFFFFFFFFFFFFFFFFF
310
FFFFFFFFFFFFFFFFFFFFFFFFFFFFFFFFFFFFFFFFFFFFFFFFFFFFFFFFFFFFFFFFFFFFFFFFFFFFFFFFFFFFFFFFFFFFFFFFFFFFFFFFFFFFFFFF
102
{BLKREFS
331
704
102
}
1001
ACAD
1000
DesignCenter Data
1002
{
1070
     1
1070
     4
1002
}
  0
ENDTAB
  0
ENDSEC
  0
SECTION
  2
BLOCKS
  0
BLOCK
  5
20
330
1F
100
AcDbEntity
  8
0
100
AcDbBlockBegin
  2
*Model_Space
 70
     0
 10
0.0
 20
0.0
 30
0.0
  3
*Model_Space
  1

  0
ENDBLK
  5
21
330
1F
100
AcDbEntity
  8
0
100
AcDbBlockEnd
  0
BLOCK
  5
1C
330
1B
100
AcDbEntity
 67
     1
  8
0
100
AcDbBlockBegin
  2
*Paper_Space
 70
     0
 10
0.0
 20
0.0
 30
0.0
  3
*Paper_Space
  1

  0
ENDBLK
  5
1D
330
1B
100
AcDbEntity
 67
     1
  8
0
100
AcDbBlockEnd
  0
BLOCK
  5
24
330
23
100
AcDbEntity
  8
0
100
AcDbBlockBegin
  2
*Paper_Space0
 70
     0
 10
0.0
 20
0.0
 30
0.0
  3
*Paper_Space0
  1

  0
ENDBLK
  5
25
330
23
100
AcDbEntity
  8
0
100
AcDbBlockEnd
  0
BLOCK
  5
40A
330
408
100
AcDbEntity
  8
0
100
AcDbBlockBegin
  2
E_PUNKT
 70
     0
 10
0.0
 20
0.0
 30
0.0
  3
E_PUNKT
  1

  0
LWPOLYLINE
  5
409
330
408
100
AcDbEntity
  8
POPIS
100
AcDbPolyline
 90
        2
 70
     1
 43
2.5
 10
1.27761037562675
 20
0.0290683308725193
 42
-1.0
 10
-1.222389624373249
 20
0.0290683308725193
 42
-1.0
  0
ENDBLK
  5
40B
330
408
100
AcDbEntity
  8
0
100
AcDbBlockEnd
  0
BLOCK
  5
6F1
330
40C
100
AcDbEntity
  8
0
100
AcDbBlockBegin
  2
2_1_02
 70
     0
 10
0.0
 20
0.0
 30
0.0
  3
2_1_02
  1

  0
TEXT
  5
40D
330
40C
100
AcDbEntity
  8
POPIS
100
AcDbText
 10
1065.189530663932
 20
4079.880683381332
 30
0.0
 40
25.0
  1
Parozábrana
 41
0.7
  7
SIMPLEX7
100
AcDbText
  0
TEXT
  5
40E
330
40C
100
AcDbEntity
  8
POPIS
100
AcDbText
 10
1010.84582750419
 20
4079.449099317932
 30
0.0
 40
25.0
  1
10
 41
0.85
  7
SIMPLEX7
100
AcDbText
  0
LINE
  5
40F
330
40C
100
AcDbEntity
  8
POPIS
100
AcDbLine
 10
577.6094008754642
 20
4083.081411921912
 30
0.0
 11
577.6094008754642
 21
4145.886784937586
 31
0.0
  0
LINE
  5
410
330
40C
100
AcDbEntity
  8
POPIS
100
AcDbLine
 10
642.5889197854102
 20
4083.081411921912
 30
0.0
 11
642.5889197854102
 21
4145.886784937586
 31
0.0
  0
LINE
  5
411
330
40C
100
AcDbEntity
  8
POPIS
100
AcDbLine
 10
517.927117581801
 20
4083.081411921912
 30
0.0
 11
557.6708044692622
 21
4145.886784937586
 31
0.0
  0
LINE
  5
412
330
40C
100
AcDbEntity
  8
POPIS
100
AcDbLine
 10
722.104007645912
 20
4083.081411921912
 30
0.0
 11
722.104007645912
 21
4145.886784937586
 31
0.0
  0
LINE
  5
413
330
40C
100
AcDbEntity
  8
POPIS
100
AcDbLine
 10
776.7448361689583
 20
4083.081411921912
 30
0.0
 11
776.7448361689583
 21
4127.697006502292
 31
0.0
  0
LINE
  5
414
330
40C
100
AcDbEntity
  8
POPIS
100
AcDbLine
 10
833.8141407493038
 20
4083.081411921912
 30
0.0
 11
833.8141407493038
 21
4114.484098429748
 31
0.0
  0
HATCH
  5
415
330
40C
100
AcDbEntity
  8
STAVBA OBRYS
100
AcDbHatch
 10
0.0
 20
0.0
 30
0.0
210
0.0
220
0.0
230
1.0
  2
ANSI35
 70
     0
 71
     0
 91
        7
 92
        7
 72
     0
 73
     1
 93
        4
 10
892.8461277963341
 20
4127.697006502292
 10
234.9004652852617
 20
4127.697006502292
 10
234.9004652852617
 20
4007.874078401395
 10
892.8461277963341
 20
4007.874078401395
 97
        0
 92
       24
 93
        4
 72
     1
 10
811.0293795888299
 20
4044.173994065975
 11
851.6476435724596
 21
4044.173994065975
 72
     1
 10
851.6476435724596
 20
4044.173994065975
 11
851.6476435724596
 21
4081.827472919999
 72
     1
 10
851.6476435724596
 20
4081.827472919999
 11
811.0293795888299
 21
4081.827472919999
 72
     1
 10
811.0293795888299
 20
4081.827472919999
 11
811.0293795888299
 21
4044.173994065975
 97
        0
 92
       24
 93
        4
 72
     1
 10
753.8534924709655
 20
4043.64108137839
 11
794.6849215296333
 21
4043.64108137839
 72
     1
 10
794.6849215296333
 20
4043.64108137839
 11
794.6849215296333
 21
4081.934055457516
 72
     1
 10
794.6849215296333
 20
4081.934055457516
 11
753.8534924709655
 21
4081.934055457516
 72
     1
 10
753.8534924709655
 20
4081.934055457516
 11
753.8534924709655
 21
4043.64108137839
 97
        0
 92
       24
 93
        4
 72
     1
 10
699.2126639479192
 20
4043.64108137839
 11
740.0440930065869
 21
4043.64108137839
 72
     1
 10
740.0440930065869
 20
4043.64108137839
 11
740.0440930065869
 21
4081.934055457516
 72
     1
 10
740.0440930065869
 20
4081.934055457516
 11
699.2126639479192
 21
4081.934055457516
 72
     1
 10
699.2126639479192
 20
4081.934055457516
 11
699.2126639479192
 21
4043.64108137839
 97
        0
 92
       24
 93
        4
 72
     1
 10
495.1423564213272
 20
4044.173994065975
 11
535.7606204049569
 21
4044.173994065975
 72
     1
 10
535.7606204049569
 20
4044.173994065975
 11
535.7606204049569
 21
4081.827472919999
 72
     1
 10
535.7606204049569
 20
4081.827472919999
 11
495.1423564213272
 21
4081.827472919999
 72
     1
 10
495.1423564213272
 20
4081.827472919999
 11
495.1423564213272
 21
4044.173994065975
 97
        0
 92
       24
 93
        4
 72
     1
 10
619.6975760874173
 20
4043.64108137839
 11
660.529005146085
 21
4043.64108137839
 72
     1
 10
660.529005146085
 20
4043.64108137839
 11
660.529005146085
 21
4081.934055457516
 72
     1
 10
660.529005146085
 20
4081.934055457516
 11
619.6975760874173
 21
4081.934055457516
 72
     1
 10
619.6975760874173
 20
4081.934055457516
 11
619.6975760874173
 21
4043.64108137839
 97
        0
 92
       24
 93
        4
 72
     1
 10
554.7137938759714
 20
4043.619764870886
 11
595.5537495376391
 21
4043.619764870886
 72
     1
 10
595.5537495376391
 20
4043.619764870886
 11
595.5537495376391
 21
4081.938318759017
 72
     1
 10
595.5537495376391
 20
4081.938318759017
 11
554.7137938759714
 21
4081.938318759017
 72
     1
 10
554.7137938759714
 20
4081.938318759017
 11
554.7137938759714
 21
4043.619764870886
 97
        0
 75
     0
 76
     1
 52
0.0
 41
3.0
 77
     0
 78
     2
 53
45.0
 43
-27275.48032329535
 44
8015.287133506234
 45
-13.47038418160372
 46
13.47038418160373
 79
     0
 53
45.0
 43
-27262.00993329535
 44
8015.287133506234
 45
-13.47038418160372
 46
13.47038418160373
 79
     4
 49
23.8125
 49
-4.762499999999999
 49
0.0
 49
-4.762499999999999
 47
1.485722625104592
 98
        1
 10
418.4845236386844
 20
4076.836154885249
  0
LINE
  5
416
330
40C
100
AcDbEntity
  8
STAVBA OBRYS
100
AcDbLine
 10
234.9004652852653
 20
4007.874078401395
 30
0.0
 11
892.8461277963341
 21
4007.874078401395
 31
0.0
  0
LINE
  5
417
330
40C
100
AcDbEntity
  8
STAVBA OBRYS
100
AcDbLine
 10
234.9004652852617
 20
3997.874078401395
 30
0.0
 11
892.8461277963341
 21
3997.874078401395
 31
0.0
  0
HATCH
  5
418
330
40C
100
AcDbEntity
  8
STAVBA OBRYS
100
AcDbHatch
 10
0.0
 20
0.0
 30
0.0
210
0.0
220
0.0
230
1.0
  2
AR-CONC
 70
     0
 71
     0
 91
        1
 92
        7
 72
     0
 73
     1
 93
        4
 10
892.8461277963341
 20
4007.874078401395
 10
237.805606552536
 20
4007.874078401395
 10
234.9004652852617
 20
3997.874078401395
 10
892.8461277963377
 20
3997.874078401395
 97
        0
 75
     0
 76
     1
 52
90.0
 41
0.1
 77
     0
 78
    13
 53
140.0
 43
-27275.48032329535
 44
8015.287133506234
 45
1.593908553890309
 46
18.2184668996004
 79
     2
 49
1.905
 49
-20.955
 53
85.00000000000001
 43
-27275.48032329535
 44
8015.287133506234
 45
-19.10566428821799
 46
-3.524282597566697
 79
     2
 49
1.524
 49
-16.764
 53
190.4509999999999
 43
-27275.34749829534
 44
8016.805333506233
 45
-17.51166878202918
 46
14.69425016659592
 79
     2
 49
1.619
 49
-17.809
 53
136.1841999999999
 43
-27280.56032329535
 44
8015.287133506234
 45
4.204232793272717
 46
27.10790408921299
 79
     2
 49
2.857499999999999
 49
-31.4325
 53
186.6355999999999
 43
-27280.20997329535
 44
8017.546123506233
 45
-24.74255558900492
 46
23.74042344662371
 79
     2
 49
2.4285
 49
-26.7135
 53
81.18400000000004
 43
-27280.56032329535
 44
8015.287133506234
 45
-24.74251178605976
 46
23.74046058139339
 79
     2
 49
2.286
 49
-25.146
 53
111.0
 43
-27279.29032329535
 44
8017.827133506234
 45
10.22655185167625
 46
15.16148798353833
 79
     2
 49
1.905
 49
-20.955
 53
56.00000000000004
 43
-27279.29032329535
 44
8017.827133506234
 45
-18.41879661223192
 46
6.180202834764708
 79
     2
 49
1.524
 49
-16.764
 53
161.4514
 43
-27278.43811329535
 44
8019.090583506233
 45
-8.192285771605742
 46
21.34164907701245
 79
     2
 49
1.618999999999999
 49
-17.80899999999999
 53
127.5
 43
-27275.48032329535
 44
8015.287133506234
 45
-8.455503887315311
 46
0.3088603250591822
 79
     6
 49
0.0
 49
-16.5608
 49
0.0
 49
-17.018
 49
0.0
 49
-16.8275
 53
97.5
 43
-27275.48032329535
 44
8015.287133506234
 45
-10.01805748181195
 46
6.681966251030575
 79
     6
 49
0.0
 49
-9.702799999999999
 49
0.0
 49
-16.1798
 49
0.0
 49
-6.4135
 53
57.5
 43
-27275.48032329535
 44
8009.622933506234
 45
0.5728743992673473
 46
13.55905951668713
 79
     6
 49
0.0
 49
-6.35
 49
0.0
 49
-19.812
 49
0.0
 49
-26.289
 53
47.5
 43
-27275.48032329535
 44
8007.082933506234
 45
-2.5426491033333
 46
14.8129181386018
 79
     6
 49
0.0
 49
-8.255
 49
0.0
 49
-13.1572
 49
0.0
 49
-18.669
 47
1.084445008349079
 98
        1
 10
766.8760137148582
 20
4003.381630552224
  0
TEXT
  5
419
330
40C
100
AcDbEntity
  8
POPIS
100
AcDbText
 10
1065.189530663932
 20
4045.545800656053
 30
0.0
 40
25.0
  1
Dilatační spára tl. 15 mm
 41
0.7
  7
SIMPLEX7
100
AcDbText
  0
TEXT
  5
41A
330
40C
100
AcDbEntity
  8
POPIS
100
AcDbText
 10
1065.189530663932
 20
4012.230761531072
 30
0.0
 40
25.0
  1
Stropní konstrukce
 41
0.7
  7
SIMPLEX7
100
AcDbText
  0
TEXT
  5
41B
330
40C
100
AcDbEntity
  8
POPIS
100
AcDbText
 10
760.2356548174883
 20
4050.449573874979
 30
0.0
 40
25.0
  1
10
 41
0.85
  7
SIMPLEX7
100
AcDbText
  0
TEXT
  5
41C
330
40C
100
AcDbEntity
  8
POPIS
100
AcDbText
 10
626.0797384339402
 20
4050.449573874979
 30
0.0
 40
25.0
  1
08
 41
0.85
  7
SIMPLEX7
100
AcDbText
  0
TEXT
  5
41D
330
40C
100
AcDbEntity
  8
POPIS
100
AcDbText
 10
561.1002195239942
 20
4050.449573874979
 30
0.0
 40
25.0
  1
03
 41
0.85
  7
SIMPLEX7
100
AcDbText
  0
TEXT
  5
41E
330
40C
100
AcDbEntity
  8
POPIS
100
AcDbText
 10
501.417936230331
 20
4050.449573874979
 30
0.0
 40
25.0
  1
11
 41
0.85
  7
SIMPLEX7
100
AcDbText
  0
TEXT
  5
41F
330
40C
100
AcDbEntity
  8
POPIS
100
AcDbText
 10
705.5948262944419
 20
4050.449573874979
 30
0.0
 40
25.0
  1
09
 41
0.85
  7
SIMPLEX7
100
AcDbText
  0
TEXT
  5
420
330
40C
100
AcDbEntity
  8
POPIS
100
AcDbText
 10
817.3049593978339
 20
4050.449573874979
 30
0.0
 40
25.0
  1
12
 41
0.85
  7
SIMPLEX7
100
AcDbText
  0
TEXT
  5
421
330
40C
100
AcDbEntity
  8
POPIS
100
AcDbText
 10
1010.84582750419
 20
4045.114216592653
 30
0.0
 40
25.0
  1
11
 41
0.85
  7
SIMPLEX7
100
AcDbText
  0
TEXT
  5
422
330
40C
100
AcDbEntity
  8
POPIS
100
AcDbText
 10
1010.84582750419
 20
4011.799177467673
 30
0.0
 40
25.0
  1
12
 41
0.85
  7
SIMPLEX7
100
AcDbText
  0
LINE
  5
423
330
40C
100
AcDbEntity
  8
CETRIS
100
AcDbLine
 10
234.9004652852617
 20
4174.697006502291
 30
0.0
 11
550.3305084287075
 21
4174.697006502293
 31
0.0
  0
LINE
  5
424
330
40C
100
AcDbEntity
  8
CETRIS
100
AcDbLine
 10
234.9004652852617
 20
4150.697006502293
 30
0.0
 11
550.3305084287075
 21
4150.697006502293
 31
0.0
  0
LINE
  5
425
330
40C
100
AcDbEntity
  8
STAVBA OBRYS
  6
IZOLACE
 48
0.95
100
AcDbLine
 10
234.9004652852617
 20
4140.697006502292
 30
0.0
 11
490.3305084287075
 21
4140.697006502292
 31
0.0
  0
LINE
  5
426
330
40C
100
AcDbEntity
  8
CETRIS
100
AcDbLine
 10
234.9004652852617
 20
4162.697006502292
 30
0.0
 11
550.3305084287075
 21
4162.697006502292
 31
0.0
  0
LWPOLYLINE
  5
427
330
40C
100
AcDbEntity
  8
nášlap_vrstvy
100
AcDbPolyline
 90
        2
 70
     0
 43
0.0
 10
234.9004652852617
 20
4177.239920428152
 10
565.3305084287075
 20
4177.239920428151
  0
LWPOLYLINE
  5
428
330
40C
100
AcDbEntity
  8
izolace
100
AcDbPolyline
 90
        4
 70
     0
 43
0.0
 10
234.9004652852617
 20
4130.697006502292
 10
892.8461277963306
 20
4130.697006502292
 10
892.8461277963306
 20
4127.697006502292
 10
234.9004652852617
 20
4127.697006502292
  0
LWPOLYLINE
  5
429
330
40C
100
AcDbEntity
  8
nášlap_vrstvy
100
AcDbPolyline
 90
        2
 70
     0
 43
0.0
 10
565.3305084287075
 20
4181.578409454099
 10
234.9004652852617
 20
4181.578409454099
  0
HATCH
  5
42A
330
40C
100
AcDbEntity
  8
CETRIS
100
AcDbHatch
 10
0.0
 20
0.0
 30
0.0
210
0.0
220
0.0
230
1.0
  2
ANSI31
 70
     0
 71
     0
 91
        6
 92
        7
 72
     0
 73
     1
 93
       15
 10
892.8461277963341
 20
4174.697006502293
 10
632.7359143389129
 20
4174.697006502293
 10
632.7359143389129
 20
4173.521078261092
 10
631.4132229570295
 20
4172.791820437349
 10
630.3248056546889
 20
4171.744423887737
 10
629.5444997849571
 20
4170.451814395001
 10
629.1251765379364
 20
4169.000591325295
 10
629.0604549056532
 20
4168.229401176621
 10
629.0604549056532
 20
4164.262141755322
 10
629.7195216621129
 20
4164.483750678491
 10
630.089620009914
 20
4164.112740760638
 10
629.7195216621129
 20
4163.899432847311
 10
629.0604549056569
 20
4163.677823924097
 10
629.0604549056532
 20
4162.697006502291
 10
892.8461277963341
 20
4162.697006502292
 97
        0
 92
        7
 72
     0
 73
     1
 93
       13
 10
626.4150721461755
 20
4168.229401176603
 10
626.1926485131096
 20
4169.722556570988
 10
625.5919223809449
 20
4171.108146436483
 10
624.6530029323602
 20
4172.291367255737
 10
623.4406117996457
 20
4173.191089095968
 10
622.7396127171904
 20
4173.521078261095
 10
622.7396127171868
 20
4174.697006502293
 10
610.3305084287074
 20
4174.697006502293
 10
610.3305084287038
 20
4162.697006502292
 10
625.625713062216
 20
4162.697006502291
 10
625.3859070461857
 20
4162.936812519705
 10
625.7560053897049
 20
4163.151032005488
 10
626.4150721461718
 20
4163.372640928657
 97
        0
 92
        7
 72
     0
 73
     1
 93
       13
 10
550.3305084287075
 20
4174.697006502293
 10
537.9214041402282
 20
4174.697006502293
 10
537.9214041402282
 20
4173.521078261097
 10
537.2204050577801
 20
4173.191089095975
 10
536.0080139250511
 20
4172.291367255734
 10
535.0690944764846
 20
4171.108146436494
 10
534.4683683443198
 20
4169.72255657101
 10
534.2459447112431
 20
4168.22940117664
 10
534.2459447112395
 20
4163.372640928659
 10
534.9050114677064
 20
4163.151032005488
 10
535.2751098112256
 20
4162.936812519705
 10
535.0353037952025
 20
4162.697006502292
 10
550.3305084287111
 20
4162.697006502292
 97
        0
 92
        7
 72
     0
 73
     1
 93
       24
 10
531.5358403194676
 20
4169.000591325299
 10
531.1165170724615
 20
4170.451814394988
 10
530.3362112027442
 20
4171.744423887725
 10
529.2477939003819
 20
4172.79182043735
 10
527.925102518502
 20
4173.521078261095
 10
527.925102518502
 20
4174.697006502293
 10
407.1428956826402
 20
4174.697006502293
 10
407.1428956826402
 20
4173.521078261095
 10
406.441896600203
 20
4173.191089095968
 10
405.2295054674813
 20
4172.29136725573
 10
404.2905860188892
 20
4171.108146436492
 10
403.6898598867281
 20
4169.722556570997
 10
403.4674362536624
 20
4168.229401176644
 10
403.4674362536624
 20
4163.372640928659
 10
404.1265030101111
 20
4163.151032005493
 10
404.4966013536412
 20
4162.936812519705
 10
404.2567953376182
 20
4162.697006502291
 10
531.6005619517544
 20
4162.697006502292
 10
531.6005619517653
 20
4163.677823924095
 10
530.941495195302
 20
4163.899432847312
 10
530.571396847501
 20
4164.112740760638
 10
530.9414951953057
 20
4164.483750678491
 10
531.6005619517617
 20
4164.262141755324
 10
531.6005619517617
 20
4168.22940117664
 97
        0
 92
        7
 72
     0
 73
     1
 93
       15
 10
400.3380086148808
 20
4170.451814395002
 10
399.5577027451525
 20
4171.744423887718
 10
398.4692854428084
 20
4172.791820437345
 10
397.1465940609176
 20
4173.521078261098
 10
397.1465940609176
 20
4174.697006502291
 10
353.0596098305522
 20
4174.697006502293
 10
353.0596098305522
 20
4162.697006502292
 10
400.8220534941773
 20
4162.697006502292
 10
400.8220534941736
 20
4163.677823924096
 10
400.1629867377249
 20
4163.899432847311
 10
399.7928883899165
 20
4164.112740760638
 10
400.1629867377176
 20
4164.483750678491
 10
400.8220534941773
 20
4164.262141755323
 10
400.8220534941773
 20
4168.22940117666
 10
400.7573318618941
 20
4169.000591325283
 97
        0
 92
        7
 72
     1
 73
     1
 93
        9
 10
353.0596098305558
 20
4174.697006502291
 42
0.0
 10
306.1772950163884
 20
4174.697006502291
 42
0.0
 10
306.1772950163884
 20
4168.892821172221
 42
-1.0
 10
306.1772950163884
 20
4166.392821172221
 42
-1.0
 10
306.1772950163884
 20
4168.892821172221
 42
0.0
 10
306.1772950163921
 20
4174.697006502293
 42
0.0
 10
234.9004652852653
 20
4174.697006502291
 42
0.0
 10
234.9004652852653
 20
4162.697006502292
 42
0.0
 10
353.0596098305522
 20
4162.697006502292
 42
0.0
 97
        0
 75
     0
 76
     1
 52
0.0
 41
1.0
 77
     0
 78
     1
 53
45.0
 43
-27275.48032329535
 44
8015.287133506234
 45
-2.245064030267287
 46
2.245064030267288
 79
     0
 47
0.6180772498725088
 98
        6
 10
738.8896461586972
 20
4168.994913905555
 10
615.8167379680507
 20
4166.522600303275
 10
542.838821415591
 20
4167.758757104414
 10
524.2851320980425
 20
4168.376828558957
 10
388.8430898801069
 20
4169.612985360095
 10
329.4712184129874
 20
4167.758757104414
  0
HATCH
  5
42B
330
40C
100
AcDbEntity
  8
CETRIS
100
AcDbHatch
 10
0.0
 20
0.0
 30
0.0
210
0.0
220
0.0
230
1.0
  2
ANSI31
 70
     0
 71
     0
 91
        2
 92
        7
 72
     1
 73
     1
 93
       29
 10
400.8220534941736
 20
4160.619650504376
 42
0.0
 10
400.1629867377285
 20
4160.841107848265
 42
0.0
 10
399.7928883899092
 20
4161.055327334056
 42
0.0
 10
400.1629867377213
 20
4161.42542567972
 42
0.0
 10
400.8220534941773
 20
4161.203968335784
 42
0.0
 10
400.8220534941773
 20
4162.697006502292
 42
0.0
 10
353.0596098305522
 20
4162.697006502292
 42
0.0
 10
353.0596098305558
 20
4157.2517090666
 42
-1.0
 10
353.0596098305558
 20
4154.751709066601
 42
-1.0
 10
353.0596098305558
 20
4157.2517090666
 42
0.0
 10
353.0596098305558
 20
4162.697006502292
 42
0.0
 10
234.9004652852617
 20
4162.697006502292
 42
0.0
 10
234.9004652852617
 20
4150.697006502293
 42
0.0
 10
400.8220534941773
 20
4150.697006502293
 42
0.0
 10
400.8220534941773
 20
4151.447258645028
 42
0.0
 10
400.1629867377103
 20
4151.668867568243
 42
0.0
 10
399.7928883899092
 20
4151.882175481571
 42
0.0
 10
400.162986737714
 20
4152.253185399694
 42
0.0
 10
400.8220534941809
 20
4152.031576476479
 42
0.0
 10
400.82205349417
 20
4154.504672071666
 42
0.0
 10
400.162986737714
 20
4154.726280994834
 42
0.0
 10
399.7928883899056
 20
4154.940500480613
 42
0.0
 10
400.162986737714
 20
4155.310598826278
 42
0.0
 10
400.8220534941773
 20
4155.088989903062
 42
0.0
 10
400.8220534941773
 20
4157.562085498248
 42
0.0
 10
400.1629867377322
 20
4157.78369442141
 42
0.0
 10
399.7928883899092
 20
4157.997913907202
 42
0.0
 10
400.162986737714
 20
4158.368012252867
 42
0.0
 10
400.8220534941773
 20
4158.146403329697
 42
0.0
 97
        0
 92
        7
 72
     0
 73
     1
 93
       23
 10
550.3305084287075
 20
4162.697006502291
 10
535.0353037951989
 20
4162.697006502291
 10
534.9050114676991
 20
4162.566714174039
 10
534.5175210141186
 20
4162.697006502291
 10
534.2459447112395
 20
4162.697006502291
 10
534.2459447112467
 20
4160.315075922574
 10
534.9050114676991
 20
4160.093618578639
 10
535.2751098112329
 20
4159.87939909285
 10
534.9050114677027
 20
4159.509300747457
 10
534.2459447112467
 20
4159.730758091349
 10
534.2459447112504
 20
4157.256902503028
 10
534.90501146771
 20
4157.035293579857
 10
535.2751098112292
 20
4156.82198566627
 10
534.9050114677027
 20
4156.450975748416
 10
534.2459447112431
 20
4156.672584671585
 10
534.2459447112395
 20
4154.199489076221
 10
534.9050114677064
 20
4153.977880153008
 10
535.2751098112256
 20
4153.764572239679
 10
534.9050114676991
 20
4153.393562321826
 10
534.2459447112431
 20
4153.615171244996
 10
534.2459447112431
 20
4150.963538515634
 10
535.3120727646072
 20
4150.697006502293
 10
550.3305084287075
 20
4150.697006502292
 97
        0
 75
     0
 76
     1
 52
90.0
 41
1.0
 77
     0
 78
     1
 53
135.0
 43
-27275.48032329535
 44
8015.287133506234
 45
-2.245064030267288
 46
-2.245064030267287
 79
     0
 47
0.4519862576681119
 98
        3
 10
495.5820850848375
 20
4156.73557753278
 10
368.043692100089
 20
4159.447501313476
 10
548.0447084046189
 20
4158.091539423129
  0
HATCH
  5
42C
330
40C
100
AcDbEntity
  8
CETRIS
100
AcDbHatch
 10
0.0
 20
0.0
 30
0.0
210
0.0
220
0.0
230
1.0
  2
ANSI31
 70
     0
 71
     0
 91
        1
 92
        7
 72
     0
 73
     1
 93
       44
 10
531.6005619517617
 20
4157.562085498248
 10
530.9414951953057
 20
4157.783694421416
 10
530.5713968474901
 20
4157.997913907203
 10
530.941495195302
 20
4158.368012252867
 10
531.600561951769
 20
4158.146403329697
 10
531.600561951769
 20
4160.619650504375
 10
530.9414951953129
 20
4160.841107848265
 10
530.5713968474937
 20
4161.055327334057
 10
530.941495195302
 20
4161.425425679722
 10
531.6005619517617
 20
4161.203968335784
 10
531.600561951758
 20
4162.697006502292
 10
404.2567953376146
 20
4162.697006502291
 10
404.1265030101148
 20
4162.566714174039
 10
403.7390125565378
 20
4162.697006502292
 10
403.4674362536515
 20
4162.697006502292
 10
403.4674362536624
 20
4160.315075922574
 10
404.1265030101256
 20
4160.093618578637
 10
404.4966013536485
 20
4159.879399092849
 10
404.1265030101184
 20
4159.509300747456
 10
403.4674362536588
 20
4159.730758091349
 10
403.4674362536551
 20
4157.256902503029
 10
404.126503010122
 20
4157.03529357986
 10
404.4966013536412
 20
4156.821985666272
 10
404.126503010122
 20
4156.450975748415
 10
403.4674362536624
 20
4156.672584671585
 10
403.4674362536624
 20
4154.199489076218
 10
404.1265030101293
 20
4153.977880153004
 10
404.4966013536412
 20
4153.76457223968
 10
404.1265030101184
 20
4153.393562321826
 10
403.4674362536588
 20
4153.615171244995
 10
403.4674362536588
 20
4151.152917657833
 10
403.4674362536515
 20
4150.963538515636
 10
404.5335643070228
 20
4150.697006502293
 10
531.6005619517617
 20
4150.697006502293
 10
531.600561951758
 20
4151.447258645029
 10
530.9414951952911
 20
4151.668867568246
 10
530.571396847501
 20
4151.882175481571
 10
530.9414951953057
 20
4152.253185399694
 10
531.6005619517617
 20
4152.03157647648
 10
531.6005619517617
 20
4154.504672071665
 10
530.9414951952947
 20
4154.726280994835
 10
530.5713968474973
 20
4154.940500480611
 10
530.941495195302
 20
4155.310598826277
 10
531.6005619517653
 20
4155.088989903062
 97
        0
 75
     0
 76
     1
 52
90.0
 41
1.0
 77
     0
 78
     1
 53
135.0
 43
-27275.48032329535
 44
8015.287133506234
 45
-2.245064030267288
 46
-2.245064030267287
 79
     0
 47
0.1764240455755443
 98
        1
 10
442.703844268466
 20
4155.423083885025
  0
TEXT
  5
42D
330
40C
100
AcDbEntity
  8
POPIS
100
AcDbText
 10
227.6622385661229
 20
4489.276183012998
 30
0.0
 40
50.0
  1
Přechod podlahy přes práh
 41
0.85
  7
SIMPLEX7
100
AcDbText
  0
LINE
  5
42E
330
40C
100
AcDbEntity
  8
POPIS
100
AcDbLine
 10
254.0226685055403
 20
4246.990465255479
 30
0.0
 11
254.0226685055403
 21
4181.578409454099
 31
0.0
  0
LINE
  5
42F
330
40C
100
AcDbEntity
  8
POPIS
100
AcDbLine
 10
306.1772950163884
 20
4246.990465255479
 30
0.0
 11
306.1772950163884
 21
4167.642821172221
 31
0.0
  0
LINE
  5
430
330
40C
100
AcDbEntity
  8
POPIS
100
AcDbLine
 10
353.0596098305558
 20
4246.990465255479
 30
0.0
 11
353.0596098305558
 21
4157.2517090666
 31
0.0
  0
LINE
  5
431
330
40C
100
AcDbEntity
  8
POPIS
100
AcDbLine
 10
402.1481252948413
 20
4246.990465255479
 30
0.0
 11
402.1481252948413
 21
4167.642821172221
 31
0.0
  0
LINE
  5
432
330
40C
100
AcDbEntity
  8
izolace
100
AcDbLine
 10
234.9004652852617
 20
4127.697006502292
 30
0.0
 11
273.7910834777593
 21
4127.697006502292
 31
0.0
  0
HATCH
  5
433
330
40C
100
AcDbEntity
  8
izolace
100
AcDbHatch
 10
0.0
 20
0.0
 30
0.0
210
0.0
220
0.0
230
1.0
  2
SOLID
 70
     1
 71
     0
 91
        1
 92
        7
 72
     0
 73
     1
 93
        4
 10
252.3143827122201
 20
4130.697006502291
 10
252.3143827122238
 20
4127.697006502292
 10
275.956115422059
 20
4127.697006502292
 10
275.956115422059
 20
4130.697006502291
 97
        0
 75
     0
 76
     1
 47
0.1901250437635136
 98
        1
 10
261.6721774705637
 20
4129.880194951212
  0
LWPOLYLINE
  5
434
330
40C
100
AcDbEntity
  8
izolace
100
AcDbPolyline
 90
        4
 70
     1
 43
0.0
 10
275.9561154220554
 20
4130.697006502292
 10
252.3143827122201
 20
4130.697006502292
 10
252.3143827122201
 20
4127.697006502292
 10
275.9561154220554
 20
4127.697006502292
  0
HATCH
  5
435
330
40C
100
AcDbEntity
  8
izolace
100
AcDbHatch
 10
0.0
 20
0.0
 30
0.0
210
0.0
220
0.0
230
1.0
  2
SOLID
 70
     1
 71
     0
 91
        1
 92
        7
 72
     0
 73
     1
 93
        4
 10
299.5978481318942
 20
4130.697006502291
 10
299.5978481318906
 20
4127.697006502292
 10
323.2395808417294
 20
4127.697006502292
 10
323.2395808417294
 20
4130.697006502291
 97
        0
 75
     0
 76
     1
 47
0.1901250437635136
 98
        1
 10
308.9556428902341
 20
4129.880194951212
  0
LWPOLYLINE
  5
436
330
40C
100
AcDbEntity
  8
izolace
100
AcDbPolyline
 90
        4
 70
     1
 43
0.0
 10
323.2395808417257
 20
4130.697006502292
 10
299.5978481318906
 20
4130.697006502292
 10
299.5978481318906
 20
4127.697006502292
 10
323.2395808417257
 20
4127.697006502292
  0
INSERT
  5
437
330
40C
100
AcDbEntity
  8
POPIS
100
AcDbBlockReference
  2
E_PUNKT
 10
306.1482266855144
 20
4167.670431547848
 30
0.0
 50
270.0
  0
LINE
  5
438
330
40C
100
AcDbEntity
  8
SPOJOVACÍ
  6
DASHED
100
AcDbLine
 10
404.2905860188892
 20
4171.108146436496
 30
0.0
 11
405.229505467474
 21
4172.291367255737
 31
0.0
  0
LINE
  5
439
330
40C
100
AcDbEntity
  8
SPOJOVACÍ
  6
DASHED
100
AcDbLine
 10
403.6898598867245
 20
4169.722556570987
 30
0.0
 11
404.2905860188892
 21
4171.108146436496
 31
0.0
  0
LINE
  5
43A
330
40C
100
AcDbEntity
  8
SPOJOVACÍ
  6
DASHED
100
AcDbLine
 10
403.4674362536588
 20
4168.229401176626
 30
0.0
 11
403.6898598867245
 21
4169.722556570987
 31
0.0
  0
LINE
  5
43B
330
40C
100
AcDbEntity
  8
SPOJOVACÍ
  6
DASHED
100
AcDbLine
 10
407.1428956826402
 20
4174.697006502293
 30
0.0
 11
407.1428956826402
 21
4173.521078261095
 31
0.0
  0
LINE
  5
43C
330
40C
100
AcDbEntity
  8
SPOJOVACÍ
  6
DASHED
100
AcDbLine
 10
397.1465940609176
 20
4174.697006502293
 30
0.0
 11
407.1428956826402
 21
4174.697006502293
 31
0.0
  0
LINE
  5
43D
330
40C
100
AcDbEntity
  8
SPOJOVACÍ
  6
DASHED
100
AcDbLine
 10
397.1465940609176
 20
4174.697006502293
 30
0.0
 11
397.1465940609176
 21
4173.521078261095
 31
0.0
  0
LINE
  5
43E
330
40C
100
AcDbEntity
  8
SPOJOVACÍ
  6
DASHED
100
AcDbLine
 10
397.1465940609176
 20
4173.521078261095
 30
0.0
 11
407.1428956826402
 21
4173.521078261095
 31
0.0
  0
LINE
  5
43F
330
40C
100
AcDbEntity
  8
SPOJOVACÍ
  6
DASHED
100
AcDbLine
 10
406.4418966001957
 20
4173.191089095969
 30
0.0
 11
407.1428956826402
 21
4173.521078261095
 31
0.0
  0
LINE
  5
440
330
40C
100
AcDbEntity
  8
SPOJOVACÍ
  6
DASHED
100
AcDbLine
 10
405.229505467474
 20
4172.291367255737
 30
0.0
 11
406.4418966001957
 21
4173.191089095969
 31
0.0
  0
LINE
  5
441
330
40C
100
AcDbEntity
  8
SPOJOVACÍ
  6
DASHED
100
AcDbLine
 10
400.7573318618941
 20
4169.000591325286
 30
0.0
 11
400.8220534941773
 21
4168.229401176626
 31
0.0
  0
LINE
  5
442
330
40C
100
AcDbEntity
  8
SPOJOVACÍ
  6
DASHED
100
AcDbLine
 10
400.3380086148808
 20
4170.451814394995
 30
0.0
 11
400.7573318618941
 21
4169.000591325286
 31
0.0
  0
LINE
  5
443
330
40C
100
AcDbEntity
  8
SPOJOVACÍ
  6
DASHED
100
AcDbLine
 10
399.5577027451489
 20
4171.744423887727
 30
0.0
 11
400.3380086148808
 21
4170.451814394995
 31
0.0
  0
LINE
  5
444
330
40C
100
AcDbEntity
  8
SPOJOVACÍ
  6
DASHED
100
AcDbLine
 10
398.4692854427975
 20
4172.791820437351
 30
0.0
 11
399.5577027451489
 21
4171.744423887727
 31
0.0
  0
LINE
  5
445
330
40C
100
AcDbEntity
  8
SPOJOVACÍ
  6
DASHED
100
AcDbLine
 10
397.1465940609176
 20
4173.521078261095
 30
0.0
 11
398.4692854427975
 21
4172.791820437351
 31
0.0
  0
LINE
  5
446
330
40C
100
AcDbEntity
  8
SPOJOVACÍ
  6
DASHED
100
AcDbLine
 10
403.4674362536588
 20
4168.229401176626
 30
0.0
 11
403.4674362536588
 21
4163.385306081276
 31
0.0
  0
LINE
  5
447
330
40C
100
AcDbEntity
  8
SPOJOVACÍ
  6
DASHED
100
AcDbLine
 10
400.8220534941773
 20
4168.229401176626
 30
0.0
 11
400.8220534941773
 21
4164.27226590954
 31
0.0
  0
LINE
  5
448
330
40C
100
AcDbEntity
  8
SPOJOVACÍ
  6
DASHED
100
AcDbLine
 10
400.8220534941773
 20
4163.688859650547
 30
0.0
 11
400.8220534941773
 21
4161.220321916618
 31
0.0
  0
LINE
  5
449
330
40C
100
AcDbEntity
  8
SPOJOVACÍ
  6
DASHED
100
AcDbLine
 10
400.8220534941773
 20
4160.62871150713
 30
0.0
 11
400.8220534941773
 21
4158.158350628555
 31
0.0
  0
LINE
  5
44A
330
40C
100
AcDbEntity
  8
SPOJOVACÍ
  6
DASHED
100
AcDbLine
 10
400.8220534941773
 20
4157.575855941749
 30
0.0
 11
400.8220534941773
 21
4155.098202485138
 31
0.0
  0
LINE
  5
44B
330
40C
100
AcDbEntity
  8
SPOJOVACÍ
  6
DASHED
100
AcDbLine
 10
403.4674362536588
 20
4162.793695671787
 30
0.0
 11
403.4674362536588
 21
4160.325157937859
 31
0.0
  0
LINE
  5
44C
330
40C
100
AcDbEntity
  8
SPOJOVACÍ
  6
DASHED
100
AcDbLine
 10
403.4674362536588
 20
4159.740840106407
 30
0.0
 11
403.4674362536588
 21
4157.263186649795
 31
0.0
  0
LINE
  5
44D
330
40C
100
AcDbEntity
  8
SPOJOVACÍ
  6
DASHED
100
AcDbLine
 10
403.4674362536588
 20
4156.680691962991
 30
0.0
 11
403.4674362536588
 21
4154.210331084416
 31
0.0
  0
LINE
  5
44E
330
40C
100
AcDbEntity
  8
SPOJOVACÍ
  6
DASHED
100
AcDbLine
 10
400.8220534941773
 20
4154.505680503198
 30
0.0
 11
400.8220534941773
 21
4152.038054341457
 31
0.0
  0
LINE
  5
44F
330
40C
100
AcDbEntity
  8
SPOJOVACÍ
  6
DASHED
100
AcDbLine
 10
400.8220534941773
 20
4151.453736510005
 30
0.0
 11
400.8220534941773
 21
4150.231318082955
 31
0.0
  0
LINE
  5
450
330
40C
100
AcDbEntity
  8
SPOJOVACÍ
  6
DASHED
100
AcDbLine
 10
403.4674362536588
 20
4153.621455391761
 30
0.0
 11
403.4674362536588
 21
4151.152917657833
 31
0.0
  0
LINE
  5
451
330
40C
100
AcDbEntity
  8
SPOJOVACÍ
  6
DASHED
100
AcDbLine
 10
403.4674362536588
 20
4150.561307248081
 30
0.0
 11
403.4674362536588
 21
4150.231318082955
 31
0.0
  0
LINE
  5
452
330
40C
100
AcDbEntity
  8
SPOJOVACÍ
  6
DASHED
100
AcDbLine
 10
400.8220534941773
 20
4150.231318082955
 30
0.0
 11
400.9688166308459
 21
4149.058124558585
 31
0.0
  0
LINE
  5
453
330
40C
100
AcDbEntity
  8
SPOJOVACÍ
  6
DASHED
100
AcDbLine
 10
402.1447448717789
 20
4139.647052341301
 30
0.0
 11
402.4920539132852
 21
4142.426436222544
 31
0.0
  0
LINE
  5
454
330
40C
100
AcDbEntity
  8
SPOJOVACÍ
  6
DASHED
100
AcDbLine
 10
401.0444771315214
 20
4148.450105847849
 30
0.0
 11
401.3288876840505
 21
4146.174821437505
 31
0.0
  0
LINE
  5
455
330
40C
100
AcDbEntity
  8
SPOJOVACÍ
  6
DASHED
100
AcDbLine
 10
401.4063713280319
 20
4145.556775431634
 30
0.0
 11
401.6907818762827
 21
4143.282402593486
 31
0.0
  0
LINE
  5
456
330
40C
100
AcDbEntity
  8
SPOJOVACÍ
  6
DASHED
100
AcDbLine
 10
401.7664423769582
 20
4142.674383882749
 30
0.0
 11
402.1447448717789
 21
4139.647052341301
 31
0.0
  0
LINE
  5
457
330
40C
100
AcDbEntity
  8
SPOJOVACÍ
  6
DASHED
100
AcDbLine
 10
402.5622449797646
 20
4142.984318457869
 30
0.0
 11
402.8247777955092
 21
4145.086404135154
 31
0.0
  0
LINE
  5
458
330
40C
100
AcDbEntity
  8
SPOJOVACÍ
  6
DASHED
100
AcDbLine
 10
402.8949688577102
 20
4145.647021087314
 30
0.0
 11
403.156590103941
 21
4147.74090261411
 31
0.0
  0
LINE
  5
459
330
40C
100
AcDbEntity
  8
SPOJOVACÍ
  6
DASHED
100
AcDbLine
 10
403.2267811704204
 20
4148.299696421894
 30
0.0
 11
403.4674362536588
 21
4150.231318082955
 31
0.0
  0
LINE
  5
45A
330
40C
100
AcDbEntity
  8
SPOJOVACÍ
  6
DASHED
100
AcDbLine
 10
399.7928883899129
 20
4164.112740760638
 30
0.0
 11
404.4966013536448
 21
4162.936812519705
 31
0.0
  0
LINE
  5
45B
330
40C
100
AcDbEntity
  8
SPOJOVACÍ
  6
DASHED
100
AcDbLine
 10
399.7928883899129
 20
4164.112740760638
 30
0.0
 11
400.1629867377176
 21
4163.899432847311
 31
0.0
  0
LINE
  5
45C
330
40C
100
AcDbEntity
  8
SPOJOVACÍ
  6
DASHED
100
AcDbLine
 10
399.7928883899129
 20
4164.112740760638
 30
0.0
 11
400.1629867377176
 21
4164.483750678491
 31
0.0
  0
LINE
  5
45D
330
40C
100
AcDbEntity
  8
SPOJOVACÍ
  6
DASHED
100
AcDbLine
 10
404.4966013536448
 20
4162.936812519705
 30
0.0
 11
404.1265030101184
 21
4162.566714174039
 31
0.0
  0
LINE
  5
45E
330
40C
100
AcDbEntity
  8
SPOJOVACÍ
  6
DASHED
100
AcDbLine
 10
404.4966013536448
 20
4162.936812519705
 30
0.0
 11
404.1265030101184
 21
4163.151032005491
 31
0.0
  0
LINE
  5
45F
330
40C
100
AcDbEntity
  8
SPOJOVACÍ
  6
DASHED
100
AcDbLine
 10
400.1629867377176
 20
4163.899432847311
 30
0.0
 11
404.1265030101184
 21
4162.566714174039
 31
0.0
  0
LINE
  5
460
330
40C
100
AcDbEntity
  8
SPOJOVACÍ
  6
DASHED
100
AcDbLine
 10
400.1629867377176
 20
4164.483750678491
 30
0.0
 11
404.1265030101184
 21
4163.151032005491
 31
0.0
  0
LINE
  5
461
330
40C
100
AcDbEntity
  8
SPOJOVACÍ
  6
DASHED
100
AcDbLine
 10
399.7928883899129
 20
4161.055327334056
 30
0.0
 11
404.4966013536448
 21
4159.879399092852
 31
0.0
  0
LINE
  5
462
330
40C
100
AcDbEntity
  8
SPOJOVACÍ
  6
DASHED
100
AcDbLine
 10
399.7928883899129
 20
4161.055327334056
 30
0.0
 11
400.1629867377176
 21
4160.841107848269
 31
0.0
  0
LINE
  5
463
330
40C
100
AcDbEntity
  8
SPOJOVACÍ
  6
DASHED
100
AcDbLine
 10
399.7928883899129
 20
4161.055327334056
 30
0.0
 11
400.1629867377176
 21
4161.425425679721
 31
0.0
  0
LINE
  5
464
330
40C
100
AcDbEntity
  8
SPOJOVACÍ
  6
DASHED
100
AcDbLine
 10
404.4966013536448
 20
4159.879399092852
 30
0.0
 11
404.1265030101184
 21
4159.509300747457
 31
0.0
  0
LINE
  5
465
330
40C
100
AcDbEntity
  8
SPOJOVACÍ
  6
DASHED
100
AcDbLine
 10
404.4966013536448
 20
4159.879399092852
 30
0.0
 11
404.1265030101184
 21
4160.093618578637
 31
0.0
  0
LINE
  5
466
330
40C
100
AcDbEntity
  8
SPOJOVACÍ
  6
DASHED
100
AcDbLine
 10
400.1629867377176
 20
4160.841107848269
 30
0.0
 11
404.1265030101184
 21
4159.509300747457
 31
0.0
  0
LINE
  5
467
330
40C
100
AcDbEntity
  8
SPOJOVACÍ
  6
DASHED
100
AcDbLine
 10
400.1629867377176
 20
4161.425425679721
 30
0.0
 11
404.1265030101184
 21
4160.093618578637
 31
0.0
  0
LINE
  5
468
330
40C
100
AcDbEntity
  8
SPOJOVACÍ
  6
DASHED
100
AcDbLine
 10
400.0417476244455
 20
4148.866694379903
 30
0.0
 11
400.4127575417641
 21
4148.652474894117
 31
0.0
  0
LINE
  5
469
330
40C
100
AcDbEntity
  8
SPOJOVACÍ
  6
DASHED
100
AcDbLine
 10
400.0417476244455
 20
4148.866694379903
 30
0.0
 11
400.4127575417641
 21
4149.236792725569
 31
0.0
  0
LINE
  5
46A
330
40C
100
AcDbEntity
  8
SPOJOVACÍ
  6
DASHED
100
AcDbLine
 10
404.0845706841336
 20
4147.913189775245
 30
0.0
 11
403.7144723406071
 21
4147.54217985712
 31
0.0
  0
LINE
  5
46B
330
40C
100
AcDbEntity
  8
SPOJOVACÍ
  6
DASHED
100
AcDbLine
 10
404.0845706841336
 20
4147.913189775245
 30
0.0
 11
403.7144723406071
 21
4148.126497688572
 31
0.0
  0
LINE
  5
46C
330
40C
100
AcDbEntity
  8
SPOJOVACÍ
  6
DASHED
100
AcDbLine
 10
400.4127575417641
 20
4148.652474894117
 30
0.0
 11
403.7144723406071
 21
4147.54217985712
 31
0.0
  0
LINE
  5
46D
330
40C
100
AcDbEntity
  8
SPOJOVACÍ
  6
DASHED
100
AcDbLine
 10
400.4127575417641
 20
4149.236792725569
 30
0.0
 11
403.7144723406071
 21
4148.126497688572
 31
0.0
  0
LINE
  5
46E
330
40C
100
AcDbEntity
  8
SPOJOVACÍ
  6
DASHED
100
AcDbLine
 10
400.0417476244455
 20
4148.866694379903
 30
0.0
 11
404.0845706841336
 21
4147.913189775245
 31
0.0
  0
LINE
  5
46F
330
40C
100
AcDbEntity
  8
SPOJOVACÍ
  6
DASHED
100
AcDbLine
 10
400.5950719964292
 20
4145.912288620691
 30
0.0
 11
400.965170344234
 21
4145.698980707364
 31
0.0
  0
LINE
  5
470
330
40C
100
AcDbEntity
  8
SPOJOVACÍ
  6
DASHED
100
AcDbLine
 10
400.5950719964292
 20
4145.912288620691
 30
0.0
 11
400.965170344234
 21
4146.283298538816
 31
0.0
  0
LINE
  5
471
330
40C
100
AcDbEntity
  8
SPOJOVACÍ
  6
DASHED
100
AcDbLine
 10
403.6488391345318
 20
4145.291507898257
 30
0.0
 11
403.2787407910054
 21
4144.920497980403
 31
0.0
  0
LINE
  5
472
330
40C
100
AcDbEntity
  8
SPOJOVACÍ
  6
DASHED
100
AcDbLine
 10
403.6488391345318
 20
4145.291507898257
 30
0.0
 11
403.2787407910054
 21
4145.504815811584
 31
0.0
  0
LINE
  5
473
330
40C
100
AcDbEntity
  8
SPOJOVACÍ
  6
DASHED
100
AcDbLine
 10
400.965170344234
 20
4145.698980707364
 30
0.0
 11
403.2787407910054
 21
4144.920497980403
 31
0.0
  0
LINE
  5
474
330
40C
100
AcDbEntity
  8
SPOJOVACÍ
  6
DASHED
100
AcDbLine
 10
400.965170344234
 20
4146.283298538816
 30
0.0
 11
403.2787407910054
 21
4145.504815811584
 31
0.0
  0
LINE
  5
475
330
40C
100
AcDbEntity
  8
SPOJOVACÍ
  6
DASHED
100
AcDbLine
 10
400.5950719964292
 20
4145.912288620691
 30
0.0
 11
403.6488391345318
 21
4145.291507898257
 31
0.0
  0
LINE
  5
476
330
40C
100
AcDbEntity
  8
SPOJOVACÍ
  6
DASHED
100
AcDbLine
 10
401.1483963726913
 20
4142.958794433938
 30
0.0
 11
401.5184947162177
 21
4142.744574948159
 31
0.0
  0
LINE
  5
477
330
40C
100
AcDbEntity
  8
SPOJOVACÍ
  6
DASHED
100
AcDbLine
 10
401.1483963726913
 20
4142.958794433938
 30
0.0
 11
401.5184947162177
 21
4143.328892779604
 31
0.0
  0
LINE
  5
478
330
40C
100
AcDbEntity
  8
SPOJOVACÍ
  6
DASHED
100
AcDbLine
 10
403.2595977713189
 20
4142.654329292479
 30
0.0
 11
402.8894994277924
 21
4142.283319374626
 31
0.0
  0
LINE
  5
479
330
40C
100
AcDbEntity
  8
SPOJOVACÍ
  6
DASHED
100
AcDbLine
 10
403.2595977713189
 20
4142.654329292479
 30
0.0
 11
402.8894994277924
 21
4142.86763720607
 31
0.0
  0
LINE
  5
47A
330
40C
100
AcDbEntity
  8
SPOJOVACÍ
  6
DASHED
100
AcDbLine
 10
401.5184947162177
 20
4142.744574948159
 30
0.0
 11
402.8894994277924
 21
4142.283319374626
 31
0.0
  0
LINE
  5
47B
330
40C
100
AcDbEntity
  8
SPOJOVACÍ
  6
DASHED
100
AcDbLine
 10
401.5184947162177
 20
4143.328892779604
 30
0.0
 11
402.8894994277924
 21
4142.86763720607
 31
0.0
  0
LINE
  5
47C
330
40C
100
AcDbEntity
  8
SPOJOVACÍ
  6
DASHED
100
AcDbLine
 10
401.1483963726913
 20
4142.958794433938
 30
0.0
 11
403.2595977713189
 21
4142.654329292479
 31
0.0
  0
LINE
  5
47D
330
40C
100
AcDbEntity
  8
SPOJOVACÍ
  6
DASHED
100
AcDbLine
 10
399.7928883899129
 20
4157.997913907202
 30
0.0
 11
404.4966013536448
 21
4156.821985666269
 31
0.0
  0
LINE
  5
47E
330
40C
100
AcDbEntity
  8
SPOJOVACÍ
  6
DASHED
100
AcDbLine
 10
399.7928883899129
 20
4157.997913907202
 30
0.0
 11
400.1629867377176
 21
4157.783694421416
 31
0.0
  0
LINE
  5
47F
330
40C
100
AcDbEntity
  8
SPOJOVACÍ
  6
DASHED
100
AcDbLine
 10
399.7928883899129
 20
4157.997913907202
 30
0.0
 11
400.1629867377176
 21
4158.368012252867
 31
0.0
  0
LINE
  5
480
330
40C
100
AcDbEntity
  8
SPOJOVACÍ
  6
DASHED
100
AcDbLine
 10
404.4966013536448
 20
4156.821985666269
 30
0.0
 11
404.1265030101184
 21
4156.450975748415
 31
0.0
  0
LINE
  5
481
330
40C
100
AcDbEntity
  8
SPOJOVACÍ
  6
DASHED
100
AcDbLine
 10
404.4966013536448
 20
4156.821985666269
 30
0.0
 11
404.1265030101184
 21
4157.03529357986
 31
0.0
  0
LINE
  5
482
330
40C
100
AcDbEntity
  8
SPOJOVACÍ
  6
DASHED
100
AcDbLine
 10
400.1629867377176
 20
4157.783694421416
 30
0.0
 11
404.1265030101184
 21
4156.450975748415
 31
0.0
  0
LINE
  5
483
330
40C
100
AcDbEntity
  8
SPOJOVACÍ
  6
DASHED
100
AcDbLine
 10
400.1629867377176
 20
4158.368012252867
 30
0.0
 11
404.1265030101184
 21
4157.03529357986
 31
0.0
  0
LINE
  5
484
330
40C
100
AcDbEntity
  8
SPOJOVACÍ
  6
DASHED
100
AcDbLine
 10
399.7928883899129
 20
4154.940500480612
 30
0.0
 11
404.4966013536448
 21
4153.764572239679
 31
0.0
  0
LINE
  5
485
330
40C
100
AcDbEntity
  8
SPOJOVACÍ
  6
DASHED
100
AcDbLine
 10
399.7928883899129
 20
4154.940500480612
 30
0.0
 11
400.1629867377176
 21
4154.726280994833
 31
0.0
  0
LINE
  5
486
330
40C
100
AcDbEntity
  8
SPOJOVACÍ
  6
DASHED
100
AcDbLine
 10
399.7928883899129
 20
4154.940500480612
 30
0.0
 11
400.1629867377176
 21
4155.310598826278
 31
0.0
  0
LINE
  5
487
330
40C
100
AcDbEntity
  8
SPOJOVACÍ
  6
DASHED
100
AcDbLine
 10
404.4966013536448
 20
4153.764572239679
 30
0.0
 11
404.1265030101184
 21
4153.393562321826
 31
0.0
  0
LINE
  5
488
330
40C
100
AcDbEntity
  8
SPOJOVACÍ
  6
DASHED
100
AcDbLine
 10
404.4966013536448
 20
4153.764572239679
 30
0.0
 11
404.1265030101184
 21
4153.977880153006
 31
0.0
  0
LINE
  5
489
330
40C
100
AcDbEntity
  8
SPOJOVACÍ
  6
DASHED
100
AcDbLine
 10
400.1629867377176
 20
4154.726280994833
 30
0.0
 11
404.1265030101184
 21
4153.393562321826
 31
0.0
  0
LINE
  5
48A
330
40C
100
AcDbEntity
  8
SPOJOVACÍ
  6
DASHED
100
AcDbLine
 10
400.1629867377176
 20
4155.310598826278
 30
0.0
 11
404.1265030101184
 21
4153.977880153006
 31
0.0
  0
LINE
  5
48B
330
40C
100
AcDbEntity
  8
SPOJOVACÍ
  6
DASHED
100
AcDbLine
 10
399.7928883899129
 20
4151.882175481571
 30
0.0
 11
404.4966013536448
 21
4150.706247240638
 31
0.0
  0
LINE
  5
48C
330
40C
100
AcDbEntity
  8
SPOJOVACÍ
  6
DASHED
100
AcDbLine
 10
399.7928883899129
 20
4151.882175481571
 30
0.0
 11
400.1629867377176
 21
4151.668867568243
 31
0.0
  0
LINE
  5
48D
330
40C
100
AcDbEntity
  8
SPOJOVACÍ
  6
DASHED
100
AcDbLine
 10
399.7928883899129
 20
4151.882175481571
 30
0.0
 11
400.1629867377176
 21
4152.253185399695
 31
0.0
  0
LINE
  5
48E
330
40C
100
AcDbEntity
  8
SPOJOVACÍ
  6
DASHED
100
AcDbLine
 10
404.4966013536448
 20
4150.706247240638
 30
0.0
 11
404.1265030101184
 21
4150.336148894972
 31
0.0
  0
LINE
  5
48F
330
40C
100
AcDbEntity
  8
SPOJOVACÍ
  6
DASHED
100
AcDbLine
 10
404.4966013536448
 20
4150.706247240638
 30
0.0
 11
404.1265030101184
 21
4150.920466726424
 31
0.0
  0
LINE
  5
490
330
40C
100
AcDbEntity
  8
SPOJOVACÍ
  6
DASHED
100
AcDbLine
 10
400.1629867377176
 20
4151.668867568243
 30
0.0
 11
404.1265030101184
 21
4150.336148894972
 31
0.0
  0
LINE
  5
491
330
40C
100
AcDbEntity
  8
SPOJOVACÍ
  6
DASHED
100
AcDbLine
 10
400.1629867377176
 20
4152.253185399695
 30
0.0
 11
404.1265030101184
 21
4150.920466726424
 31
0.0
  0
HATCH
  5
492
330
40C
100
AcDbEntity
  8
izolace
100
AcDbHatch
 10
0.0
 20
0.0
 30
0.0
210
0.0
220
0.0
230
1.0
  2
SOLID
 70
     1
 71
     0
 91
        1
 92
        7
 72
     0
 73
     1
 93
        4
 10
346.881313551561
 20
4130.697006502291
 10
346.881313551561
 20
4127.697006502292
 10
370.5230462613998
 20
4127.697006502292
 10
370.5230462613998
 20
4130.697006502291
 97
        0
 75
     0
 76
     1
 47
0.1901250437635136
 98
        1
 10
356.2391083099045
 20
4129.880194951212
  0
LWPOLYLINE
  5
493
330
40C
100
AcDbEntity
  8
izolace
100
AcDbPolyline
 90
        4
 70
     1
 43
0.0
 10
370.5230462613962
 20
4130.697006502292
 10
346.881313551561
 20
4130.697006502292
 10
346.881313551561
 20
4127.697006502292
 10
370.5230462613962
 20
4127.697006502292
  0
HATCH
  5
494
330
40C
100
AcDbEntity
  8
izolace
100
AcDbHatch
 10
0.0
 20
0.0
 30
0.0
210
0.0
220
0.0
230
1.0
  2
SOLID
 70
     1
 71
     0
 91
        1
 92
        7
 72
     0
 73
     1
 93
        4
 10
394.1647789712313
 20
4130.697006502292
 10
394.164778971235
 20
4127.697006502291
 10
417.8065116810702
 20
4127.697006502292
 10
417.8065116810702
 20
4130.697006502291
 97
        0
 75
     0
 76
     1
 47
0.1901250437635136
 98
        1
 10
403.5225737295749
 20
4129.880194951212
  0
LWPOLYLINE
  5
495
330
40C
100
AcDbEntity
  8
izolace
100
AcDbPolyline
 90
        4
 70
     1
 43
0.0
 10
417.8065116810666
 20
4130.697006502292
 10
394.1647789712313
 20
4130.697006502292
 10
394.1647789712313
 20
4127.697006502292
 10
417.8065116810666
 20
4127.697006502292
  0
HATCH
  5
496
330
40C
100
AcDbEntity
  8
izolace
100
AcDbHatch
 10
0.0
 20
0.0
 30
0.0
210
0.0
220
0.0
230
1.0
  2
SOLID
 70
     1
 71
     0
 91
        1
 92
        7
 72
     0
 73
     1
 93
        4
 10
441.4482443909053
 20
4130.697006502292
 10
441.4482443909053
 20
4127.697006502291
 10
465.0899771007406
 20
4127.697006502292
 10
465.0899771007406
 20
4130.697006502291
 97
        0
 75
     0
 76
     1
 47
0.1901250437635136
 98
        1
 10
450.8060391492453
 20
4129.880194951212
  0
LWPOLYLINE
  5
497
330
40C
100
AcDbEntity
  8
izolace
100
AcDbPolyline
 90
        4
 70
     1
 43
0.0
 10
465.0899771007369
 20
4130.697006502292
 10
441.4482443909017
 20
4130.697006502292
 10
441.4482443909017
 20
4127.697006502292
 10
465.0899771007369
 20
4127.697006502292
  0
INSERT
  5
498
330
40C
100
AcDbEntity
  8
POPIS
100
AcDbBlockReference
  2
E_PUNKT
 10
353.0305414996818
 20
4156.029319442228
 30
0.0
 50
270.0
  0
INSERT
  5
499
330
40C
100
AcDbEntity
  8
POPIS
100
AcDbBlockReference
  2
E_PUNKT
 10
402.1190569639673
 20
4167.670431547848
 30
0.0
 50
270.0
  0
TEXT
  5
49A
330
40C
100
AcDbEntity
  8
POPIS
100
AcDbText
 10
235.2270750938277
 20
4255.839826328204
 30
0.0
 40
25.0
  1
04
 41
0.85
  7
SIMPLEX7
100
AcDbText
  0
TEXT
  5
49B
330
40C
100
AcDbEntity
  8
POPIS
100
AcDbText
 10
289.2796240845835
 20
4255.839826328204
 30
0.0
 40
25.0
  1
05
 41
0.85
  7
SIMPLEX7
100
AcDbText
  0
TEXT
  5
49C
330
40C
100
AcDbEntity
  8
POPIS
100
AcDbText
 10
336.1619388987509
 20
4255.839826328204
 30
0.0
 40
25.0
  1
06
 41
0.85
  7
SIMPLEX7
100
AcDbText
  0
TEXT
  5
49D
330
40C
100
AcDbEntity
  8
POPIS
100
AcDbText
 10
385.2504543630365
 20
4255.839826328204
 30
0.0
 40
25.0
  1
07
 41
0.85
  7
SIMPLEX7
100
AcDbText
  0
TEXT
  5
49E
330
40C
100
AcDbEntity
  8
POPIS
100
AcDbText
 10
227.6622385661229
 20
4434.651439987198
 30
0.0
 40
35.0
  1
SVISLÝ ŘEZ
 41
0.85
  7
SIMPLEX7
100
AcDbText
  0
TEXT
  5
49F
330
40C
100
AcDbEntity
  8
POPIS
100
AcDbText
 10
1065.189530663932
 20
4116.716223384225
 30
0.0
 40
25.0
  1
Izolační deska IZOPLAT
 41
0.7
  7
SIMPLEX7
100
AcDbText
  0
TEXT
  5
4A0
330
40C
100
AcDbEntity
  8
POPIS
100
AcDbText
 10
1065.189530663932
 20
4256.550856002022
 30
0.0
 40
25.0
  1
Deska CETRIS    tl. 12 mm horní, předvrtaná
 41
0.7
  7
SIMPLEX7
100
AcDbText
  0
TEXT
  5
4A1
330
40C
100
AcDbEntity
  8
POPIS
100
AcDbText
 10
1065.189530663932
 20
4219.955844386396
 30
0.0
 40
25.0
  1
Deska CETRIS    tl. 12 mm, spodní
 41
0.7
  7
SIMPLEX7
100
AcDbText
  0
TEXT
  5
4A2
330
40C
100
AcDbEntity
  8
POPIS
100
AcDbText
 10
1065.189530663932
 20
4186.005656141673
 30
0.0
 40
25.0
  1
Vrut Bűhnen 4,2x35 mm
 41
0.7
  7
SIMPLEX7
100
AcDbText
  0
TEXT
  5
4A3
330
40C
100
AcDbEntity
  8
POPIS
100
AcDbText
 10
1065.189530663932
 20
4150.601494923511
 30
0.0
 40
25.0
  1
Podkladní dřevěná lišta
 41
0.7
  7
SIMPLEX7
100
AcDbText
  0
TEXT
  5
4A4
330
40C
100
AcDbEntity
  8
POPIS
100
AcDbText
 10
1065.189530663932
 20
4330.047358123293
 30
0.0
 40
25.0
  1
Dřevěný podkladní profil pod zárubeň
 41
0.7
  7
SIMPLEX7
100
AcDbText
  0
TEXT
  5
4A5
330
40C
100
AcDbEntity
  8
POPIS
100
AcDbText
 10
1065.189530663932
 20
4366.64236973892
 30
0.0
 40
25.0
  1
Prahová spojka zárubně
 41
0.7
  7
SIMPLEX7
100
AcDbText
  0
TEXT
  5
4A6
330
40C
100
AcDbEntity
  8
POPIS
100
AcDbText
 10
1065.189530663932
 20
4400.608585087411
 30
0.0
 40
25.0
  1
Dřevěný dveřní práh tl. 20 mm
 41
0.7
  7
SIMPLEX7
100
AcDbText
  0
TEXT
  5
4A7
330
40C
100
AcDbEntity
  8
POPIS
100
AcDbText
 10
1065.189530663932
 20
4294.690339608509
 30
0.0
 40
25.0
  1
Nášlapná vrstva
 41
0.7
  7
SIMPLEX7
100
AcDbText
  0
LINE
  5
4A8
330
40C
100
AcDbEntity
  8
STAVBA OBRYS
100
AcDbLine
 10
625.0584494487902
 20
4200.787224743666
 30
0.0
 11
625.0584494487902
 21
4400.339096849176
 31
0.0
  0
TEXT
  5
4A9
330
40C
100
AcDbEntity
  8
POPIS
100
AcDbText
 10
1010.84582750419
 20
4401.578472855055
 30
0.0
 40
25.0
  1
01
 41
0.85
  7
SIMPLEX7
100
AcDbText
  0
LINE
  5
4AA
330
40C
100
AcDbEntity
  8
STAVBA OBRYS
  6
IZOLACE
 48
0.95
100
AcDbLine
 10
670.3305084287075
 20
4140.697006502292
 30
0.0
 11
892.8461277963377
 21
4140.697006502292
 31
0.0
  0
LINE
  5
4AB
330
40C
100
AcDbEntity
  8
CETRIS
100
AcDbLine
 10
610.3305084287074
 20
4162.697006502292
 30
0.0
 11
892.8461277963341
 21
4162.697006502292
 31
0.0
  0
LINE
  5
4AC
330
40C
100
AcDbEntity
  8
CETRIS
100
AcDbLine
 10
610.3305084287074
 20
4150.697006502293
 30
0.0
 11
892.8461277963341
 21
4150.697006502292
 31
0.0
  0
LWPOLYLINE
  5
4AD
330
40C
100
AcDbEntity
  8
nášlap_vrstvy
100
AcDbPolyline
 90
        4
 70
     0
 43
0.0
 10
595.3305084287075
 20
4177.239920428151
 10
892.8461277963306
 20
4177.239920428151
 10
892.8461277963306
 20
4181.578409454099
 10
595.3305084287075
 20
4181.578409454099
  0
LWPOLYLINE
  5
4AE
330
40C
100
AcDbEntity
  8
izolace
100
AcDbPolyline
 90
        4
 70
     1
 43
0.0
 10
796.0742350384297
 20
4130.697006502292
 10
772.4325023285945
 20
4130.697006502292
 10
772.4325023285945
 20
4127.697006502292
 10
796.0742350384297
 20
4127.697006502292
  0
HATCH
  5
4AF
330
40C
100
AcDbEntity
  8
izolace
100
AcDbHatch
 10
0.0
 20
0.0
 30
0.0
210
0.0
220
0.0
230
1.0
  2
SOLID
 70
     1
 71
     0
 91
        1
 92
        7
 72
     0
 73
     1
 93
        4
 10
772.4325023285945
 20
4130.697006502292
 10
772.4325023285981
 20
4127.697006502291
 10
796.0742350384333
 20
4127.697006502292
 10
796.0742350384333
 20
4130.697006502291
 97
        0
 75
     0
 76
     1
 47
0.1901250437635136
 98
        1
 10
781.790297086938
 20
4129.880194951212
  0
HATCH
  5
4B0
330
40C
100
AcDbEntity
  8
CETRIS
100
AcDbHatch
 10
0.0
 20
0.0
 30
0.0
210
0.0
220
0.0
230
1.0
  2
ANSI31
 70
     0
 71
     0
 91
        3
 92
        7
 72
     0
 73
     1
 93
       24
 10
892.8461277963341
 20
4162.697006502292
 10
879.0604549056496
 20
4162.697006502292
 10
879.0604549056569
 20
4161.203968335784
 10
879.7195216621092
 20
4161.42542567972
 10
880.089620009914
 20
4161.055327334056
 10
879.719521662102
 20
4160.841107848266
 10
879.0604549056533
 20
4160.619650504378
 10
879.0604549056533
 20
4158.146403329696
 10
879.7195216621092
 20
4158.368012252867
 10
880.0896200099176
 20
4157.9979139072
 10
879.719521662113
 20
4157.783694421414
 10
879.0604549056569
 20
4157.562085498246
 10
879.0604549056533
 20
4155.088989903066
 10
879.7195216621057
 20
4155.310598826278
 10
880.0896200099176
 20
4154.940500480614
 10
879.7195216621092
 20
4154.726280994831
 10
879.0604549056533
 20
4154.504672071663
 10
879.0604549056533
 20
4152.031576476483
 10
879.719521662113
 20
4152.253185399695
 10
880.0896200099213
 20
4151.882175481571
 10
879.7195216621165
 20
4151.668867568247
 10
879.0604549056533
 20
4151.44725864503
 10
879.0604549056533
 20
4150.69700650229
 10
892.8461277963306
 20
4150.697006502293
 97
        0
 92
        7
 72
     0
 73
     1
 93
       45
 10
876.4150721461609
 20
4159.730758091347
 10
875.7560053897121
 20
4159.509300747456
 10
875.3859070461857
 20
4159.879399092852
 10
875.7560053897158
 20
4160.093618578637
 10
876.4150721461717
 20
4160.315075922575
 10
876.4150721461717
 20
4162.697006502292
 10
876.1434958432927
 20
4162.697006502292
 10
875.7560053897121
 20
4162.566714174039
 10
875.6257130622124
 20
4162.697006502291
 10
629.0604549056569
 20
4162.697006502292
 10
629.0604549056459
 20
4161.203968335782
 10
629.7195216621129
 20
4161.425425679722
 10
630.089620009914
 20
4161.055327334056
 10
629.7195216621092
 20
4160.841107848265
 10
629.0604549056532
 20
4160.619650504375
 10
629.0604549056569
 20
4158.146403329697
 10
629.7195216621092
 20
4158.368012252867
 10
630.0896200099177
 20
4157.9979139072
 10
629.7195216621056
 20
4157.783694421413
 10
629.0604549056532
 20
4157.562085498248
 10
629.0604549056532
 20
4155.088989903064
 10
629.7195216621056
 20
4155.310598826277
 10
630.089620009914
 20
4154.940500480614
 10
629.7195216621092
 20
4154.726280994831
 10
629.0604549056532
 20
4154.504672071662
 10
629.0604549056496
 20
4152.031576476483
 10
629.7195216621129
 20
4152.253185399695
 10
630.0896200099177
 20
4151.882175481572
 10
629.7195216621056
 20
4151.668867568246
 10
629.0604549056532
 20
4151.447258645033
 10
629.0604549056532
 20
4150.697006502292
 10
875.3489440927932
 20
4150.697006502292
 10
875.3859070461857
 20
4150.706247240639
 10
875.7560053897194
 20
4150.920466726429
 10
876.4150721461755
 20
4151.14207564964
 10
876.4150721461827
 20
4153.615171244996
 10
875.7560053897121
 20
4153.393562321826
 10
875.3859070461821
 20
4153.764572239678
 10
875.7560053897121
 20
4153.977880153011
 10
876.4150721461717
 20
4154.199489076222
 10
876.4150721461755
 20
4156.672584671581
 10
875.7560053897085
 20
4156.450975748415
 10
875.3859070461857
 20
4156.821985666268
 10
875.7560053897194
 20
4157.035293579858
 10
876.4150721461717
 20
4157.256902503025
 97
        0
 92
        7
 72
     0
 73
     1
 93
       25
 10
626.4150721461718
 20
4159.730758091349
 10
625.7560053897158
 20
4159.509300747454
 10
625.3859070461893
 20
4159.87939909285
 10
625.7560053897194
 20
4160.093618578637
 10
626.4150721461718
 20
4160.315075922573
 10
626.4150721461755
 20
4162.697006502292
 10
626.1434958432927
 20
4162.697006502292
 10
625.7560053897122
 20
4162.566714174041
 10
625.6257130622124
 20
4162.697006502292
 10
610.3305084287111
 20
4162.697006502292
 10
610.3305084287111
 20
4150.697006502292
 10
625.3489440927968
 20
4150.69700650229
 10
625.3859070461893
 20
4150.706247240637
 10
625.7560053897085
 20
4150.920466726424
 10
626.4150721461718
 20
4151.142075649636
 10
626.4150721461718
 20
4153.615171244995
 10
625.7560053897049
 20
4153.393562321826
 10
625.385907046182
 20
4153.764572239676
 10
625.7560053897012
 20
4153.977880153007
 10
626.4150721461718
 20
4154.199489076222
 10
626.4150721461755
 20
4156.672584671585
 10
625.7560053897122
 20
4156.450975748414
 10
625.3859070461857
 20
4156.821985666266
 10
625.7560053897194
 20
4157.035293579859
 10
626.4150721461682
 20
4157.256902503028
 97
        0
 75
     0
 76
     1
 52
90.0
 41
1.0
 77
     0
 78
     1
 53
135.0
 43
-27275.48032329535
 44
8015.287133506234
 45
-2.245064030267288
 46
-2.245064030267287
 79
     0
 47
0.4519862576681119
 98
        3
 10
883.8814886422277
 20
4158.54421206133
 10
850.4139635867812
 20
4158.54421206133
 10
617.4980826065965
 20
4158.996190096742
  0
LINE
  5
4B1
330
40C
100
AcDbEntity
  8
CETRIS
100
AcDbLine
 10
610.3305084287074
 20
4174.697006502293
 30
0.0
 11
892.8461277963341
 21
4174.697006502293
 31
0.0
  0
LINE
  5
4B2
330
40C
100
AcDbEntity
  8
STAVBA OBRYS
100
AcDbLine
 10
539.2022738309259
 20
4182.787224743666
 30
0.0
 11
539.202273830915
 21
4386.90116868942
 31
0.0
  0
LINE
  5
4B3
330
40C
100
AcDbEntity
  8
STAVBA OBRYS
  6
DASHED
100
AcDbLine
 10
525.0543764519878
 20
4182.787224743666
 30
0.0
 11
525.0543764519915
 21
4384.664131360117
 31
0.0
  0
LINE
  5
4B4
330
40C
100
AcDbEntity
  8
STAVBA OBRYS
100
AcDbLine
 10
510.0543764519878
 20
4182.787224743666
 30
0.0
 11
510.0543764519878
 21
4382.292361263066
 31
0.0
  0
LINE
  5
4B5
330
40C
100
AcDbEntity
  8
POPIS
100
AcDbLine
 10
592.8305084287038
 20
4172.451479661175
 30
0.0
 11
710.7839056853535
 21
4250.43038116275
 31
0.0
  0
LINE
  5
4B6
330
40C
100
AcDbEntity
  8
POPIS
100
AcDbLine
 10
658.3481992608702
 20
4251.545343669103
 30
0.0
 11
566.9601137995758
 21
4197.534447698
 31
0.0
  0
HATCH
  5
4B7
330
40C
100
AcDbEntity
  8
STAVBA OBRYS
100
AcDbHatch
 10
0.0
 20
0.0
 30
0.0
210
0.0
220
0.0
230
1.0
  2
ANSI31
 70
     0
 71
     0
 91
        2
 92
        7
 72
     0
 73
     1
 93
        4
 10
539.2022738309186
 20
4386.901168689421
 10
525.0543764519915
 20
4384.66413136012
 10
525.0543764519842
 20
4182.787224743666
 10
539.2022738309259
 20
4182.787224743666
 97
        0
 92
        7
 72
     0
 73
     1
 93
        4
 10
525.0543764519951
 20
4384.66413136012
 10
510.0543764519878
 20
4382.292361263066
 10
510.0543764519842
 20
4182.787224743666
 10
525.0543764519842
 20
4182.787224743666
 97
        0
 75
     0
 76
     1
 52
90.0
 41
2.5
 77
     0
 78
     1
 53
135.0
 43
-27275.48032329535
 44
8015.287133506234
 45
-5.612660075668221
 46
-5.61266007566822
 79
     0
 47
0.7248081470428233
 98
        2
 10
536.8761532958505
 20
4281.419018182059
 10
519.4700909146357
 20
4288.667098161344
  0
LWPOLYLINE
  5
4B8
330
40C
100
AcDbEntity
  8
izolace
100
AcDbPolyline
 90
        4
 70
     1
 43
0.0
 10
610.3305084287074
 20
4130.697006502292
 10
670.3305084287075
 20
4130.697006502292
 10
670.3305084287075
 20
4150.697006502293
 10
610.3305084287074
 20
4150.697006502293
  0
LINE
  5
4B9
330
40C
100
AcDbEntity
  8
SPOJOVACÍ
  6
DASHED
100
AcDbLine
 10
632.7359143389129
 20
4174.697006502293
 30
0.0
 11
622.7396127171904
 21
4174.697006502293
 31
0.0
  0
LINE
  5
4BA
330
40C
100
AcDbEntity
  8
SPOJOVACÍ
  6
DASHED
100
AcDbLine
 10
632.7359143389129
 20
4173.521078261095
 30
0.0
 11
622.7396127171904
 21
4173.521078261095
 31
0.0
  0
LINE
  5
4BB
330
40C
100
AcDbEntity
  8
SPOJOVACÍ
  6
DASHED
100
AcDbLine
 10
630.3248056546816
 20
4171.744423887727
 30
0.0
 11
629.5444997849498
 21
4170.451814394995
 31
0.0
  0
LINE
  5
4BC
330
40C
100
AcDbEntity
  8
SPOJOVACÍ
  6
DASHED
100
AcDbLine
 10
630.0896200099177
 20
4164.112740760638
 30
0.0
 11
625.3859070461857
 21
4162.936812519705
 31
0.0
  0
LINE
  5
4BD
330
40C
100
AcDbEntity
  8
SPOJOVACÍ
  6
DASHED
100
AcDbLine
 10
630.0896200099177
 20
4164.112740760638
 30
0.0
 11
629.7195216621129
 21
4163.899432847311
 31
0.0
  0
LINE
  5
4BE
330
40C
100
AcDbEntity
  8
SPOJOVACÍ
  6
DASHED
100
AcDbLine
 10
630.0896200099177
 20
4164.112740760638
 30
0.0
 11
629.7195216621129
 21
4164.483750678491
 31
0.0
  0
LINE
  5
4BF
330
40C
100
AcDbEntity
  8
SPOJOVACÍ
  6
DASHED
100
AcDbLine
 10
630.0896200099177
 20
4161.055327334056
 30
0.0
 11
625.3859070461857
 21
4159.879399092852
 31
0.0
  0
LINE
  5
4C0
330
40C
100
AcDbEntity
  8
SPOJOVACÍ
  6
DASHED
100
AcDbLine
 10
630.0896200099177
 20
4161.055327334056
 30
0.0
 11
629.7195216621129
 21
4160.841107848269
 31
0.0
  0
LINE
  5
4C1
330
40C
100
AcDbEntity
  8
SPOJOVACÍ
  6
DASHED
100
AcDbLine
 10
630.0896200099177
 20
4161.055327334056
 30
0.0
 11
629.7195216621129
 21
4161.425425679721
 31
0.0
  0
LINE
  5
4C2
330
40C
100
AcDbEntity
  8
SPOJOVACÍ
  6
DASHED
100
AcDbLine
 10
629.840760775385
 20
4148.866694379903
 30
0.0
 11
629.4697508580664
 21
4148.652474894117
 31
0.0
  0
LINE
  5
4C3
330
40C
100
AcDbEntity
  8
SPOJOVACÍ
  6
DASHED
100
AcDbLine
 10
629.840760775385
 20
4148.866694379903
 30
0.0
 11
629.4697508580664
 21
4149.236792725569
 31
0.0
  0
LINE
  5
4C4
330
40C
100
AcDbEntity
  8
SPOJOVACÍ
  6
DASHED
100
AcDbLine
 10
629.840760775385
 20
4148.866694379903
 30
0.0
 11
625.797937715697
 21
4147.913189775245
 31
0.0
  0
LINE
  5
4C5
330
40C
100
AcDbEntity
  8
SPOJOVACÍ
  6
DASHED
100
AcDbLine
 10
630.0896200099177
 20
4157.997913907202
 30
0.0
 11
625.3859070461857
 21
4156.821985666269
 31
0.0
  0
LINE
  5
4C6
330
40C
100
AcDbEntity
  8
SPOJOVACÍ
  6
DASHED
100
AcDbLine
 10
630.0896200099177
 20
4157.997913907202
 30
0.0
 11
629.7195216621129
 21
4157.783694421416
 31
0.0
  0
LINE
  5
4C7
330
40C
100
AcDbEntity
  8
SPOJOVACÍ
  6
DASHED
100
AcDbLine
 10
630.0896200099177
 20
4157.997913907202
 30
0.0
 11
629.7195216621129
 21
4158.368012252867
 31
0.0
  0
LINE
  5
4C8
330
40C
100
AcDbEntity
  8
SPOJOVACÍ
  6
DASHED
100
AcDbLine
 10
630.0896200099177
 20
4154.940500480612
 30
0.0
 11
625.3859070461857
 21
4153.764572239679
 31
0.0
  0
LINE
  5
4C9
330
40C
100
AcDbEntity
  8
SPOJOVACÍ
  6
DASHED
100
AcDbLine
 10
630.0896200099177
 20
4154.940500480612
 30
0.0
 11
629.7195216621129
 21
4154.726280994833
 31
0.0
  0
LINE
  5
4CA
330
40C
100
AcDbEntity
  8
SPOJOVACÍ
  6
DASHED
100
AcDbLine
 10
630.0896200099177
 20
4154.940500480612
 30
0.0
 11
629.7195216621129
 21
4155.310598826278
 31
0.0
  0
LINE
  5
4CB
330
40C
100
AcDbEntity
  8
SPOJOVACÍ
  6
DASHED
100
AcDbLine
 10
630.0896200099177
 20
4151.882175481571
 30
0.0
 11
625.3859070461857
 21
4150.706247240638
 31
0.0
  0
LINE
  5
4CC
330
40C
100
AcDbEntity
  8
SPOJOVACÍ
  6
DASHED
100
AcDbLine
 10
630.0896200099177
 20
4151.882175481571
 30
0.0
 11
629.7195216621129
 21
4151.668867568243
 31
0.0
  0
LINE
  5
4CD
330
40C
100
AcDbEntity
  8
SPOJOVACÍ
  6
DASHED
100
AcDbLine
 10
630.0896200099177
 20
4151.882175481571
 30
0.0
 11
629.7195216621129
 21
4152.253185399695
 31
0.0
  0
LWPOLYLINE
  5
4CE
330
40C
100
AcDbEntity
  8
STAVBA OBRYS
100
AcDbPolyline
 90
        8
 70
     0
 43
0.0
 10
634.3727922873312
 20
4150.697006502293
 42
-0.0168162630274195
 10
634.2377667082672
 20
4149.005968350173
 42
-0.0575155827655532
 10
633.5577344279244
 20
4145.906343689456
 42
-0.0310289133982999
 10
630.5549330830962
 20
4138.661316164811
 42
-0.0882970623535771
 10
628.9177111630031
 20
4136.420947114011
 42
-0.0171636441953577
 10
626.1043471011451
 20
4133.907029758765
 42
-0.0157521173632038
 10
622.8654922641088
 20
4131.375533706259
 42
-0.0014948023799519
 10
621.9327804165967
 20
4130.697006502292
 42
-0.0014948023799519
  0
LWPOLYLINE
  5
4CF
330
40C
100
AcDbEntity
  8
STAVBA OBRYS
100
AcDbPolyline
 90
        3
 70
     0
 43
0.0
 10
617.038905886411
 20
4145.179675806774
 10
633.7941235061387
 20
4136.795934938805
 10
639.8824684429654
 20
4130.697006502292
  0
HATCH
  5
4D0
330
40C
100
AcDbEntity
  8
izolace
100
AcDbHatch
 10
0.0
 20
0.0
 30
0.0
210
0.0
220
0.0
230
1.0
  2
SOLID
 70
     1
 71
     0
 91
        1
 92
        7
 72
     0
 73
     1
 93
        4
 10
486.9499565015011
 20
4130.697006502292
 10
486.9499565015047
 20
4127.697006502291
 10
510.5916892113363
 20
4127.697006502292
 10
510.5916892113399
 20
4130.697006502291
 97
        0
 75
     0
 76
     1
 47
0.1901250437635136
 98
        1
 10
496.3077512598446
 20
4129.880194951212
  0
LINE
  5
4D1
330
40C
100
AcDbEntity
  8
SPOJOVACÍ
  6
DASHED
100
AcDbLine
 10
530.941495195302
 20
4152.253185399695
 30
0.0
 11
534.9050114677027
 21
4150.920466726424
 31
0.0
  0
LINE
  5
4D2
330
40C
100
AcDbEntity
  8
SPOJOVACÍ
  6
DASHED
100
AcDbLine
 10
530.941495195302
 20
4151.668867568243
 30
0.0
 11
534.9050114677027
 21
4150.336148894972
 31
0.0
  0
LINE
  5
4D3
330
40C
100
AcDbEntity
  8
SPOJOVACÍ
  6
DASHED
100
AcDbLine
 10
535.2751098112292
 20
4150.706247240638
 30
0.0
 11
534.9050114677027
 21
4150.920466726424
 31
0.0
  0
LINE
  5
4D4
330
40C
100
AcDbEntity
  8
SPOJOVACÍ
  6
DASHED
100
AcDbLine
 10
535.2751098112292
 20
4150.706247240638
 30
0.0
 11
534.9050114677027
 21
4150.336148894972
 31
0.0
  0
LINE
  5
4D5
330
40C
100
AcDbEntity
  8
SPOJOVACÍ
  6
DASHED
100
AcDbLine
 10
530.5713968474973
 20
4151.882175481571
 30
0.0
 11
530.941495195302
 21
4152.253185399695
 31
0.0
  0
LINE
  5
4D6
330
40C
100
AcDbEntity
  8
SPOJOVACÍ
  6
DASHED
100
AcDbLine
 10
530.5713968474973
 20
4151.882175481571
 30
0.0
 11
530.941495195302
 21
4151.668867568243
 31
0.0
  0
LINE
  5
4D7
330
40C
100
AcDbEntity
  8
SPOJOVACÍ
  6
DASHED
100
AcDbLine
 10
530.5713968474973
 20
4151.882175481571
 30
0.0
 11
535.2751098112292
 21
4150.706247240638
 31
0.0
  0
LINE
  5
4D8
330
40C
100
AcDbEntity
  8
SPOJOVACÍ
  6
DASHED
100
AcDbLine
 10
530.941495195302
 20
4155.310598826278
 30
0.0
 11
534.9050114677027
 21
4153.977880153006
 31
0.0
  0
LINE
  5
4D9
330
40C
100
AcDbEntity
  8
SPOJOVACÍ
  6
DASHED
100
AcDbLine
 10
530.941495195302
 20
4154.726280994833
 30
0.0
 11
534.9050114677027
 21
4153.393562321826
 31
0.0
  0
LINE
  5
4DA
330
40C
100
AcDbEntity
  8
SPOJOVACÍ
  6
DASHED
100
AcDbLine
 10
535.2751098112292
 20
4153.764572239679
 30
0.0
 11
534.9050114677027
 21
4153.977880153006
 31
0.0
  0
LINE
  5
4DB
330
40C
100
AcDbEntity
  8
SPOJOVACÍ
  6
DASHED
100
AcDbLine
 10
535.2751098112292
 20
4153.764572239679
 30
0.0
 11
534.9050114677027
 21
4153.393562321826
 31
0.0
  0
LINE
  5
4DC
330
40C
100
AcDbEntity
  8
SPOJOVACÍ
  6
DASHED
100
AcDbLine
 10
530.5713968474973
 20
4154.940500480612
 30
0.0
 11
530.941495195302
 21
4155.310598826278
 31
0.0
  0
LINE
  5
4DD
330
40C
100
AcDbEntity
  8
SPOJOVACÍ
  6
DASHED
100
AcDbLine
 10
530.5713968474973
 20
4154.940500480612
 30
0.0
 11
530.941495195302
 21
4154.726280994833
 31
0.0
  0
LINE
  5
4DE
330
40C
100
AcDbEntity
  8
SPOJOVACÍ
  6
DASHED
100
AcDbLine
 10
530.5713968474973
 20
4154.940500480612
 30
0.0
 11
535.2751098112292
 21
4153.764572239679
 31
0.0
  0
LINE
  5
4DF
330
40C
100
AcDbEntity
  8
SPOJOVACÍ
  6
DASHED
100
AcDbLine
 10
530.941495195302
 20
4158.368012252867
 30
0.0
 11
534.9050114677027
 21
4157.03529357986
 31
0.0
  0
LINE
  5
4E0
330
40C
100
AcDbEntity
  8
SPOJOVACÍ
  6
DASHED
100
AcDbLine
 10
530.941495195302
 20
4157.783694421416
 30
0.0
 11
534.9050114677027
 21
4156.450975748415
 31
0.0
  0
LINE
  5
4E1
330
40C
100
AcDbEntity
  8
SPOJOVACÍ
  6
DASHED
100
AcDbLine
 10
535.2751098112292
 20
4156.821985666269
 30
0.0
 11
534.9050114677027
 21
4157.03529357986
 31
0.0
  0
LINE
  5
4E2
330
40C
100
AcDbEntity
  8
SPOJOVACÍ
  6
DASHED
100
AcDbLine
 10
535.2751098112292
 20
4156.821985666269
 30
0.0
 11
534.9050114677027
 21
4156.450975748415
 31
0.0
  0
LINE
  5
4E3
330
40C
100
AcDbEntity
  8
SPOJOVACÍ
  6
DASHED
100
AcDbLine
 10
530.5713968474973
 20
4157.997913907202
 30
0.0
 11
530.941495195302
 21
4158.368012252867
 31
0.0
  0
LINE
  5
4E4
330
40C
100
AcDbEntity
  8
SPOJOVACÍ
  6
DASHED
100
AcDbLine
 10
530.5713968474973
 20
4157.997913907202
 30
0.0
 11
530.941495195302
 21
4157.783694421416
 31
0.0
  0
LINE
  5
4E5
330
40C
100
AcDbEntity
  8
SPOJOVACÍ
  6
DASHED
100
AcDbLine
 10
530.5713968474973
 20
4157.997913907202
 30
0.0
 11
535.2751098112292
 21
4156.821985666269
 31
0.0
  0
LINE
  5
4E6
330
40C
100
AcDbEntity
  8
SPOJOVACÍ
  6
DASHED
100
AcDbLine
 10
531.9269048302756
 20
4142.958794433938
 30
0.0
 11
534.0381062289033
 21
4142.654329292479
 31
0.0
  0
LINE
  5
4E7
330
40C
100
AcDbEntity
  8
SPOJOVACÍ
  6
DASHED
100
AcDbLine
 10
532.2970031738021
 20
4143.328892779604
 30
0.0
 11
533.6680078853768
 21
4142.86763720607
 31
0.0
  0
LINE
  5
4E8
330
40C
100
AcDbEntity
  8
SPOJOVACÍ
  6
DASHED
100
AcDbLine
 10
532.2970031738021
 20
4142.744574948159
 30
0.0
 11
533.6680078853768
 21
4142.283319374626
 31
0.0
  0
LINE
  5
4E9
330
40C
100
AcDbEntity
  8
SPOJOVACÍ
  6
DASHED
100
AcDbLine
 10
534.0381062289033
 20
4142.654329292479
 30
0.0
 11
533.6680078853768
 21
4142.86763720607
 31
0.0
  0
LINE
  5
4EA
330
40C
100
AcDbEntity
  8
SPOJOVACÍ
  6
DASHED
100
AcDbLine
 10
534.0381062289033
 20
4142.654329292479
 30
0.0
 11
533.6680078853768
 21
4142.283319374626
 31
0.0
  0
LINE
  5
4EB
330
40C
100
AcDbEntity
  8
SPOJOVACÍ
  6
DASHED
100
AcDbLine
 10
531.9269048302756
 20
4142.958794433938
 30
0.0
 11
532.2970031738021
 21
4143.328892779604
 31
0.0
  0
LINE
  5
4EC
330
40C
100
AcDbEntity
  8
SPOJOVACÍ
  6
DASHED
100
AcDbLine
 10
531.9269048302756
 20
4142.958794433938
 30
0.0
 11
532.2970031738021
 21
4142.744574948159
 31
0.0
  0
LINE
  5
4ED
330
40C
100
AcDbEntity
  8
SPOJOVACÍ
  6
DASHED
100
AcDbLine
 10
531.3735804540137
 20
4145.912288620691
 30
0.0
 11
534.4273475921162
 21
4145.291507898257
 31
0.0
  0
LINE
  5
4EE
330
40C
100
AcDbEntity
  8
SPOJOVACÍ
  6
DASHED
100
AcDbLine
 10
531.7436788018183
 20
4146.283298538816
 30
0.0
 11
534.0572492485897
 21
4145.504815811584
 31
0.0
  0
LINE
  5
4EF
330
40C
100
AcDbEntity
  8
SPOJOVACÍ
  6
DASHED
100
AcDbLine
 10
531.7436788018183
 20
4145.698980707364
 30
0.0
 11
534.0572492485897
 21
4144.920497980403
 31
0.0
  0
LINE
  5
4F0
330
40C
100
AcDbEntity
  8
SPOJOVACÍ
  6
DASHED
100
AcDbLine
 10
534.4273475921162
 20
4145.291507898257
 30
0.0
 11
534.0572492485897
 21
4145.504815811584
 31
0.0
  0
LINE
  5
4F1
330
40C
100
AcDbEntity
  8
SPOJOVACÍ
  6
DASHED
100
AcDbLine
 10
534.4273475921162
 20
4145.291507898257
 30
0.0
 11
534.0572492485897
 21
4144.920497980403
 31
0.0
  0
LINE
  5
4F2
330
40C
100
AcDbEntity
  8
SPOJOVACÍ
  6
DASHED
100
AcDbLine
 10
531.3735804540137
 20
4145.912288620691
 30
0.0
 11
531.7436788018183
 21
4146.283298538816
 31
0.0
  0
LINE
  5
4F3
330
40C
100
AcDbEntity
  8
SPOJOVACÍ
  6
DASHED
100
AcDbLine
 10
531.3735804540137
 20
4145.912288620691
 30
0.0
 11
531.7436788018183
 21
4145.698980707364
 31
0.0
  0
LINE
  5
4F4
330
40C
100
AcDbEntity
  8
SPOJOVACÍ
  6
DASHED
100
AcDbLine
 10
530.8202560820299
 20
4148.866694379903
 30
0.0
 11
534.8630791417179
 21
4147.913189775245
 31
0.0
  0
LINE
  5
4F5
330
40C
100
AcDbEntity
  8
SPOJOVACÍ
  6
DASHED
100
AcDbLine
 10
531.1912659993485
 20
4149.236792725569
 30
0.0
 11
534.4929807981915
 21
4148.126497688572
 31
0.0
  0
LINE
  5
4F6
330
40C
100
AcDbEntity
  8
SPOJOVACÍ
  6
DASHED
100
AcDbLine
 10
531.1912659993485
 20
4148.652474894117
 30
0.0
 11
534.4929807981915
 21
4147.54217985712
 31
0.0
  0
LINE
  5
4F7
330
40C
100
AcDbEntity
  8
SPOJOVACÍ
  6
DASHED
100
AcDbLine
 10
534.8630791417179
 20
4147.913189775245
 30
0.0
 11
534.4929807981915
 21
4148.126497688572
 31
0.0
  0
LINE
  5
4F8
330
40C
100
AcDbEntity
  8
SPOJOVACÍ
  6
DASHED
100
AcDbLine
 10
534.8630791417179
 20
4147.913189775245
 30
0.0
 11
534.4929807981915
 21
4147.54217985712
 31
0.0
  0
LINE
  5
4F9
330
40C
100
AcDbEntity
  8
SPOJOVACÍ
  6
DASHED
100
AcDbLine
 10
530.8202560820299
 20
4148.866694379903
 30
0.0
 11
531.1912659993485
 21
4149.236792725569
 31
0.0
  0
LINE
  5
4FA
330
40C
100
AcDbEntity
  8
SPOJOVACÍ
  6
DASHED
100
AcDbLine
 10
530.8202560820299
 20
4148.866694379903
 30
0.0
 11
531.1912659993485
 21
4148.652474894117
 31
0.0
  0
LINE
  5
4FB
330
40C
100
AcDbEntity
  8
SPOJOVACÍ
  6
DASHED
100
AcDbLine
 10
530.941495195302
 20
4161.425425679721
 30
0.0
 11
534.9050114677027
 21
4160.093618578637
 31
0.0
  0
LINE
  5
4FC
330
40C
100
AcDbEntity
  8
SPOJOVACÍ
  6
DASHED
100
AcDbLine
 10
530.941495195302
 20
4160.841107848269
 30
0.0
 11
534.9050114677027
 21
4159.509300747457
 31
0.0
  0
LINE
  5
4FD
330
40C
100
AcDbEntity
  8
SPOJOVACÍ
  6
DASHED
100
AcDbLine
 10
535.2751098112292
 20
4159.879399092852
 30
0.0
 11
534.9050114677027
 21
4160.093618578637
 31
0.0
  0
LINE
  5
4FE
330
40C
100
AcDbEntity
  8
SPOJOVACÍ
  6
DASHED
100
AcDbLine
 10
535.2751098112292
 20
4159.879399092852
 30
0.0
 11
534.9050114677027
 21
4159.509300747457
 31
0.0
  0
LINE
  5
4FF
330
40C
100
AcDbEntity
  8
SPOJOVACÍ
  6
DASHED
100
AcDbLine
 10
530.5713968474973
 20
4161.055327334056
 30
0.0
 11
530.941495195302
 21
4161.425425679721
 31
0.0
  0
LINE
  5
500
330
40C
100
AcDbEntity
  8
SPOJOVACÍ
  6
DASHED
100
AcDbLine
 10
530.5713968474973
 20
4161.055327334056
 30
0.0
 11
530.941495195302
 21
4160.841107848269
 31
0.0
  0
LINE
  5
501
330
40C
100
AcDbEntity
  8
SPOJOVACÍ
  6
DASHED
100
AcDbLine
 10
530.5713968474973
 20
4161.055327334056
 30
0.0
 11
535.2751098112292
 21
4159.879399092852
 31
0.0
  0
LINE
  5
502
330
40C
100
AcDbEntity
  8
SPOJOVACÍ
  6
DASHED
100
AcDbLine
 10
530.941495195302
 20
4164.483750678491
 30
0.0
 11
534.9050114677027
 21
4163.151032005491
 31
0.0
  0
LINE
  5
503
330
40C
100
AcDbEntity
  8
SPOJOVACÍ
  6
DASHED
100
AcDbLine
 10
530.941495195302
 20
4163.899432847311
 30
0.0
 11
534.9050114677027
 21
4162.566714174039
 31
0.0
  0
LINE
  5
504
330
40C
100
AcDbEntity
  8
SPOJOVACÍ
  6
DASHED
100
AcDbLine
 10
535.2751098112292
 20
4162.936812519705
 30
0.0
 11
534.9050114677027
 21
4163.151032005491
 31
0.0
  0
LINE
  5
505
330
40C
100
AcDbEntity
  8
SPOJOVACÍ
  6
DASHED
100
AcDbLine
 10
535.2751098112292
 20
4162.936812519705
 30
0.0
 11
534.9050114677027
 21
4162.566714174039
 31
0.0
  0
LINE
  5
506
330
40C
100
AcDbEntity
  8
SPOJOVACÍ
  6
DASHED
100
AcDbLine
 10
530.5713968474973
 20
4164.112740760638
 30
0.0
 11
530.941495195302
 21
4164.483750678491
 31
0.0
  0
LINE
  5
507
330
40C
100
AcDbEntity
  8
SPOJOVACÍ
  6
DASHED
100
AcDbLine
 10
530.5713968474973
 20
4164.112740760638
 30
0.0
 11
530.941495195302
 21
4163.899432847311
 31
0.0
  0
LINE
  5
508
330
40C
100
AcDbEntity
  8
SPOJOVACÍ
  6
DASHED
100
AcDbLine
 10
530.5713968474973
 20
4164.112740760638
 30
0.0
 11
535.2751098112292
 21
4162.936812519705
 31
0.0
  0
LINE
  5
509
330
40C
100
AcDbEntity
  8
SPOJOVACÍ
  6
DASHED
100
AcDbLine
 10
534.0052896280048
 20
4148.299696421894
 30
0.0
 11
534.2459447112431
 21
4150.231318082955
 31
0.0
  0
LINE
  5
50A
330
40C
100
AcDbEntity
  8
SPOJOVACÍ
  6
DASHED
100
AcDbLine
 10
533.6734773152946
 20
4145.647021087314
 30
0.0
 11
533.9350985615254
 21
4147.74090261411
 31
0.0
  0
LINE
  5
50B
330
40C
100
AcDbEntity
  8
SPOJOVACÍ
  6
DASHED
100
AcDbLine
 10
533.340753437349
 20
4142.984318457869
 30
0.0
 11
533.6032862530936
 21
4145.086404135154
 31
0.0
  0
LINE
  5
50C
330
40C
100
AcDbEntity
  8
SPOJOVACÍ
  6
DASHED
100
AcDbLine
 10
532.5449508345426
 20
4142.674383882749
 30
0.0
 11
532.9232533293633
 21
4139.647052341301
 31
0.0
  0
LINE
  5
50D
330
40C
100
AcDbEntity
  8
SPOJOVACÍ
  6
DASHED
100
AcDbLine
 10
532.1848797856163
 20
4145.556775431634
 30
0.0
 11
532.4692903338672
 21
4143.282402593486
 31
0.0
  0
LINE
  5
50E
330
40C
100
AcDbEntity
  8
SPOJOVACÍ
  6
DASHED
100
AcDbLine
 10
531.8229855891058
 20
4148.450105847849
 30
0.0
 11
532.1073961416349
 21
4146.174821437505
 31
0.0
  0
LINE
  5
50F
330
40C
100
AcDbEntity
  8
SPOJOVACÍ
  6
DASHED
100
AcDbLine
 10
532.9232533293633
 20
4139.647052341301
 30
0.0
 11
533.2705623708696
 21
4142.426436222544
 31
0.0
  0
LINE
  5
510
330
40C
100
AcDbEntity
  8
SPOJOVACÍ
  6
DASHED
100
AcDbLine
 10
531.6005619517617
 20
4150.231318082955
 30
0.0
 11
531.7473250884303
 21
4149.058124558585
 31
0.0
  0
LINE
  5
511
330
40C
100
AcDbEntity
  8
SPOJOVACÍ
  6
DASHED
100
AcDbLine
 10
534.2459447112431
 20
4150.561307248081
 30
0.0
 11
534.2459447112431
 21
4150.231318082955
 31
0.0
  0
LINE
  5
512
330
40C
100
AcDbEntity
  8
SPOJOVACÍ
  6
DASHED
100
AcDbLine
 10
534.2459447112431
 20
4153.621455391761
 30
0.0
 11
534.2459447112431
 21
4151.152917657833
 31
0.0
  0
LINE
  5
513
330
40C
100
AcDbEntity
  8
SPOJOVACÍ
  6
DASHED
100
AcDbLine
 10
531.6005619517617
 20
4151.453736510005
 30
0.0
 11
531.6005619517617
 21
4150.231318082955
 31
0.0
  0
LINE
  5
514
330
40C
100
AcDbEntity
  8
SPOJOVACÍ
  6
DASHED
100
AcDbLine
 10
531.6005619517617
 20
4154.505680503198
 30
0.0
 11
531.6005619517617
 21
4152.038054341457
 31
0.0
  0
LINE
  5
515
330
40C
100
AcDbEntity
  8
SPOJOVACÍ
  6
DASHED
100
AcDbLine
 10
534.2459447112431
 20
4156.680691962991
 30
0.0
 11
534.2459447112431
 21
4154.210331084416
 31
0.0
  0
LINE
  5
516
330
40C
100
AcDbEntity
  8
SPOJOVACÍ
  6
DASHED
100
AcDbLine
 10
534.2459447112431
 20
4159.740840106407
 30
0.0
 11
534.2459447112431
 21
4157.263186649795
 31
0.0
  0
LINE
  5
517
330
40C
100
AcDbEntity
  8
SPOJOVACÍ
  6
DASHED
100
AcDbLine
 10
534.2459447112431
 20
4162.793695671787
 30
0.0
 11
534.2459447112431
 21
4160.325157937859
 31
0.0
  0
LINE
  5
518
330
40C
100
AcDbEntity
  8
SPOJOVACÍ
  6
DASHED
100
AcDbLine
 10
531.6005619517617
 20
4157.575855941749
 30
0.0
 11
531.6005619517617
 21
4155.098202485138
 31
0.0
  0
LINE
  5
519
330
40C
100
AcDbEntity
  8
SPOJOVACÍ
  6
DASHED
100
AcDbLine
 10
531.6005619517617
 20
4160.62871150713
 30
0.0
 11
531.6005619517617
 21
4158.158350628555
 31
0.0
  0
LINE
  5
51A
330
40C
100
AcDbEntity
  8
SPOJOVACÍ
  6
DASHED
100
AcDbLine
 10
531.6005619517617
 20
4163.688859650547
 30
0.0
 11
531.6005619517617
 21
4161.220321916618
 31
0.0
  0
LINE
  5
51B
330
40C
100
AcDbEntity
  8
SPOJOVACÍ
  6
DASHED
100
AcDbLine
 10
531.6005619517617
 20
4168.229401176626
 30
0.0
 11
531.6005619517617
 21
4164.27226590954
 31
0.0
  0
LINE
  5
51C
330
40C
100
AcDbEntity
  8
SPOJOVACÍ
  6
DASHED
100
AcDbLine
 10
534.2459447112431
 20
4168.229401176626
 30
0.0
 11
534.2459447112431
 21
4163.385306081276
 31
0.0
  0
LINE
  5
51D
330
40C
100
AcDbEntity
  8
SPOJOVACÍ
  6
DASHED
100
AcDbLine
 10
527.925102518502
 20
4173.521078261095
 30
0.0
 11
529.2477939003819
 21
4172.791820437351
 31
0.0
  0
LINE
  5
51E
330
40C
100
AcDbEntity
  8
SPOJOVACÍ
  6
DASHED
100
AcDbLine
 10
529.2477939003819
 20
4172.791820437351
 30
0.0
 11
530.3362112027333
 21
4171.744423887727
 31
0.0
  0
LINE
  5
51F
330
40C
100
AcDbEntity
  8
SPOJOVACÍ
  6
DASHED
100
AcDbLine
 10
530.3362112027333
 20
4171.744423887727
 30
0.0
 11
531.1165170724652
 21
4170.451814394995
 31
0.0
  0
LINE
  5
520
330
40C
100
AcDbEntity
  8
SPOJOVACÍ
  6
DASHED
100
AcDbLine
 10
531.1165170724652
 20
4170.451814394995
 30
0.0
 11
531.5358403194785
 21
4169.000591325286
 31
0.0
  0
LINE
  5
521
330
40C
100
AcDbEntity
  8
SPOJOVACÍ
  6
DASHED
100
AcDbLine
 10
531.5358403194785
 20
4169.000591325286
 30
0.0
 11
531.6005619517617
 21
4168.229401176626
 31
0.0
  0
LINE
  5
522
330
40C
100
AcDbEntity
  8
SPOJOVACÍ
  6
DASHED
100
AcDbLine
 10
536.0080139250584
 20
4172.291367255737
 30
0.0
 11
537.2204050577801
 21
4173.191089095969
 31
0.0
  0
LINE
  5
523
330
40C
100
AcDbEntity
  8
SPOJOVACÍ
  6
DASHED
100
AcDbLine
 10
537.2204050577801
 20
4173.191089095969
 30
0.0
 11
537.9214041402246
 21
4173.521078261095
 31
0.0
  0
LINE
  5
524
330
40C
100
AcDbEntity
  8
SPOJOVACÍ
  6
DASHED
100
AcDbLine
 10
527.925102518502
 20
4173.521078261095
 30
0.0
 11
537.9214041402246
 21
4173.521078261095
 31
0.0
  0
LINE
  5
525
330
40C
100
AcDbEntity
  8
SPOJOVACÍ
  6
DASHED
100
AcDbLine
 10
527.925102518502
 20
4174.697006502293
 30
0.0
 11
527.925102518502
 21
4173.521078261095
 31
0.0
  0
LINE
  5
526
330
40C
100
AcDbEntity
  8
SPOJOVACÍ
  6
DASHED
100
AcDbLine
 10
527.925102518502
 20
4174.697006502293
 30
0.0
 11
537.9214041402246
 21
4174.697006502293
 31
0.0
  0
LINE
  5
527
330
40C
100
AcDbEntity
  8
SPOJOVACÍ
  6
DASHED
100
AcDbLine
 10
537.9214041402246
 20
4174.697006502293
 30
0.0
 11
537.9214041402246
 21
4173.521078261095
 31
0.0
  0
LINE
  5
528
330
40C
100
AcDbEntity
  8
SPOJOVACÍ
  6
DASHED
100
AcDbLine
 10
534.2459447112431
 20
4168.229401176626
 30
0.0
 11
534.4683683443089
 21
4169.722556570987
 31
0.0
  0
LINE
  5
529
330
40C
100
AcDbEntity
  8
SPOJOVACÍ
  6
DASHED
100
AcDbLine
 10
534.4683683443089
 20
4169.722556570987
 30
0.0
 11
535.0690944764736
 21
4171.108146436496
 31
0.0
  0
LINE
  5
52A
330
40C
100
AcDbEntity
  8
SPOJOVACÍ
  6
DASHED
100
AcDbLine
 10
535.0690944764736
 20
4171.108146436496
 30
0.0
 11
536.0080139250584
 21
4172.291367255737
 31
0.0
  0
HATCH
  5
52B
330
40C
100
AcDbEntity
  8
izolace
100
AcDbHatch
 10
0.0
 20
0.0
 30
0.0
210
0.0
220
0.0
230
1.0
  2
SOLID
 70
     1
 71
     0
 91
        1
 92
        7
 72
     0
 73
     1
 93
        4
 10
536.0151752302425
 20
4130.697006502292
 10
536.0151752302462
 20
4127.697006502291
 10
559.6569079400778
 20
4127.697006502292
 10
559.6569079400814
 20
4130.697006502291
 97
        0
 75
     0
 76
     1
 47
0.1901250437635136
 98
        1
 10
545.3729699885861
 20
4129.880194951212
  0
LWPOLYLINE
  5
52C
330
40C
100
AcDbEntity
  8
STAVBA OBRYS
100
AcDbPolyline
 90
        4
 70
     1
 43
0.0
 10
559.6569079400778
 20
4130.697006502292
 10
536.0151752302425
 20
4130.697006502292
 10
536.0151752302425
 20
4127.697006502292
 10
559.6569079400778
 20
4127.697006502292
  0
HATCH
  5
52D
330
40C
100
AcDbEntity
  8
izolace
100
AcDbHatch
 10
0.0
 20
0.0
 30
0.0
210
0.0
220
0.0
230
1.0
  2
SOLID
 70
     1
 71
     0
 91
        1
 92
        7
 72
     0
 73
     1
 93
        4
 10
583.2986406499129
 20
4130.697006502292
 10
583.2986406499165
 20
4127.697006502291
 10
606.9403733597518
 20
4127.697006502292
 10
606.9403733597518
 20
4130.697006502291
 97
        0
 75
     0
 76
     1
 47
0.1901250437635136
 98
        1
 10
592.6564354082564
 20
4129.880194951212
  0
LWPOLYLINE
  5
52E
330
40C
100
AcDbEntity
  8
STAVBA OBRYS
100
AcDbPolyline
 90
        4
 70
     1
 43
0.0
 10
606.9403733597481
 20
4130.697006502292
 10
583.2986406499129
 20
4130.697006502292
 10
583.2986406499129
 20
4127.697006502292
 10
606.9403733597481
 20
4127.697006502292
  0
LWPOLYLINE
  5
52F
330
40C
100
AcDbEntity
  8
STAVBA OBRYS
100
AcDbPolyline
 90
        4
 70
     1
 43
0.0
 10
595.3305084287075
 20
4174.697006502293
 10
610.3305084287074
 20
4174.697006502293
 10
610.3305084287074
 20
4130.697006502292
 10
595.3305084287075
 20
4130.697006502292
  0
LWPOLYLINE
  5
530
330
40C
100
AcDbEntity
  8
STAVBA OBRYS
100
AcDbPolyline
 90
        4
 70
     0
 43
0.0
 10
550.3305084287075
 20
4174.697006502293
 10
550.3305084287075
 20
4130.697006502292
 10
565.3305084287075
 20
4130.697006502292
 10
565.3305084287075
 20
4174.697006502293
  0
LWPOLYLINE
  5
531
330
40C
100
AcDbEntity
  8
izolace
100
AcDbPolyline
 90
        4
 70
     1
 43
0.0
 10
550.3305084287075
 20
4130.697006502292
 10
490.3305084287075
 20
4130.697006502292
 10
490.3305084287075
 20
4150.697006502293
 10
550.3305084287075
 20
4150.697006502293
  0
LINE
  5
532
330
40C
100
AcDbEntity
  8
SPOJOVACÍ
  6
DASHED
100
AcDbLine
 10
625.5919223809414
 20
4171.108146436496
 30
0.0
 11
624.6530029323565
 21
4172.291367255737
 31
0.0
  0
LINE
  5
533
330
40C
100
AcDbEntity
  8
SPOJOVACÍ
  6
DASHED
100
AcDbLine
 10
626.192648513106
 20
4169.722556570987
 30
0.0
 11
625.5919223809414
 21
4171.108146436496
 31
0.0
  0
LINE
  5
534
330
40C
100
AcDbEntity
  8
SPOJOVACÍ
  6
DASHED
100
AcDbLine
 10
626.4150721461718
 20
4168.229401176626
 30
0.0
 11
626.192648513106
 21
4169.722556570987
 31
0.0
  0
LINE
  5
535
330
40C
100
AcDbEntity
  8
SPOJOVACÍ
  6
DASHED
100
AcDbLine
 10
622.7396127171904
 20
4174.697006502293
 30
0.0
 11
622.7396127171904
 21
4173.521078261095
 31
0.0
  0
LINE
  5
536
330
40C
100
AcDbEntity
  8
SPOJOVACÍ
  6
DASHED
100
AcDbLine
 10
623.4406117996349
 20
4173.191089095969
 30
0.0
 11
622.7396127171904
 21
4173.521078261095
 31
0.0
  0
LINE
  5
537
330
40C
100
AcDbEntity
  8
SPOJOVACÍ
  6
DASHED
100
AcDbLine
 10
624.6530029323565
 20
4172.291367255737
 30
0.0
 11
623.4406117996349
 21
4173.191089095969
 31
0.0
  0
LINE
  5
538
330
40C
100
AcDbEntity
  8
SPOJOVACÍ
  6
DASHED
100
AcDbLine
 10
629.1251765379364
 20
4169.000591325286
 30
0.0
 11
629.0604549056532
 21
4168.229401176626
 31
0.0
  0
LINE
  5
539
330
40C
100
AcDbEntity
  8
SPOJOVACÍ
  6
DASHED
100
AcDbLine
 10
629.5444997849498
 20
4170.451814394995
 30
0.0
 11
629.1251765379364
 21
4169.000591325286
 31
0.0
  0
LINE
  5
53A
330
40C
100
AcDbEntity
  8
SPOJOVACÍ
  6
DASHED
100
AcDbLine
 10
626.4150721461718
 20
4168.229401176626
 30
0.0
 11
626.4150721461718
 21
4163.385306081276
 31
0.0
  0
LINE
  5
53B
330
40C
100
AcDbEntity
  8
SPOJOVACÍ
  6
DASHED
100
AcDbLine
 10
629.0604549056532
 20
4168.229401176626
 30
0.0
 11
629.0604549056532
 21
4164.27226590954
 31
0.0
  0
LINE
  5
53C
330
40C
100
AcDbEntity
  8
SPOJOVACÍ
  6
DASHED
100
AcDbLine
 10
629.0604549056532
 20
4163.688859650547
 30
0.0
 11
629.0604549056532
 21
4161.220321916618
 31
0.0
  0
LINE
  5
53D
330
40C
100
AcDbEntity
  8
SPOJOVACÍ
  6
DASHED
100
AcDbLine
 10
629.0604549056532
 20
4160.62871150713
 30
0.0
 11
629.0604549056532
 21
4158.158350628555
 31
0.0
  0
LINE
  5
53E
330
40C
100
AcDbEntity
  8
SPOJOVACÍ
  6
DASHED
100
AcDbLine
 10
629.0604549056532
 20
4157.575855941749
 30
0.0
 11
629.0604549056532
 21
4155.098202485138
 31
0.0
  0
LINE
  5
53F
330
40C
100
AcDbEntity
  8
SPOJOVACÍ
  6
DASHED
100
AcDbLine
 10
626.4150721461718
 20
4162.793695671787
 30
0.0
 11
626.4150721461718
 21
4160.325157937859
 31
0.0
  0
LINE
  5
540
330
40C
100
AcDbEntity
  8
SPOJOVACÍ
  6
DASHED
100
AcDbLine
 10
626.4150721461718
 20
4159.740840106407
 30
0.0
 11
626.4150721461718
 21
4157.263186649795
 31
0.0
  0
LINE
  5
541
330
40C
100
AcDbEntity
  8
SPOJOVACÍ
  6
DASHED
100
AcDbLine
 10
626.4150721461718
 20
4156.680691962991
 30
0.0
 11
626.4150721461718
 21
4154.210331084416
 31
0.0
  0
LINE
  5
542
330
40C
100
AcDbEntity
  8
SPOJOVACÍ
  6
DASHED
100
AcDbLine
 10
629.0604549056532
 20
4154.505680503198
 30
0.0
 11
629.0604549056532
 21
4152.038054341457
 31
0.0
  0
LINE
  5
543
330
40C
100
AcDbEntity
  8
SPOJOVACÍ
  6
DASHED
100
AcDbLine
 10
629.0604549056532
 20
4151.453736510005
 30
0.0
 11
629.0604549056532
 21
4150.231318082955
 31
0.0
  0
LINE
  5
544
330
40C
100
AcDbEntity
  8
SPOJOVACÍ
  6
DASHED
100
AcDbLine
 10
626.4150721461718
 20
4153.621455391761
 30
0.0
 11
626.4150721461718
 21
4151.152917657833
 31
0.0
  0
LINE
  5
545
330
40C
100
AcDbEntity
  8
SPOJOVACÍ
  6
DASHED
100
AcDbLine
 10
626.4150721461718
 20
4150.561307248081
 30
0.0
 11
626.4150721461718
 21
4150.231318082955
 31
0.0
  0
LINE
  5
546
330
40C
100
AcDbEntity
  8
SPOJOVACÍ
  6
DASHED
100
AcDbLine
 10
629.0604549056532
 20
4150.231318082955
 30
0.0
 11
628.9136917689846
 21
4149.058124558585
 31
0.0
  0
LINE
  5
547
330
40C
100
AcDbEntity
  8
SPOJOVACÍ
  6
DASHED
100
AcDbLine
 10
627.7377635280516
 20
4139.647052341301
 30
0.0
 11
627.3904544865453
 21
4142.426436222544
 31
0.0
  0
LINE
  5
548
330
40C
100
AcDbEntity
  8
SPOJOVACÍ
  6
DASHED
100
AcDbLine
 10
628.8380312683092
 20
4148.450105847849
 30
0.0
 11
628.55362071578
 21
4146.174821437505
 31
0.0
  0
LINE
  5
549
330
40C
100
AcDbEntity
  8
SPOJOVACÍ
  6
DASHED
100
AcDbLine
 10
628.4761370717987
 20
4145.556775431634
 30
0.0
 11
628.1917265235477
 21
4143.282402593486
 31
0.0
  0
LINE
  5
54A
330
40C
100
AcDbEntity
  8
SPOJOVACÍ
  6
DASHED
100
AcDbLine
 10
628.1160660228723
 20
4142.674383882749
 30
0.0
 11
627.7377635280516
 21
4139.647052341301
 31
0.0
  0
LINE
  5
54B
330
40C
100
AcDbEntity
  8
SPOJOVACÍ
  6
DASHED
100
AcDbLine
 10
627.320263420066
 20
4142.984318457869
 30
0.0
 11
627.0577306043214
 21
4145.086404135154
 31
0.0
  0
LINE
  5
54C
330
40C
100
AcDbEntity
  8
SPOJOVACÍ
  6
DASHED
100
AcDbLine
 10
626.9875395421203
 20
4145.647021087314
 30
0.0
 11
626.7259182958895
 21
4147.74090261411
 31
0.0
  0
LINE
  5
54D
330
40C
100
AcDbEntity
  8
SPOJOVACÍ
  6
DASHED
100
AcDbLine
 10
626.6557272294102
 20
4148.299696421894
 30
0.0
 11
626.4150721461718
 21
4150.231318082955
 31
0.0
  0
LINE
  5
54E
330
40C
100
AcDbEntity
  8
SPOJOVACÍ
  6
DASHED
100
AcDbLine
 10
625.3859070461857
 20
4162.936812519705
 30
0.0
 11
625.7560053897122
 21
4162.566714174039
 31
0.0
  0
LINE
  5
54F
330
40C
100
AcDbEntity
  8
SPOJOVACÍ
  6
DASHED
100
AcDbLine
 10
625.3859070461857
 20
4162.936812519705
 30
0.0
 11
625.7560053897122
 21
4163.151032005491
 31
0.0
  0
LINE
  5
550
330
40C
100
AcDbEntity
  8
SPOJOVACÍ
  6
DASHED
100
AcDbLine
 10
629.7195216621129
 20
4163.899432847311
 30
0.0
 11
625.7560053897122
 21
4162.566714174039
 31
0.0
  0
LINE
  5
551
330
40C
100
AcDbEntity
  8
SPOJOVACÍ
  6
DASHED
100
AcDbLine
 10
629.7195216621129
 20
4164.483750678491
 30
0.0
 11
625.7560053897122
 21
4163.151032005491
 31
0.0
  0
LINE
  5
552
330
40C
100
AcDbEntity
  8
SPOJOVACÍ
  6
DASHED
100
AcDbLine
 10
625.3859070461857
 20
4159.879399092852
 30
0.0
 11
625.7560053897122
 21
4159.509300747457
 31
0.0
  0
LINE
  5
553
330
40C
100
AcDbEntity
  8
SPOJOVACÍ
  6
DASHED
100
AcDbLine
 10
625.3859070461857
 20
4159.879399092852
 30
0.0
 11
625.7560053897122
 21
4160.093618578637
 31
0.0
  0
LINE
  5
554
330
40C
100
AcDbEntity
  8
SPOJOVACÍ
  6
DASHED
100
AcDbLine
 10
629.7195216621129
 20
4160.841107848269
 30
0.0
 11
625.7560053897122
 21
4159.509300747457
 31
0.0
  0
LINE
  5
555
330
40C
100
AcDbEntity
  8
SPOJOVACÍ
  6
DASHED
100
AcDbLine
 10
629.7195216621129
 20
4161.425425679721
 30
0.0
 11
625.7560053897122
 21
4160.093618578637
 31
0.0
  0
LINE
  5
556
330
40C
100
AcDbEntity
  8
SPOJOVACÍ
  6
DASHED
100
AcDbLine
 10
625.797937715697
 20
4147.913189775245
 30
0.0
 11
626.1680360592235
 21
4147.54217985712
 31
0.0
  0
LINE
  5
557
330
40C
100
AcDbEntity
  8
SPOJOVACÍ
  6
DASHED
100
AcDbLine
 10
625.797937715697
 20
4147.913189775245
 30
0.0
 11
626.1680360592235
 21
4148.126497688572
 31
0.0
  0
LINE
  5
558
330
40C
100
AcDbEntity
  8
SPOJOVACÍ
  6
DASHED
100
AcDbLine
 10
629.4697508580664
 20
4148.652474894117
 30
0.0
 11
626.1680360592235
 21
4147.54217985712
 31
0.0
  0
LINE
  5
559
330
40C
100
AcDbEntity
  8
SPOJOVACÍ
  6
DASHED
100
AcDbLine
 10
629.4697508580664
 20
4149.236792725569
 30
0.0
 11
626.1680360592235
 21
4148.126497688572
 31
0.0
  0
LINE
  5
55A
330
40C
100
AcDbEntity
  8
SPOJOVACÍ
  6
DASHED
100
AcDbLine
 10
629.2874364034013
 20
4145.912288620691
 30
0.0
 11
628.9173380555966
 21
4145.698980707364
 31
0.0
  0
LINE
  5
55B
330
40C
100
AcDbEntity
  8
SPOJOVACÍ
  6
DASHED
100
AcDbLine
 10
629.2874364034013
 20
4145.912288620691
 30
0.0
 11
628.9173380555966
 21
4146.283298538816
 31
0.0
  0
LINE
  5
55C
330
40C
100
AcDbEntity
  8
SPOJOVACÍ
  6
DASHED
100
AcDbLine
 10
626.2336692652987
 20
4145.291507898257
 30
0.0
 11
626.6037676088252
 21
4144.920497980403
 31
0.0
  0
LINE
  5
55D
330
40C
100
AcDbEntity
  8
SPOJOVACÍ
  6
DASHED
100
AcDbLine
 10
626.2336692652987
 20
4145.291507898257
 30
0.0
 11
626.6037676088252
 21
4145.504815811584
 31
0.0
  0
LINE
  5
55E
330
40C
100
AcDbEntity
  8
SPOJOVACÍ
  6
DASHED
100
AcDbLine
 10
628.9173380555966
 20
4145.698980707364
 30
0.0
 11
626.6037676088252
 21
4144.920497980403
 31
0.0
  0
LINE
  5
55F
330
40C
100
AcDbEntity
  8
SPOJOVACÍ
  6
DASHED
100
AcDbLine
 10
628.9173380555966
 20
4146.283298538816
 30
0.0
 11
626.6037676088252
 21
4145.504815811584
 31
0.0
  0
LINE
  5
560
330
40C
100
AcDbEntity
  8
SPOJOVACÍ
  6
DASHED
100
AcDbLine
 10
629.2874364034013
 20
4145.912288620691
 30
0.0
 11
626.2336692652987
 21
4145.291507898257
 31
0.0
  0
LINE
  5
561
330
40C
100
AcDbEntity
  8
SPOJOVACÍ
  6
DASHED
100
AcDbLine
 10
628.7341120271393
 20
4142.958794433938
 30
0.0
 11
628.3640136836128
 21
4142.744574948159
 31
0.0
  0
LINE
  5
562
330
40C
100
AcDbEntity
  8
SPOJOVACÍ
  6
DASHED
100
AcDbLine
 10
628.7341120271393
 20
4142.958794433938
 30
0.0
 11
628.3640136836128
 21
4143.328892779604
 31
0.0
  0
LINE
  5
563
330
40C
100
AcDbEntity
  8
SPOJOVACÍ
  6
DASHED
100
AcDbLine
 10
626.6229106285116
 20
4142.654329292479
 30
0.0
 11
626.9930089720381
 21
4142.283319374626
 31
0.0
  0
LINE
  5
564
330
40C
100
AcDbEntity
  8
SPOJOVACÍ
  6
DASHED
100
AcDbLine
 10
626.6229106285116
 20
4142.654329292479
 30
0.0
 11
626.9930089720381
 21
4142.86763720607
 31
0.0
  0
LINE
  5
565
330
40C
100
AcDbEntity
  8
SPOJOVACÍ
  6
DASHED
100
AcDbLine
 10
628.3640136836128
 20
4142.744574948159
 30
0.0
 11
626.9930089720381
 21
4142.283319374626
 31
0.0
  0
LINE
  5
566
330
40C
100
AcDbEntity
  8
SPOJOVACÍ
  6
DASHED
100
AcDbLine
 10
628.3640136836128
 20
4143.328892779604
 30
0.0
 11
626.9930089720381
 21
4142.86763720607
 31
0.0
  0
LINE
  5
567
330
40C
100
AcDbEntity
  8
SPOJOVACÍ
  6
DASHED
100
AcDbLine
 10
628.7341120271393
 20
4142.958794433938
 30
0.0
 11
626.6229106285116
 21
4142.654329292479
 31
0.0
  0
LINE
  5
568
330
40C
100
AcDbEntity
  8
SPOJOVACÍ
  6
DASHED
100
AcDbLine
 10
625.3859070461857
 20
4156.821985666269
 30
0.0
 11
625.7560053897122
 21
4156.450975748415
 31
0.0
  0
LINE
  5
569
330
40C
100
AcDbEntity
  8
SPOJOVACÍ
  6
DASHED
100
AcDbLine
 10
625.3859070461857
 20
4156.821985666269
 30
0.0
 11
625.7560053897122
 21
4157.03529357986
 31
0.0
  0
LINE
  5
56A
330
40C
100
AcDbEntity
  8
SPOJOVACÍ
  6
DASHED
100
AcDbLine
 10
629.7195216621129
 20
4157.783694421416
 30
0.0
 11
625.7560053897122
 21
4156.450975748415
 31
0.0
  0
LINE
  5
56B
330
40C
100
AcDbEntity
  8
SPOJOVACÍ
  6
DASHED
100
AcDbLine
 10
629.7195216621129
 20
4158.368012252867
 30
0.0
 11
625.7560053897122
 21
4157.03529357986
 31
0.0
  0
LINE
  5
56C
330
40C
100
AcDbEntity
  8
SPOJOVACÍ
  6
DASHED
100
AcDbLine
 10
625.3859070461857
 20
4153.764572239679
 30
0.0
 11
625.7560053897122
 21
4153.393562321826
 31
0.0
  0
LINE
  5
56D
330
40C
100
AcDbEntity
  8
SPOJOVACÍ
  6
DASHED
100
AcDbLine
 10
625.3859070461857
 20
4153.764572239679
 30
0.0
 11
625.7560053897122
 21
4153.977880153006
 31
0.0
  0
LINE
  5
56E
330
40C
100
AcDbEntity
  8
SPOJOVACÍ
  6
DASHED
100
AcDbLine
 10
629.7195216621129
 20
4154.726280994833
 30
0.0
 11
625.7560053897122
 21
4153.393562321826
 31
0.0
  0
LINE
  5
56F
330
40C
100
AcDbEntity
  8
SPOJOVACÍ
  6
DASHED
100
AcDbLine
 10
629.7195216621129
 20
4155.310598826278
 30
0.0
 11
625.7560053897122
 21
4153.977880153006
 31
0.0
  0
LINE
  5
570
330
40C
100
AcDbEntity
  8
SPOJOVACÍ
  6
DASHED
100
AcDbLine
 10
625.3859070461857
 20
4150.706247240638
 30
0.0
 11
625.7560053897122
 21
4150.336148894972
 31
0.0
  0
LINE
  5
571
330
40C
100
AcDbEntity
  8
SPOJOVACÍ
  6
DASHED
100
AcDbLine
 10
625.3859070461857
 20
4150.706247240638
 30
0.0
 11
625.7560053897122
 21
4150.920466726424
 31
0.0
  0
LINE
  5
572
330
40C
100
AcDbEntity
  8
SPOJOVACÍ
  6
DASHED
100
AcDbLine
 10
629.7195216621129
 20
4151.668867568243
 30
0.0
 11
625.7560053897122
 21
4150.336148894972
 31
0.0
  0
LINE
  5
573
330
40C
100
AcDbEntity
  8
SPOJOVACÍ
  6
DASHED
100
AcDbLine
 10
629.7195216621129
 20
4152.253185399695
 30
0.0
 11
625.7560053897122
 21
4150.920466726424
 31
0.0
  0
LINE
  5
574
330
40C
100
AcDbEntity
  8
STAVBA OBRYS
100
AcDbLine
 10
540.0543764519842
 20
4182.787224743666
 30
0.0
 11
625.0584494487902
 21
4182.787224743666
 31
0.0
  0
LINE
  5
575
330
40C
100
AcDbEntity
  8
STAVBA OBRYS
100
AcDbLine
 10
625.0584494487902
 20
4182.787224743666
 30
0.0
 11
625.0584494487902
 21
4200.787224743666
 31
0.0
  0
LINE
  5
576
330
40C
100
AcDbEntity
  8
STAVBA OBRYS
100
AcDbLine
 10
542.0543764519878
 20
4202.787224743666
 30
0.0
 11
623.0584494487901
 21
4202.787224743666
 31
0.0
  0
LINE
  5
577
330
40C
100
AcDbEntity
  8
STAVBA OBRYS
100
AcDbLine
 10
540.0543764519842
 20
4182.787224743666
 30
0.0
 11
540.0543764519879
 21
4200.787224743666
 31
0.0
  0
LINE
  5
578
330
40C
100
AcDbEntity
  8
STAVBA OBRYS
100
AcDbLine
 10
623.0584494487901
 20
4202.787224743666
 30
0.0
 11
625.0584494487902
 21
4200.787224743666
 31
0.0
  0
LINE
  5
579
330
40C
100
AcDbEntity
  8
STAVBA OBRYS
100
AcDbLine
 10
542.0543764519878
 20
4202.787224743666
 30
0.0
 11
540.0543764519879
 21
4200.787224743666
 31
0.0
  0
LINE
  5
57A
330
40C
100
AcDbEntity
  8
STAVBA OBRYS
100
AcDbLine
 10
539.2022738309259
 20
4182.787224743666
 30
0.0
 11
510.0543764519878
 21
4182.787224743666
 31
0.0
  0
LINE
  5
57B
330
40C
100
AcDbEntity
  8
STAVBA OBRYS
  6
IZOLACE
 48
0.7
100
AcDbLine
 10
557.8305084287075
 20
4130.697006502292
 30
0.0
 11
557.8305084287075
 21
4174.697006502293
 31
0.0
  0
LINE
  5
57C
330
40C
100
AcDbEntity
  8
STAVBA OBRYS
  6
IZOLACE
 48
0.7
100
AcDbLine
 10
602.8305084287075
 20
4130.697006502292
 30
0.0
 11
602.8305084287075
 21
4174.697006502293
 31
0.0
  0
LINE
  5
57D
330
40C
100
AcDbEntity
  8
izolace
100
AcDbLine
 10
566.3305084287111
 20
4163.520790994225
 30
0.0
 11
566.3305084287075
 21
4173.748303069987
 31
0.0
  0
LINE
  5
57E
330
40C
100
AcDbEntity
  8
izolace
100
AcDbLine
 10
566.3305084287075
 20
4173.748303069987
 30
0.0
 11
594.3305084287111
 21
4173.748303069987
 31
0.0
  0
LINE
  5
57F
330
40C
100
AcDbEntity
  8
izolace
100
AcDbLine
 10
566.3305084287111
 20
4163.520790994225
 30
0.0
 11
567.8305084287075
 21
4163.520790994225
 31
0.0
  0
LINE
  5
580
330
40C
100
AcDbEntity
  8
izolace
100
AcDbLine
 10
567.8305084287075
 20
4163.520790994225
 30
0.0
 11
567.8305084287075
 21
4172.451479661175
 31
0.0
  0
LINE
  5
581
330
40C
100
AcDbEntity
  8
izolace
100
AcDbLine
 10
567.8305084287075
 20
4172.451479661175
 30
0.0
 11
592.8305084287038
 21
4172.451479661175
 31
0.0
  0
LINE
  5
582
330
40C
100
AcDbEntity
  8
izolace
100
AcDbLine
 10
592.8305084287075
 20
4163.520790994225
 30
0.0
 11
592.8305084287038
 21
4172.451479661175
 31
0.0
  0
LINE
  5
583
330
40C
100
AcDbEntity
  8
izolace
100
AcDbLine
 10
594.3305084287039
 20
4163.520790994225
 30
0.0
 11
592.8305084287075
 21
4163.520790994225
 31
0.0
  0
LINE
  5
584
330
40C
100
AcDbEntity
  8
izolace
100
AcDbLine
 10
594.3305084287039
 20
4163.520790994225
 30
0.0
 11
594.3305084287111
 21
4173.748303069987
 31
0.0
  0
HATCH
  5
585
330
40C
100
AcDbEntity
  8
izolace
100
AcDbHatch
 10
0.0
 20
0.0
 30
0.0
210
0.0
220
0.0
230
1.0
  2
SOLID
 70
     1
 71
     0
 91
        2
 92
        7
 72
     0
 73
     1
 93
        6
 10
594.3305084287074
 20
4173.748303069987
 10
580.3305084287075
 20
4173.748303069987
 10
580.3305084287111
 20
4172.451479661175
 10
592.8305084287038
 20
4172.451479661175
 10
592.8305084287111
 20
4163.520790994225
 10
594.3305084287002
 20
4163.520790994225
 97
        0
 92
        7
 72
     0
 73
     1
 93
        6
 10
580.3305084287111
 20
4173.748303069987
 10
566.3305084287038
 20
4173.748303069987
 10
566.3305084287111
 20
4163.520790994225
 10
567.8305084287075
 20
4163.520790994225
 10
567.8305084287038
 20
4172.451479661175
 10
580.3305084287075
 20
4172.451479661175
 97
        0
 75
     0
 76
     1
 47
0.1904839148977221
 98
        2
 10
583.0433780713555
 20
4173.046365274589
 10
577.5159654854231
 20
4173.236853143702
  0
LWPOLYLINE
  5
586
330
40C
100
AcDbEntity
  8
STAVBA OBRYS
100
AcDbPolyline
 90
        7
 70
     0
 43
0.0
 10
494.8452769083904
 20
4150.697006502293
 42
-0.0203924744732807
 10
493.9431929239816
 20
4149.683876473138
 42
-0.0273961979096945
 10
493.0933285737864
 20
4148.895700099112
 42
-0.0243529190212958
 10
491.9302080813666
 20
4148.021940754444
 42
-0.0398020282482987
 10
491.1552495438062
 20
4147.582312010998
 42
-0.104168275620852
 10
490.7688384074662
 20
4147.492295550821
 42
-0.007272956268647
 10
490.3305084287075
 20
4147.473842199526
 42
-0.007272956268647
  0
POLYLINE
  5
587
330
40C
100
AcDbEntity
  8
STAVBA OBRYS
100
AcDb2dPolyline
 66
     1
 10
0.0
 20
0.0
 30
0.0
  0
VERTEX
  5
588
330
587
100
AcDbEntity
  8
STAVBA OBRYS
100
AcDbVertex
100
AcDb2dVertex
 10
500.1949632429076
 20
4150.69700650229
 30
0.0
 42
-0.0064239028828688
  0
VERTEX
  5
589
330
587
100
AcDbEntity
  8
STAVBA OBRYS
100
AcDbVertex
100
AcDb2dVertex
 10
500.1560948027271
 20
4150.47789284294
 30
0.0
 42
-0.0832048017309575
  0
VERTEX
  5
58A
330
587
100
AcDbEntity
  8
STAVBA OBRYS
100
AcDbVertex
100
AcDb2dVertex
 10
499.3719122000455
 20
4148.147679263285
 30
0.0
 42
-0.0336767237692336
  0
VERTEX
  5
58B
330
587
100
AcDbEntity
  8
STAVBA OBRYS
100
AcDbVertex
100
AcDb2dVertex
 10
497.6690956411238
 20
4145.419404743825
 30
0.0
 42
-0.0844635135812105
  0
VERTEX
  5
58C
330
587
100
AcDbEntity
  8
STAVBA OBRYS
100
AcDbVertex
100
AcDb2dVertex
 10
496.749285881231
 20
4144.514983138829
 30
0.0
 42
-0.0495829410719565
  0
VERTEX
  5
58D
330
587
100
AcDbEntity
  8
STAVBA OBRYS
100
AcDbVertex
100
AcDb2dVertex
 10
495.0006074438769
 20
4143.538333631517
 30
0.0
 42
-0.0322692699774654
  0
VERTEX
  5
58E
330
587
100
AcDbEntity
  8
STAVBA OBRYS
100
AcDbVertex
100
AcDb2dVertex
 10
492.1092532627861
 20
4142.496810130117
 30
0.0
 42
-0.0276160659512937
  0
VERTEX
  5
58F
330
587
100
AcDbEntity
  8
STAVBA OBRYS
100
AcDbVertex
100
AcDb2dVertex
 10
491.2536768244989
 20
4142.300074701172
 30
0.0
 42
-0.0126891984598699
  0
VERTEX
  5
590
330
587
100
AcDbEntity
  8
STAVBA OBRYS
100
AcDbVertex
100
AcDb2dVertex
 10
490.3305084287075
 20
4142.164872311631
 30
0.0
  0
SEQEND
  5
591
330
587
100
AcDbEntity
  8
STAVBA OBRYS
  0
LWPOLYLINE
  5
592
330
40C
100
AcDbEntity
  8
STAVBA OBRYS
100
AcDbPolyline
 90
        5
 70
     0
 43
0.0
 10
531.8640668908828
 20
4150.697006502293
 42
-0.0128837512779298
 10
531.5792749306582
 20
4147.363841680546
 42
-0.0351641677647434
 10
530.9515152091352
 20
4143.760132226208
 42
-0.0187319685742942
 10
527.5674993281444
 20
4132.001894884064
 42
-0.0205166500055637
 10
527.0782510992338
 20
4130.697006502292
 42
-0.0205166500055637
  0
LWPOLYLINE
  5
593
330
40C
100
AcDbEntity
  8
STAVBA OBRYS
100
AcDbPolyline
 90
        3
 70
     0
 43
0.0
 10
516.331483511656
 20
4144.197836933037
 10
536.3277359436486
 20
4134.981807882517
 10
540.3276735773633
 20
4134.336410407175
  0
LWPOLYLINE
  5
594
330
40C
100
AcDbEntity
  8
STAVBA OBRYS
100
AcDbPolyline
 90
        2
 70
     0
 43
0.0
 10
542.053796494887
 20
4150.697006502293
 42
-0.0133702840819155
 10
538.4039294340745
 20
4130.697006502292
 42
-0.0133702840819155
  0
LWPOLYLINE
  5
595
330
40C
100
AcDbEntity
  8
STAVBA OBRYS
100
AcDbPolyline
 90
        7
 70
     0
 43
0.0
 10
523.2398515108415
 20
4150.697006502293
 42
-0.0120721047703132
 10
523.1708688208035
 20
4148.963118363548
 42
-0.044358077361292
 10
522.7752410861302
 20
4146.267318345131
 42
-0.0188067511131767
 10
520.7554176377469
 20
4139.025089169825
 42
-0.0457786284636091
 10
519.5473947481312
 20
4136.176478786945
 42
-0.0295006114745606
 10
517.1313342938318
 20
4132.249579573543
 42
-0.0094449184784486
 10
516.0006678533116
 20
4130.697006502292
 42
-0.0094449184784486
  0
LWPOLYLINE
  5
596
330
40C
100
AcDbEntity
  8
STAVBA OBRYS
100
AcDbPolyline
 90
        3
 70
     0
 43
0.0
 10
497.038905886411
 20
4145.179675806774
 10
513.7941235061388
 20
4136.795934938805
 10
519.8824684429654
 20
4130.697006502292
  0
POLYLINE
  5
597
330
40C
100
AcDbEntity
  8
STAVBA OBRYS
100
AcDb2dPolyline
 66
     1
 10
0.0
 20
0.0
 30
0.0
  0
VERTEX
  5
598
330
597
100
AcDbEntity
  8
STAVBA OBRYS
100
AcDbVertex
100
AcDb2dVertex
 10
507.4230142636459
 20
4150.69700650229
 30
0.0
 42
-0.0072417954699014
  0
VERTEX
  5
599
330
597
100
AcDbEntity
  8
STAVBA OBRYS
100
AcDbVertex
100
AcDb2dVertex
 10
507.3674438958022
 20
4150.285601291016
 30
0.0
 42
-0.0707158694326265
  0
VERTEX
  5
59A
330
597
100
AcDbEntity
  8
STAVBA OBRYS
100
AcDbVertex
100
AcDb2dVertex
 10
506.8363173793821
 20
4148.349497838422
 30
0.0
 42
-0.033952657250207
  0
VERTEX
  5
59B
330
597
100
AcDbEntity
  8
STAVBA OBRYS
100
AcDbVertex
100
AcDb2dVertex
 10
504.5876615399737
 20
4143.996460113249
 30
0.0
 42
-0.0571374688189033
  0
VERTEX
  5
59C
330
597
100
AcDbEntity
  8
STAVBA OBRYS
100
AcDbVertex
100
AcDb2dVertex
 10
502.8015047801217
 20
4141.689535829562
 30
0.0
 42
-0.0274923553235744
  0
VERTEX
  5
59D
330
597
100
AcDbEntity
  8
STAVBA OBRYS
100
AcDbVertex
100
AcDb2dVertex
 10
500.204199049569
 20
4139.304460506428
 30
0.0
 42
-0.0255412025538677
  0
VERTEX
  5
59E
330
597
100
AcDbEntity
  8
STAVBA OBRYS
100
AcDbVertex
100
AcDb2dVertex
 10
497.1527690118581
 20
4137.047746829408
 30
0.0
 42
-0.0272796991712396
  0
VERTEX
  5
59F
330
597
100
AcDbEntity
  8
STAVBA OBRYS
100
AcDbVertex
100
AcDb2dVertex
 10
493.0397698586729
 20
4134.631410947746
 30
0.0
 42
-0.056967459841729
  0
VERTEX
  5
5A0
330
597
100
AcDbEntity
  8
STAVBA OBRYS
100
AcDbVertex
100
AcDb2dVertex
 10
490.8988225779411
 20
4133.818675112546
 30
0.0
 42
-0.0373408083348504
  0
VERTEX
  5
5A1
330
597
100
AcDbEntity
  8
STAVBA OBRYS
100
AcDbVertex
100
AcDb2dVertex
 10
490.6764682024676
 20
4133.779509571595
 30
0.0
 42
-0.0052305969362967
  0
VERTEX
  5
5A2
330
597
100
AcDbEntity
  8
STAVBA OBRYS
100
AcDbVertex
100
AcDb2dVertex
 10
490.3305084287075
 20
4133.748552604691
 30
0.0
  0
SEQEND
  5
5A3
330
597
100
AcDbEntity
  8
STAVBA OBRYS
  0
LWPOLYLINE
  5
5A4
330
40C
100
AcDbEntity
  8
STAVBA OBRYS
100
AcDbPolyline
 90
        8
 70
     0
 43
0.0
 10
514.3727922873312
 20
4150.697006502293
 42
-0.0168162630274195
 10
514.2377667082672
 20
4149.005968350173
 42
-0.0575155827655532
 10
513.5577344279243
 20
4145.906343689456
 42
-0.0310289133982999
 10
510.5549330830962
 20
4138.661316164811
 42
-0.0882970623535771
 10
508.9177111630032
 20
4136.420947114011
 42
-0.0171636441953577
 10
506.1043471011451
 20
4133.907029758765
 42
-0.0157521173632038
 10
502.8654922641088
 20
4131.375533706259
 42
-0.0014948023799519
 10
501.9327804165967
 20
4130.697006502292
 42
-0.0014948023799519
  0
LWPOLYLINE
  5
5A5
330
40C
100
AcDbEntity
  8
STAVBA OBRYS
100
AcDbPolyline
 90
        2
 70
     0
 43
0.0
 10
550.3305084287075
 20
4137.313483611968
 42
-0.0070027860950108
 10
548.5065372287371
 20
4130.697006502292
  0
POLYLINE
  5
5A6
330
40C
100
AcDbEntity
  8
STAVBA OBRYS
100
AcDb2dPolyline
 66
     1
 10
0.0
 20
0.0
 30
0.0
  0
VERTEX
  5
5A7
330
5A6
100
AcDbEntity
  8
STAVBA OBRYS
100
AcDbVertex
100
AcDb2dVertex
 10
627.423014263646
 20
4150.69700650229
 30
0.0
 42
-0.0072417954699014
  0
VERTEX
  5
5A8
330
5A6
100
AcDbEntity
  8
STAVBA OBRYS
100
AcDbVertex
100
AcDb2dVertex
 10
627.3674438958022
 20
4150.285601291016
 30
0.0
 42
-0.0707158694326265
  0
VERTEX
  5
5A9
330
5A6
100
AcDbEntity
  8
STAVBA OBRYS
100
AcDbVertex
100
AcDb2dVertex
 10
626.8363173793821
 20
4148.349497838422
 30
0.0
 42
-0.033952657250207
  0
VERTEX
  5
5AA
330
5A6
100
AcDbEntity
  8
STAVBA OBRYS
100
AcDbVertex
100
AcDb2dVertex
 10
624.5876615399737
 20
4143.996460113249
 30
0.0
 42
-0.0571374688189033
  0
VERTEX
  5
5AB
330
5A6
100
AcDbEntity
  8
STAVBA OBRYS
100
AcDbVertex
100
AcDb2dVertex
 10
622.8015047801217
 20
4141.689535829562
 30
0.0
 42
-0.0274923553235744
  0
VERTEX
  5
5AC
330
5A6
100
AcDbEntity
  8
STAVBA OBRYS
100
AcDbVertex
100
AcDb2dVertex
 10
620.2041990495689
 20
4139.304460506428
 30
0.0
 42
-0.0255412025538677
  0
VERTEX
  5
5AD
330
5A6
100
AcDbEntity
  8
STAVBA OBRYS
100
AcDbVertex
100
AcDb2dVertex
 10
617.1527690118581
 20
4137.047746829408
 30
0.0
 42
-0.0272796991712396
  0
VERTEX
  5
5AE
330
5A6
100
AcDbEntity
  8
STAVBA OBRYS
100
AcDbVertex
100
AcDb2dVertex
 10
613.0397698586729
 20
4134.631410947746
 30
0.0
 42
-0.056967459841729
  0
VERTEX
  5
5AF
330
5A6
100
AcDbEntity
  8
STAVBA OBRYS
100
AcDbVertex
100
AcDb2dVertex
 10
610.8988225779411
 20
4133.818675112546
 30
0.0
 42
-0.0373408083348504
  0
VERTEX
  5
5B0
330
5A6
100
AcDbEntity
  8
STAVBA OBRYS
100
AcDbVertex
100
AcDb2dVertex
 10
610.6764682024675
 20
4133.779509571595
 30
0.0
 42
-0.0052305969362967
  0
VERTEX
  5
5B1
330
5A6
100
AcDbEntity
  8
STAVBA OBRYS
100
AcDbVertex
100
AcDb2dVertex
 10
610.3305084287074
 20
4133.748552604691
 30
0.0
  0
SEQEND
  5
5B2
330
5A6
100
AcDbEntity
  8
STAVBA OBRYS
  0
POLYLINE
  5
5B3
330
40C
100
AcDbEntity
  8
STAVBA OBRYS
100
AcDb2dPolyline
 66
     1
 10
0.0
 20
0.0
 30
0.0
  0
VERTEX
  5
5B4
330
5B3
100
AcDbEntity
  8
STAVBA OBRYS
100
AcDbVertex
100
AcDb2dVertex
 10
620.1949632429077
 20
4150.69700650229
 30
0.0
 42
-0.0064239028828688
  0
VERTEX
  5
5B5
330
5B3
100
AcDbEntity
  8
STAVBA OBRYS
100
AcDbVertex
100
AcDb2dVertex
 10
620.1560948027271
 20
4150.47789284294
 30
0.0
 42
-0.0832048017309575
  0
VERTEX
  5
5B6
330
5B3
100
AcDbEntity
  8
STAVBA OBRYS
100
AcDbVertex
100
AcDb2dVertex
 10
619.3719122000455
 20
4148.147679263285
 30
0.0
 42
-0.0336767237692336
  0
VERTEX
  5
5B7
330
5B3
100
AcDbEntity
  8
STAVBA OBRYS
100
AcDbVertex
100
AcDb2dVertex
 10
617.6690956411237
 20
4145.419404743825
 30
0.0
 42
-0.0844635135812105
  0
VERTEX
  5
5B8
330
5B3
100
AcDbEntity
  8
STAVBA OBRYS
100
AcDbVertex
100
AcDb2dVertex
 10
616.749285881231
 20
4144.514983138829
 30
0.0
 42
-0.0495829410719565
  0
VERTEX
  5
5B9
330
5B3
100
AcDbEntity
  8
STAVBA OBRYS
100
AcDbVertex
100
AcDb2dVertex
 10
615.0006074438769
 20
4143.538333631517
 30
0.0
 42
-0.0322692699774654
  0
VERTEX
  5
5BA
330
5B3
100
AcDbEntity
  8
STAVBA OBRYS
100
AcDbVertex
100
AcDb2dVertex
 10
612.1092532627861
 20
4142.496810130117
 30
0.0
 42
-0.0276160659512937
  0
VERTEX
  5
5BB
330
5B3
100
AcDbEntity
  8
STAVBA OBRYS
100
AcDbVertex
100
AcDb2dVertex
 10
611.2536768244989
 20
4142.300074701172
 30
0.0
 42
-0.0126891984598699
  0
VERTEX
  5
5BC
330
5B3
100
AcDbEntity
  8
STAVBA OBRYS
100
AcDbVertex
100
AcDb2dVertex
 10
610.3305084287074
 20
4142.164872311631
 30
0.0
  0
SEQEND
  5
5BD
330
5B3
100
AcDbEntity
  8
STAVBA OBRYS
  0
LWPOLYLINE
  5
5BE
330
40C
100
AcDbEntity
  8
STAVBA OBRYS
100
AcDbPolyline
 90
        7
 70
     0
 43
0.0
 10
614.8452769083904
 20
4150.697006502293
 42
-0.0203924744732807
 10
613.9431929239816
 20
4149.683876473138
 42
-0.0273961979096945
 10
613.0933285737864
 20
4148.895700099112
 42
-0.0243529190212958
 10
611.9302080813667
 20
4148.021940754444
 42
-0.0398020282482987
 10
611.1552495438062
 20
4147.582312010998
 42
-0.104168275620852
 10
610.7688384074662
 20
4147.492295550821
 42
-0.007272956268647
 10
610.3305084287074
 20
4147.473842199526
 42
-0.007272956268647
  0
LWPOLYLINE
  5
5BF
330
40C
100
AcDbEntity
  8
STAVBA OBRYS
100
AcDbPolyline
 90
        4
 70
     1
 43
0.0
 10
565.3305084287075
 20
4159.417022143053
 10
595.3305084287075
 20
4159.417022143053
 10
595.3305084287075
 20
4130.697006502292
 10
565.3305084287075
 20
4130.697006502292
  0
LWPOLYLINE
  5
5C0
330
40C
100
AcDbEntity
  8
STAVBA OBRYS
100
AcDbPolyline
 90
        7
 70
     0
 43
0.0
 10
569.8452769083904
 20
4159.417022143053
 42
-0.0203924744732807
 10
568.9431929239816
 20
4158.403892113899
 42
-0.0273961979096945
 10
568.0933285737864
 20
4157.615715739874
 42
-0.0243529190212958
 10
566.9302080813666
 20
4156.741956395206
 42
-0.0398020282482987
 10
566.1552495438062
 20
4156.30232765176
 42
-0.104168275620852
 10
565.7688384074662
 20
4156.212311191582
 42
-0.007272956268647
 10
565.3305084287075
 20
4156.193857840288
 42
-0.007272956268647
  0
POLYLINE
  5
5C1
330
40C
100
AcDbEntity
  8
STAVBA OBRYS
100
AcDb2dPolyline
 66
     1
 10
0.0
 20
0.0
 30
0.0
  0
VERTEX
  5
5C2
330
5C1
100
AcDbEntity
  8
STAVBA OBRYS
100
AcDbVertex
100
AcDb2dVertex
 10
575.1949632429076
 20
4159.417022143052
 30
0.0
 42
-0.0064239028828688
  0
VERTEX
  5
5C3
330
5C1
100
AcDbEntity
  8
STAVBA OBRYS
100
AcDbVertex
100
AcDb2dVertex
 10
575.1560948027271
 20
4159.197908483702
 30
0.0
 42
-0.0832048017309575
  0
VERTEX
  5
5C4
330
5C1
100
AcDbEntity
  8
STAVBA OBRYS
100
AcDbVertex
100
AcDb2dVertex
 10
574.3719122000455
 20
4156.867694904047
 30
0.0
 42
-0.0336767237692336
  0
VERTEX
  5
5C5
330
5C1
100
AcDbEntity
  8
STAVBA OBRYS
100
AcDbVertex
100
AcDb2dVertex
 10
572.6690956411238
 20
4154.139420384587
 30
0.0
 42
-0.0844635135812105
  0
VERTEX
  5
5C6
330
5C1
100
AcDbEntity
  8
STAVBA OBRYS
100
AcDbVertex
100
AcDb2dVertex
 10
571.749285881231
 20
4153.234998779591
 30
0.0
 42
-0.0495829410719565
  0
VERTEX
  5
5C7
330
5C1
100
AcDbEntity
  8
STAVBA OBRYS
100
AcDbVertex
100
AcDb2dVertex
 10
570.0006074438769
 20
4152.258349272279
 30
0.0
 42
-0.0322692699774654
  0
VERTEX
  5
5C8
330
5C1
100
AcDbEntity
  8
STAVBA OBRYS
100
AcDbVertex
100
AcDb2dVertex
 10
567.1092532627861
 20
4151.216825770878
 30
0.0
 42
-0.0276160659512937
  0
VERTEX
  5
5C9
330
5C1
100
AcDbEntity
  8
STAVBA OBRYS
100
AcDbVertex
100
AcDb2dVertex
 10
566.2536768244989
 20
4151.020090341933
 30
0.0
 42
-0.0126891984598699
  0
VERTEX
  5
5CA
330
5C1
100
AcDbEntity
  8
STAVBA OBRYS
100
AcDbVertex
100
AcDb2dVertex
 10
565.3305084287075
 20
4150.884887952392
 30
0.0
  0
SEQEND
  5
5CB
330
5C1
100
AcDbEntity
  8
STAVBA OBRYS
  0
LWPOLYLINE
  5
5CC
330
40C
100
AcDbEntity
  8
STAVBA OBRYS
100
AcDbPolyline
 90
        3
 70
     0
 43
0.0
 10
572.038905886411
 20
4153.899691447535
 10
588.7941235061388
 20
4145.515950579567
 10
594.8824684429654
 20
4139.417022143054
  0
POLYLINE
  5
5CD
330
40C
100
AcDbEntity
  8
STAVBA OBRYS
100
AcDb2dPolyline
 66
     1
 10
0.0
 20
0.0
 30
0.0
  0
VERTEX
  5
5CE
330
5CD
100
AcDbEntity
  8
STAVBA OBRYS
100
AcDbVertex
100
AcDb2dVertex
 10
582.4230142636459
 20
4159.417022143052
 30
0.0
 42
-0.0072417954699014
  0
VERTEX
  5
5CF
330
5CD
100
AcDbEntity
  8
STAVBA OBRYS
100
AcDbVertex
100
AcDb2dVertex
 10
582.3674438958022
 20
4159.005616931778
 30
0.0
 42
-0.0707158694326265
  0
VERTEX
  5
5D0
330
5CD
100
AcDbEntity
  8
STAVBA OBRYS
100
AcDbVertex
100
AcDb2dVertex
 10
581.8363173793821
 20
4157.069513479184
 30
0.0
 42
-0.033952657250207
  0
VERTEX
  5
5D1
330
5CD
100
AcDbEntity
  8
STAVBA OBRYS
100
AcDbVertex
100
AcDb2dVertex
 10
579.5876615399737
 20
4152.716475754011
 30
0.0
 42
-0.0571374688189033
  0
VERTEX
  5
5D2
330
5CD
100
AcDbEntity
  8
STAVBA OBRYS
100
AcDbVertex
100
AcDb2dVertex
 10
577.8015047801217
 20
4150.409551470324
 30
0.0
 42
-0.0274923553235744
  0
VERTEX
  5
5D3
330
5CD
100
AcDbEntity
  8
STAVBA OBRYS
100
AcDbVertex
100
AcDb2dVertex
 10
575.204199049569
 20
4148.024476147189
 30
0.0
 42
-0.0255412025538677
  0
VERTEX
  5
5D4
330
5CD
100
AcDbEntity
  8
STAVBA OBRYS
100
AcDbVertex
100
AcDb2dVertex
 10
572.1527690118581
 20
4145.76776247017
 30
0.0
 42
-0.0272796991712396
  0
VERTEX
  5
5D5
330
5CD
100
AcDbEntity
  8
STAVBA OBRYS
100
AcDbVertex
100
AcDb2dVertex
 10
568.0397698586729
 20
4143.351426588508
 30
0.0
 42
-0.056967459841729
  0
VERTEX
  5
5D6
330
5CD
100
AcDbEntity
  8
STAVBA OBRYS
100
AcDbVertex
100
AcDb2dVertex
 10
565.8988225779411
 20
4142.538690753308
 30
0.0
 42
-0.0373408083348504
  0
VERTEX
  5
5D7
330
5CD
100
AcDbEntity
  8
STAVBA OBRYS
100
AcDbVertex
100
AcDb2dVertex
 10
565.6764682024676
 20
4142.499525212357
 30
0.0
 42
-0.0052305969362967
  0
VERTEX
  5
5D8
330
5CD
100
AcDbEntity
  8
STAVBA OBRYS
100
AcDbVertex
100
AcDb2dVertex
 10
565.3305084287075
 20
4142.468568245453
 30
0.0
  0
SEQEND
  5
5D9
330
5CD
100
AcDbEntity
  8
STAVBA OBRYS
  0
LWPOLYLINE
  5
5DA
330
40C
100
AcDbEntity
  8
STAVBA OBRYS
100
AcDbPolyline
 90
        8
 70
     0
 43
0.0
 10
589.3727922873312
 20
4159.417022143053
 42
-0.0168162630274195
 10
589.2377667082672
 20
4157.725983990935
 42
-0.0575155827655532
 10
588.5577344279243
 20
4154.626359330217
 42
-0.0310289133982999
 10
585.5549330830962
 20
4147.381331805572
 42
-0.0882970623535771
 10
583.9177111630032
 20
4145.140962754772
 42
-0.0171636441953577
 10
581.1043471011451
 20
4142.627045399527
 42
-0.0157521173632038
 10
577.8654922641088
 20
4140.095549347021
 42
-0.0195937963304537
 10
565.3305084287075
 20
4131.652891717954
 42
-0.0014948023799519
  0
LWPOLYLINE
  5
5DB
330
40C
100
AcDbEntity
  8
STAVBA OBRYS
100
AcDbPolyline
 90
        4
 70
     0
 43
0.0
 10
595.3305084287075
 20
4146.568445787259
 42
-0.027278836128071
 10
594.5473947481312
 20
4144.896494427706
 42
-0.0295006114745606
 10
592.1313342938318
 20
4140.969595214304
 42
-0.0692960813769435
 10
582.5821480131252
 20
4130.697006502292
  0
LWPOLYLINE
  5
5DC
330
40C
100
AcDbEntity
  8
STAVBA OBRYS
100
AcDbPolyline
 90
        2
 70
     0
 43
0.0
 10
591.331483511656
 20
4152.917852573799
 10
595.3305084287075
 20
4151.074750725857
  0
INSERT
  5
5DD
330
40C
100
AcDbEntity
  8
POPIS
100
AcDbBlockReference
  2
E_PUNKT
 10
577.4782218485723
 20
4146.360504174523
 30
0.0
 50
270.0
  0
INSERT
  5
5DE
330
40C
100
AcDbEntity
  8
POPIS
100
AcDbBlockReference
  2
E_PUNKT
 10
557.8093336711443
 20
4146.360504174523
 30
0.0
 50
270.0
  0
LINE
  5
5DF
330
40C
100
AcDbEntity
  8
nášlap_vrstvy
100
AcDbLine
 10
595.3305084287075
 20
4181.578409454099
 30
0.0
 11
595.3305084287075
 21
4177.239920428151
 31
0.0
  0
LINE
  5
5E0
330
40C
100
AcDbEntity
  8
nášlap_vrstvy
100
AcDbLine
 10
565.3305084287075
 20
4177.239920428151
 30
0.0
 11
565.3305084287075
 21
4181.578409454099
 31
0.0
  0
INSERT
  5
5E1
330
40C
100
AcDbEntity
  8
POPIS
100
AcDbBlockReference
  2
E_PUNKT
 10
593.0796107552577
 20
4172.779971346793
 30
0.0
 50
270.0
  0
INSERT
  5
5E2
330
40C
100
AcDbEntity
  8
POPIS
100
AcDbBlockReference
  2
E_PUNKT
 10
566.9310454687018
 20
4196.312058073628
 30
0.0
 50
270.0
  0
LWPOLYLINE
  5
5E3
330
40C
100
AcDbEntity
  8
STAVBA OBRYS
100
AcDbPolyline
 90
        8
 70
     0
 43
0.0
 10
566.0966603106116
 20
4182.787224743666
 42
0.0168162630274195
 10
565.9616347315476
 20
4184.478262895786
 42
0.0575155827655532
 10
565.2816024512048
 20
4187.577887556503
 42
0.0310289133982999
 10
562.2788011063765
 20
4194.822915081148
 42
0.0882970623535771
 10
560.6415791862835
 20
4197.063284131948
 42
0.0171636441953577
 10
557.8282151244255
 20
4199.577201487192
 42
0.0157521173632038
 10
554.5893602873892
 20
4202.108697539698
 42
0.0014948023799519
 10
553.6566484398771
 20
4202.787224743665
 42
0.0014948023799519
  0
POLYLINE
  5
5E4
330
40C
100
AcDbEntity
  8
STAVBA OBRYS
100
AcDb2dPolyline
 66
     1
 10
0.0
 20
0.0
 30
0.0
  0
VERTEX
  5
5E5
330
5E4
100
AcDbEntity
  8
STAVBA OBRYS
100
AcDbVertex
100
AcDb2dVertex
 10
559.1468822869264
 20
4182.787224743668
 30
0.0
 42
0.0072417954699014
  0
VERTEX
  5
5E6
330
5E4
100
AcDbEntity
  8
STAVBA OBRYS
100
AcDbVertex
100
AcDb2dVertex
 10
559.0913119190826
 20
4183.198629954943
 30
0.0
 42
0.0707158694326265
  0
VERTEX
  5
5E7
330
5E4
100
AcDbEntity
  8
STAVBA OBRYS
100
AcDbVertex
100
AcDb2dVertex
 10
558.5601854026625
 20
4185.134733407536
 30
0.0
 42
0.033952657250207
  0
VERTEX
  5
5E8
330
5E4
100
AcDbEntity
  8
STAVBA OBRYS
100
AcDbVertex
100
AcDb2dVertex
 10
556.3115295632541
 20
4189.48777113271
 30
0.0
 42
0.0571374688189033
  0
VERTEX
  5
5E9
330
5E4
100
AcDbEntity
  8
STAVBA OBRYS
100
AcDbVertex
100
AcDb2dVertex
 10
554.5253728034021
 20
4191.794695416397
 30
0.0
 42
0.0274923553235744
  0
VERTEX
  5
5EA
330
5E4
100
AcDbEntity
  8
STAVBA OBRYS
100
AcDbVertex
100
AcDb2dVertex
 10
551.9280670728493
 20
4194.17977073953
 30
0.0
 42
0.0255412025538677
  0
VERTEX
  5
5EB
330
5E4
100
AcDbEntity
  8
STAVBA OBRYS
100
AcDbVertex
100
AcDb2dVertex
 10
548.8766370351385
 20
4196.43648441655
 30
0.0
 42
0.0272796991712396
  0
VERTEX
  5
5EC
330
5E4
100
AcDbEntity
  8
STAVBA OBRYS
100
AcDbVertex
100
AcDb2dVertex
 10
544.7636378819533
 20
4198.852820298212
 30
0.0
 42
0.056967459841729
  0
VERTEX
  5
5ED
330
5E4
100
AcDbEntity
  8
STAVBA OBRYS
100
AcDbVertex
100
AcDb2dVertex
 10
542.6226906012215
 20
4199.665556133412
 30
0.0
 42
0.0373408083348504
  0
VERTEX
  5
5EE
330
5E4
100
AcDbEntity
  8
STAVBA OBRYS
100
AcDbVertex
100
AcDb2dVertex
 10
542.4003362257479
 20
4199.704721674363
 30
0.0
 42
0.0353857343953589
  0
VERTEX
  5
5EF
330
5E4
100
AcDbEntity
  8
STAVBA OBRYS
100
AcDbVertex
100
AcDb2dVertex
 10
540.0543764519879
 20
4199.772686407089
 30
0.0
  0
SEQEND
  5
5F0
330
5E4
100
AcDbEntity
  8
STAVBA OBRYS
  0
LWPOLYLINE
  5
5F1
330
40C
100
AcDbEntity
  8
STAVBA OBRYS
100
AcDbPolyline
 90
        3
 70
     0
 43
0.0
 10
548.7627739096914
 20
4188.304555439184
 10
565.5179915294191
 20
4196.688296307153
 10
571.6063364662458
 20
4202.787224743666
  0
LWPOLYLINE
  5
5F2
330
40C
100
AcDbEntity
  8
STAVBA OBRYS
100
AcDbPolyline
 90
        7
 70
     0
 43
0.0
 10
574.9637195341218
 20
4182.787224743666
 42
0.0120721047703132
 10
574.8947368440838
 20
4184.52111288241
 42
0.044358077361292
 10
574.4991091094106
 20
4187.216912900827
 42
0.0188067511131767
 10
572.4792856610273
 20
4194.459142076133
 42
0.0457786284636091
 10
571.2712627714116
 20
4197.307752459013
 42
0.0295006114745606
 10
568.8552023171122
 20
4201.234651672415
 42
0.0094449184784486
 10
567.7245358765921
 20
4202.787224743666
 42
0.0094449184784486
  0
LWPOLYLINE
  5
5F3
330
40C
100
AcDbEntity
  8
STAVBA OBRYS
100
AcDbPolyline
 90
        3
 70
     0
 43
0.0
 10
568.0553515349364
 20
4189.286394312921
 10
588.0516039669291
 20
4198.502423363441
 10
592.0515416006436
 20
4199.147820838783
  0
LWPOLYLINE
  5
5F4
330
40C
100
AcDbEntity
  8
STAVBA OBRYS
100
AcDbPolyline
 90
        5
 70
     0
 43
0.0
 10
582.0382742618257
 20
4182.787224743666
 42
0.0128837512779298
 10
581.7534823016011
 20
4186.120389565412
 42
0.0351641677647434
 10
581.1257225800781
 20
4189.724099019751
 42
0.0187319685742942
 10
577.7417066990873
 20
4201.482336361894
 42
0.0205166500055637
 10
577.2524584701767
 20
4202.787224743666
 42
0.0205166500055637
  0
POLYLINE
  5
5F5
330
40C
100
AcDbEntity
  8
STAVBA OBRYS
100
AcDb2dPolyline
 66
     1
 10
0.0
 20
0.0
 30
0.0
  0
VERTEX
  5
5F6
330
5F5
100
AcDbEntity
  8
STAVBA OBRYS
100
AcDbVertex
100
AcDb2dVertex
 10
551.918831266188
 20
4182.787224743668
 30
0.0
 42
0.0064239028828688
  0
VERTEX
  5
5F7
330
5F5
100
AcDbEntity
  8
STAVBA OBRYS
100
AcDbVertex
100
AcDb2dVertex
 10
551.8799628260075
 20
4183.006338403018
 30
0.0
 42
0.0832048017309575
  0
VERTEX
  5
5F8
330
5F5
100
AcDbEntity
  8
STAVBA OBRYS
100
AcDbVertex
100
AcDb2dVertex
 10
551.0957802233259
 20
4185.336551982673
 30
0.0
 42
0.0336767237692336
  0
VERTEX
  5
5F9
330
5F5
100
AcDbEntity
  8
STAVBA OBRYS
100
AcDbVertex
100
AcDb2dVertex
 10
549.3929636644041
 20
4188.064826502134
 30
0.0
 42
0.0844635135812105
  0
VERTEX
  5
5FA
330
5F5
100
AcDbEntity
  8
STAVBA OBRYS
100
AcDbVertex
100
AcDb2dVertex
 10
548.4731539045113
 20
4188.969248107128
 30
0.0
 42
0.0495829410719565
  0
VERTEX
  5
5FB
330
5F5
100
AcDbEntity
  8
STAVBA OBRYS
100
AcDbVertex
100
AcDb2dVertex
 10
546.7244754671573
 20
4189.945897614442
 30
0.0
 42
0.0322692699774654
  0
VERTEX
  5
5FC
330
5F5
100
AcDbEntity
  8
STAVBA OBRYS
100
AcDbVertex
100
AcDb2dVertex
 10
543.8331212860665
 20
4190.987421115842
 30
0.0
 42
0.0276160659512937
  0
VERTEX
  5
5FD
330
5F5
100
AcDbEntity
  8
STAVBA OBRYS
100
AcDbVertex
100
AcDb2dVertex
 10
542.9775448477792
 20
4191.184156544786
 30
0.0
 42
0.0399777644099327
  0
VERTEX
  5
5FE
330
5F5
100
AcDbEntity
  8
STAVBA OBRYS
100
AcDbVertex
100
AcDb2dVertex
 10
540.0543764519879
 20
4191.450562543299
 30
0.0
  0
SEQEND
  5
5FF
330
5F5
100
AcDbEntity
  8
STAVBA OBRYS
  0
LWPOLYLINE
  5
600
330
40C
100
AcDbEntity
  8
STAVBA OBRYS
100
AcDbPolyline
 90
        7
 70
     0
 43
0.0
 10
546.5691449316708
 20
4182.787224743666
 42
0.0203924744732807
 10
545.667060947262
 20
4183.80035477282
 42
0.0273961979096945
 10
544.8171965970667
 20
4184.588531146846
 42
0.0243529190212958
 10
543.6540761046471
 20
4185.462290491513
 42
0.0398020282482987
 10
542.8791175670865
 20
4185.90191923496
 42
0.104168275620852
 10
542.4927064307466
 20
4185.991935695137
 42
0.0404981389143456
 10
540.0543764519842
 20
4185.932594521202
 42
0.007272956268647
  0
LWPOLYLINE
  5
601
330
40C
100
AcDbEntity
  8
STAVBA OBRYS
100
AcDbPolyline
 90
        2
 70
     0
 43
0.0
 10
593.7776645181673
 20
4182.787224743666
 42
0.0133702840819155
 10
590.1277974573548
 20
4202.787224743666
 42
0.0133702840819155
  0
LWPOLYLINE
  5
602
330
40C
100
AcDbEntity
  8
STAVBA OBRYS
100
AcDbPolyline
 90
        2
 70
     0
 43
0.0
 10
605.1450468499478
 20
4182.787224743666
 42
0.0210218643580087
 10
600.2304052520174
 20
4202.787224743665
  0
LWPOLYLINE
  5
603
330
40C
100
AcDbEntity
  8
STAVBA OBRYS
100
AcDbPolyline
 90
        2
 70
     0
 43
0.0
 10
615.2684724147674
 20
4183.09380852309
 42
0.0206960265964444
 10
610.4427688646845
 20
4202.787224743666
 42
0.0206960265964444
  0
LWPOLYLINE
  5
604
330
40C
100
AcDbEntity
  8
STAVBA OBRYS
100
AcDbPolyline
 90
        2
 70
     0
 43
0.0
 10
625.0584494487902
 20
4184.71960652641
 42
0.0190020593122753
 10
620.5662178762776
 20
4202.787224743666
 42
0.0190020593122753
  0
LWPOLYLINE
  5
605
330
40C
100
AcDbEntity
  8
STAVBA OBRYS
100
AcDbPolyline
 90
        3
 70
     0
 43
0.0
 10
595.1605947614715
 20
4184.416520260614
 10
615.1568471934641
 20
4193.632549311135
 10
619.1567848271787
 20
4194.277946786477
  0
LINE
  5
606
330
40C
100
AcDbEntity
  8
STAVBA OBRYS
100
AcDbLine
 10
565.3305084287075
 20
4174.697006502293
 30
0.0
 11
550.3305084287075
 21
4174.697006502293
 31
0.0
  0
LINE
  5
607
330
40C
100
AcDbEntity
  8
izolace
  6
DASHED
100
AcDbLine
 10
582.9885104321127
 20
4174.228576787633
 30
0.0
 11
579.024994159712
 21
4172.895858114361
 31
0.0
  0
LINE
  5
608
330
40C
100
AcDbEntity
  8
izolace
  6
DASHED
100
AcDbLine
 10
582.9885104321127
 20
4173.644258956181
 30
0.0
 11
579.024994159712
 21
4172.31154028291
 31
0.0
  0
LINE
  5
609
330
40C
100
AcDbEntity
  8
izolace
  6
DASHED
100
AcDbLine
 10
578.6548958161855
 20
4172.681638628575
 30
0.0
 11
579.024994159712
 21
4172.895858114361
 31
0.0
  0
LINE
  5
60A
330
40C
100
AcDbEntity
  8
izolace
  6
DASHED
100
AcDbLine
 10
578.6548958161855
 20
4172.681638628575
 30
0.0
 11
579.024994159712
 21
4172.31154028291
 31
0.0
  0
LINE
  5
60B
330
40C
100
AcDbEntity
  8
izolace
  6
DASHED
100
AcDbLine
 10
583.3586087799175
 20
4173.857566869508
 30
0.0
 11
582.9885104321127
 21
4174.228576787633
 31
0.0
  0
LINE
  5
60C
330
40C
100
AcDbEntity
  8
izolace
  6
DASHED
100
AcDbLine
 10
583.3586087799175
 20
4173.857566869508
 30
0.0
 11
582.9885104321127
 21
4173.644258956181
 31
0.0
  0
LINE
  5
60D
330
40C
100
AcDbEntity
  8
izolace
  6
DASHED
100
AcDbLine
 10
583.3586087799175
 20
4173.857566869508
 30
0.0
 11
578.6548958161855
 21
4172.681638628575
 31
0.0
  0
LINE
  5
60E
330
40C
100
AcDbEntity
  8
STAVBA OBRYS
  6
DASHED
100
AcDbLine
 10
582.9885104321127
 20
4177.285990214214
 30
0.0
 11
579.024994159712
 21
4175.953271540944
 31
0.0
  0
LINE
  5
60F
330
40C
100
AcDbEntity
  8
STAVBA OBRYS
  6
DASHED
100
AcDbLine
 10
582.9885104321127
 20
4176.701672382771
 30
0.0
 11
579.024994159712
 21
4175.368953709763
 31
0.0
  0
LINE
  5
610
330
40C
100
AcDbEntity
  8
izolace
  6
DASHED
100
AcDbLine
 10
578.6548958161855
 20
4175.739963627616
 30
0.0
 11
579.024994159712
 21
4175.953271540944
 31
0.0
  0
LINE
  5
611
330
40C
100
AcDbEntity
  8
izolace
  6
DASHED
100
AcDbLine
 10
578.6548958161855
 20
4175.739963627616
 30
0.0
 11
579.024994159712
 21
4175.368953709763
 31
0.0
  0
LINE
  5
612
330
40C
100
AcDbEntity
  8
STAVBA OBRYS
  6
DASHED
100
AcDbLine
 10
583.3586087799175
 20
4176.915891868549
 30
0.0
 11
582.9885104321127
 21
4177.285990214214
 31
0.0
  0
LINE
  5
613
330
40C
100
AcDbEntity
  8
STAVBA OBRYS
  6
DASHED
100
AcDbLine
 10
583.3586087799175
 20
4176.915891868549
 30
0.0
 11
582.9885104321127
 21
4176.701672382771
 31
0.0
  0
LINE
  5
614
330
40C
100
AcDbEntity
  8
STAVBA OBRYS
  6
DASHED
100
AcDbLine
 10
583.3586087799175
 20
4176.915891868549
 30
0.0
 11
578.6548958161855
 21
4175.739963627616
 31
0.0
  0
LINE
  5
615
330
40C
100
AcDbEntity
  8
STAVBA OBRYS
  6
DASHED
100
AcDbLine
 10
582.9885104321127
 20
4180.343403640805
 30
0.0
 11
579.024994159712
 21
4179.010684967797
 31
0.0
  0
LINE
  5
616
330
40C
100
AcDbEntity
  8
STAVBA OBRYS
  6
DASHED
100
AcDbLine
 10
582.9885104321127
 20
4179.759085809354
 30
0.0
 11
579.024994159712
 21
4178.426367136353
 31
0.0
  0
LINE
  5
617
330
40C
100
AcDbEntity
  8
STAVBA OBRYS
  6
DASHED
100
AcDbLine
 10
578.6548958161855
 20
4178.797377054206
 30
0.0
 11
579.024994159712
 21
4179.010684967797
 31
0.0
  0
LINE
  5
618
330
40C
100
AcDbEntity
  8
STAVBA OBRYS
  6
DASHED
100
AcDbLine
 10
578.6548958161855
 20
4178.797377054206
 30
0.0
 11
579.024994159712
 21
4178.426367136353
 31
0.0
  0
LINE
  5
619
330
40C
100
AcDbEntity
  8
STAVBA OBRYS
  6
DASHED
100
AcDbLine
 10
583.3586087799175
 20
4179.973305295139
 30
0.0
 11
582.9885104321127
 21
4180.343403640805
 31
0.0
  0
LINE
  5
61A
330
40C
100
AcDbEntity
  8
STAVBA OBRYS
  6
DASHED
100
AcDbLine
 10
583.3586087799175
 20
4179.973305295139
 30
0.0
 11
582.9885104321127
 21
4179.759085809354
 31
0.0
  0
LINE
  5
61B
330
40C
100
AcDbEntity
  8
STAVBA OBRYS
  6
DASHED
100
AcDbLine
 10
583.3586087799175
 20
4179.973305295139
 30
0.0
 11
578.6548958161855
 21
4178.797377054206
 31
0.0
  0
LINE
  5
61C
330
40C
100
AcDbEntity
  8
izolace
  6
DASHED
100
AcDbLine
 10
582.0031007971391
 20
4164.934185821876
 30
0.0
 11
579.8918993985116
 21
4164.629720680418
 31
0.0
  0
LINE
  5
61D
330
40C
100
AcDbEntity
  8
izolace
  6
DASHED
100
AcDbLine
 10
581.6330024536126
 20
4165.304284167541
 30
0.0
 11
580.261997742038
 21
4164.843028594009
 31
0.0
  0
LINE
  5
61E
330
40C
100
AcDbEntity
  8
izolace
  6
DASHED
100
AcDbLine
 10
581.6330024536126
 20
4164.719966336097
 30
0.0
 11
580.261997742038
 21
4164.258710762564
 31
0.0
  0
LINE
  5
61F
330
40C
100
AcDbEntity
  8
izolace
  6
DASHED
100
AcDbLine
 10
579.8918993985116
 20
4164.629720680418
 30
0.0
 11
580.261997742038
 21
4164.843028594009
 31
0.0
  0
LINE
  5
620
330
40C
100
AcDbEntity
  8
izolace
  6
DASHED
100
AcDbLine
 10
579.8918993985116
 20
4164.629720680418
 30
0.0
 11
580.261997742038
 21
4164.258710762564
 31
0.0
  0
LINE
  5
621
330
40C
100
AcDbEntity
  8
izolace
  6
DASHED
100
AcDbLine
 10
582.0031007971391
 20
4164.934185821876
 30
0.0
 11
581.6330024536126
 21
4165.304284167541
 31
0.0
  0
LINE
  5
622
330
40C
100
AcDbEntity
  8
izolace
  6
DASHED
100
AcDbLine
 10
582.0031007971391
 20
4164.934185821876
 30
0.0
 11
581.6330024536126
 21
4164.719966336097
 31
0.0
  0
LINE
  5
623
330
40C
100
AcDbEntity
  8
izolace
  6
DASHED
100
AcDbLine
 10
582.5564251734012
 20
4167.887680008629
 30
0.0
 11
579.5026580352986
 21
4167.266899286194
 31
0.0
  0
LINE
  5
624
330
40C
100
AcDbEntity
  8
izolace
  6
DASHED
100
AcDbLine
 10
582.1863268255964
 20
4168.258689926753
 30
0.0
 11
579.8727563788251
 21
4167.480207199521
 31
0.0
  0
LINE
  5
625
330
40C
100
AcDbEntity
  8
izolace
  6
DASHED
100
AcDbLine
 10
582.1863268255964
 20
4167.674372095302
 30
0.0
 11
579.8727563788251
 21
4166.89588936834
 31
0.0
  0
LINE
  5
626
330
40C
100
AcDbEntity
  8
izolace
  6
DASHED
100
AcDbLine
 10
579.5026580352986
 20
4167.266899286194
 30
0.0
 11
579.8727563788251
 21
4167.480207199521
 31
0.0
  0
LINE
  5
627
330
40C
100
AcDbEntity
  8
izolace
  6
DASHED
100
AcDbLine
 10
579.5026580352986
 20
4167.266899286194
 30
0.0
 11
579.8727563788251
 21
4166.89588936834
 31
0.0
  0
LINE
  5
628
330
40C
100
AcDbEntity
  8
izolace
  6
DASHED
100
AcDbLine
 10
582.5564251734012
 20
4167.887680008629
 30
0.0
 11
582.1863268255964
 21
4168.258689926753
 31
0.0
  0
LINE
  5
629
330
40C
100
AcDbEntity
  8
izolace
  6
DASHED
100
AcDbLine
 10
582.5564251734012
 20
4167.887680008629
 30
0.0
 11
582.1863268255964
 21
4167.674372095302
 31
0.0
  0
LINE
  5
62A
330
40C
100
AcDbEntity
  8
izolace
  6
DASHED
100
AcDbLine
 10
583.1097495453849
 20
4170.842085767841
 30
0.0
 11
579.0669264856968
 21
4169.888581163182
 31
0.0
  0
LINE
  5
62B
330
40C
100
AcDbEntity
  8
izolace
  6
DASHED
100
AcDbLine
 10
582.7387396280663
 20
4171.212184113506
 30
0.0
 11
579.4370248292233
 21
4170.10188907651
 31
0.0
  0
LINE
  5
62C
330
40C
100
AcDbEntity
  8
izolace
  6
DASHED
100
AcDbLine
 10
582.7387396280663
 20
4170.627866282055
 30
0.0
 11
579.4370248292233
 21
4169.517571245058
 31
0.0
  0
LINE
  5
62D
330
40C
100
AcDbEntity
  8
izolace
  6
DASHED
100
AcDbLine
 10
579.0669264856968
 20
4169.888581163182
 30
0.0
 11
579.4370248292233
 21
4170.10188907651
 31
0.0
  0
LINE
  5
62E
330
40C
100
AcDbEntity
  8
izolace
  6
DASHED
100
AcDbLine
 10
579.0669264856968
 20
4169.888581163182
 30
0.0
 11
579.4370248292233
 21
4169.517571245058
 31
0.0
  0
LINE
  5
62F
330
40C
100
AcDbEntity
  8
izolace
  6
DASHED
100
AcDbLine
 10
583.1097495453849
 20
4170.842085767841
 30
0.0
 11
582.7387396280663
 21
4171.212184113506
 31
0.0
  0
LINE
  5
630
330
40C
100
AcDbEntity
  8
izolace
  6
DASHED
100
AcDbLine
 10
583.1097495453849
 20
4170.842085767841
 30
0.0
 11
582.7387396280663
 21
4170.627866282055
 31
0.0
  0
LINE
  5
631
330
40C
100
AcDbEntity
  8
STAVBA OBRYS
  6
DASHED
100
AcDbLine
 10
582.9885104321127
 20
4183.400817067659
 30
0.0
 11
579.024994159712
 21
4182.069009966575
 31
0.0
  0
LINE
  5
632
330
40C
100
AcDbEntity
  8
STAVBA OBRYS
  6
DASHED
100
AcDbLine
 10
582.9885104321127
 20
4182.816499236206
 30
0.0
 11
579.024994159712
 21
4181.484692135394
 31
0.0
  0
LINE
  5
633
330
40C
100
AcDbEntity
  8
STAVBA OBRYS
  6
DASHED
100
AcDbLine
 10
578.6548958161855
 20
4181.854790480789
 30
0.0
 11
579.024994159712
 21
4182.069009966575
 31
0.0
  0
LINE
  5
634
330
40C
100
AcDbEntity
  8
STAVBA OBRYS
  6
DASHED
100
AcDbLine
 10
578.6548958161855
 20
4181.854790480789
 30
0.0
 11
579.024994159712
 21
4181.484692135394
 31
0.0
  0
LINE
  5
635
330
40C
100
AcDbEntity
  8
STAVBA OBRYS
  6
DASHED
100
AcDbLine
 10
583.3586087799175
 20
4183.030718721993
 30
0.0
 11
582.9885104321127
 21
4183.400817067659
 31
0.0
  0
LINE
  5
636
330
40C
100
AcDbEntity
  8
STAVBA OBRYS
  6
DASHED
100
AcDbLine
 10
583.3586087799175
 20
4183.030718721993
 30
0.0
 11
582.9885104321127
 21
4182.816499236206
 31
0.0
  0
LINE
  5
637
330
40C
100
AcDbEntity
  8
STAVBA OBRYS
  6
DASHED
100
AcDbLine
 10
583.3586087799175
 20
4183.030718721993
 30
0.0
 11
578.6548958161855
 21
4181.854790480789
 31
0.0
  0
LINE
  5
638
330
40C
100
AcDbEntity
  8
STAVBA OBRYS
  6
DASHED
100
AcDbLine
 10
582.9885104321127
 20
4186.459142066428
 30
0.0
 11
579.024994159712
 21
4185.126423393429
 31
0.0
  0
LINE
  5
639
330
40C
100
AcDbEntity
  8
STAVBA OBRYS
  6
DASHED
100
AcDbLine
 10
582.9885104321127
 20
4185.874824235248
 30
0.0
 11
579.024994159712
 21
4184.542105561977
 31
0.0
  0
LINE
  5
63A
330
40C
100
AcDbEntity
  8
STAVBA OBRYS
  6
DASHED
100
AcDbLine
 10
578.6548958161855
 20
4184.912203907642
 30
0.0
 11
579.024994159712
 21
4185.126423393429
 31
0.0
  0
LINE
  5
63B
330
40C
100
AcDbEntity
  8
STAVBA OBRYS
  6
DASHED
100
AcDbLine
 10
578.6548958161855
 20
4184.912203907642
 30
0.0
 11
579.024994159712
 21
4184.542105561977
 31
0.0
  0
LINE
  5
63C
330
40C
100
AcDbEntity
  8
STAVBA OBRYS
  6
DASHED
100
AcDbLine
 10
583.3586087799175
 20
4186.088132148575
 30
0.0
 11
582.9885104321127
 21
4186.459142066428
 31
0.0
  0
LINE
  5
63D
330
40C
100
AcDbEntity
  8
STAVBA OBRYS
  6
DASHED
100
AcDbLine
 10
583.3586087799175
 20
4186.088132148575
 30
0.0
 11
582.9885104321127
 21
4185.874824235248
 31
0.0
  0
LINE
  5
63E
330
40C
100
AcDbEntity
  8
STAVBA OBRYS
  6
DASHED
100
AcDbLine
 10
583.3586087799175
 20
4186.088132148575
 30
0.0
 11
578.6548958161855
 21
4184.912203907642
 31
0.0
  0
LINE
  5
63F
330
40C
100
AcDbEntity
  8
izolace
  6
DASHED
100
AcDbLine
 10
579.92471599941
 20
4170.275087809832
 30
0.0
 11
579.6840609161717
 21
4172.206709470892
 31
0.0
  0
LINE
  5
640
330
40C
100
AcDbEntity
  8
izolace
  6
DASHED
100
AcDbLine
 10
580.2565283121201
 20
4167.622412475251
 30
0.0
 11
579.9949070658893
 21
4169.716294002048
 31
0.0
  0
LINE
  5
641
330
40C
100
AcDbEntity
  8
izolace
  6
DASHED
100
AcDbLine
 10
580.5892521900658
 20
4164.959709845807
 30
0.0
 11
580.3267193743212
 21
4167.061795523092
 31
0.0
  0
LINE
  5
642
330
40C
100
AcDbEntity
  8
izolace
  6
DASHED
100
AcDbLine
 10
581.3850547928722
 20
4164.649775270687
 30
0.0
 11
581.0067522980515
 21
4161.622443729238
 31
0.0
  0
LINE
  5
643
330
40C
100
AcDbEntity
  8
izolace
  6
DASHED
100
AcDbLine
 10
581.7451258417985
 20
4167.532166819571
 30
0.0
 11
581.4607152935476
 21
4165.257793981424
 31
0.0
  0
LINE
  5
644
330
40C
100
AcDbEntity
  8
izolace
  6
DASHED
100
AcDbLine
 10
582.1070200383091
 20
4170.425497235786
 30
0.0
 11
581.8226094857799
 21
4168.150212825444
 31
0.0
  0
LINE
  5
645
330
40C
100
AcDbEntity
  8
izolace
  6
DASHED
100
AcDbLine
 10
581.0067522980515
 20
4161.622443729238
 30
0.0
 11
580.6594432565451
 21
4164.401827610482
 31
0.0
  0
LINE
  5
646
330
40C
100
AcDbEntity
  8
izolace
  6
DASHED
100
AcDbLine
 10
582.3294436756531
 20
4172.206709470892
 30
0.0
 11
582.1826805389845
 21
4171.033515946523
 31
0.0
  0
LINE
  5
647
330
40C
100
AcDbEntity
  8
izolace
  6
DASHED
100
AcDbLine
 10
579.6840609161717
 20
4172.536698636018
 30
0.0
 11
579.6840609161717
 21
4172.206709470892
 31
0.0
  0
LINE
  5
648
330
40C
100
AcDbEntity
  8
izolace
  6
DASHED
100
AcDbLine
 10
579.6840609161717
 20
4175.5968467797
 30
0.0
 11
579.6840609161717
 21
4173.128309045771
 31
0.0
  0
LINE
  5
649
330
40C
100
AcDbEntity
  8
izolace
  6
DASHED
100
AcDbLine
 10
582.3294436756531
 20
4173.429127897943
 30
0.0
 11
582.3294436756531
 21
4172.206709470892
 31
0.0
  0
LINE
  5
64A
330
40C
100
AcDbEntity
  8
izolace
  6
DASHED
100
AcDbLine
 10
582.3294436756531
 20
4176.481071891135
 30
0.0
 11
582.3294436756531
 21
4174.013445729396
 31
0.0
  0
LINE
  5
64B
330
40C
100
AcDbEntity
  8
STAVBA OBRYS
  6
DASHED
100
AcDbLine
 10
579.6840609161717
 20
4178.656083350928
 30
0.0
 11
579.6840609161717
 21
4176.185722472353
 31
0.0
  0
LINE
  5
64C
330
40C
100
AcDbEntity
  8
STAVBA OBRYS
  6
DASHED
100
AcDbLine
 10
579.6840609161717
 20
4181.716231494345
 30
0.0
 11
579.6840609161717
 21
4179.238578037733
 31
0.0
  0
LINE
  5
64D
330
40C
100
AcDbEntity
  8
STAVBA OBRYS
  6
DASHED
100
AcDbLine
 10
579.6840609161717
 20
4184.769087059725
 30
0.0
 11
579.6840609161717
 21
4182.300549325797
 31
0.0
  0
LINE
  5
64E
330
40C
100
AcDbEntity
  8
STAVBA OBRYS
  6
DASHED
100
AcDbLine
 10
582.3294436756531
 20
4179.551247329687
 30
0.0
 11
582.3294436756531
 21
4177.073593873076
 31
0.0
  0
LINE
  5
64F
330
40C
100
AcDbEntity
  8
STAVBA OBRYS
  6
DASHED
100
AcDbLine
 10
582.3294436756531
 20
4182.604102895068
 30
0.0
 11
582.3294436756531
 21
4180.133742016493
 31
0.0
  0
LINE
  5
650
330
40C
100
AcDbEntity
  8
STAVBA OBRYS
  6
DASHED
100
AcDbLine
 10
582.3294436756531
 20
4185.664251038484
 30
0.0
 11
582.3294436756531
 21
4183.195713304556
 31
0.0
  0
LINE
  5
651
330
40C
100
AcDbEntity
  8
STAVBA OBRYS
  6
DASHED
100
AcDbLine
 10
582.3294436756531
 20
4196.319619418
 30
0.0
 11
582.3294436756531
 21
4192.362484150914
 31
0.0
  0
LINE
  5
652
330
40C
100
AcDbEntity
  8
STAVBA OBRYS
  6
DASHED
100
AcDbLine
 10
579.6840609161717
 20
4196.319619418
 30
0.0
 11
579.6840609161717
 21
4191.47552432265
 31
0.0
  0
LINE
  5
653
330
40C
100
AcDbEntity
  8
STAVBA OBRYS
  6
DASHED
100
AcDbLine
 10
586.0049031089127
 20
4201.611296502469
 30
0.0
 11
584.6822117270329
 21
4200.882038678725
 31
0.0
  0
LINE
  5
654
330
40C
100
AcDbEntity
  8
STAVBA OBRYS
  6
DASHED
100
AcDbLine
 10
584.6822117270329
 20
4200.882038678725
 30
0.0
 11
583.5937944246815
 21
4199.834642129101
 31
0.0
  0
LINE
  5
655
330
40C
100
AcDbEntity
  8
STAVBA OBRYS
  6
DASHED
100
AcDbLine
 10
583.5937944246815
 20
4199.834642129101
 30
0.0
 11
582.8134885549497
 21
4198.542032636369
 31
0.0
  0
LINE
  5
656
330
40C
100
AcDbEntity
  8
STAVBA OBRYS
  6
DASHED
100
AcDbLine
 10
582.8134885549497
 20
4198.542032636369
 30
0.0
 11
582.3941653079363
 21
4197.09080956666
 31
0.0
  0
LINE
  5
657
330
40C
100
AcDbEntity
  8
STAVBA OBRYS
  6
DASHED
100
AcDbLine
 10
582.3941653079363
 20
4197.09080956666
 30
0.0
 11
582.3294436756531
 21
4196.319619418
 31
0.0
  0
LINE
  5
658
330
40C
100
AcDbEntity
  8
izolace
  6
DASHED
100
AcDbLine
 10
577.9219917023564
 20
4200.381585497111
 30
0.0
 11
576.7096005696347
 21
4201.281307337343
 31
0.0
  0
LINE
  5
659
330
40C
100
AcDbEntity
  8
izolace
  6
DASHED
100
AcDbLine
 10
576.7096005696347
 20
4201.281307337343
 30
0.0
 11
576.0086014871903
 21
4201.611296502469
 31
0.0
  0
LINE
  5
65A
330
40C
100
AcDbEntity
  8
STAVBA OBRYS
  6
DASHED
100
AcDbLine
 10
586.0049031089127
 20
4201.611296502469
 30
0.0
 11
576.0086014871903
 21
4201.611296502469
 31
0.0
  0
LINE
  5
65B
330
40C
100
AcDbEntity
  8
STAVBA OBRYS
  6
DASHED
100
AcDbLine
 10
586.0049031089127
 20
4202.787224743666
 30
0.0
 11
586.0049031089127
 21
4201.611296502469
 31
0.0
  0
LINE
  5
65C
330
40C
100
AcDbEntity
  8
STAVBA OBRYS
  6
DASHED
100
AcDbLine
 10
586.0049031089127
 20
4202.787224743666
 30
0.0
 11
576.0086014871903
 21
4202.787224743666
 31
0.0
  0
LINE
  5
65D
330
40C
100
AcDbEntity
  8
izolace
  6
DASHED
100
AcDbLine
 10
576.0086014871903
 20
4202.787224743666
 30
0.0
 11
576.0086014871903
 21
4201.611296502469
 31
0.0
  0
LINE
  5
65E
330
40C
100
AcDbEntity
  8
STAVBA OBRYS
  6
DASHED
100
AcDbLine
 10
579.6840609161717
 20
4196.319619418
 30
0.0
 11
579.4616372831058
 21
4197.81277481236
 31
0.0
  0
LINE
  5
65F
330
40C
100
AcDbEntity
  8
STAVBA OBRYS
  6
DASHED
100
AcDbLine
 10
579.4616372831058
 20
4197.81277481236
 30
0.0
 11
578.8609111509412
 21
4199.19836467787
 31
0.0
  0
LINE
  5
660
330
40C
100
AcDbEntity
  8
STAVBA OBRYS
  6
DASHED
100
AcDbLine
 10
578.8609111509412
 20
4199.19836467787
 30
0.0
 11
577.9219917023564
 21
4200.381585497111
 31
0.0
  0
LINE
  5
661
330
40C
100
AcDbEntity
  8
STAVBA OBRYS
  6
DASHED
100
AcDbLine
 10
582.3294436756531
 20
4191.779989464108
 30
0.0
 11
582.3294436756531
 21
4189.31145173018
 31
0.0
  0
LINE
  5
662
330
40C
100
AcDbEntity
  8
STAVBA OBRYS
  6
DASHED
100
AcDbLine
 10
579.6840609161717
 20
4190.884825485349
 30
0.0
 11
579.6840609161717
 21
4188.416287751421
 31
0.0
  0
LINE
  5
663
330
40C
100
AcDbEntity
  8
STAVBA OBRYS
  6
DASHED
100
AcDbLine
 10
583.3586087799175
 20
4192.203870574199
 30
0.0
 11
578.6548958161855
 21
4191.027942333266
 31
0.0
  0
LINE
  5
664
330
40C
100
AcDbEntity
  8
STAVBA OBRYS
  6
DASHED
100
AcDbLine
 10
583.3586087799175
 20
4192.203870574199
 30
0.0
 11
582.9885104321127
 21
4191.990562660872
 31
0.0
  0
LINE
  5
665
330
40C
100
AcDbEntity
  8
STAVBA OBRYS
  6
DASHED
100
AcDbLine
 10
583.3586087799175
 20
4192.203870574199
 30
0.0
 11
582.9885104321127
 21
4192.574880492053
 31
0.0
  0
LINE
  5
666
330
40C
100
AcDbEntity
  8
STAVBA OBRYS
  6
DASHED
100
AcDbLine
 10
578.6548958161855
 20
4191.027942333266
 30
0.0
 11
579.024994159712
 21
4190.657843987601
 31
0.0
  0
LINE
  5
667
330
40C
100
AcDbEntity
  8
STAVBA OBRYS
  6
DASHED
100
AcDbLine
 10
578.6548958161855
 20
4191.027942333266
 30
0.0
 11
579.024994159712
 21
4191.242161819053
 31
0.0
  0
LINE
  5
668
330
40C
100
AcDbEntity
  8
STAVBA OBRYS
  6
DASHED
100
AcDbLine
 10
582.9885104321127
 20
4191.990562660872
 30
0.0
 11
579.024994159712
 21
4190.657843987601
 31
0.0
  0
LINE
  5
669
330
40C
100
AcDbEntity
  8
STAVBA OBRYS
  6
DASHED
100
AcDbLine
 10
582.9885104321127
 20
4192.574880492053
 30
0.0
 11
579.024994159712
 21
4191.242161819053
 31
0.0
  0
LINE
  5
66A
330
40C
100
AcDbEntity
  8
STAVBA OBRYS
  6
DASHED
100
AcDbLine
 10
583.3586087799175
 20
4189.146457147617
 30
0.0
 11
578.6548958161855
 21
4187.970528906413
 31
0.0
  0
LINE
  5
66B
330
40C
100
AcDbEntity
  8
STAVBA OBRYS
  6
DASHED
100
AcDbLine
 10
583.3586087799175
 20
4189.146457147617
 30
0.0
 11
582.9885104321127
 21
4188.93223766183
 31
0.0
  0
LINE
  5
66C
330
40C
100
AcDbEntity
  8
STAVBA OBRYS
  6
DASHED
100
AcDbLine
 10
583.3586087799175
 20
4189.146457147617
 30
0.0
 11
582.9885104321127
 21
4189.516555493283
 31
0.0
  0
LINE
  5
66D
330
40C
100
AcDbEntity
  8
STAVBA OBRYS
  6
DASHED
100
AcDbLine
 10
578.6548958161855
 20
4187.970528906413
 30
0.0
 11
579.024994159712
 21
4187.600430561018
 31
0.0
  0
LINE
  5
66E
330
40C
100
AcDbEntity
  8
STAVBA OBRYS
  6
DASHED
100
AcDbLine
 10
578.6548958161855
 20
4187.970528906413
 30
0.0
 11
579.024994159712
 21
4188.184748392199
 31
0.0
  0
LINE
  5
66F
330
40C
100
AcDbEntity
  8
STAVBA OBRYS
  6
DASHED
100
AcDbLine
 10
582.9885104321127
 20
4188.93223766183
 30
0.0
 11
579.024994159712
 21
4187.600430561018
 31
0.0
  0
LINE
  5
670
330
40C
100
AcDbEntity
  8
STAVBA OBRYS
  6
DASHED
100
AcDbLine
 10
582.9885104321127
 20
4189.516555493283
 30
0.0
 11
579.024994159712
 21
4188.184748392199
 31
0.0
  0
LINE
  5
671
330
40C
100
AcDbEntity
  8
STAVBA OBRYS
  6
DASHED
100
AcDbLine
 10
582.3294436756531
 20
4188.719841320692
 30
0.0
 11
582.3294436756531
 21
4186.249480442117
 31
0.0
  0
LINE
  5
672
330
40C
100
AcDbEntity
  8
STAVBA OBRYS
  6
DASHED
100
AcDbLine
 10
579.6840609161717
 20
4187.831969919969
 30
0.0
 11
579.6840609161717
 21
4185.354316463357
 31
0.0
  0
HATCH
  5
673
330
40C
100
AcDbEntity
  8
izolace
100
AcDbHatch
 10
0.0
 20
0.0
 30
0.0
210
0.0
220
0.0
230
1.0
  2
SOLID
 70
     1
 71
     0
 91
        1
 92
        7
 72
     0
 73
     1
 93
        4
 10
630.5821060695869
 20
4130.697006502292
 10
630.5821060695869
 20
4127.697006502291
 10
654.2238387794221
 20
4127.697006502292
 10
654.2238387794221
 20
4130.697006502291
 97
        0
 75
     0
 76
     1
 47
0.1901250437635136
 98
        1
 10
639.9399008279268
 20
4129.880194951212
  0
LWPOLYLINE
  5
674
330
40C
100
AcDbEntity
  8
STAVBA OBRYS
100
AcDbPolyline
 90
        4
 70
     1
 43
0.0
 10
654.2238387794185
 20
4130.697006502292
 10
630.5821060695834
 20
4130.697006502292
 10
630.5821060695834
 20
4127.697006502292
 10
654.2238387794185
 20
4127.697006502292
  0
HATCH
  5
675
330
40C
100
AcDbEntity
  8
izolace
100
AcDbHatch
 10
0.0
 20
0.0
 30
0.0
210
0.0
220
0.0
230
1.0
  2
SOLID
 70
     1
 71
     0
 91
        1
 92
        7
 72
     0
 73
     1
 93
        4
 10
677.8655714892537
 20
4130.697006502292
 10
677.8655714892574
 20
4127.697006502291
 10
701.5073041990925
 20
4127.697006502291
 10
701.5073041990817
 20
4130.697006502292
 97
        0
 75
     0
 76
     1
 47
0.1901250437635136
 98
        1
 10
687.2233662475972
 20
4129.880194951212
  0
LWPOLYLINE
  5
676
330
40C
100
AcDbEntity
  8
izolace
100
AcDbPolyline
 90
        4
 70
     1
 43
0.0
 10
701.5073041990889
 20
4130.697006502292
 10
677.8655714892537
 20
4130.697006502292
 10
677.8655714892537
 20
4127.697006502292
 10
701.5073041990889
 20
4127.697006502292
  0
HATCH
  5
677
330
40C
100
AcDbEntity
  8
izolace
100
AcDbHatch
 10
0.0
 20
0.0
 30
0.0
210
0.0
220
0.0
230
1.0
  2
SOLID
 70
     1
 71
     0
 91
        1
 92
        7
 72
     0
 73
     1
 93
        4
 10
725.1490369089241
 20
4130.697006502292
 10
725.1490369089277
 20
4127.697006502291
 10
748.790769618763
 20
4127.697006502292
 10
748.790769618763
 20
4130.697006502291
 97
        0
 75
     0
 76
     1
 47
0.1901250437635136
 98
        1
 10
734.5068316672676
 20
4129.880194951212
  0
LWPOLYLINE
  5
678
330
40C
100
AcDbEntity
  8
izolace
100
AcDbPolyline
 90
        4
 70
     1
 43
0.0
 10
748.7907696187593
 20
4130.697006502292
 10
725.1490369089241
 20
4130.697006502292
 10
725.1490369089241
 20
4127.697006502292
 10
748.7907696187593
 20
4127.697006502292
  0
LINE
  5
679
330
40C
100
AcDbEntity
  8
SPOJOVACÍ
  6
DASHED
100
AcDbLine
 10
632.7359143389129
 20
4174.697006502293
 30
0.0
 11
632.7359143389129
 21
4173.521078261095
 31
0.0
  0
LINE
  5
67A
330
40C
100
AcDbEntity
  8
SPOJOVACÍ
  6
DASHED
100
AcDbLine
 10
631.4132229570331
 20
4172.791820437351
 30
0.0
 11
630.3248056546816
 21
4171.744423887727
 31
0.0
  0
LINE
  5
67B
330
40C
100
AcDbEntity
  8
SPOJOVACÍ
  6
DASHED
100
AcDbLine
 10
632.7359143389129
 20
4173.521078261095
 30
0.0
 11
631.4132229570331
 21
4172.791820437351
 31
0.0
  0
LWPOLYLINE
  5
67C
330
40C
100
AcDbEntity
  8
STAVBA OBRYS
100
AcDbPolyline
 90
        2
 70
     0
 43
0.0
 10
670.3305084287075
 20
4137.313483611968
 42
-0.0070027860950108
 10
668.5065372287371
 20
4130.697006502292
  0
LWPOLYLINE
  5
67D
330
40C
100
AcDbEntity
  8
STAVBA OBRYS
100
AcDbPolyline
 90
        2
 70
     0
 43
0.0
 10
662.053796494887
 20
4150.697006502293
 42
-0.0133702840819155
 10
658.4039294340745
 20
4130.697006502292
 42
-0.0133702840819155
  0
LWPOLYLINE
  5
67E
330
40C
100
AcDbEntity
  8
STAVBA OBRYS
100
AcDbPolyline
 90
        3
 70
     0
 43
0.0
 10
636.331483511656
 20
4144.197836933037
 10
656.3277359436487
 20
4134.981807882517
 10
660.3276735773633
 20
4134.336410407175
  0
LWPOLYLINE
  5
67F
330
40C
100
AcDbEntity
  8
STAVBA OBRYS
100
AcDbPolyline
 90
        7
 70
     0
 43
0.0
 10
643.2398515108415
 20
4150.697006502293
 42
-0.0120721047703132
 10
643.1708688208035
 20
4148.963118363548
 42
-0.044358077361292
 10
642.7752410861302
 20
4146.267318345131
 42
-0.0188067511131767
 10
640.755417637747
 20
4139.025089169825
 42
-0.0457786284636091
 10
639.5473947481312
 20
4136.176478786945
 42
-0.0295006114745606
 10
637.1313342938318
 20
4132.249579573543
 42
-0.0094449184784486
 10
636.0006678533117
 20
4130.697006502292
 42
-0.0094449184784486
  0
LWPOLYLINE
  5
680
330
40C
100
AcDbEntity
  8
STAVBA OBRYS
100
AcDbPolyline
 90
        5
 70
     0
 43
0.0
 10
651.8640668908828
 20
4150.697006502293
 42
-0.0128837512779298
 10
651.5792749306582
 20
4147.363841680546
 42
-0.0351641677647434
 10
650.9515152091352
 20
4143.760132226208
 42
-0.0187319685742942
 10
647.5674993281444
 20
4132.001894884064
 42
-0.0205166500055637
 10
647.0782510992338
 20
4130.697006502292
 42
-0.0205166500055637
  0
INSERT
  5
681
330
40C
100
AcDbEntity
  8
POPIS
100
AcDbBlockReference
  2
E_PUNKT
 10
642.4577407585182
 20
4146.360504174523
 30
0.0
 50
270.0
  0
INSERT
  5
682
330
40C
100
AcDbEntity
  8
POPIS
100
AcDbBlockReference
  2
E_PUNKT
 10
722.074939315038
 20
4145.914395313212
 30
0.0
 50
270.0
  0
INSERT
  5
683
330
40C
100
AcDbEntity
  8
POPIS
100
AcDbBlockReference
  2
E_PUNKT
 10
776.7157678380844
 20
4127.724616877919
 30
0.0
 50
270.0
  0
TEXT
  5
684
330
40C
100
AcDbEntity
  8
POPIS
100
AcDbText
 10
643.4308896625242
 20
4255.839826328204
 30
0.0
 40
25.0
  1
01
 41
0.85
  7
SIMPLEX7
100
AcDbText
  0
TEXT
  5
685
330
40C
100
AcDbEntity
  8
POPIS
100
AcDbText
 10
695.5715418967209
 20
4255.839826328204
 30
0.0
 40
25.0
  1
02
 41
0.85
  7
SIMPLEX7
100
AcDbText
  0
TEXT
  5
686
330
40C
100
AcDbEntity
  8
POPIS
100
AcDbText
 10
1010.84582750419
 20
4220.981177954112
 30
0.0
 40
25.0
  1
06
 41
0.85
  7
SIMPLEX7
100
AcDbText
  0
LWPOLYLINE
  5
687
330
40C
100
AcDbEntity
  8
izolace
100
AcDbPolyline
 90
        4
 70
     1
 43
0.0
 10
843.3577004581001
 20
4130.697006502292
 10
819.7159677482648
 20
4130.697006502292
 10
819.7159677482648
 20
4127.697006502292
 10
843.3577004581001
 20
4127.697006502292
  0
HATCH
  5
688
330
40C
100
AcDbEntity
  8
izolace
100
AcDbHatch
 10
0.0
 20
0.0
 30
0.0
210
0.0
220
0.0
230
1.0
  2
SOLID
 70
     1
 71
     0
 91
        1
 92
        7
 72
     0
 73
     1
 93
        4
 10
819.7159677482648
 20
4130.697006502292
 10
819.7159677482686
 20
4127.697006502291
 10
843.3577004581037
 20
4127.697006502292
 10
843.3577004581037
 20
4130.697006502291
 97
        0
 75
     0
 76
     1
 47
0.1901250437635136
 98
        1
 10
829.0737625066084
 20
4129.880194951212
  0
LWPOLYLINE
  5
689
330
40C
100
AcDbEntity
  8
izolace
100
AcDbPolyline
 90
        4
 70
     1
 43
0.0
 10
890.6411658777704
 20
4130.697006502292
 10
866.9994331679353
 20
4130.697006502292
 10
866.9994331679353
 20
4127.697006502292
 10
890.6411658777704
 20
4127.697006502292
  0
HATCH
  5
68A
330
40C
100
AcDbEntity
  8
izolace
100
AcDbHatch
 10
0.0
 20
0.0
 30
0.0
210
0.0
220
0.0
230
1.0
  2
SOLID
 70
     1
 71
     0
 91
        1
 92
        7
 72
     0
 73
     1
 93
        4
 10
866.9994331679353
 20
4130.697006502292
 10
866.9994331679388
 20
4127.697006502291
 10
890.6411658777741
 20
4127.697006502292
 10
890.6411658777741
 20
4130.697006502291
 97
        0
 75
     0
 76
     1
 47
0.1901250437635136
 98
        1
 10
876.3572279262788
 20
4129.880194951212
  0
LINE
  5
68B
330
40C
100
AcDbEntity
  8
SPOJOVACÍ
  6
DASHED
100
AcDbLine
 10
879.719521662113
 20
4152.253185399695
 30
0.0
 11
875.7560053897121
 21
4150.920466726424
 31
0.0
  0
LINE
  5
68C
330
40C
100
AcDbEntity
  8
SPOJOVACÍ
  6
DASHED
100
AcDbLine
 10
879.719521662113
 20
4151.668867568243
 30
0.0
 11
875.7560053897121
 21
4150.336148894972
 31
0.0
  0
LINE
  5
68D
330
40C
100
AcDbEntity
  8
SPOJOVACÍ
  6
DASHED
100
AcDbLine
 10
875.3859070461857
 20
4150.706247240638
 30
0.0
 11
875.7560053897121
 21
4150.920466726424
 31
0.0
  0
LINE
  5
68E
330
40C
100
AcDbEntity
  8
SPOJOVACÍ
  6
DASHED
100
AcDbLine
 10
875.3859070461857
 20
4150.706247240638
 30
0.0
 11
875.7560053897121
 21
4150.336148894972
 31
0.0
  0
LINE
  5
68F
330
40C
100
AcDbEntity
  8
SPOJOVACÍ
  6
DASHED
100
AcDbLine
 10
880.0896200099176
 20
4151.882175481571
 30
0.0
 11
879.719521662113
 21
4152.253185399695
 31
0.0
  0
LINE
  5
690
330
40C
100
AcDbEntity
  8
SPOJOVACÍ
  6
DASHED
100
AcDbLine
 10
880.0896200099176
 20
4151.882175481571
 30
0.0
 11
879.719521662113
 21
4151.668867568243
 31
0.0
  0
LINE
  5
691
330
40C
100
AcDbEntity
  8
SPOJOVACÍ
  6
DASHED
100
AcDbLine
 10
880.0896200099176
 20
4151.882175481571
 30
0.0
 11
875.3859070461857
 21
4150.706247240638
 31
0.0
  0
LINE
  5
692
330
40C
100
AcDbEntity
  8
SPOJOVACÍ
  6
DASHED
100
AcDbLine
 10
879.719521662113
 20
4155.310598826278
 30
0.0
 11
875.7560053897121
 21
4153.977880153006
 31
0.0
  0
LINE
  5
693
330
40C
100
AcDbEntity
  8
SPOJOVACÍ
  6
DASHED
100
AcDbLine
 10
879.719521662113
 20
4154.726280994833
 30
0.0
 11
875.7560053897121
 21
4153.393562321826
 31
0.0
  0
LINE
  5
694
330
40C
100
AcDbEntity
  8
SPOJOVACÍ
  6
DASHED
100
AcDbLine
 10
875.3859070461857
 20
4153.764572239679
 30
0.0
 11
875.7560053897121
 21
4153.977880153006
 31
0.0
  0
LINE
  5
695
330
40C
100
AcDbEntity
  8
SPOJOVACÍ
  6
DASHED
100
AcDbLine
 10
875.3859070461857
 20
4153.764572239679
 30
0.0
 11
875.7560053897121
 21
4153.393562321826
 31
0.0
  0
LINE
  5
696
330
40C
100
AcDbEntity
  8
SPOJOVACÍ
  6
DASHED
100
AcDbLine
 10
880.0896200099176
 20
4154.940500480612
 30
0.0
 11
879.719521662113
 21
4155.310598826278
 31
0.0
  0
LINE
  5
697
330
40C
100
AcDbEntity
  8
SPOJOVACÍ
  6
DASHED
100
AcDbLine
 10
880.0896200099176
 20
4154.940500480612
 30
0.0
 11
879.719521662113
 21
4154.726280994833
 31
0.0
  0
LINE
  5
698
330
40C
100
AcDbEntity
  8
SPOJOVACÍ
  6
DASHED
100
AcDbLine
 10
880.0896200099176
 20
4154.940500480612
 30
0.0
 11
875.3859070461857
 21
4153.764572239679
 31
0.0
  0
LINE
  5
699
330
40C
100
AcDbEntity
  8
SPOJOVACÍ
  6
DASHED
100
AcDbLine
 10
879.719521662113
 20
4158.368012252867
 30
0.0
 11
875.7560053897121
 21
4157.03529357986
 31
0.0
  0
LINE
  5
69A
330
40C
100
AcDbEntity
  8
SPOJOVACÍ
  6
DASHED
100
AcDbLine
 10
879.719521662113
 20
4157.783694421416
 30
0.0
 11
875.7560053897121
 21
4156.450975748415
 31
0.0
  0
LINE
  5
69B
330
40C
100
AcDbEntity
  8
SPOJOVACÍ
  6
DASHED
100
AcDbLine
 10
875.3859070461857
 20
4156.821985666269
 30
0.0
 11
875.7560053897121
 21
4157.03529357986
 31
0.0
  0
LINE
  5
69C
330
40C
100
AcDbEntity
  8
SPOJOVACÍ
  6
DASHED
100
AcDbLine
 10
875.3859070461857
 20
4156.821985666269
 30
0.0
 11
875.7560053897121
 21
4156.450975748415
 31
0.0
  0
LINE
  5
69D
330
40C
100
AcDbEntity
  8
SPOJOVACÍ
  6
DASHED
100
AcDbLine
 10
880.0896200099176
 20
4157.997913907202
 30
0.0
 11
879.719521662113
 21
4158.368012252867
 31
0.0
  0
LINE
  5
69E
330
40C
100
AcDbEntity
  8
SPOJOVACÍ
  6
DASHED
100
AcDbLine
 10
880.0896200099176
 20
4157.997913907202
 30
0.0
 11
879.719521662113
 21
4157.783694421416
 31
0.0
  0
LINE
  5
69F
330
40C
100
AcDbEntity
  8
SPOJOVACÍ
  6
DASHED
100
AcDbLine
 10
880.0896200099176
 20
4157.997913907202
 30
0.0
 11
875.3859070461857
 21
4156.821985666269
 31
0.0
  0
LINE
  5
6A0
330
40C
100
AcDbEntity
  8
SPOJOVACÍ
  6
DASHED
100
AcDbLine
 10
878.7341120271392
 20
4142.958794433938
 30
0.0
 11
876.6229106285116
 21
4142.654329292479
 31
0.0
  0
LINE
  5
6A1
330
40C
100
AcDbEntity
  8
SPOJOVACÍ
  6
DASHED
100
AcDbLine
 10
878.3640136836128
 20
4143.328892779604
 30
0.0
 11
876.9930089720382
 21
4142.86763720607
 31
0.0
  0
LINE
  5
6A2
330
40C
100
AcDbEntity
  8
SPOJOVACÍ
  6
DASHED
100
AcDbLine
 10
878.3640136836128
 20
4142.744574948159
 30
0.0
 11
876.9930089720382
 21
4142.283319374626
 31
0.0
  0
LINE
  5
6A3
330
40C
100
AcDbEntity
  8
SPOJOVACÍ
  6
DASHED
100
AcDbLine
 10
876.6229106285116
 20
4142.654329292479
 30
0.0
 11
876.9930089720382
 21
4142.86763720607
 31
0.0
  0
LINE
  5
6A4
330
40C
100
AcDbEntity
  8
SPOJOVACÍ
  6
DASHED
100
AcDbLine
 10
876.6229106285116
 20
4142.654329292479
 30
0.0
 11
876.9930089720382
 21
4142.283319374626
 31
0.0
  0
LINE
  5
6A5
330
40C
100
AcDbEntity
  8
SPOJOVACÍ
  6
DASHED
100
AcDbLine
 10
878.7341120271392
 20
4142.958794433938
 30
0.0
 11
878.3640136836128
 21
4143.328892779604
 31
0.0
  0
LINE
  5
6A6
330
40C
100
AcDbEntity
  8
SPOJOVACÍ
  6
DASHED
100
AcDbLine
 10
878.7341120271392
 20
4142.958794433938
 30
0.0
 11
878.3640136836128
 21
4142.744574948159
 31
0.0
  0
LINE
  5
6A7
330
40C
100
AcDbEntity
  8
SPOJOVACÍ
  6
DASHED
100
AcDbLine
 10
879.2874364034013
 20
4145.912288620691
 30
0.0
 11
876.2336692652988
 21
4145.291507898257
 31
0.0
  0
LINE
  5
6A8
330
40C
100
AcDbEntity
  8
SPOJOVACÍ
  6
DASHED
100
AcDbLine
 10
878.9173380555965
 20
4146.283298538816
 30
0.0
 11
876.6037676088252
 21
4145.504815811584
 31
0.0
  0
LINE
  5
6A9
330
40C
100
AcDbEntity
  8
SPOJOVACÍ
  6
DASHED
100
AcDbLine
 10
878.9173380555965
 20
4145.698980707364
 30
0.0
 11
876.6037676088252
 21
4144.920497980403
 31
0.0
  0
LINE
  5
6AA
330
40C
100
AcDbEntity
  8
SPOJOVACÍ
  6
DASHED
100
AcDbLine
 10
876.2336692652988
 20
4145.291507898257
 30
0.0
 11
876.6037676088252
 21
4145.504815811584
 31
0.0
  0
LINE
  5
6AB
330
40C
100
AcDbEntity
  8
SPOJOVACÍ
  6
DASHED
100
AcDbLine
 10
876.2336692652988
 20
4145.291507898257
 30
0.0
 11
876.6037676088252
 21
4144.920497980403
 31
0.0
  0
LINE
  5
6AC
330
40C
100
AcDbEntity
  8
SPOJOVACÍ
  6
DASHED
100
AcDbLine
 10
879.2874364034013
 20
4145.912288620691
 30
0.0
 11
878.9173380555965
 21
4146.283298538816
 31
0.0
  0
LINE
  5
6AD
330
40C
100
AcDbEntity
  8
SPOJOVACÍ
  6
DASHED
100
AcDbLine
 10
879.2874364034013
 20
4145.912288620691
 30
0.0
 11
878.9173380555965
 21
4145.698980707364
 31
0.0
  0
LINE
  5
6AE
330
40C
100
AcDbEntity
  8
SPOJOVACÍ
  6
DASHED
100
AcDbLine
 10
879.8407607753851
 20
4148.866694379903
 30
0.0
 11
875.7979377156969
 21
4147.913189775245
 31
0.0
  0
LINE
  5
6AF
330
40C
100
AcDbEntity
  8
SPOJOVACÍ
  6
DASHED
100
AcDbLine
 10
879.4697508580664
 20
4149.236792725569
 30
0.0
 11
876.1680360592235
 21
4148.126497688572
 31
0.0
  0
LINE
  5
6B0
330
40C
100
AcDbEntity
  8
SPOJOVACÍ
  6
DASHED
100
AcDbLine
 10
879.4697508580664
 20
4148.652474894117
 30
0.0
 11
876.1680360592235
 21
4147.54217985712
 31
0.0
  0
LINE
  5
6B1
330
40C
100
AcDbEntity
  8
SPOJOVACÍ
  6
DASHED
100
AcDbLine
 10
875.7979377156969
 20
4147.913189775245
 30
0.0
 11
876.1680360592235
 21
4148.126497688572
 31
0.0
  0
LINE
  5
6B2
330
40C
100
AcDbEntity
  8
SPOJOVACÍ
  6
DASHED
100
AcDbLine
 10
875.7979377156969
 20
4147.913189775245
 30
0.0
 11
876.1680360592235
 21
4147.54217985712
 31
0.0
  0
LINE
  5
6B3
330
40C
100
AcDbEntity
  8
SPOJOVACÍ
  6
DASHED
100
AcDbLine
 10
879.8407607753851
 20
4148.866694379903
 30
0.0
 11
879.4697508580664
 21
4149.236792725569
 31
0.0
  0
LINE
  5
6B4
330
40C
100
AcDbEntity
  8
SPOJOVACÍ
  6
DASHED
100
AcDbLine
 10
879.8407607753851
 20
4148.866694379903
 30
0.0
 11
879.4697508580664
 21
4148.652474894117
 31
0.0
  0
LINE
  5
6B5
330
40C
100
AcDbEntity
  8
SPOJOVACÍ
  6
DASHED
100
AcDbLine
 10
879.719521662113
 20
4161.425425679721
 30
0.0
 11
875.7560053897121
 21
4160.093618578637
 31
0.0
  0
LINE
  5
6B6
330
40C
100
AcDbEntity
  8
SPOJOVACÍ
  6
DASHED
100
AcDbLine
 10
879.719521662113
 20
4160.841107848269
 30
0.0
 11
875.7560053897121
 21
4159.509300747457
 31
0.0
  0
LINE
  5
6B7
330
40C
100
AcDbEntity
  8
SPOJOVACÍ
  6
DASHED
100
AcDbLine
 10
875.3859070461857
 20
4159.879399092852
 30
0.0
 11
875.7560053897121
 21
4160.093618578637
 31
0.0
  0
LINE
  5
6B8
330
40C
100
AcDbEntity
  8
SPOJOVACÍ
  6
DASHED
100
AcDbLine
 10
875.3859070461857
 20
4159.879399092852
 30
0.0
 11
875.7560053897121
 21
4159.509300747457
 31
0.0
  0
LINE
  5
6B9
330
40C
100
AcDbEntity
  8
SPOJOVACÍ
  6
DASHED
100
AcDbLine
 10
880.0896200099176
 20
4161.055327334056
 30
0.0
 11
879.719521662113
 21
4161.425425679721
 31
0.0
  0
LINE
  5
6BA
330
40C
100
AcDbEntity
  8
SPOJOVACÍ
  6
DASHED
100
AcDbLine
 10
880.0896200099176
 20
4161.055327334056
 30
0.0
 11
879.719521662113
 21
4160.841107848269
 31
0.0
  0
LINE
  5
6BB
330
40C
100
AcDbEntity
  8
SPOJOVACÍ
  6
DASHED
100
AcDbLine
 10
880.0896200099176
 20
4161.055327334056
 30
0.0
 11
875.3859070461857
 21
4159.879399092852
 31
0.0
  0
LINE
  5
6BC
330
40C
100
AcDbEntity
  8
SPOJOVACÍ
  6
DASHED
100
AcDbLine
 10
879.719521662113
 20
4164.483750678491
 30
0.0
 11
875.7560053897121
 21
4163.151032005491
 31
0.0
  0
LINE
  5
6BD
330
40C
100
AcDbEntity
  8
SPOJOVACÍ
  6
DASHED
100
AcDbLine
 10
879.719521662113
 20
4163.899432847311
 30
0.0
 11
875.7560053897121
 21
4162.566714174039
 31
0.0
  0
LINE
  5
6BE
330
40C
100
AcDbEntity
  8
SPOJOVACÍ
  6
DASHED
100
AcDbLine
 10
875.3859070461857
 20
4162.936812519705
 30
0.0
 11
875.7560053897121
 21
4163.151032005491
 31
0.0
  0
LINE
  5
6BF
330
40C
100
AcDbEntity
  8
SPOJOVACÍ
  6
DASHED
100
AcDbLine
 10
875.3859070461857
 20
4162.936812519705
 30
0.0
 11
875.7560053897121
 21
4162.566714174039
 31
0.0
  0
LINE
  5
6C0
330
40C
100
AcDbEntity
  8
SPOJOVACÍ
  6
DASHED
100
AcDbLine
 10
880.0896200099176
 20
4164.112740760638
 30
0.0
 11
879.719521662113
 21
4164.483750678491
 31
0.0
  0
LINE
  5
6C1
330
40C
100
AcDbEntity
  8
SPOJOVACÍ
  6
DASHED
100
AcDbLine
 10
880.0896200099176
 20
4164.112740760638
 30
0.0
 11
879.719521662113
 21
4163.899432847311
 31
0.0
  0
LINE
  5
6C2
330
40C
100
AcDbEntity
  8
SPOJOVACÍ
  6
DASHED
100
AcDbLine
 10
880.0896200099176
 20
4164.112740760638
 30
0.0
 11
875.3859070461857
 21
4162.936812519705
 31
0.0
  0
LINE
  5
6C3
330
40C
100
AcDbEntity
  8
SPOJOVACÍ
  6
DASHED
100
AcDbLine
 10
876.6557272294102
 20
4148.299696421894
 30
0.0
 11
876.4150721461717
 21
4150.231318082955
 31
0.0
  0
LINE
  5
6C4
330
40C
100
AcDbEntity
  8
SPOJOVACÍ
  6
DASHED
100
AcDbLine
 10
876.9875395421204
 20
4145.647021087314
 30
0.0
 11
876.7259182958895
 21
4147.74090261411
 31
0.0
  0
LINE
  5
6C5
330
40C
100
AcDbEntity
  8
SPOJOVACÍ
  6
DASHED
100
AcDbLine
 10
877.3202634200659
 20
4142.984318457869
 30
0.0
 11
877.0577306043213
 21
4145.086404135154
 31
0.0
  0
LINE
  5
6C6
330
40C
100
AcDbEntity
  8
SPOJOVACÍ
  6
DASHED
100
AcDbLine
 10
878.1160660228723
 20
4142.674383882749
 30
0.0
 11
877.7377635280517
 21
4139.647052341301
 31
0.0
  0
LINE
  5
6C7
330
40C
100
AcDbEntity
  8
SPOJOVACÍ
  6
DASHED
100
AcDbLine
 10
878.4761370717987
 20
4145.556775431634
 30
0.0
 11
878.1917265235477
 21
4143.282402593486
 31
0.0
  0
LINE
  5
6C8
330
40C
100
AcDbEntity
  8
SPOJOVACÍ
  6
DASHED
100
AcDbLine
 10
878.8380312683091
 20
4148.450105847849
 30
0.0
 11
878.55362071578
 21
4146.174821437505
 31
0.0
  0
LINE
  5
6C9
330
40C
100
AcDbEntity
  8
SPOJOVACÍ
  6
DASHED
100
AcDbLine
 10
877.7377635280517
 20
4139.647052341301
 30
0.0
 11
877.3904544865454
 21
4142.426436222544
 31
0.0
  0
LINE
  5
6CA
330
40C
100
AcDbEntity
  8
SPOJOVACÍ
  6
DASHED
100
AcDbLine
 10
879.0604549056533
 20
4150.231318082955
 30
0.0
 11
878.9136917689846
 21
4149.058124558585
 31
0.0
  0
LINE
  5
6CB
330
40C
100
AcDbEntity
  8
SPOJOVACÍ
  6
DASHED
100
AcDbLine
 10
876.4150721461717
 20
4150.561307248081
 30
0.0
 11
876.4150721461717
 21
4150.231318082955
 31
0.0
  0
LINE
  5
6CC
330
40C
100
AcDbEntity
  8
SPOJOVACÍ
  6
DASHED
100
AcDbLine
 10
876.4150721461717
 20
4153.621455391761
 30
0.0
 11
876.4150721461717
 21
4151.152917657833
 31
0.0
  0
LINE
  5
6CD
330
40C
100
AcDbEntity
  8
SPOJOVACÍ
  6
DASHED
100
AcDbLine
 10
879.0604549056533
 20
4151.453736510005
 30
0.0
 11
879.0604549056533
 21
4150.231318082955
 31
0.0
  0
LINE
  5
6CE
330
40C
100
AcDbEntity
  8
SPOJOVACÍ
  6
DASHED
100
AcDbLine
 10
879.0604549056533
 20
4154.505680503198
 30
0.0
 11
879.0604549056533
 21
4152.038054341457
 31
0.0
  0
LINE
  5
6CF
330
40C
100
AcDbEntity
  8
SPOJOVACÍ
  6
DASHED
100
AcDbLine
 10
876.4150721461717
 20
4156.680691962991
 30
0.0
 11
876.4150721461717
 21
4154.210331084416
 31
0.0
  0
LINE
  5
6D0
330
40C
100
AcDbEntity
  8
SPOJOVACÍ
  6
DASHED
100
AcDbLine
 10
876.4150721461717
 20
4159.740840106407
 30
0.0
 11
876.4150721461717
 21
4157.263186649795
 31
0.0
  0
LINE
  5
6D1
330
40C
100
AcDbEntity
  8
SPOJOVACÍ
  6
DASHED
100
AcDbLine
 10
876.4150721461717
 20
4162.793695671787
 30
0.0
 11
876.4150721461717
 21
4160.325157937859
 31
0.0
  0
LINE
  5
6D2
330
40C
100
AcDbEntity
  8
SPOJOVACÍ
  6
DASHED
100
AcDbLine
 10
879.0604549056533
 20
4157.575855941749
 30
0.0
 11
879.0604549056533
 21
4155.098202485138
 31
0.0
  0
LINE
  5
6D3
330
40C
100
AcDbEntity
  8
SPOJOVACÍ
  6
DASHED
100
AcDbLine
 10
879.0604549056533
 20
4160.62871150713
 30
0.0
 11
879.0604549056533
 21
4158.158350628555
 31
0.0
  0
LINE
  5
6D4
330
40C
100
AcDbEntity
  8
SPOJOVACÍ
  6
DASHED
100
AcDbLine
 10
879.0604549056533
 20
4163.688859650547
 30
0.0
 11
879.0604549056533
 21
4161.220321916618
 31
0.0
  0
LINE
  5
6D5
330
40C
100
AcDbEntity
  8
SPOJOVACÍ
  6
DASHED
100
AcDbLine
 10
879.0604549056533
 20
4168.229401176626
 30
0.0
 11
879.0604549056533
 21
4164.27226590954
 31
0.0
  0
LINE
  5
6D6
330
40C
100
AcDbEntity
  8
SPOJOVACÍ
  6
DASHED
100
AcDbLine
 10
876.4150721461717
 20
4168.229401176626
 30
0.0
 11
876.4150721461717
 21
4163.385306081276
 31
0.0
  0
LINE
  5
6D7
330
40C
100
AcDbEntity
  8
SPOJOVACÍ
  6
DASHED
100
AcDbLine
 10
882.7359143389129
 20
4173.521078261095
 30
0.0
 11
881.4132229570331
 21
4172.791820437351
 31
0.0
  0
LINE
  5
6D8
330
40C
100
AcDbEntity
  8
SPOJOVACÍ
  6
DASHED
100
AcDbLine
 10
881.4132229570331
 20
4172.791820437351
 30
0.0
 11
880.3248056546816
 21
4171.744423887727
 31
0.0
  0
LINE
  5
6D9
330
40C
100
AcDbEntity
  8
SPOJOVACÍ
  6
DASHED
100
AcDbLine
 10
880.3248056546816
 20
4171.744423887727
 30
0.0
 11
879.5444997849498
 21
4170.451814394995
 31
0.0
  0
LINE
  5
6DA
330
40C
100
AcDbEntity
  8
SPOJOVACÍ
  6
DASHED
100
AcDbLine
 10
879.5444997849498
 20
4170.451814394995
 30
0.0
 11
879.1251765379364
 21
4169.000591325286
 31
0.0
  0
LINE
  5
6DB
330
40C
100
AcDbEntity
  8
SPOJOVACÍ
  6
DASHED
100
AcDbLine
 10
879.1251765379364
 20
4169.000591325286
 30
0.0
 11
879.0604549056533
 21
4168.229401176626
 31
0.0
  0
LINE
  5
6DC
330
40C
100
AcDbEntity
  8
SPOJOVACÍ
  6
DASHED
100
AcDbLine
 10
874.6530029323565
 20
4172.291367255737
 30
0.0
 11
873.4406117996348
 21
4173.191089095969
 31
0.0
  0
LINE
  5
6DD
330
40C
100
AcDbEntity
  8
SPOJOVACÍ
  6
DASHED
100
AcDbLine
 10
873.4406117996348
 20
4173.191089095969
 30
0.0
 11
872.7396127171903
 21
4173.521078261095
 31
0.0
  0
LINE
  5
6DE
330
40C
100
AcDbEntity
  8
SPOJOVACÍ
  6
DASHED
100
AcDbLine
 10
882.7359143389129
 20
4173.521078261095
 30
0.0
 11
872.7396127171903
 21
4173.521078261095
 31
0.0
  0
LINE
  5
6DF
330
40C
100
AcDbEntity
  8
SPOJOVACÍ
  6
DASHED
100
AcDbLine
 10
882.7359143389129
 20
4174.697006502293
 30
0.0
 11
882.7359143389129
 21
4173.521078261095
 31
0.0
  0
LINE
  5
6E0
330
40C
100
AcDbEntity
  8
SPOJOVACÍ
  6
DASHED
100
AcDbLine
 10
882.7359143389129
 20
4174.697006502293
 30
0.0
 11
872.7396127171903
 21
4174.697006502293
 31
0.0
  0
LINE
  5
6E1
330
40C
100
AcDbEntity
  8
SPOJOVACÍ
  6
DASHED
100
AcDbLine
 10
872.7396127171903
 20
4174.697006502293
 30
0.0
 11
872.7396127171903
 21
4173.521078261095
 31
0.0
  0
LINE
  5
6E2
330
40C
100
AcDbEntity
  8
SPOJOVACÍ
  6
DASHED
100
AcDbLine
 10
876.4150721461717
 20
4168.229401176626
 30
0.0
 11
876.1926485131061
 21
4169.722556570987
 31
0.0
  0
LINE
  5
6E3
330
40C
100
AcDbEntity
  8
SPOJOVACÍ
  6
DASHED
100
AcDbLine
 10
876.1926485131061
 20
4169.722556570987
 30
0.0
 11
875.5919223809414
 21
4171.108146436496
 31
0.0
  0
LINE
  5
6E4
330
40C
100
AcDbEntity
  8
SPOJOVACÍ
  6
DASHED
100
AcDbLine
 10
875.5919223809414
 20
4171.108146436496
 30
0.0
 11
874.6530029323565
 21
4172.291367255737
 31
0.0
  0
INSERT
  5
6E5
330
40C
100
AcDbEntity
  8
POPIS
100
AcDbBlockReference
  2
E_PUNKT
 10
833.7850724184299
 20
4114.511708805376
 30
0.0
 50
270.0
  0
TEXT
  5
6E6
330
40C
100
AcDbEntity
  8
POPIS
100
AcDbText
 10
1010.84582750419
 20
4187.095906414826
 30
0.0
 40
25.0
  1
07
 41
0.85
  7
SIMPLEX7
100
AcDbText
  0
TEXT
  5
6E7
330
40C
100
AcDbEntity
  8
POPIS
100
AcDbText
 10
1010.84582750419
 20
4150.260366411933
 30
0.0
 40
25.0
  1
08
 41
0.85
  7
SIMPLEX7
100
AcDbText
  0
TEXT
  5
6E8
330
40C
100
AcDbEntity
  8
POPIS
100
AcDbText
 10
1010.84582750419
 20
4114.734725510632
 30
0.0
 40
25.0
  1
09
 41
0.85
  7
SIMPLEX7
100
AcDbText
  0
TEXT
  5
6E9
330
40C
100
AcDbEntity
  8
POPIS
100
AcDbText
 10
1010.84582750419
 20
4330.864435825489
 30
0.0
 40
25.0
  1
03
 41
0.85
  7
SIMPLEX7
100
AcDbText
  0
TEXT
  5
6EA
330
40C
100
AcDbEntity
  8
POPIS
100
AcDbText
 10
1010.84582750419
 20
4294.269424209862
 30
0.0
 40
25.0
  1
04
 41
0.85
  7
SIMPLEX7
100
AcDbText
  0
TEXT
  5
6EB
330
40C
100
AcDbEntity
  8
POPIS
100
AcDbText
 10
1010.84582750419
 20
4256.385339172275
 30
0.0
 40
25.0
  1
05
 41
0.85
  7
SIMPLEX7
100
AcDbText
  0
TEXT
  5
6EC
330
40C
100
AcDbEntity
  8
POPIS
100
AcDbText
 10
1010.84582750419
 20
4364.983461239428
 30
0.0
 40
25.0
  1
02
 41
0.85
  7
SIMPLEX7
100
AcDbText
  0
CIRCLE
  5
6ED
330
40C
100
AcDbEntity
  8
POPIS
100
AcDbCircle
 10
1238.498050739194
 20
4245.156471948797
 30
0.0
 40
7.795592338044182
  0
TEXT
  5
6EE
330
40C
100
AcDbEntity
  8
POPIS
100
AcDbText
 10
1235.166730400566
 20
4241.274729927307
 30
0.0
 40
8.399999999999998
  1
R
 41
0.85
  7
SIMPLEX7
100
AcDbText
  0
CIRCLE
  5
6EF
330
40C
100
AcDbEntity
  8
POPIS
100
AcDbCircle
 10
1238.8834664476
 20
4286.225224486497
 30
0.0
 40
7.795592338044182
  0
TEXT
  5
6F0
330
40C
100
AcDbEntity
  8
POPIS
100
AcDbText
 10
1235.552146108972
 20
4282.343482465005
 30
0.0
 40
8.399999999999998
  1
R
 41
0.85
  7
SIMPLEX7
100
AcDbText
  0
ENDBLK
  5
6F2
330
40C
100
AcDbEntity
  8
0
100
AcDbBlockEnd
  0
ENDSEC
  0
SECTION
  2
ENTITIES
  0
INSERT
  5
704
330
1F
100
AcDbEntity
  8
CETRIS
100
AcDbBlockReference
  2
2_1_02
 10
-136.778177908151
 20
-3953.536219501954
 30
0.0
  0
ENDSEC
  0
SECTION
  2
OBJECTS
  0
DICTIONARY
  5
C
330
0
100
AcDbDictionary
281
     1
  3
ACAD_GROUP
350
D
  3
ACAD_LAYOUT
350
1A
  3
ACAD_MLINESTYLE
350
17
  3
ACAD_PLOTSETTINGS
350
19
  3
ACAD_PLOTSTYLENAME
350
E
  0
DICTIONARY
  5
D
102
{ACAD_REACTORS
330
C
102
}
330
C
100
AcDbDictionary
281
     1
  0
DICTIONARY
  5
1A
102
{ACAD_REACTORS
330
C
102
}
330
C
100
AcDbDictionary
281
     1
  3
Model
350
22
  3
Rozvržení1
350
1E
  3
Rozvržení2
350
26
  0
DICTIONARY
  5
17
102
{ACAD_REACTORS
330
C
102
}
330
C
100
AcDbDictionary
281
     1
  3
Standard
350
18
  0
DICTIONARY
  5
19
102
{ACAD_REACTORS
330
C
102
}
330
C
100
AcDbDictionary
281
     1
  0
ACDBDICTIONARYWDFLT
  5
E
102
{ACAD_REACTORS
330
C
102
}
330
C
100
AcDbDictionary
281
     1
  3
Normal
350
F
100
AcDbDictionaryWithDefault
340
F
  0
LAYOUT
  5
22
102
{ACAD_REACTORS
330
1A
102
}
330
1A
100
AcDbPlotSettings
  1

  2
HP DeskJet 690C
  4

  6

 40
0.0
 41
0.0
 42
0.0
 43
0.0
 44
0.0
 45
0.0
 46
0.0
 47
0.0
 48
0.0
 49
0.0
140
0.0
141
0.0
142
1.0
143
1.0
 70
  1712
 72
     0
 73
     0
 74
     0
  7
monochrome.ctb
 75
     0
147
1.0
148
0.0
149
0.0
100
AcDbLayout
  1
Model
 70
     1
 71
     0
 10
0.0
 20
0.0
 11
12.0
 21
9.0
 12
0.0
 22
0.0
 32
0.0
 14
0.0
 24
0.0
 34
0.0
 15
0.0
 25
0.0
 35
0.0
146
0.0
 13
0.0
 23
0.0
 33
0.0
 16
1.0
 26
0.0
 36
0.0
 17
0.0
 27
1.0
 37
0.0
 76
     0
330
1F
  0
LAYOUT
  5
1E
102
{ACAD_REACTORS
330
1A
102
}
330
1A
100
AcDbPlotSettings
  1

  2
HP DeskJet 690C
  4

  6

 40
0.0
 41
0.0
 42
0.0
 43
0.0
 44
0.0
 45
0.0
 46
0.0
 47
0.0
 48
0.0
 49
0.0
140
0.0
141
0.0
142
1.0
143
1.0
 70
   688
 72
     0
 73
     0
 74
     5
  7
monochrome.ctb
 75
    16
147
1.0
148
0.0
149
0.0
100
AcDbLayout
  1
Rozvržení1
 70
     1
 71
     1
 10
0.0
 20
0.0
 11
420.0
 21
297.0
 12
0.0
 22
0.0
 32
0.0
 14
1.000000000000000E+20
 24
1.000000000000000E+20
 34
1.000000000000000E+20
 15
-1.000000000000000E+20
 25
-1.000000000000000E+20
 35
-1.000000000000000E+20
146
0.0
 13
0.0
 23
0.0
 33
0.0
 16
1.0
 26
0.0
 36
0.0
 17
0.0
 27
1.0
 37
0.0
 76
     0
330
1B
  0
LAYOUT
  5
26
102
{ACAD_REACTORS
330
1A
102
}
330
1A
100
AcDbPlotSettings
  1

  2
HP DeskJet 690C
  4

  6

 40
0.0
 41
0.0
 42
0.0
 43
0.0
 44
0.0
 45
0.0
 46
0.0
 47
0.0
 48
0.0
 49
0.0
140
0.0
141
0.0
142
1.0
143
1.0
 70
   688
 72
     0
 73
     0
 74
     5
  7
monochrome.ctb
 75
    16
147
1.0
148
0.0
149
0.0
100
AcDbLayout
  1
Rozvržení2
 70
     1
 71
     2
 10
0.0
 20
0.0
 11
12.0
 21
9.0
 12
0.0
 22
0.0
 32
0.0
 14
0.0
 24
0.0
 34
0.0
 15
0.0
 25
0.0
 35
0.0
146
0.0
 13
0.0
 23
0.0
 33
0.0
 16
1.0
 26
0.0
 36
0.0
 17
0.0
 27
1.0
 37
0.0
 76
     0
330
23
  0
MLINESTYLE
  5
18
102
{ACAD_REACTORS
330
17
102
}
330
17
100
AcDbMlineStyle
  2
STANDARD
 70
     0
  3

 62
   256
 51
90.0
 52
90.0
 71
     2
 49
0.5
 62
   256
  6
BYLAYER
 49
-0.5
 62
   256
  6
BYLAYER
  0
ACDBPLACEHOLDER
  5
F
102
{ACAD_REACTORS
330
E
102
}
330
E
  0
ENDSEC
  0
EOF
