  0
SECTION
  2
HEADER
  9
$ACADVER
  1
AC1015
  9
$ACADMAINTVER
 70
    10
  9
$DWGCODEPAGE
  3
ANSI_1250
  9
$INSBASE
 10
0.0
 20
0.0
 30
0.0
  9
$EXTMIN
 10
123.4839072784319
 20
93.55499764651188
 30
0.0
  9
$EXTMAX
 10
1731.630377350431
 20
907.1097012724226
 30
0.0
  9
$LIMMIN
 10
0.0
 20
0.0
  9
$LIMMAX
 10
420.0
 20
297.0
  9
$ORTHOMODE
 70
     0
  9
$REGENMODE
 70
     1
  9
$FILLMODE
 70
     1
  9
$QTEXTMODE
 70
     0
  9
$MIRRTEXT
 70
     1
  9
$LTSCALE
 40
1.0
  9
$ATTMODE
 70
     1
  9
$TEXTSIZE
 40
2.5
  9
$TRACEWID
 40
1.0
  9
$TEXTSTYLE
  7
Standard
  9
$CLAYER
  8
0
  9
$CELTYPE
  6
ByLayer
  9
$CECOLOR
 62
   256
  9
$CELTSCALE
 40
1.0
  9
$DISPSILH
 70
     0
  9
$DIMSCALE
 40
1.0
  9
$DIMASZ
 40
2.5
  9
$DIMEXO
 40
0.625
  9
$DIMDLI
 40
3.75
  9
$DIMRND
 40
0.0
  9
$DIMDLE
 40
0.0
  9
$DIMEXE
 40
1.25
  9
$DIMTP
 40
0.0
  9
$DIMTM
 40
0.0
  9
$DIMTXT
 40
2.5
  9
$DIMCEN
 40
2.5
  9
$DIMTSZ
 40
0.0
  9
$DIMTOL
 70
     0
  9
$DIMLIM
 70
     0
  9
$DIMTIH
 70
     0
  9
$DIMTOH
 70
     0
  9
$DIMSE1
 70
     0
  9
$DIMSE2
 70
     0
  9
$DIMTAD
 70
     1
  9
$DIMZIN
 70
     8
  9
$DIMBLK
  1

  9
$DIMASO
 70
     1
  9
$DIMSHO
 70
     1
  9
$DIMPOST
  1

  9
$DIMAPOST
  1

  9
$DIMALT
 70
     0
  9
$DIMALTD
 70
     3
  9
$DIMALTF
 40
0.03937007874016
  9
$DIMLFAC
 40
1.0
  9
$DIMTOFL
 70
     1
  9
$DIMTVP
 40
0.0
  9
$DIMTIX
 70
     0
  9
$DIMSOXD
 70
     0
  9
$DIMSAH
 70
     0
  9
$DIMBLK1
  1

  9
$DIMBLK2
  1

  9
$DIMSTYLE
  2
ISO-25
  9
$DIMCLRD
 70
     0
  9
$DIMCLRE
 70
     0
  9
$DIMCLRT
 70
     0
  9
$DIMTFAC
 40
1.0
  9
$DIMGAP
 40
0.625
  9
$DIMJUST
 70
     0
  9
$DIMSD1
 70
     0
  9
$DIMSD2
 70
     0
  9
$DIMTOLJ
 70
     0
  9
$DIMTZIN
 70
     8
  9
$DIMALTZ
 70
     0
  9
$DIMALTTZ
 70
     0
  9
$DIMUPT
 70
     0
  9
$DIMDEC
 70
     2
  9
$DIMTDEC
 70
     2
  9
$DIMALTU
 70
     2
  9
$DIMALTTD
 70
     3
  9
$DIMTXSTY
  7
Standard
  9
$DIMAUNIT
 70
     0
  9
$DIMADEC
 70
     0
  9
$DIMALTRND
 40
0.0
  9
$DIMAZIN
 70
     0
  9
$DIMDSEP
 70
    44
  9
$DIMATFIT
 70
     3
  9
$DIMFRAC
 70
     0
  9
$DIMLDRBLK
  1

  9
$DIMLUNIT
 70
     2
  9
$DIMLWD
 70
    -2
  9
$DIMLWE
 70
    -2
  9
$DIMTMOVE
 70
     0
  9
$LUNITS
 70
     2
  9
$LUPREC
 70
     4
  9
$SKETCHINC
 40
1.0
  9
$FILLETRAD
 40
10.0
  9
$AUNITS
 70
     0
  9
$AUPREC
 70
     0
  9
$MENU
  1
.
  9
$ELEVATION
 40
0.0
  9
$PELEVATION
 40
0.0
  9
$THICKNESS
 40
0.0
  9
$LIMCHECK
 70
     0
  9
$CHAMFERA
 40
10.0
  9
$CHAMFERB
 40
10.0
  9
$CHAMFERC
 40
20.0
  9
$CHAMFERD
 40
0.0
  9
$SKPOLY
 70
     0
  9
$TDCREATE
 40
2452332.337407754
  9
$TDUCREATE
 40
2452332.295741087
  9
$TDUPDATE
 40
2452653.362322222
  9
$TDUUPDATE
 40
2452653.320655555
  9
$TDINDWG
 40
0.0264776042
  9
$TDUSRTIMER
 40
0.0264776042
  9
$USRTIMER
 70
     1
  9
$ANGBASE
 50
0.0
  9
$ANGDIR
 70
     0
  9
$PDMODE
 70
     0
  9
$PDSIZE
 40
0.0
  9
$PLINEWID
 40
0.0
  9
$SPLFRAME
 70
     0
  9
$SPLINETYPE
 70
     6
  9
$SPLINESEGS
 70
     8
  9
$HANDSEED
  5
420
  9
$SURFTAB1
 70
     6
  9
$SURFTAB2
 70
     6
  9
$SURFTYPE
 70
     6
  9
$SURFU
 70
     6
  9
$SURFV
 70
     6
  9
$UCSBASE
  2

  9
$UCSNAME
  2

  9
$UCSORG
 10
0.0
 20
0.0
 30
0.0
  9
$UCSXDIR
 10
1.0
 20
0.0
 30
0.0
  9
$UCSYDIR
 10
0.0
 20
1.0
 30
0.0
  9
$UCSORTHOREF
  2

  9
$UCSORTHOVIEW
 70
     0
  9
$UCSORGTOP
 10
0.0
 20
0.0
 30
0.0
  9
$UCSORGBOTTOM
 10
0.0
 20
0.0
 30
0.0
  9
$UCSORGLEFT
 10
0.0
 20
0.0
 30
0.0
  9
$UCSORGRIGHT
 10
0.0
 20
0.0
 30
0.0
  9
$UCSORGFRONT
 10
0.0
 20
0.0
 30
0.0
  9
$UCSORGBACK
 10
0.0
 20
0.0
 30
0.0
  9
$PUCSBASE
  2

  9
$PUCSNAME
  2

  9
$PUCSORG
 10
0.0
 20
0.0
 30
0.0
  9
$PUCSXDIR
 10
1.0
 20
0.0
 30
0.0
  9
$PUCSYDIR
 10
0.0
 20
1.0
 30
0.0
  9
$PUCSORTHOREF
  2

  9
$PUCSORTHOVIEW
 70
     0
  9
$PUCSORGTOP
 10
0.0
 20
0.0
 30
0.0
  9
$PUCSORGBOTTOM
 10
0.0
 20
0.0
 30
0.0
  9
$PUCSORGLEFT
 10
0.0
 20
0.0
 30
0.0
  9
$PUCSORGRIGHT
 10
0.0
 20
0.0
 30
0.0
  9
$PUCSORGFRONT
 10
0.0
 20
0.0
 30
0.0
  9
$PUCSORGBACK
 10
0.0
 20
0.0
 30
0.0
  9
$USERI1
 70
     0
  9
$USERI2
 70
     0
  9
$USERI3
 70
     0
  9
$USERI4
 70
     0
  9
$USERI5
 70
     0
  9
$USERR1
 40
0.0
  9
$USERR2
 40
0.0
  9
$USERR3
 40
0.0
  9
$USERR4
 40
0.0
  9
$USERR5
 40
0.0
  9
$WORLDVIEW
 70
     1
  9
$SHADEDGE
 70
     3
  9
$SHADEDIF
 70
    70
  9
$TILEMODE
 70
     1
  9
$MAXACTVP
 70
    64
  9
$PINSBASE
 10
0.0
 20
0.0
 30
0.0
  9
$PLIMCHECK
 70
     0
  9
$PEXTMIN
 10
1.000000000000000E+20
 20
1.000000000000000E+20
 30
1.000000000000000E+20
  9
$PEXTMAX
 10
-1.000000000000000E+20
 20
-1.000000000000000E+20
 30
-1.000000000000000E+20
  9
$PLIMMIN
 10
0.0
 20
0.0
  9
$PLIMMAX
 10
420.0
 20
297.0
  9
$UNITMODE
 70
     0
  9
$VISRETAIN
 70
     1
  9
$PLINEGEN
 70
     0
  9
$PSLTSCALE
 70
     1
  9
$TREEDEPTH
 70
  3020
  9
$CMLSTYLE
  2
Standard
  9
$CMLJUST
 70
     0
  9
$CMLSCALE
 40
20.0
  9
$PROXYGRAPHICS
 70
     1
  9
$MEASUREMENT
 70
     1
  9
$CELWEIGHT
370
    -1
  9
$ENDCAPS
280
     0
  9
$JOINSTYLE
280
     0
  9
$LWDISPLAY
290
     0
  9
$INSUNITS
 70
     4
  9
$HYPERLINKBASE
  1

  9
$STYLESHEET
  1

  9
$XEDIT
290
     1
  9
$CEPSNTYPE
380
     0
  9
$PSTYLEMODE
290
     1
  9
$FINGERPRINTGUID
  2
{B968C5BB-500F-458D-B9F8-13F88C7D245D}
  9
$VERSIONGUID
  2
{911346E5-9AE5-4A74-92AD-0259AA703D83}
  9
$EXTNAMES
290
     1
  9
$PSVPSCALE
 40
0.0
  9
$OLESTARTUP
290
     0
  0
ENDSEC
  0
SECTION
  2
CLASSES
  0
CLASS
  1
ACDBDICTIONARYWDFLT
  2
AcDbDictionaryWithDefault
  3
AutoCAD 2000
 90
        0
280
     0
281
     0
  0
CLASS
  1
ACDBPLACEHOLDER
  2
AcDbPlaceHolder
  3
AutoCAD 2000
 90
        0
280
     0
281
     0
  0
CLASS
  1
LAYOUT
  2
AcDbLayout
  3
AutoCAD 2000
 90
        0
280
     0
281
     0
  0
ENDSEC
  0
SECTION
  2
TABLES
  0
TABLE
  2
VPORT
  5
8
330
0
100
AcDbSymbolTable
 70
     3
  0
VPORT
  5
41F
330
8
100
AcDbSymbolTableRecord
100
AcDbViewportTableRecord
  2
*Active
 70
     0
 10
0.0
 20
0.0
 11
1.0
 21
1.0
 12
921.9880918536487
 22
494.2373375264922
 13
0.0
 23
0.0
 14
10.0
 24
10.0
 15
10.0
 25
10.0
 16
0.0
 26
0.0
 36
1.0
 17
0.0
 27
0.0
 37
0.0
 40
868.5019798301741
 41
1.887387387387387
 42
50.0
 43
0.0
 44
0.0
 50
0.0
 51
0.0
 71
     0
 72
   100
 73
     1
 74
     3
 75
     0
 76
     0
 77
     0
 78
     0
281
     0
 65
     1
110
0.0
120
0.0
130
0.0
111
1.0
121
0.0
131
0.0
112
0.0
122
1.0
132
0.0
 79
     0
146
0.0
  0
ENDTAB
  0
TABLE
  2
LTYPE
  5
5
330
0
100
AcDbSymbolTable
 70
     3
  0
LTYPE
  5
14
330
5
100
AcDbSymbolTableRecord
100
AcDbLinetypeTableRecord
  2
ByBlock
 70
     0
  3

 72
    65
 73
     0
 40
0.0
  0
LTYPE
  5
15
330
5
100
AcDbSymbolTableRecord
100
AcDbLinetypeTableRecord
  2
ByLayer
 70
     0
  3

 72
    65
 73
     0
 40
0.0
  0
LTYPE
  5
16
330
5
100
AcDbSymbolTableRecord
100
AcDbLinetypeTableRecord
  2
Continuous
 70
     0
  3
Solid line
 72
    65
 73
     0
 40
0.0
  0
LTYPE
  5
2F
330
5
100
AcDbSymbolTableRecord
100
AcDbLinetypeTableRecord
  2
DASHED
 70
     0
  3
Dashed __ __ __ __ __ __ __ __ __ __ __ __ __ _
 72
    65
 73
     2
 40
19.04999999999999
 49
12.7
 74
     0
 49
-6.349999999999999
 74
     0
  0
LTYPE
  5
30
330
5
100
AcDbSymbolTableRecord
100
AcDbLinetypeTableRecord
  2
IZOLACE
 70
     0
  3
Izolace SSSSSSSSSSSSSSSSSSSSSSSSSSSSSSSSSSSSSSS
 72
    65
 73
     4
 40
10.16253999999999
 49
0.00254
 74
     0
 49
-2.54
 74
     4
 75
   134
340
38
 46
2.54
 50
0.0
 44
-2.54
 45
0.0
 49
-5.08
 74
     4
 75
   134
340
38
 46
2.54
 50
180.0
 44
2.54
 45
0.0
 49
-2.54
 74
     0
  0
ENDTAB
  0
TABLE
  2
LAYER
  5
2
330
0
100
AcDbSymbolTable
 70
     7
  0
LAYER
  5
10
330
2
100
AcDbSymbolTableRecord
100
AcDbLayerTableRecord
  2
0
 70
     0
 62
     7
  6
Continuous
370
    -3
390
F
  0
LAYER
  5
31
330
2
100
AcDbSymbolTableRecord
100
AcDbLayerTableRecord
  2
POPIS
 70
     0
 62
    30
  6
Continuous
370
    -3
390
F
  0
LAYER
  5
32
330
2
100
AcDbSymbolTableRecord
100
AcDbLayerTableRecord
  2
SPOJOVACÍ
 70
     0
 62
   180
  6
Continuous
370
    -3
390
F
  0
LAYER
  5
33
330
2
100
AcDbSymbolTableRecord
100
AcDbLayerTableRecord
  2
CETRIS
 70
     0
 62
     1
  6
Continuous
370
    -3
390
F
  0
LAYER
  5
34
330
2
100
AcDbSymbolTableRecord
100
AcDbLayerTableRecord
  2
izolace
 70
     0
 62
    33
  6
Continuous
370
    -3
390
F
  0
LAYER
  5
35
330
2
100
AcDbSymbolTableRecord
100
AcDbLayerTableRecord
  2
nášlap_vrstvy
 70
     0
 62
    73
  6
Continuous
370
    -3
390
F
  0
LAYER
  5
36
330
2
100
AcDbSymbolTableRecord
100
AcDbLayerTableRecord
  2
STAVBA OBRYS
 70
     0
 62
     6
  6
Continuous
370
    -3
390
F
  0
ENDTAB
  0
TABLE
  2
STYLE
  5
3
330
0
100
AcDbSymbolTable
 70
     3
  0
STYLE
  5
11
330
3
100
AcDbSymbolTableRecord
100
AcDbTextStyleTableRecord
  2
Standard
 70
     0
 40
0.0
 41
1.0
 50
0.0
 71
     0
 42
2.5
  3
txt
  4

  0
STYLE
  5
37
330
3
100
AcDbSymbolTableRecord
100
AcDbTextStyleTableRecord
  2
SIMPLEX7
 70
     0
 40
0.0
 41
0.85
 50
0.0
 71
     0
 42
102.0
  3

  4

1001
ACAD
1000
Arial CE
1071
    60962
  0
STYLE
  5
38
330
3
100
AcDbSymbolTableRecord
100
AcDbTextStyleTableRecord
  2

 70
     1
 40
0.0
 41
1.0
 50
0.0
 71
     0
 42
2.5
  3
ltypeshp.shx
  4

  0
ENDTAB
  0
TABLE
  2
VIEW
  5
6
330
0
100
AcDbSymbolTable
 70
     0
  0
ENDTAB
  0
TABLE
  2
UCS
  5
7
330
0
100
AcDbSymbolTable
 70
     0
  0
ENDTAB
  0
TABLE
  2
APPID
  5
9
330
0
100
AcDbSymbolTable
 70
     1
  0
APPID
  5
12
330
9
100
AcDbSymbolTableRecord
100
AcDbRegAppTableRecord
  2
ACAD
 70
     0
  0
ENDTAB
  0
TABLE
  2
DIMSTYLE
  5
A
330
0
100
AcDbSymbolTable
 70
     1
100
AcDbDimStyleTable
 71
     0
  0
DIMSTYLE
105
27
330
A
100
AcDbSymbolTableRecord
100
AcDbDimStyleTableRecord
  2
ISO-25
 70
     0
 41
2.5
 42
0.625
 43
3.75
 44
1.25
 73
     0
 74
     0
 77
     1
 78
     8
140
2.5
141
2.5
143
0.03937007874016
147
0.625
171
     3
172
     1
271
     2
272
     2
274
     3
278
    44
283
     0
284
     8
340
11
  0
ENDTAB
  0
TABLE
  2
BLOCK_RECORD
  5
1
330
0
100
AcDbSymbolTable
 70
     2
  0
BLOCK_RECORD
  5
1F
330
1
100
AcDbSymbolTableRecord
100
AcDbBlockTableRecord
  2
*Model_Space
340
22
  0
BLOCK_RECORD
  5
1B
330
1
100
AcDbSymbolTableRecord
100
AcDbBlockTableRecord
  2
*Paper_Space
340
1E
  0
BLOCK_RECORD
  5
23
330
1
100
AcDbSymbolTableRecord
100
AcDbBlockTableRecord
  2
*Paper_Space0
340
26
  0
BLOCK_RECORD
  5
2B
330
1
100
AcDbSymbolTableRecord
100
AcDbBlockTableRecord
  2
E_PUNKT
340
0
102
{BLKREFS
331
2B9
331
2C0
331
2C1
331
2C2
331
389
331
391
331
392
331
393
102
}
  0
ENDTAB
  0
ENDSEC
  0
SECTION
  2
BLOCKS
  0
BLOCK
  5
20
330
1F
100
AcDbEntity
  8
0
100
AcDbBlockBegin
  2
*Model_Space
 70
     0
 10
0.0
 20
0.0
 30
0.0
  3
*Model_Space
  1

  0
ENDBLK
  5
21
330
1F
100
AcDbEntity
  8
0
100
AcDbBlockEnd
  0
BLOCK
  5
1C
330
1B
100
AcDbEntity
 67
     1
  8
0
100
AcDbBlockBegin
  2
*Paper_Space
 70
     0
 10
0.0
 20
0.0
 30
0.0
  3
*Paper_Space
  1

  0
ENDBLK
  5
1D
330
1B
100
AcDbEntity
 67
     1
  8
0
100
AcDbBlockEnd
  0
BLOCK
  5
24
330
23
100
AcDbEntity
  8
0
100
AcDbBlockBegin
  2
*Paper_Space0
 70
     0
 10
0.0
 20
0.0
 30
0.0
  3
*Paper_Space0
  1

  0
ENDBLK
  5
25
330
23
100
AcDbEntity
  8
0
100
AcDbBlockEnd
  0
BLOCK
  5
2D
330
2B
100
AcDbEntity
  8
0
100
AcDbBlockBegin
  2
E_PUNKT
 70
     0
 10
0.0
 20
0.0
 30
0.0
  3
E_PUNKT
  1

  0
LWPOLYLINE
  5
2C
330
2B
100
AcDbEntity
  8
POPIS
100
AcDbPolyline
 90
        2
 70
     1
 43
2.5
 10
1.27761037562675
 20
0.0290683308725193
 42
-1.0
 10
-1.222389624373249
 20
0.0290683308725193
 42
-1.0
  0
ENDBLK
  5
2E
330
2B
100
AcDbEntity
  8
0
100
AcDbBlockEnd
  0
ENDSEC
  0
SECTION
  2
ENTITIES
  0
LINE
  5
223
330
1F
100
AcDbEntity
  8
STAVBA OBRYS
100
AcDbLine
 10
400.4754665007388
 20
413.9093366358394
 30
0.0
 11
1101.034463731259
 21
413.9093366358394
 31
0.0
  0
LINE
  5
224
330
1F
100
AcDbEntity
  8
STAVBA OBRYS
100
AcDbLine
 10
152.2119881198672
 20
200.2976465513321
 30
0.0
 11
391.2925839483654
 21
200.2976465513312
 31
0.0
  0
TEXT
  5
225
330
1F
100
AcDbEntity
  8
POPIS
100
AcDbText
 10
123.4839072784319
 20
843.8764134143053
 30
0.0
 40
50.0
  1
Vzorový řez - podlahový systém IZOCET
 41
0.85
  7
SIMPLEX7
100
AcDbText
  0
LINE
  5
226
330
1F
100
AcDbEntity
  8
POPIS
100
AcDbLine
 10
405.8666271849291
 20
434.2256310300818
 30
0.0
 11
334.7469377258424
 21
468.9466851224534
 31
0.0
  0
HATCH
  5
227
330
1F
100
AcDbEntity
  8
STAVBA OBRYS
100
AcDbHatch
 10
0.0
 20
0.0
 30
0.0
210
0.0
220
0.0
230
1.0
  2
BRICK
 70
     0
 71
     0
 91
        3
 92
        7
 72
     0
 73
     1
 93
        4
 10
391.2925839483617
 20
689.3302166375889
 10
152.2119881198672
 20
689.3302166375861
 10
152.2119881198672
 20
413.9093366358411
 10
391.292583948369
 20
413.9093366358411
 97
        0
 92
        7
 72
     0
 73
     1
 93
        4
 10
391.2925839483617
 20
200.2976465513312
 10
152.2119881198672
 20
200.297646551333
 10
152.2119881198672
 20
94.04124958121077
 10
391.2925839483654
 20
105.6665898082365
 97
        0
 92
       24
 93
        4
 72
     1
 10
290.1563794438956
 20
450.7186136344873
 11
330.9878085025633
 21
450.7186136344873
 72
     1
 10
330.9878085025633
 20
450.7186136344873
 11
330.9878085025633
 21
489.0115877136142
 72
     1
 10
330.9878085025633
 20
489.0115877136142
 11
290.1563794438956
 21
489.0115877136142
 72
     1
 10
290.1563794438956
 20
489.0115877136142
 11
290.1563794438956
 21
450.7186136344881
 97
        0
 75
     0
 76
     1
 52
0.0
 41
10.0
 77
     0
 78
     3
 53
0.0
 43
-27296.09888317783
 44
3340.628566630632
 45
0.0
 46
63.5
 79
     0
 53
90.0
 43
-27296.09888317783
 44
3340.628566630632
 45
-127.0
 46
0.0000000000000078
 79
     2
 49
63.5
 49
-63.5
 53
90.0
 43
-27232.59888317782
 44
3340.628566630632
 45
-127.0
 46
0.0000000000000078
 79
     2
 49
-63.5
 49
63.5
 47
3.017070218097292
 98
        2
 10
315.4006562549551
 20
546.0293874234158
 10
285.2114188689741
 20
150.793186566727
  0
HATCH
  5
228
330
1F
100
AcDbEntity
  8
STAVBA OBRYS
100
AcDbHatch
 10
0.0
 20
0.0
 30
0.0
210
0.0
220
0.0
230
1.0
  2
ANSI35
 70
     0
 71
     0
 91
        1
 92
        7
 72
     1
 73
     1
 93
       13
 10
1101.034463731259
 20
413.9093366358394
 42
0.0
 10
944.5287786026206
 20
413.9093366358394
 42
0.0
 10
944.5287786026206
 20
359.7070528504756
 42
-1.0
 10
944.5287786026206
 20
357.2070528504756
 42
-1.0
 10
944.5287786026206
 20
359.7070528504756
 42
0.0
 10
944.5287786026241
 20
413.9093366358394
 42
0.0
 10
921.4107035647325
 20
413.9093366358394
 42
0.0
 10
401.2925839483581
 20
413.9093366358394
 42
0.0
 10
195.9132001519905
 20
413.9093366358394
 42
0.0
 10
195.9132001519868
 20
200.2976465513312
 42
0.0
 10
391.2925839483617
 20
200.2976465513312
 42
0.0
 10
391.2925839483654
 20
293.9093366358394
 42
0.0
 10
1101.034463731263
 20
293.9093366358394
 42
0.0
 97
        0
 75
     0
 76
     1
 52
0.0
 41
3.0
 77
     0
 78
     2
 53
45.0
 43
-27296.09888317783
 44
3340.628566630632
 45
-13.47038418160372
 46
13.47038418160373
 79
     0
 53
45.0
 43
-27282.62849317783
 44
3340.628566630632
 45
-13.47038418160372
 46
13.47038418160373
 79
     4
 49
23.8125
 49
-4.762499999999999
 49
0.0
 49
-4.762499999999999
 47
3.017070218097292
 98
        1
 10
433.1386597835302
 20
343.8856725738552
  0
HATCH
  5
229
330
1F
100
AcDbEntity
  8
STAVBA OBRYS
100
AcDbHatch
 10
0.0
 20
0.0
 30
0.0
210
0.0
220
0.0
230
1.0
  2
AR-CONC
 70
     0
 71
     0
 91
        2
 92
        7
 72
     0
 73
     1
 93
        4
 10
401.2925839483617
 20
689.3302166375889
 10
391.2925839483617
 20
689.3302166375889
 10
391.2925839483617
 20
441.3407653537852
 10
401.2925839483617
 20
436.4587060595924
 97
        0
 92
        7
 72
     0
 73
     1
 93
        4
 10
152.2119881198672
 20
689.3302166375861
 10
142.2119881198635
 20
689.3302166375852
 10
142.2119881198672
 20
93.55499764651188
 10
152.2119881198672
 20
94.04124958120986
 97
        0
 75
     0
 76
     1
 52
90.0
 41
0.1
 77
     0
 78
    13
 53
140.0
 43
-27296.09888317783
 44
3340.628566630632
 45
1.593908553890309
 46
18.2184668996004
 79
     2
 49
1.905
 49
-20.955
 53
85.00000000000001
 43
-27296.09888317783
 44
3340.628566630632
 45
-19.10566428821799
 46
-3.524282597566697
 79
     2
 49
1.524
 49
-16.764
 53
190.4509999999999
 43
-27295.96605817782
 44
3342.146766630632
 45
-17.51166878202918
 46
14.69425016659592
 79
     2
 49
1.619
 49
-17.809
 53
136.1841999999999
 43
-27301.17888317783
 44
3340.628566630632
 45
4.204232793272717
 46
27.10790408921299
 79
     2
 49
2.857499999999999
 49
-31.4325
 53
186.6355999999999
 43
-27300.82853317783
 44
3342.887556630632
 45
-24.74255558900492
 46
23.74042344662371
 79
     2
 49
2.4285
 49
-26.7135
 53
81.18400000000004
 43
-27301.17888317783
 44
3340.628566630632
 45
-24.74251178605976
 46
23.74046058139339
 79
     2
 49
2.286
 49
-25.146
 53
111.0
 43
-27299.90888317783
 44
3343.168566630632
 45
10.22655185167625
 46
15.16148798353833
 79
     2
 49
1.905
 49
-20.955
 53
56.00000000000004
 43
-27299.90888317783
 44
3343.168566630632
 45
-18.41879661223192
 46
6.180202834764708
 79
     2
 49
1.524
 49
-16.764
 53
161.4514
 43
-27299.05667317783
 44
3344.432016630632
 45
-8.192285771605742
 46
21.34164907701245
 79
     2
 49
1.618999999999999
 49
-17.80899999999998
 53
127.5
 43
-27296.09888317783
 44
3340.628566630632
 45
-8.455503887315311
 46
0.3088603250591822
 79
     6
 49
0.0
 49
-16.5608
 49
0.0
 49
-17.018
 49
0.0
 49
-16.8275
 53
97.49999999999996
 43
-27296.09888317783
 44
3340.628566630632
 45
-10.01805748181195
 46
6.681966251030575
 79
     6
 49
0.0
 49
-9.702799999999999
 49
0.0
 49
-16.1798
 49
0.0
 49
-6.4135
 53
57.5
 43
-27296.09888317783
 44
3334.964366630632
 45
0.5728743992673473
 46
13.55905951668713
 79
     6
 49
0.0
 49
-6.35
 49
0.0
 49
-19.812
 49
0.0
 49
-26.289
 53
47.5
 43
-27296.09888317783
 44
3332.424366630632
 45
-2.5426491033333
 46
14.8129181386018
 79
     6
 49
0.0
 49
-8.255
 49
0.0
 49
-13.1572
 49
0.0
 49
-18.669
 47
1.255134839913078
 98
        2
 10
395.1752057240595
 20
537.8981609448966
 10
147.7617903901049
 20
486.4376212775315
  0
LINE
  5
22A
330
1F
100
AcDbEntity
  8
STAVBA OBRYS
100
AcDbLine
 10
142.2119881198672
 20
93.55499764651188
 30
0.0
 11
142.2119881198635
 21
689.3302166375861
 31
0.0
  0
LINE
  5
22B
330
1F
100
AcDbEntity
  8
STAVBA OBRYS
100
AcDbLine
 10
152.2119881198672
 20
93.55499764651188
 30
0.0
 11
152.2119881198635
 21
689.3302166375861
 31
0.0
  0
LINE
  5
22C
330
1F
100
AcDbEntity
  8
STAVBA OBRYS
100
AcDbLine
 10
195.9132001519905
 20
200.2976465513312
 30
0.0
 11
195.9132001519905
 21
413.9093366358394
 31
0.0
  0
LINE
  5
22D
330
1F
100
AcDbEntity
  8
STAVBA OBRYS
  6
IZOLACE
 48
2.1
100
AcDbLine
 10
174.5927022246327
 20
200.2976465513312
 30
0.0
 11
174.5927022246327
 21
413.9093366358394
 31
0.0
  0
TEXT
  5
22E
330
1F
100
AcDbEntity
  8
POPIS
100
AcDbText
 10
296.5385417904184
 20
457.527106131076
 30
0.0
 40
25.0
  1
08
 41
0.85
  7
SIMPLEX7
100
AcDbText
  0
TEXT
  5
22F
330
1F
100
AcDbEntity
  8
POPIS
100
AcDbText
 10
123.4839072784319
 20
789.2516703885045
 30
0.0
 40
35.0
  1
SVISLÝ ŘEZ
 41
0.85
  7
SIMPLEX7
100
AcDbText
  0
LINE
  5
230
330
1F
100
AcDbEntity
  8
STAVBA OBRYS
100
AcDbLine
 10
401.2925839483617
 20
413.9093366358394
 30
0.0
 11
401.2925839483581
 21
689.3302166375889
 31
0.0
  0
LINE
  5
231
330
1F
100
AcDbEntity
  8
STAVBA OBRYS
100
AcDbLine
 10
391.2925839483617
 20
413.9093366358394
 30
0.0
 11
391.2925839483581
 21
689.3302166375889
 31
0.0
  0
TEXT
  5
232
330
1F
100
AcDbEntity
  8
POPIS
100
AcDbText
 10
1215.352840629979
 20
667.765414848796
 30
0.0
 40
25.0
  1
02
 41
0.85
  7
SIMPLEX7
100
AcDbText
  0
TEXT
  5
233
330
1F
100
AcDbEntity
  8
POPIS
100
AcDbText
 10
1269.696543789722
 20
667.765414848796
 30
0.0
 40
25.0
  1
Nášlapná vrstva
 41
0.85
  7
SIMPLEX7
100
AcDbText
  0
CIRCLE
  5
234
330
1F
100
AcDbEntity
  8
POPIS
100
AcDbCircle
 10
1480.492015240288
 20
654.0643142529362
 30
0.0
 40
11.13656048292026
  0
TEXT
  5
235
330
1F
100
AcDbEntity
  8
POPIS
100
AcDbText
 10
1475.732986185106
 20
648.5189685079486
 30
0.0
 40
12.0
  1
R
 41
0.85
  7
SIMPLEX7
100
AcDbText
  0
TEXT
  5
236
330
1F
100
AcDbEntity
  8
POPIS
100
AcDbText
 10
1269.696543789722
 20
630.0468466409562
 30
0.0
 40
25.0
  1
Deska CETRIS    tl. 12 mm horní
 41
0.85
  7
SIMPLEX7
100
AcDbText
  0
TEXT
  5
237
330
1F
100
AcDbEntity
  8
POPIS
100
AcDbText
 10
1269.696543789722
 20
593.4518350253289
 30
0.0
 40
25.0
  1
Deska CETRIS    tl. 12 mm, spodní
 41
0.85
  7
SIMPLEX7
100
AcDbText
  0
LINE
  5
238
330
1F
100
AcDbEntity
  8
CETRIS
100
AcDbLine
 10
416.2925839483581
 20
480.9093366358394
 30
0.0
 11
1101.034463731259
 21
480.9093366358394
 31
0.0
  0
LINE
  5
239
330
1F
100
AcDbEntity
  8
CETRIS
100
AcDbLine
 10
416.2925839483581
 20
456.9093366358393
 30
0.0
 11
1101.034463731259
 21
456.9093366358393
 31
0.0
  0
LINE
  5
23A
330
1F
100
AcDbEntity
  8
izolace
  6
IZOLACE
 48
1.9
100
AcDbLine
 10
416.2925839483581
 20
436.9093366358393
 30
0.0
 11
1101.034463731259
 21
436.9093366358393
 31
0.0
  0
LINE
  5
23B
330
1F
100
AcDbEntity
  8
CETRIS
100
AcDbLine
 10
416.2925839483581
 20
468.9093366358394
 30
0.0
 11
1101.034463731259
 21
468.9093366358394
 31
0.0
  0
LWPOLYLINE
  5
23C
330
1F
100
AcDbEntity
  8
izolace
100
AcDbPolyline
 90
        4
 70
     1
 43
0.0
 10
404.4624468489458
 20
483.4522505616988
 10
1101.051110940025
 20
483.4522505616988
 10
1101.051110940025
 20
487.7907395876465
 10
404.4624468489458
 20
487.7907395876465
  0
LINE
  5
23D
330
1F
100
AcDbEntity
  8
STAVBA OBRYS
100
AcDbLine
 10
391.2925839483617
 20
293.9093366358394
 30
0.0
 11
1101.034463731259
 21
293.9093366358394
 31
0.0
  0
LINE
  5
23E
330
1F
100
AcDbEntity
  8
STAVBA OBRYS
100
AcDbLine
 10
401.2925839483581
 20
283.9093366358394
 30
0.0
 11
1101.034463731259
 21
283.9093366358394
 31
0.0
  0
HATCH
  5
23F
330
1F
100
AcDbEntity
  8
CETRIS
100
AcDbHatch
 10
0.0
 20
0.0
 30
0.0
210
0.0
220
0.0
230
1.0
  2
ANSI31
 70
     0
 71
     0
 91
        1
 92
        1
 93
        4
 72
     1
 10
1101.034463731259
 20
480.9093366358394
 11
1101.034463731259
 21
468.9093366358394
 72
     1
 10
1101.034463731259
 20
468.9093366358394
 11
416.2925839483582
 21
468.9093366358394
 72
     1
 10
416.2925839483581
 20
468.9093366358394
 11
416.2925839483581
 21
480.9093366358394
 72
     1
 10
416.2925839483581
 20
480.9093366358394
 11
1101.034463731259
 21
480.9093366358394
 97
        0
 75
     0
 76
     1
 52
0.0
 41
1.0
 77
     0
 78
     1
 53
45.0
 43
-24742.22672619399
 44
3572.397557283427
 45
-2.245064030267287
 46
2.245064030267288
 79
     0
 98
        1
 10
-24742.22672619399
 20
3572.397557283427
  0
HATCH
  5
240
330
1F
100
AcDbEntity
  8
CETRIS
100
AcDbHatch
 10
0.0
 20
0.0
 30
0.0
210
0.0
220
0.0
230
1.0
  2
ANSI31
 70
     0
 71
     0
 91
        1
 92
        1
 93
        4
 72
     1
 10
1101.034463731259
 20
468.9093366358394
 11
1101.034463731259
 21
456.9093366358393
 72
     1
 10
1101.034463731259
 20
456.9093366358393
 11
416.2925839483582
 21
456.9093366358393
 72
     1
 10
416.2925839483581
 20
456.9093366358393
 11
416.2925839483581
 21
468.9093366358394
 72
     1
 10
416.2925839483581
 20
468.9093366358394
 11
1101.034463731259
 21
468.9093366358394
 97
        0
 75
     0
 76
     1
 52
90.0
 41
1.0
 77
     0
 78
     1
 53
135.0
 43
-24742.22672619399
 44
3572.397557283427
 45
-2.245064030267288
 46
-2.245064030267287
 79
     0
 98
        1
 10
-24742.22672619399
 20
3572.397557283427
  0
LWPOLYLINE
  5
241
330
1F
100
AcDbEntity
  8
izolace
100
AcDbPolyline
 90
        4
 70
     1
 43
0.0
 10
1101.034463731259
 20
413.9093366358394
 10
401.2925839483581
 20
413.9093366358394
 10
401.2925839483581
 20
416.9093366358394
 10
1101.034463731259
 20
416.9093366358394
  0
TEXT
  5
242
330
1F
100
AcDbEntity
  8
POPIS
100
AcDbText
 10
927.6311076708157
 20
562.0521564617503
 30
0.0
 40
25.0
  1
09
 41
0.85
  7
SIMPLEX7
100
AcDbText
  0
HATCH
  5
243
330
1F
100
AcDbEntity
  8
STAVBA OBRYS
100
AcDbHatch
 10
0.0
 20
0.0
 30
0.0
210
0.0
220
0.0
230
1.0
  2
AR-CONC
 70
     0
 71
     0
 91
        1
 92
        7
 72
     0
 73
     1
 93
        6
 10
1101.034463731259
 20
293.9093366358394
 10
391.2925839483654
 20
293.9093366358402
 10
391.2925839483581
 20
105.6665898082375
 10
401.2925839483544
 20
106.1528417429345
 10
401.2925839483617
 20
283.9093366358394
 10
1101.034463731259
 20
283.9093366358394
 97
        0
 75
     0
 76
     1
 52
90.0
 41
0.1
 77
     0
 78
    13
 53
140.0
 43
-27296.09888317783
 44
3340.628566630632
 45
1.593908553890309
 46
18.2184668996004
 79
     2
 49
1.905
 49
-20.955
 53
85.00000000000001
 43
-27296.09888317783
 44
3340.628566630632
 45
-19.10566428821799
 46
-3.524282597566697
 79
     2
 49
1.524
 49
-16.764
 53
190.4509999999999
 43
-27295.96605817782
 44
3342.146766630632
 45
-17.51166878202918
 46
14.69425016659592
 79
     2
 49
1.619
 49
-17.809
 53
136.1841999999999
 43
-27301.17888317783
 44
3340.628566630632
 45
4.204232793272717
 46
27.10790408921299
 79
     2
 49
2.857499999999999
 49
-31.4325
 53
186.6355999999999
 43
-27300.82853317783
 44
3342.887556630632
 45
-24.74255558900492
 46
23.74042344662371
 79
     2
 49
2.4285
 49
-26.7135
 53
81.18400000000004
 43
-27301.17888317783
 44
3340.628566630632
 45
-24.74251178605976
 46
23.74046058139339
 79
     2
 49
2.286
 49
-25.146
 53
111.0
 43
-27299.90888317783
 44
3343.168566630632
 45
10.22655185167625
 46
15.16148798353833
 79
     2
 49
1.905
 49
-20.955
 53
56.00000000000004
 43
-27299.90888317783
 44
3343.168566630632
 45
-18.41879661223192
 46
6.180202834764708
 79
     2
 49
1.524
 49
-16.764
 53
161.4514
 43
-27299.05667317783
 44
3344.432016630632
 45
-8.192285771605742
 46
21.34164907701245
 79
     2
 49
1.618999999999999
 49
-17.80899999999998
 53
127.5
 43
-27296.09888317783
 44
3340.628566630632
 45
-8.455503887315311
 46
0.3088603250591822
 79
     6
 49
0.0
 49
-16.5608
 49
0.0
 49
-17.018
 49
0.0
 49
-16.8275
 53
97.49999999999996
 43
-27296.09888317783
 44
3340.628566630632
 45
-10.01805748181195
 46
6.681966251030575
 79
     6
 49
0.0
 49
-9.702799999999999
 49
0.0
 49
-16.1798
 49
0.0
 49
-6.4135
 53
57.5
 43
-27296.09888317783
 44
3334.964366630632
 45
0.5728743992673473
 46
13.55905951668713
 79
     6
 49
0.0
 49
-6.35
 49
0.0
 49
-19.812
 49
0.0
 49
-26.289
 53
47.5
 43
-27296.09888317783
 44
3332.424366630632
 45
-2.5426491033333
 46
14.8129181386018
 79
     6
 49
0.0
 49
-8.255
 49
0.0
 49
-13.1572
 49
0.0
 49
-18.669
 47
1.255134839913078
 98
        1
 10
574.8909323602132
 20
290.2371630552116
  0
LINE
  5
244
330
1F
100
AcDbEntity
  8
STAVBA OBRYS
100
AcDbLine
 10
401.2925839483581
 20
283.9093366358394
 30
0.0
 11
401.2925839483581
 21
106.1528417429345
 31
0.0
  0
LINE
  5
245
330
1F
100
AcDbEntity
  8
STAVBA OBRYS
100
AcDbLine
 10
391.2925839483617
 20
293.9093366358394
 30
0.0
 11
391.2925839483617
 21
106.1528417429345
 31
0.0
  0
HATCH
  5
246
330
1F
100
AcDbEntity
  8
izolace
100
AcDbHatch
 10
0.0
 20
0.0
 30
0.0
210
0.0
220
0.0
230
1.0
  2
SOLID
 70
     1
 71
     0
 91
        1
 92
        7
 72
     0
 73
     1
 93
        4
 10
661.3516437565489
 20
416.9093366358394
 10
637.7099110467137
 20
416.9093366358394
 10
637.70991104671
 20
413.9093366358394
 10
661.3516437565489
 20
413.9093366358394
 97
        0
 75
     0
 76
     1
 47
0.1901250437635136
 98
        1
 10
647.0677058050536
 20
416.0925250847595
  0
LWPOLYLINE
  5
247
330
1F
100
AcDbEntity
  8
izolace
100
AcDbPolyline
 90
        4
 70
     1
 43
0.0
 10
661.3516437565452
 20
416.9093366358394
 10
637.70991104671
 20
416.9093366358394
 10
637.70991104671
 20
413.9093366358394
 10
661.3516437565452
 20
413.9093366358394
  0
TEXT
  5
248
330
1F
100
AcDbEntity
  8
POPIS
100
AcDbText
 10
626.8724816601028
 20
562.0521564617503
 30
0.0
 40
25.0
  1
04
 41
0.85
  7
SIMPLEX7
100
AcDbText
  0
LINE
  5
249
330
1F
100
AcDbEntity
  8
izolace
100
AcDbLine
 10
402.0583319887013
 20
488.2354381858204
 30
0.0
 11
402.0583319887013
 21
518.2354381858204
 31
0.0
  0
LINE
  5
24A
330
1F
100
AcDbEntity
  8
izolace
100
AcDbLine
 10
428.8618810858537
 20
491.4318890886644
 30
0.0
 11
432.0583319887012
 21
488.2354381858204
 31
0.0
  0
LINE
  5
24B
330
1F
100
AcDbEntity
  8
POPIS
100
AcDbLine
 10
544.7332112668922
 20
553.2027953890266
 30
0.0
 11
544.7332112668922
 21
487.7907395876465
 31
0.0
  0
LINE
  5
24C
330
1F
100
AcDbEntity
  8
POPIS
100
AcDbLine
 10
596.8878377777404
 20
553.2027953890266
 30
0.0
 11
596.8878377777404
 21
473.8551513057683
 31
0.0
  0
LINE
  5
24D
330
1F
100
AcDbEntity
  8
POPIS
100
AcDbLine
 10
643.7701525919077
 20
553.2027953890266
 30
0.0
 11
643.7701525919077
 21
463.4640392001475
 31
0.0
  0
LINE
  5
24E
330
1F
100
AcDbEntity
  8
STAVBA OBRYS
100
AcDbLine
 10
400.4754665007388
 20
413.9093366358394
 30
0.0
 11
611.9031463925788
 21
413.9093366358394
 31
0.0
  0
HATCH
  5
24F
330
1F
100
AcDbEntity
  8
izolace
100
AcDbHatch
 10
0.0
 20
0.0
 30
0.0
210
0.0
220
0.0
230
1.0
  2
SOLID
 70
     1
 71
     0
 91
        1
 92
        7
 72
     0
 73
     1
 93
        4
 10
519.5012474975377
 20
416.9093366358394
 10
495.8595147877026
 20
416.9093366358394
 10
495.8595147876989
 20
413.9093366358394
 10
519.5012474975377
 20
413.9093366358394
 97
        0
 75
     0
 76
     1
 47
0.1901250437635136
 98
        1
 10
505.2173095460424
 20
416.0925250847595
  0
LWPOLYLINE
  5
250
330
1F
100
AcDbEntity
  8
izolace
100
AcDbPolyline
 90
        4
 70
     1
 43
0.0
 10
519.5012474975341
 20
416.9093366358394
 10
495.8595147876989
 20
416.9093366358394
 10
495.8595147876989
 20
413.9093366358394
 10
519.5012474975341
 20
413.9093366358394
  0
LWPOLYLINE
  5
251
330
1F
100
AcDbEntity
  8
izolace
100
AcDbPolyline
 90
        4
 70
     1
 43
0.0
 10
401.2925839483617
 20
413.9093366358403
 10
404.2925839483618
 20
413.9093366358403
 10
404.2925839483618
 20
484.8345347653459
 10
401.2925839483617
 20
484.8345347653459
  0
LWPOLYLINE
  5
252
330
1F
100
AcDbEntity
  8
izolace
100
AcDbPolyline
 90
        4
 70
     1
 43
0.0
 10
401.2925839483617
 20
484.8345347653459
 10
401.2925839483617
 20
461.1928020555106
 10
404.2925839483618
 20
461.1928020555106
 10
404.2925839483618
 20
484.8345347653459
  0
HATCH
  5
253
330
1F
100
AcDbEntity
  8
izolace
100
AcDbHatch
 10
0.0
 20
0.0
 30
0.0
210
0.0
220
0.0
230
1.0
  2
SOLID
 70
     1
 71
     0
 91
        1
 92
        7
 72
     0
 73
     1
 93
        4
 10
401.2925839483617
 20
484.8345347653495
 10
401.2925839483617
 20
461.1928020555143
 10
404.2925839483618
 20
461.1928020555106
 10
404.2925839483618
 20
484.8345347653495
 97
        0
 75
     0
 76
     1
 47
0.1901250437635136
 98
        1
 10
402.1093954994415
 20
470.5505968138542
  0
HATCH
  5
254
330
1F
100
AcDbEntity
  8
izolace
100
AcDbHatch
 10
0.0
 20
0.0
 30
0.0
210
0.0
220
0.0
230
1.0
  2
SOLID
 70
     1
 71
     0
 91
        1
 92
        7
 72
     0
 73
     1
 93
        4
 10
401.2925839483617
 20
437.5510693456791
 10
401.2925839483617
 20
413.9093366358439
 10
404.2925839483618
 20
413.9093366358403
 10
404.2925839483618
 20
437.5510693456791
 97
        0
 75
     0
 76
     1
 47
0.1901250437635136
 98
        1
 10
402.1093954994415
 20
423.2671313941838
  0
LWPOLYLINE
  5
255
330
1F
100
AcDbEntity
  8
izolace
100
AcDbPolyline
 90
        4
 70
     1
 43
0.0
 10
401.2925839483617
 20
437.5510693456755
 10
401.2925839483617
 20
413.9093366358403
 10
404.2925839483618
 20
413.9093366358403
 10
404.2925839483618
 20
437.5510693456755
  0
LINE
  5
256
330
1F
100
AcDbEntity
  8
izolace
  6
IZOLACE
 48
0.6
100
AcDbLine
 10
410.2934346032128
 20
480.9093366358394
 30
0.0
 11
410.2934346032128
 21
416.9093366358394
 31
0.0
  0
LWPOLYLINE
  5
257
330
1F
100
AcDbEntity
  8
izolace
100
AcDbPolyline
 90
        4
 70
     1
 43
0.0
 10
401.2925839483581
 20
480.9093366358394
 10
416.2925839483581
 20
480.9093366358394
 10
416.2925839483581
 20
416.9093366358394
 10
401.2925839483581
 20
416.9093366358394
  0
LINE
  5
258
330
1F
100
AcDbEntity
  8
SPOJOVACÍ
  6
DASHED
100
AcDbLine
 10
440.8735294990695
 20
458.4655155332422
 30
0.0
 11
444.8370457714703
 21
457.1327968599709
 31
0.0
  0
LINE
  5
259
330
1F
100
AcDbEntity
  8
SPOJOVACÍ
  6
DASHED
100
AcDbLine
 10
440.8735294990695
 20
457.8811977017904
 30
0.0
 11
444.8370457714703
 21
456.5484790285191
 31
0.0
  0
LINE
  5
25A
330
1F
100
AcDbEntity
  8
SPOJOVACÍ
  6
DASHED
100
AcDbLine
 10
445.2071441149968
 20
456.9185773741848
 30
0.0
 11
444.8370457714703
 21
457.1327968599709
 31
0.0
  0
LINE
  5
25B
330
1F
100
AcDbEntity
  8
SPOJOVACÍ
  6
DASHED
100
AcDbLine
 10
445.2071441149968
 20
456.9185773741848
 30
0.0
 11
444.8370457714703
 21
456.5484790285191
 31
0.0
  0
LINE
  5
25C
330
1F
100
AcDbEntity
  8
SPOJOVACÍ
  6
DASHED
100
AcDbLine
 10
440.5034311512649
 20
458.0945056151177
 30
0.0
 11
440.8735294990695
 21
458.4655155332422
 31
0.0
  0
LINE
  5
25D
330
1F
100
AcDbEntity
  8
SPOJOVACÍ
  6
DASHED
100
AcDbLine
 10
440.5034311512649
 20
458.0945056151177
 30
0.0
 11
440.8735294990695
 21
457.8811977017904
 31
0.0
  0
LINE
  5
25E
330
1F
100
AcDbEntity
  8
SPOJOVACÍ
  6
DASHED
100
AcDbLine
 10
440.5034311512649
 20
458.0945056151177
 30
0.0
 11
445.2071441149968
 21
456.9185773741848
 31
0.0
  0
LINE
  5
25F
330
1F
100
AcDbEntity
  8
SPOJOVACÍ
  6
DASHED
100
AcDbLine
 10
440.8735294990695
 20
461.5229289598247
 30
0.0
 11
444.8370457714703
 21
460.1902102865534
 31
0.0
  0
LINE
  5
260
330
1F
100
AcDbEntity
  8
SPOJOVACÍ
  6
DASHED
100
AcDbLine
 10
440.8735294990695
 20
460.9386111283803
 30
0.0
 11
444.8370457714703
 21
459.6058924553727
 31
0.0
  0
LINE
  5
261
330
1F
100
AcDbEntity
  8
SPOJOVACÍ
  6
DASHED
100
AcDbLine
 10
445.2071441149968
 20
459.9769023732261
 30
0.0
 11
444.8370457714703
 21
460.1902102865534
 31
0.0
  0
LINE
  5
262
330
1F
100
AcDbEntity
  8
SPOJOVACÍ
  6
DASHED
100
AcDbLine
 10
445.2071441149968
 20
459.9769023732261
 30
0.0
 11
444.8370457714703
 21
459.6058924553727
 31
0.0
  0
LINE
  5
263
330
1F
100
AcDbEntity
  8
SPOJOVACÍ
  6
DASHED
100
AcDbLine
 10
440.5034311512649
 20
461.1528306141591
 30
0.0
 11
440.8735294990695
 21
461.5229289598247
 31
0.0
  0
LINE
  5
264
330
1F
100
AcDbEntity
  8
SPOJOVACÍ
  6
DASHED
100
AcDbLine
 10
440.5034311512649
 20
461.1528306141591
 30
0.0
 11
440.8735294990695
 21
460.9386111283803
 31
0.0
  0
LINE
  5
265
330
1F
100
AcDbEntity
  8
SPOJOVACÍ
  6
DASHED
100
AcDbLine
 10
440.5034311512649
 20
461.1528306141591
 30
0.0
 11
445.2071441149968
 21
459.9769023732261
 31
0.0
  0
LINE
  5
266
330
1F
100
AcDbEntity
  8
SPOJOVACÍ
  6
DASHED
100
AcDbLine
 10
440.8735294990695
 20
464.5803423864146
 30
0.0
 11
444.8370457714703
 21
463.247623713407
 31
0.0
  0
LINE
  5
267
330
1F
100
AcDbEntity
  8
SPOJOVACÍ
  6
DASHED
100
AcDbLine
 10
440.8735294990695
 20
463.9960245549628
 30
0.0
 11
444.8370457714703
 21
462.6633058819626
 31
0.0
  0
LINE
  5
268
330
1F
100
AcDbEntity
  8
SPOJOVACÍ
  6
DASHED
100
AcDbLine
 10
445.2071441149968
 20
463.034315799816
 30
0.0
 11
444.8370457714703
 21
463.247623713407
 31
0.0
  0
LINE
  5
269
330
1F
100
AcDbEntity
  8
SPOJOVACÍ
  6
DASHED
100
AcDbLine
 10
445.2071441149968
 20
463.034315799816
 30
0.0
 11
444.8370457714703
 21
462.6633058819626
 31
0.0
  0
LINE
  5
26A
330
1F
100
AcDbEntity
  8
SPOJOVACÍ
  6
DASHED
100
AcDbLine
 10
440.5034311512649
 20
464.210244040749
 30
0.0
 11
440.8735294990695
 21
464.5803423864146
 31
0.0
  0
LINE
  5
26B
330
1F
100
AcDbEntity
  8
SPOJOVACÍ
  6
DASHED
100
AcDbLine
 10
440.5034311512649
 20
464.210244040749
 30
0.0
 11
440.8735294990695
 21
463.9960245549628
 31
0.0
  0
LINE
  5
26C
330
1F
100
AcDbEntity
  8
SPOJOVACÍ
  6
DASHED
100
AcDbLine
 10
440.5034311512649
 20
464.210244040749
 30
0.0
 11
445.2071441149968
 21
463.034315799816
 31
0.0
  0
LINE
  5
26D
330
1F
100
AcDbEntity
  8
SPOJOVACÍ
  6
DASHED
100
AcDbLine
 10
441.8589391340431
 20
449.1711245674852
 30
0.0
 11
443.9701405326708
 21
448.8666594260267
 31
0.0
  0
LINE
  5
26E
330
1F
100
AcDbEntity
  8
SPOJOVACÍ
  6
DASHED
100
AcDbLine
 10
442.2290374775696
 20
449.5412229131508
 30
0.0
 11
443.6000421891443
 21
449.0799673396178
 31
0.0
  0
LINE
  5
26F
330
1F
100
AcDbEntity
  8
SPOJOVACÍ
  6
DASHED
100
AcDbLine
 10
442.2290374775696
 20
448.9569050817063
 30
0.0
 11
443.6000421891443
 21
448.4956495081734
 31
0.0
  0
LINE
  5
270
330
1F
100
AcDbEntity
  8
SPOJOVACÍ
  6
DASHED
100
AcDbLine
 10
443.9701405326708
 20
448.8666594260267
 30
0.0
 11
443.6000421891443
 21
449.0799673396178
 31
0.0
  0
LINE
  5
271
330
1F
100
AcDbEntity
  8
SPOJOVACÍ
  6
DASHED
100
AcDbLine
 10
443.9701405326708
 20
448.8666594260267
 30
0.0
 11
443.6000421891443
 21
448.4956495081734
 31
0.0
  0
LINE
  5
272
330
1F
100
AcDbEntity
  8
SPOJOVACÍ
  6
DASHED
100
AcDbLine
 10
441.8589391340431
 20
449.1711245674852
 30
0.0
 11
442.2290374775696
 21
449.5412229131508
 31
0.0
  0
LINE
  5
273
330
1F
100
AcDbEntity
  8
SPOJOVACÍ
  6
DASHED
100
AcDbLine
 10
441.8589391340431
 20
449.1711245674852
 30
0.0
 11
442.2290374775696
 21
448.9569050817063
 31
0.0
  0
LINE
  5
274
330
1F
100
AcDbEntity
  8
SPOJOVACÍ
  6
DASHED
100
AcDbLine
 10
441.3056147577812
 20
452.1246187542384
 30
0.0
 11
444.3593818958837
 21
451.5038380318038
 31
0.0
  0
LINE
  5
275
330
1F
100
AcDbEntity
  8
SPOJOVACÍ
  6
DASHED
100
AcDbLine
 10
441.6757131055859
 20
452.4956286723628
 30
0.0
 11
443.9892835523572
 21
451.7171459451311
 31
0.0
  0
LINE
  5
276
330
1F
100
AcDbEntity
  8
SPOJOVACÍ
  6
DASHED
100
AcDbLine
 10
441.6757131055859
 20
451.9113108409111
 30
0.0
 11
443.9892835523572
 21
451.1328281139505
 31
0.0
  0
LINE
  5
277
330
1F
100
AcDbEntity
  8
SPOJOVACÍ
  6
DASHED
100
AcDbLine
 10
444.3593818958837
 20
451.5038380318038
 30
0.0
 11
443.9892835523572
 21
451.7171459451311
 31
0.0
  0
LINE
  5
278
330
1F
100
AcDbEntity
  8
SPOJOVACÍ
  6
DASHED
100
AcDbLine
 10
444.3593818958837
 20
451.5038380318038
 30
0.0
 11
443.9892835523572
 21
451.1328281139505
 31
0.0
  0
LINE
  5
279
330
1F
100
AcDbEntity
  8
SPOJOVACÍ
  6
DASHED
100
AcDbLine
 10
441.3056147577812
 20
452.1246187542384
 30
0.0
 11
441.6757131055859
 21
452.4956286723628
 31
0.0
  0
LINE
  5
27A
330
1F
100
AcDbEntity
  8
SPOJOVACÍ
  6
DASHED
100
AcDbLine
 10
441.3056147577812
 20
452.1246187542384
 30
0.0
 11
441.6757131055859
 21
451.9113108409111
 31
0.0
  0
LINE
  5
27B
330
1F
100
AcDbEntity
  8
SPOJOVACÍ
  6
DASHED
100
AcDbLine
 10
440.7522903857974
 20
455.0790245134504
 30
0.0
 11
444.7951134454855
 21
454.1255199087919
 31
0.0
  0
LINE
  5
27C
330
1F
100
AcDbEntity
  8
SPOJOVACÍ
  6
DASHED
100
AcDbLine
 10
441.123300303116
 20
455.449122859116
 30
0.0
 11
444.425015101959
 21
454.3388278221192
 31
0.0
  0
LINE
  5
27D
330
1F
100
AcDbEntity
  8
SPOJOVACÍ
  6
DASHED
100
AcDbLine
 10
441.123300303116
 20
454.8648050276644
 30
0.0
 11
444.425015101959
 21
453.7545099906675
 31
0.0
  0
LINE
  5
27E
330
1F
100
AcDbEntity
  8
SPOJOVACÍ
  6
DASHED
100
AcDbLine
 10
444.7951134454855
 20
454.1255199087919
 30
0.0
 11
444.425015101959
 21
454.3388278221192
 31
0.0
  0
LINE
  5
27F
330
1F
100
AcDbEntity
  8
SPOJOVACÍ
  6
DASHED
100
AcDbLine
 10
444.7951134454855
 20
454.1255199087919
 30
0.0
 11
444.425015101959
 21
453.7545099906675
 31
0.0
  0
LINE
  5
280
330
1F
100
AcDbEntity
  8
SPOJOVACÍ
  6
DASHED
100
AcDbLine
 10
440.7522903857974
 20
455.0790245134504
 30
0.0
 11
441.123300303116
 21
455.449122859116
 31
0.0
  0
LINE
  5
281
330
1F
100
AcDbEntity
  8
SPOJOVACÍ
  6
DASHED
100
AcDbLine
 10
440.7522903857974
 20
455.0790245134504
 30
0.0
 11
441.123300303116
 21
454.8648050276644
 31
0.0
  0
LINE
  5
282
330
1F
100
AcDbEntity
  8
SPOJOVACÍ
  6
DASHED
100
AcDbLine
 10
440.8735294990695
 20
467.6377558132681
 30
0.0
 11
444.8370457714703
 21
466.3059487121846
 31
0.0
  0
LINE
  5
283
330
1F
100
AcDbEntity
  8
SPOJOVACÍ
  6
DASHED
100
AcDbLine
 10
440.8735294990695
 20
467.0534379818165
 30
0.0
 11
444.8370457714703
 21
465.7216308810039
 31
0.0
  0
LINE
  5
284
330
1F
100
AcDbEntity
  8
SPOJOVACÍ
  6
DASHED
100
AcDbLine
 10
445.2071441149968
 20
466.0917292263985
 30
0.0
 11
444.8370457714703
 21
466.3059487121846
 31
0.0
  0
LINE
  5
285
330
1F
100
AcDbEntity
  8
SPOJOVACÍ
  6
DASHED
100
AcDbLine
 10
445.2071441149968
 20
466.0917292263985
 30
0.0
 11
444.8370457714703
 21
465.7216308810039
 31
0.0
  0
LINE
  5
286
330
1F
100
AcDbEntity
  8
SPOJOVACÍ
  6
DASHED
100
AcDbLine
 10
440.5034311512649
 20
467.2676574676025
 30
0.0
 11
440.8735294990695
 21
467.6377558132681
 31
0.0
  0
LINE
  5
287
330
1F
100
AcDbEntity
  8
SPOJOVACÍ
  6
DASHED
100
AcDbLine
 10
440.5034311512649
 20
467.2676574676025
 30
0.0
 11
440.8735294990695
 21
467.0534379818165
 31
0.0
  0
LINE
  5
288
330
1F
100
AcDbEntity
  8
SPOJOVACÍ
  6
DASHED
100
AcDbLine
 10
440.5034311512649
 20
467.2676574676025
 30
0.0
 11
445.2071441149968
 21
466.0917292263985
 31
0.0
  0
LINE
  5
289
330
1F
100
AcDbEntity
  8
SPOJOVACÍ
  6
DASHED
100
AcDbLine
 10
440.8735294990695
 20
470.6960808120385
 30
0.0
 11
444.8370457714703
 21
469.3633621390382
 31
0.0
  0
LINE
  5
28A
330
1F
100
AcDbEntity
  8
SPOJOVACÍ
  6
DASHED
100
AcDbLine
 10
440.8735294990695
 20
470.1117629808578
 30
0.0
 11
444.8370457714703
 21
468.7790443075865
 31
0.0
  0
LINE
  5
28B
330
1F
100
AcDbEntity
  8
SPOJOVACÍ
  6
DASHED
100
AcDbLine
 10
445.2071441149968
 20
469.1491426532521
 30
0.0
 11
444.8370457714703
 21
469.3633621390382
 31
0.0
  0
LINE
  5
28C
330
1F
100
AcDbEntity
  8
SPOJOVACÍ
  6
DASHED
100
AcDbLine
 10
445.2071441149968
 20
469.1491426532521
 30
0.0
 11
444.8370457714703
 21
468.7790443075865
 31
0.0
  0
LINE
  5
28D
330
1F
100
AcDbEntity
  8
SPOJOVACÍ
  6
DASHED
100
AcDbLine
 10
440.5034311512649
 20
470.3250708941851
 30
0.0
 11
440.8735294990695
 21
470.6960808120385
 31
0.0
  0
LINE
  5
28E
330
1F
100
AcDbEntity
  8
SPOJOVACÍ
  6
DASHED
100
AcDbLine
 10
440.5034311512649
 20
470.3250708941851
 30
0.0
 11
440.8735294990695
 21
470.1117629808578
 31
0.0
  0
LINE
  5
28F
330
1F
100
AcDbEntity
  8
SPOJOVACÍ
  6
DASHED
100
AcDbLine
 10
440.5034311512649
 20
470.3250708941851
 30
0.0
 11
445.2071441149968
 21
469.1491426532521
 31
0.0
  0
LINE
  5
290
330
1F
100
AcDbEntity
  8
SPOJOVACÍ
  6
DASHED
100
AcDbLine
 10
443.9373239317723
 20
454.5120265554415
 30
0.0
 11
444.1779790150106
 21
456.443648216502
 31
0.0
  0
LINE
  5
291
330
1F
100
AcDbEntity
  8
SPOJOVACÍ
  6
DASHED
100
AcDbLine
 10
443.6055116190622
 20
451.8593512208609
 30
0.0
 11
443.867132865293
 21
453.9532327476573
 31
0.0
  0
LINE
  5
292
330
1F
100
AcDbEntity
  8
SPOJOVACÍ
  6
DASHED
100
AcDbLine
 10
443.2727877411165
 20
449.1966485914164
 30
0.0
 11
443.5353205568612
 21
451.2987342687011
 31
0.0
  0
LINE
  5
293
330
1F
100
AcDbEntity
  8
SPOJOVACÍ
  6
DASHED
100
AcDbLine
 10
442.4769851383102
 20
448.8867140162966
 30
0.0
 11
442.8552876331308
 21
445.8593824748478
 31
0.0
  0
LINE
  5
294
330
1F
100
AcDbEntity
  8
SPOJOVACÍ
  6
DASHED
100
AcDbLine
 10
442.1169140893838
 20
451.7691055651813
 30
0.0
 11
442.4013246376347
 21
449.494732727033
 31
0.0
  0
LINE
  5
295
330
1F
100
AcDbEntity
  8
SPOJOVACÍ
  6
DASHED
100
AcDbLine
 10
441.7550198928733
 20
454.662435981396
 30
0.0
 11
442.0394304454024
 21
452.3871515710526
 31
0.0
  0
LINE
  5
296
330
1F
100
AcDbEntity
  8
SPOJOVACÍ
  6
DASHED
100
AcDbLine
 10
442.8552876331308
 20
445.8593824748478
 30
0.0
 11
443.2025966746372
 21
448.6387663560909
 31
0.0
  0
LINE
  5
297
330
1F
100
AcDbEntity
  8
SPOJOVACÍ
  6
DASHED
100
AcDbLine
 10
441.5325962555292
 20
456.443648216502
 30
0.0
 11
441.6793593921978
 21
455.2704546921323
 31
0.0
  0
LINE
  5
298
330
1F
100
AcDbEntity
  8
SPOJOVACÍ
  6
DASHED
100
AcDbLine
 10
444.1779790150106
 20
456.773637381628
 30
0.0
 11
444.1779790150106
 21
456.443648216502
 31
0.0
  0
LINE
  5
299
330
1F
100
AcDbEntity
  8
SPOJOVACÍ
  6
DASHED
100
AcDbLine
 10
444.1779790150106
 20
459.8337855253086
 30
0.0
 11
444.1779790150106
 21
457.3652477913802
 31
0.0
  0
LINE
  5
29A
330
1F
100
AcDbEntity
  8
SPOJOVACÍ
  6
DASHED
100
AcDbLine
 10
441.5325962555292
 20
457.6660666435528
 30
0.0
 11
441.5325962555292
 21
456.443648216502
 31
0.0
  0
LINE
  5
29B
330
1F
100
AcDbEntity
  8
SPOJOVACÍ
  6
DASHED
100
AcDbLine
 10
441.5325962555292
 20
460.7180106367451
 30
0.0
 11
441.5325962555292
 21
458.2503844750045
 31
0.0
  0
LINE
  5
29C
330
1F
100
AcDbEntity
  8
SPOJOVACÍ
  6
DASHED
100
AcDbLine
 10
444.1779790150106
 20
462.8930220965377
 30
0.0
 11
444.1779790150106
 21
460.4226612179628
 31
0.0
  0
LINE
  5
29D
330
1F
100
AcDbEntity
  8
SPOJOVACÍ
  6
DASHED
100
AcDbLine
 10
444.1779790150106
 20
465.9531702399545
 30
0.0
 11
444.1779790150106
 21
463.4755167833429
 31
0.0
  0
LINE
  5
29E
330
1F
100
AcDbEntity
  8
SPOJOVACÍ
  6
DASHED
100
AcDbLine
 10
444.1779790150106
 20
469.0060258053346
 30
0.0
 11
444.1779790150106
 21
466.5374880714063
 31
0.0
  0
LINE
  5
29F
330
1F
100
AcDbEntity
  8
SPOJOVACÍ
  6
DASHED
100
AcDbLine
 10
441.5325962555292
 20
463.7881860752969
 30
0.0
 11
441.5325962555292
 21
461.3105326186852
 31
0.0
  0
LINE
  5
2A0
330
1F
100
AcDbEntity
  8
SPOJOVACÍ
  6
DASHED
100
AcDbLine
 10
441.5325962555292
 20
466.841041640677
 30
0.0
 11
441.5325962555292
 21
464.3706807621021
 31
0.0
  0
LINE
  5
2A1
330
1F
100
AcDbEntity
  8
SPOJOVACÍ
  6
DASHED
100
AcDbLine
 10
441.5325962555292
 20
469.9011897840938
 30
0.0
 11
441.5325962555292
 21
467.4326520501655
 31
0.0
  0
LINE
  5
2A2
330
1F
100
AcDbEntity
  8
SPOJOVACÍ
  6
DASHED
100
AcDbLine
 10
441.5325962555292
 20
474.4417313101731
 30
0.0
 11
441.5325962555292
 21
470.4845960430867
 31
0.0
  0
LINE
  5
2A3
330
1F
100
AcDbEntity
  8
SPOJOVACÍ
  6
DASHED
100
AcDbLine
 10
444.1779790150106
 20
474.4417313101731
 30
0.0
 11
444.1779790150106
 21
469.5976362148232
 31
0.0
  0
LINE
  5
2A4
330
1F
100
AcDbEntity
  8
SPOJOVACÍ
  6
DASHED
100
AcDbLine
 10
437.8571368222695
 20
479.7334083946426
 30
0.0
 11
439.1798282041494
 21
479.0041505708979
 31
0.0
  0
LINE
  5
2A5
330
1F
100
AcDbEntity
  8
SPOJOVACÍ
  6
DASHED
100
AcDbLine
 10
439.1798282041494
 20
479.0041505708979
 30
0.0
 11
440.2682455065009
 21
477.9567540212739
 31
0.0
  0
LINE
  5
2A6
330
1F
100
AcDbEntity
  8
SPOJOVACÍ
  6
DASHED
100
AcDbLine
 10
440.2682455065009
 20
477.9567540212739
 30
0.0
 11
441.0485513762327
 21
476.6641445285423
 31
0.0
  0
LINE
  5
2A7
330
1F
100
AcDbEntity
  8
SPOJOVACÍ
  6
DASHED
100
AcDbLine
 10
441.0485513762327
 20
476.6641445285423
 30
0.0
 11
441.4678746232461
 21
475.2129214588332
 31
0.0
  0
LINE
  5
2A8
330
1F
100
AcDbEntity
  8
SPOJOVACÍ
  6
DASHED
100
AcDbLine
 10
441.4678746232461
 20
475.2129214588332
 30
0.0
 11
441.5325962555292
 21
474.4417313101731
 31
0.0
  0
LINE
  5
2A9
330
1F
100
AcDbEntity
  8
SPOJOVACÍ
  6
DASHED
100
AcDbLine
 10
445.9400482288259
 20
478.5036973892839
 30
0.0
 11
447.1524393615476
 21
479.4034192295168
 31
0.0
  0
LINE
  5
2AA
330
1F
100
AcDbEntity
  8
SPOJOVACÍ
  6
DASHED
100
AcDbLine
 10
447.1524393615476
 20
479.4034192295168
 30
0.0
 11
447.8534384439921
 21
479.7334083946426
 31
0.0
  0
LINE
  5
2AB
330
1F
100
AcDbEntity
  8
SPOJOVACÍ
  6
DASHED
100
AcDbLine
 10
437.8571368222695
 20
479.7334083946426
 30
0.0
 11
447.8534384439921
 21
479.7334083946426
 31
0.0
  0
LINE
  5
2AC
330
1F
100
AcDbEntity
  8
SPOJOVACÍ
  6
DASHED
100
AcDbLine
 10
437.8571368222695
 20
480.9093366358394
 30
0.0
 11
437.8571368222695
 21
479.7334083946426
 31
0.0
  0
LINE
  5
2AD
330
1F
100
AcDbEntity
  8
SPOJOVACÍ
  6
DASHED
100
AcDbLine
 10
437.8571368222695
 20
480.9093366358394
 30
0.0
 11
447.8534384439921
 21
480.9093366358394
 31
0.0
  0
LINE
  5
2AE
330
1F
100
AcDbEntity
  8
SPOJOVACÍ
  6
DASHED
100
AcDbLine
 10
447.8534384439921
 20
480.9093366358394
 30
0.0
 11
447.8534384439921
 21
479.7334083946426
 31
0.0
  0
LINE
  5
2AF
330
1F
100
AcDbEntity
  8
SPOJOVACÍ
  6
DASHED
100
AcDbLine
 10
444.1779790150106
 20
474.4417313101731
 30
0.0
 11
444.4004026480764
 21
475.9348867045338
 31
0.0
  0
LINE
  5
2B0
330
1F
100
AcDbEntity
  8
SPOJOVACÍ
  6
DASHED
100
AcDbLine
 10
444.4004026480764
 20
475.9348867045338
 30
0.0
 11
445.0011287802412
 21
477.320476570043
 31
0.0
  0
LINE
  5
2B1
330
1F
100
AcDbEntity
  8
SPOJOVACÍ
  6
DASHED
100
AcDbLine
 10
445.0011287802412
 20
477.320476570043
 30
0.0
 11
445.9400482288259
 21
478.5036973892839
 31
0.0
  0
LINE
  5
2B2
330
1F
100
AcDbEntity
  8
CETRIS
100
AcDbLine
 10
416.2925839483581
 20
480.9093366358394
 30
0.0
 11
416.2925839483581
 21
468.9093366358394
 31
0.0
  0
LINE
  5
2B3
330
1F
100
AcDbEntity
  8
izolace
100
AcDbLine
 10
402.0583319887013
 20
488.2354381858204
 30
0.0
 11
432.0583319887012
 21
488.2354381858204
 31
0.0
  0
LINE
  5
2B4
330
1F
100
AcDbEntity
  8
CETRIS
100
AcDbLine
 10
416.2925839483581
 20
468.9093366358394
 30
0.0
 11
416.2925839483581
 21
456.9093366358393
 31
0.0
  0
LWPOLYLINE
  5
2B5
330
1F
100
AcDbEntity
  8
STAVBA OBRYS
100
AcDbPolyline
 90
        4
 70
     1
 43
0.0
 10
424.9343166581933
 20
416.9093366358394
 10
401.2925839483581
 20
416.9093366358394
 10
401.2925839483581
 20
413.9093366358394
 10
424.9343166581933
 20
413.9093366358394
  0
LWPOLYLINE
  5
2B6
330
1F
100
AcDbEntity
  8
izolace
100
AcDbPolyline
 90
        4
 70
     1
 43
0.0
 10
472.2177820778637
 20
416.9093366358394
 10
448.5760493680285
 20
416.9093366358394
 10
448.5760493680285
 20
413.9093366358394
 10
472.2177820778637
 20
413.9093366358394
  0
HATCH
  5
2B7
330
1F
100
AcDbEntity
  8
izolace
100
AcDbHatch
 10
0.0
 20
0.0
 30
0.0
210
0.0
220
0.0
230
1.0
  2
SOLID
 70
     1
 71
     0
 91
        1
 92
        7
 72
     0
 73
     1
 93
        4
 10
424.9343166581933
 20
416.9093366358394
 10
401.2925839483617
 20
416.9093366358394
 10
401.2925839483581
 20
413.9093366358394
 10
424.934316658197
 20
413.9093366358394
 97
        0
 75
     0
 76
     1
 47
0.1901250437635136
 98
        3
 10
453.1778069223804
 20
415.1418917064512
 10
416.8416160950404
 20
414.9517650307899
 10
412.846543905813
 20
415.5221450577738
  0
HATCH
  5
2B8
330
1F
100
AcDbEntity
  8
izolace
100
AcDbHatch
 10
0.0
 20
0.0
 30
0.0
210
0.0
220
0.0
230
1.0
  2
SOLID
 70
     1
 71
     0
 91
        1
 92
        7
 72
     0
 73
     1
 93
        4
 10
472.2177820778673
 20
416.9093366358394
 10
448.5760493680321
 20
416.9093366358394
 10
448.5760493680285
 20
413.9093366358394
 10
472.2177820778673
 20
413.9093366358394
 97
        0
 75
     0
 76
     1
 47
0.1901250437635136
 98
        1
 10
457.933844126372
 20
416.0925250847595
  0
INSERT
  5
2B9
330
1F
100
AcDbEntity
  8
POPIS
100
AcDbBlockReference
  2
E_PUNKT
 10
408.3262225143629
 20
433.0119803280787
 30
0.0
 50
270.0
  0
HATCH
  5
2BA
330
1F
100
AcDbEntity
  8
STAVBA OBRYS
100
AcDbHatch
 10
0.0
 20
0.0
 30
0.0
210
0.0
220
0.0
230
1.0
  2
AR-CONC
 70
     0
 71
     0
 91
        1
 92
        7
 72
     0
 73
     1
 93
        5
 10
391.2925839483617
 20
413.9093366358403
 10
401.2925839483581
 20
413.9093366358403
 10
401.2925839483581
 20
416.9093366358394
 10
401.2925839483617
 20
436.458706059596
 10
391.2925839483617
 20
441.3407653537843
 97
        0
 75
     0
 76
     1
 52
90.0
 41
0.1
 77
     0
 78
    13
 53
140.0
 43
-27296.09888317783
 44
3340.628566630632
 45
1.593908553890309
 46
18.2184668996004
 79
     2
 49
1.905
 49
-20.955
 53
85.00000000000001
 43
-27296.09888317783
 44
3340.628566630632
 45
-19.10566428821799
 46
-3.524282597566697
 79
     2
 49
1.524
 49
-16.764
 53
190.4509999999999
 43
-27295.96605817782
 44
3342.146766630632
 45
-17.51166878202918
 46
14.69425016659592
 79
     2
 49
1.619
 49
-17.809
 53
136.1841999999999
 43
-27301.17888317783
 44
3340.628566630632
 45
4.204232793272717
 46
27.10790408921299
 79
     2
 49
2.857499999999999
 49
-31.4325
 53
186.6355999999999
 43
-27300.82853317783
 44
3342.887556630632
 45
-24.74255558900492
 46
23.74042344662371
 79
     2
 49
2.4285
 49
-26.7135
 53
81.18400000000004
 43
-27301.17888317783
 44
3340.628566630632
 45
-24.74251178605976
 46
23.74046058139339
 79
     2
 49
2.286
 49
-25.146
 53
111.0
 43
-27299.90888317783
 44
3343.168566630632
 45
10.22655185167625
 46
15.16148798353833
 79
     2
 49
1.905
 49
-20.955
 53
56.00000000000004
 43
-27299.90888317783
 44
3343.168566630632
 45
-18.41879661223192
 46
6.180202834764708
 79
     2
 49
1.524
 49
-16.764
 53
161.4514
 43
-27299.05667317783
 44
3344.432016630632
 45
-8.192285771605742
 46
21.34164907701245
 79
     2
 49
1.618999999999999
 49
-17.80899999999998
 53
127.5
 43
-27296.09888317783
 44
3340.628566630632
 45
-8.455503887315311
 46
0.3088603250591822
 79
     6
 49
0.0
 49
-16.5608
 49
0.0
 49
-17.018
 49
0.0
 49
-16.8275
 53
97.49999999999996
 43
-27296.09888317783
 44
3340.628566630632
 45
-10.01805748181195
 46
6.681966251030575
 79
     6
 49
0.0
 49
-9.702799999999999
 49
0.0
 49
-16.1798
 49
0.0
 49
-6.4135
 53
57.5
 43
-27296.09888317783
 44
3334.964366630632
 45
0.5728743992673473
 46
13.55905951668713
 79
     6
 49
0.0
 49
-6.35
 49
0.0
 49
-19.812
 49
0.0
 49
-26.289
 53
47.5
 43
-27296.09888317783
 44
3332.424366630632
 45
-2.5426491033333
 46
14.8129181386018
 79
     6
 49
0.0
 49
-8.255
 49
0.0
 49
-13.1572
 49
0.0
 49
-18.669
 47
0.415434097446913
 98
        1
 10
393.8780673319564
 20
421.8094460356079
  0
LINE
  5
2BB
330
1F
100
AcDbEntity
  8
STAVBA OBRYS
100
AcDbLine
 10
607.0582409077473
 20
487.9578093272977
 30
0.0
 11
611.9031463925824
 21
487.9578093272977
 31
0.0
  0
HATCH
  5
2BC
330
1F
100
AcDbEntity
  8
izolace
100
AcDbHatch
 10
0.0
 20
0.0
 30
0.0
210
0.0
220
0.0
230
1.0
  2
SOLID
 70
     1
 71
     0
 91
        1
 92
        7
 72
     0
 73
     1
 93
        4
 10
566.7847129172081
 20
416.9093366358394
 10
543.1429802073729
 20
416.9093366358394
 10
543.1429802073693
 20
413.9093366358394
 10
566.7847129172081
 20
413.9093366358394
 97
        0
 75
     0
 76
     1
 47
0.1901250437635136
 98
        1
 10
552.5007749657127
 20
416.0925250847595
  0
LWPOLYLINE
  5
2BD
330
1F
100
AcDbEntity
  8
izolace
100
AcDbPolyline
 90
        4
 70
     1
 43
0.0
 10
566.7847129172044
 20
416.9093366358394
 10
543.1429802073693
 20
416.9093366358394
 10
543.1429802073693
 20
413.9093366358394
 10
566.7847129172044
 20
413.9093366358394
  0
HATCH
  5
2BE
330
1F
100
AcDbEntity
  8
izolace
100
AcDbHatch
 10
0.0
 20
0.0
 30
0.0
210
0.0
220
0.0
230
1.0
  2
SOLID
 70
     1
 71
     0
 91
        1
 92
        7
 72
     0
 73
     1
 93
        4
 10
614.0681783368785
 20
416.9093366358394
 10
590.4264456270433
 20
416.9093366358394
 10
590.4264456270396
 20
413.9093366358394
 10
614.0681783368785
 20
413.9093366358394
 97
        0
 75
     0
 76
     1
 47
0.1901250437635136
 98
        1
 10
599.7842403853832
 20
416.0925250847595
  0
LWPOLYLINE
  5
2BF
330
1F
100
AcDbEntity
  8
izolace
100
AcDbPolyline
 90
        4
 70
     1
 43
0.0
 10
614.0681783368749
 20
416.9093366358394
 10
590.4264456270396
 20
416.9093366358394
 10
590.4264456270396
 20
413.9093366358394
 10
614.0681783368749
 20
413.9093366358394
  0
INSERT
  5
2C0
330
1F
100
AcDbEntity
  8
POPIS
100
AcDbBlockReference
  2
E_PUNKT
 10
596.8587694468664
 20
473.8827616813952
 30
0.0
 50
270.0
  0
INSERT
  5
2C1
330
1F
100
AcDbEntity
  8
POPIS
100
AcDbBlockReference
  2
E_PUNKT
 10
544.7041429360182
 20
487.8183499632733
 30
0.0
 50
270.0
  0
INSERT
  5
2C2
330
1F
100
AcDbEntity
  8
POPIS
100
AcDbBlockReference
  2
E_PUNKT
 10
643.7410842610337
 20
462.2416495757744
 30
0.0
 50
270.0
  0
LINE
  5
2C3
330
1F
100
AcDbEntity
  8
izolace
100
AcDbLine
 10
428.8618810858537
 20
491.4318890886644
 30
0.0
 11
405.8229458470017
 21
491.4318890886644
 31
0.0
  0
LINE
  5
2C4
330
1F
100
AcDbEntity
  8
izolace
100
AcDbLine
 10
405.8229458470017
 20
514.470824327521
 30
0.0
 11
405.8229458470017
 21
491.4318890886644
 31
0.0
  0
LINE
  5
2C5
330
1F
100
AcDbEntity
  8
izolace
100
AcDbLine
 10
402.0583319887013
 20
518.2354381858204
 30
0.0
 11
405.8229458470017
 21
514.4708243275182
 31
0.0
  0
TEXT
  5
2C6
330
1F
100
AcDbEntity
  8
POPIS
100
AcDbText
 10
466.6709755048799
 20
562.0521564617503
 30
0.0
 40
25.0
  1
01
 41
0.85
  7
SIMPLEX7
100
AcDbText
  0
LINE
  5
2C7
330
1F
100
AcDbEntity
  8
POPIS
100
AcDbLine
 10
405.8229458470017
 20
502.9513567080922
 30
0.0
 11
481.5154594265699
 21
553.2027953890266
 31
0.0
  0
TEXT
  5
2C8
330
1F
100
AcDbEntity
  8
POPIS
100
AcDbText
 10
525.9376178551796
 20
562.0521564617503
 30
0.0
 40
25.0
  1
02
 41
0.85
  7
SIMPLEX7
100
AcDbText
  0
TEXT
  5
2C9
330
1F
100
AcDbEntity
  8
POPIS
100
AcDbText
 10
579.9901668459354
 20
562.0521564617503
 30
0.0
 40
25.0
  1
03
 41
0.85
  7
SIMPLEX7
100
AcDbText
  0
LINE
  5
2CA
330
1F
100
AcDbEntity
  8
POPIS
100
AcDbLine
 10
692.8586680561933
 20
553.2027953890266
 30
0.0
 11
692.8586680561933
 21
473.8551513057683
 31
0.0
  0
LINE
  5
2CB
330
1F
100
AcDbEntity
  8
POPIS
100
AcDbLine
 10
944.5287786026206
 20
553.2027953890266
 30
0.0
 11
944.5287786026206
 21
358.4570528504756
 31
0.0
  0
LINE
  5
2CC
330
1F
100
AcDbEntity
  8
POPIS
100
AcDbLine
 10
895.4402631383349
 20
553.2027953890266
 30
0.0
 11
895.4402631383349
 21
416.9093366358394
 31
0.0
  0
LINE
  5
2CD
330
1F
100
AcDbEntity
  8
POPIS
100
AcDbLine
 10
848.5579483241675
 20
553.2027953890266
 30
0.0
 11
848.5579483241675
 21
439.0994087500659
 31
0.0
  0
HATCH
  5
2CE
330
1F
100
AcDbEntity
  8
izolace
100
AcDbHatch
 10
0.0
 20
0.0
 30
0.0
210
0.0
220
0.0
230
1.0
  2
SOLID
 70
     1
 71
     0
 91
        1
 92
        7
 72
     0
 73
     1
 93
        4
 10
803.20204001556
 20
416.9093366358394
 10
779.5603073057248
 20
416.9093366358394
 10
779.5603073057212
 20
413.9093366358394
 10
803.20204001556
 20
413.9093366358394
 97
        0
 75
     0
 76
     1
 47
0.1901250437635136
 98
        1
 10
788.9181020640648
 20
416.0925250847595
  0
LWPOLYLINE
  5
2CF
330
1F
100
AcDbEntity
  8
izolace
100
AcDbPolyline
 90
        4
 70
     1
 43
0.0
 10
803.2020400155564
 20
416.9093366358394
 10
779.5603073057212
 20
416.9093366358394
 10
779.5603073057212
 20
413.9093366358394
 10
803.2020400155564
 20
413.9093366358394
  0
LINE
  5
2D0
330
1F
100
AcDbEntity
  8
CETRIS
100
AcDbLine
 10
745.8373127607106
 20
480.9093366358394
 30
0.0
 11
745.8373127607106
 21
468.9093366358394
 31
0.0
  0
LINE
  5
2D1
330
1F
100
AcDbEntity
  8
SPOJOVACÍ
  6
DASHED
100
AcDbLine
 10
695.0011287802412
 20
477.320476570043
 30
0.0
 11
695.9400482288259
 21
478.5036973892839
 31
0.0
  0
LINE
  5
2D2
330
1F
100
AcDbEntity
  8
SPOJOVACÍ
  6
DASHED
100
AcDbLine
 10
694.4004026480764
 20
475.9348867045338
 30
0.0
 11
695.0011287802412
 21
477.320476570043
 31
0.0
  0
LINE
  5
2D3
330
1F
100
AcDbEntity
  8
SPOJOVACÍ
  6
DASHED
100
AcDbLine
 10
694.1779790150107
 20
474.4417313101731
 30
0.0
 11
694.4004026480764
 21
475.9348867045338
 31
0.0
  0
LINE
  5
2D4
330
1F
100
AcDbEntity
  8
SPOJOVACÍ
  6
DASHED
100
AcDbLine
 10
697.8534384439921
 20
480.9093366358394
 30
0.0
 11
697.8534384439921
 21
479.7334083946426
 31
0.0
  0
LINE
  5
2D5
330
1F
100
AcDbEntity
  8
SPOJOVACÍ
  6
DASHED
100
AcDbLine
 10
687.8571368222695
 20
480.9093366358394
 30
0.0
 11
697.8534384439921
 21
480.9093366358394
 31
0.0
  0
LINE
  5
2D6
330
1F
100
AcDbEntity
  8
SPOJOVACÍ
  6
DASHED
100
AcDbLine
 10
687.8571368222695
 20
480.9093366358394
 30
0.0
 11
687.8571368222695
 21
479.7334083946426
 31
0.0
  0
LINE
  5
2D7
330
1F
100
AcDbEntity
  8
SPOJOVACÍ
  6
DASHED
100
AcDbLine
 10
687.8571368222695
 20
479.7334083946426
 30
0.0
 11
697.8534384439921
 21
479.7334083946426
 31
0.0
  0
LINE
  5
2D8
330
1F
100
AcDbEntity
  8
SPOJOVACÍ
  6
DASHED
100
AcDbLine
 10
697.1524393615476
 20
479.4034192295168
 30
0.0
 11
697.8534384439921
 21
479.7334083946426
 31
0.0
  0
LINE
  5
2D9
330
1F
100
AcDbEntity
  8
SPOJOVACÍ
  6
DASHED
100
AcDbLine
 10
695.9400482288259
 20
478.5036973892839
 30
0.0
 11
697.1524393615476
 21
479.4034192295168
 31
0.0
  0
LINE
  5
2DA
330
1F
100
AcDbEntity
  8
SPOJOVACÍ
  6
DASHED
100
AcDbLine
 10
691.4678746232461
 20
475.2129214588332
 30
0.0
 11
691.5325962555292
 21
474.4417313101731
 31
0.0
  0
LINE
  5
2DB
330
1F
100
AcDbEntity
  8
SPOJOVACÍ
  6
DASHED
100
AcDbLine
 10
691.0485513762327
 20
476.6641445285423
 30
0.0
 11
691.4678746232461
 21
475.2129214588332
 31
0.0
  0
LINE
  5
2DC
330
1F
100
AcDbEntity
  8
SPOJOVACÍ
  6
DASHED
100
AcDbLine
 10
690.2682455065009
 20
477.9567540212739
 30
0.0
 11
691.0485513762327
 21
476.6641445285423
 31
0.0
  0
LINE
  5
2DD
330
1F
100
AcDbEntity
  8
SPOJOVACÍ
  6
DASHED
100
AcDbLine
 10
689.1798282041494
 20
479.0041505708979
 30
0.0
 11
690.2682455065009
 21
477.9567540212739
 31
0.0
  0
LINE
  5
2DE
330
1F
100
AcDbEntity
  8
SPOJOVACÍ
  6
DASHED
100
AcDbLine
 10
687.8571368222695
 20
479.7334083946426
 30
0.0
 11
689.1798282041494
 21
479.0041505708979
 31
0.0
  0
LINE
  5
2DF
330
1F
100
AcDbEntity
  8
SPOJOVACÍ
  6
DASHED
100
AcDbLine
 10
694.1779790150107
 20
474.4417313101731
 30
0.0
 11
694.1779790150107
 21
469.5976362148232
 31
0.0
  0
LINE
  5
2E0
330
1F
100
AcDbEntity
  8
SPOJOVACÍ
  6
DASHED
100
AcDbLine
 10
691.5325962555292
 20
474.4417313101731
 30
0.0
 11
691.5325962555292
 21
470.4845960430867
 31
0.0
  0
LINE
  5
2E1
330
1F
100
AcDbEntity
  8
SPOJOVACÍ
  6
DASHED
100
AcDbLine
 10
691.5325962555292
 20
469.9011897840938
 30
0.0
 11
691.5325962555292
 21
467.4326520501655
 31
0.0
  0
LINE
  5
2E2
330
1F
100
AcDbEntity
  8
SPOJOVACÍ
  6
DASHED
100
AcDbLine
 10
691.5325962555292
 20
466.841041640677
 30
0.0
 11
691.5325962555292
 21
464.3706807621021
 31
0.0
  0
LINE
  5
2E3
330
1F
100
AcDbEntity
  8
SPOJOVACÍ
  6
DASHED
100
AcDbLine
 10
691.5325962555292
 20
463.7881860752969
 30
0.0
 11
691.5325962555292
 21
461.3105326186852
 31
0.0
  0
LINE
  5
2E4
330
1F
100
AcDbEntity
  8
SPOJOVACÍ
  6
DASHED
100
AcDbLine
 10
694.1779790150107
 20
469.0060258053346
 30
0.0
 11
694.1779790150107
 21
466.5374880714063
 31
0.0
  0
LINE
  5
2E5
330
1F
100
AcDbEntity
  8
SPOJOVACÍ
  6
DASHED
100
AcDbLine
 10
694.1779790150107
 20
465.9531702399545
 30
0.0
 11
694.1779790150107
 21
463.4755167833429
 31
0.0
  0
LINE
  5
2E6
330
1F
100
AcDbEntity
  8
SPOJOVACÍ
  6
DASHED
100
AcDbLine
 10
694.1779790150107
 20
462.8930220965377
 30
0.0
 11
694.1779790150107
 21
460.4226612179628
 31
0.0
  0
LINE
  5
2E7
330
1F
100
AcDbEntity
  8
SPOJOVACÍ
  6
DASHED
100
AcDbLine
 10
691.5325962555292
 20
460.7180106367451
 30
0.0
 11
691.5325962555292
 21
458.2503844750045
 31
0.0
  0
LINE
  5
2E8
330
1F
100
AcDbEntity
  8
SPOJOVACÍ
  6
DASHED
100
AcDbLine
 10
691.5325962555292
 20
457.6660666435528
 30
0.0
 11
691.5325962555292
 21
456.443648216502
 31
0.0
  0
LINE
  5
2E9
330
1F
100
AcDbEntity
  8
SPOJOVACÍ
  6
DASHED
100
AcDbLine
 10
694.1779790150107
 20
459.8337855253086
 30
0.0
 11
694.1779790150107
 21
457.3652477913802
 31
0.0
  0
LINE
  5
2EA
330
1F
100
AcDbEntity
  8
SPOJOVACÍ
  6
DASHED
100
AcDbLine
 10
694.1779790150107
 20
456.773637381628
 30
0.0
 11
694.1779790150107
 21
456.443648216502
 31
0.0
  0
LINE
  5
2EB
330
1F
100
AcDbEntity
  8
SPOJOVACÍ
  6
DASHED
100
AcDbLine
 10
691.5325962555292
 20
456.443648216502
 30
0.0
 11
691.6793593921978
 21
455.2704546921323
 31
0.0
  0
LINE
  5
2EC
330
1F
100
AcDbEntity
  8
SPOJOVACÍ
  6
DASHED
100
AcDbLine
 10
692.8552876331308
 20
445.8593824748478
 30
0.0
 11
693.2025966746372
 21
448.6387663560909
 31
0.0
  0
LINE
  5
2ED
330
1F
100
AcDbEntity
  8
SPOJOVACÍ
  6
DASHED
100
AcDbLine
 10
691.7550198928733
 20
454.662435981396
 30
0.0
 11
692.0394304454024
 21
452.3871515710526
 31
0.0
  0
LINE
  5
2EE
330
1F
100
AcDbEntity
  8
SPOJOVACÍ
  6
DASHED
100
AcDbLine
 10
692.1169140893838
 20
451.7691055651813
 30
0.0
 11
692.4013246376347
 21
449.494732727033
 31
0.0
  0
LINE
  5
2EF
330
1F
100
AcDbEntity
  8
SPOJOVACÍ
  6
DASHED
100
AcDbLine
 10
692.4769851383102
 20
448.8867140162966
 30
0.0
 11
692.8552876331308
 21
445.8593824748478
 31
0.0
  0
LINE
  5
2F0
330
1F
100
AcDbEntity
  8
SPOJOVACÍ
  6
DASHED
100
AcDbLine
 10
693.2727877411165
 20
449.1966485914164
 30
0.0
 11
693.5353205568612
 21
451.2987342687011
 31
0.0
  0
LINE
  5
2F1
330
1F
100
AcDbEntity
  8
SPOJOVACÍ
  6
DASHED
100
AcDbLine
 10
693.6055116190622
 20
451.8593512208609
 30
0.0
 11
693.867132865293
 21
453.9532327476573
 31
0.0
  0
LINE
  5
2F2
330
1F
100
AcDbEntity
  8
SPOJOVACÍ
  6
DASHED
100
AcDbLine
 10
693.9373239317723
 20
454.5120265554415
 30
0.0
 11
694.1779790150107
 21
456.443648216502
 31
0.0
  0
LINE
  5
2F3
330
1F
100
AcDbEntity
  8
SPOJOVACÍ
  6
DASHED
100
AcDbLine
 10
690.5034311512649
 20
470.3250708941851
 30
0.0
 11
695.2071441149968
 21
469.1491426532521
 31
0.0
  0
LINE
  5
2F4
330
1F
100
AcDbEntity
  8
SPOJOVACÍ
  6
DASHED
100
AcDbLine
 10
690.5034311512649
 20
470.3250708941851
 30
0.0
 11
690.8735294990695
 21
470.1117629808578
 31
0.0
  0
LINE
  5
2F5
330
1F
100
AcDbEntity
  8
SPOJOVACÍ
  6
DASHED
100
AcDbLine
 10
690.5034311512649
 20
470.3250708941851
 30
0.0
 11
690.8735294990695
 21
470.6960808120385
 31
0.0
  0
LINE
  5
2F6
330
1F
100
AcDbEntity
  8
SPOJOVACÍ
  6
DASHED
100
AcDbLine
 10
695.2071441149968
 20
469.1491426532521
 30
0.0
 11
694.8370457714703
 21
468.7790443075865
 31
0.0
  0
LINE
  5
2F7
330
1F
100
AcDbEntity
  8
SPOJOVACÍ
  6
DASHED
100
AcDbLine
 10
695.2071441149968
 20
469.1491426532521
 30
0.0
 11
694.8370457714703
 21
469.3633621390382
 31
0.0
  0
LINE
  5
2F8
330
1F
100
AcDbEntity
  8
SPOJOVACÍ
  6
DASHED
100
AcDbLine
 10
690.8735294990695
 20
470.1117629808578
 30
0.0
 11
694.8370457714703
 21
468.7790443075865
 31
0.0
  0
LINE
  5
2F9
330
1F
100
AcDbEntity
  8
SPOJOVACÍ
  6
DASHED
100
AcDbLine
 10
690.8735294990695
 20
470.6960808120385
 30
0.0
 11
694.8370457714703
 21
469.3633621390382
 31
0.0
  0
LINE
  5
2FA
330
1F
100
AcDbEntity
  8
SPOJOVACÍ
  6
DASHED
100
AcDbLine
 10
690.5034311512649
 20
467.2676574676025
 30
0.0
 11
695.2071441149968
 21
466.0917292263985
 31
0.0
  0
LINE
  5
2FB
330
1F
100
AcDbEntity
  8
SPOJOVACÍ
  6
DASHED
100
AcDbLine
 10
690.5034311512649
 20
467.2676574676025
 30
0.0
 11
690.8735294990695
 21
467.0534379818165
 31
0.0
  0
LINE
  5
2FC
330
1F
100
AcDbEntity
  8
SPOJOVACÍ
  6
DASHED
100
AcDbLine
 10
690.5034311512649
 20
467.2676574676025
 30
0.0
 11
690.8735294990695
 21
467.6377558132681
 31
0.0
  0
LINE
  5
2FD
330
1F
100
AcDbEntity
  8
SPOJOVACÍ
  6
DASHED
100
AcDbLine
 10
695.2071441149968
 20
466.0917292263985
 30
0.0
 11
694.8370457714703
 21
465.7216308810039
 31
0.0
  0
LINE
  5
2FE
330
1F
100
AcDbEntity
  8
SPOJOVACÍ
  6
DASHED
100
AcDbLine
 10
695.2071441149968
 20
466.0917292263985
 30
0.0
 11
694.8370457714703
 21
466.3059487121846
 31
0.0
  0
LINE
  5
2FF
330
1F
100
AcDbEntity
  8
SPOJOVACÍ
  6
DASHED
100
AcDbLine
 10
690.8735294990695
 20
467.0534379818165
 30
0.0
 11
694.8370457714703
 21
465.7216308810039
 31
0.0
  0
LINE
  5
300
330
1F
100
AcDbEntity
  8
SPOJOVACÍ
  6
DASHED
100
AcDbLine
 10
690.8735294990695
 20
467.6377558132681
 30
0.0
 11
694.8370457714703
 21
466.3059487121846
 31
0.0
  0
LINE
  5
301
330
1F
100
AcDbEntity
  8
SPOJOVACÍ
  6
DASHED
100
AcDbLine
 10
690.7522903857974
 20
455.0790245134504
 30
0.0
 11
691.123300303116
 21
454.8648050276644
 31
0.0
  0
LINE
  5
302
330
1F
100
AcDbEntity
  8
SPOJOVACÍ
  6
DASHED
100
AcDbLine
 10
690.7522903857974
 20
455.0790245134504
 30
0.0
 11
691.123300303116
 21
455.449122859116
 31
0.0
  0
LINE
  5
303
330
1F
100
AcDbEntity
  8
SPOJOVACÍ
  6
DASHED
100
AcDbLine
 10
694.7951134454855
 20
454.1255199087919
 30
0.0
 11
694.425015101959
 21
453.7545099906675
 31
0.0
  0
LINE
  5
304
330
1F
100
AcDbEntity
  8
SPOJOVACÍ
  6
DASHED
100
AcDbLine
 10
694.7951134454855
 20
454.1255199087919
 30
0.0
 11
694.425015101959
 21
454.3388278221192
 31
0.0
  0
LINE
  5
305
330
1F
100
AcDbEntity
  8
SPOJOVACÍ
  6
DASHED
100
AcDbLine
 10
691.123300303116
 20
454.8648050276644
 30
0.0
 11
694.425015101959
 21
453.7545099906675
 31
0.0
  0
LINE
  5
306
330
1F
100
AcDbEntity
  8
SPOJOVACÍ
  6
DASHED
100
AcDbLine
 10
691.123300303116
 20
455.449122859116
 30
0.0
 11
694.425015101959
 21
454.3388278221192
 31
0.0
  0
LINE
  5
307
330
1F
100
AcDbEntity
  8
SPOJOVACÍ
  6
DASHED
100
AcDbLine
 10
690.7522903857974
 20
455.0790245134504
 30
0.0
 11
694.7951134454855
 21
454.1255199087919
 31
0.0
  0
LINE
  5
308
330
1F
100
AcDbEntity
  8
SPOJOVACÍ
  6
DASHED
100
AcDbLine
 10
691.3056147577812
 20
452.1246187542384
 30
0.0
 11
691.6757131055859
 21
451.9113108409111
 31
0.0
  0
LINE
  5
309
330
1F
100
AcDbEntity
  8
SPOJOVACÍ
  6
DASHED
100
AcDbLine
 10
691.3056147577812
 20
452.1246187542384
 30
0.0
 11
691.6757131055859
 21
452.4956286723628
 31
0.0
  0
LINE
  5
30A
330
1F
100
AcDbEntity
  8
SPOJOVACÍ
  6
DASHED
100
AcDbLine
 10
694.3593818958837
 20
451.5038380318038
 30
0.0
 11
693.9892835523572
 21
451.1328281139505
 31
0.0
  0
LINE
  5
30B
330
1F
100
AcDbEntity
  8
SPOJOVACÍ
  6
DASHED
100
AcDbLine
 10
694.3593818958837
 20
451.5038380318038
 30
0.0
 11
693.9892835523572
 21
451.7171459451311
 31
0.0
  0
LINE
  5
30C
330
1F
100
AcDbEntity
  8
SPOJOVACÍ
  6
DASHED
100
AcDbLine
 10
691.6757131055859
 20
451.9113108409111
 30
0.0
 11
693.9892835523572
 21
451.1328281139505
 31
0.0
  0
LINE
  5
30D
330
1F
100
AcDbEntity
  8
SPOJOVACÍ
  6
DASHED
100
AcDbLine
 10
691.6757131055859
 20
452.4956286723628
 30
0.0
 11
693.9892835523572
 21
451.7171459451311
 31
0.0
  0
LINE
  5
30E
330
1F
100
AcDbEntity
  8
SPOJOVACÍ
  6
DASHED
100
AcDbLine
 10
691.3056147577812
 20
452.1246187542384
 30
0.0
 11
694.3593818958837
 21
451.5038380318038
 31
0.0
  0
LINE
  5
30F
330
1F
100
AcDbEntity
  8
SPOJOVACÍ
  6
DASHED
100
AcDbLine
 10
691.8589391340432
 20
449.1711245674852
 30
0.0
 11
692.2290374775696
 21
448.9569050817063
 31
0.0
  0
LINE
  5
310
330
1F
100
AcDbEntity
  8
SPOJOVACÍ
  6
DASHED
100
AcDbLine
 10
691.8589391340432
 20
449.1711245674852
 30
0.0
 11
692.2290374775696
 21
449.5412229131508
 31
0.0
  0
LINE
  5
311
330
1F
100
AcDbEntity
  8
SPOJOVACÍ
  6
DASHED
100
AcDbLine
 10
693.9701405326708
 20
448.8666594260267
 30
0.0
 11
693.6000421891443
 21
448.4956495081734
 31
0.0
  0
LINE
  5
312
330
1F
100
AcDbEntity
  8
SPOJOVACÍ
  6
DASHED
100
AcDbLine
 10
693.9701405326708
 20
448.8666594260267
 30
0.0
 11
693.6000421891443
 21
449.0799673396178
 31
0.0
  0
LINE
  5
313
330
1F
100
AcDbEntity
  8
SPOJOVACÍ
  6
DASHED
100
AcDbLine
 10
692.2290374775696
 20
448.9569050817063
 30
0.0
 11
693.6000421891443
 21
448.4956495081734
 31
0.0
  0
LINE
  5
314
330
1F
100
AcDbEntity
  8
SPOJOVACÍ
  6
DASHED
100
AcDbLine
 10
692.2290374775696
 20
449.5412229131508
 30
0.0
 11
693.6000421891443
 21
449.0799673396178
 31
0.0
  0
LINE
  5
315
330
1F
100
AcDbEntity
  8
SPOJOVACÍ
  6
DASHED
100
AcDbLine
 10
691.8589391340432
 20
449.1711245674852
 30
0.0
 11
693.9701405326708
 21
448.8666594260267
 31
0.0
  0
LINE
  5
316
330
1F
100
AcDbEntity
  8
SPOJOVACÍ
  6
DASHED
100
AcDbLine
 10
690.5034311512649
 20
464.210244040749
 30
0.0
 11
695.2071441149968
 21
463.034315799816
 31
0.0
  0
LINE
  5
317
330
1F
100
AcDbEntity
  8
SPOJOVACÍ
  6
DASHED
100
AcDbLine
 10
690.5034311512649
 20
464.210244040749
 30
0.0
 11
690.8735294990695
 21
463.9960245549628
 31
0.0
  0
LINE
  5
318
330
1F
100
AcDbEntity
  8
SPOJOVACÍ
  6
DASHED
100
AcDbLine
 10
690.5034311512649
 20
464.210244040749
 30
0.0
 11
690.8735294990695
 21
464.5803423864146
 31
0.0
  0
LINE
  5
319
330
1F
100
AcDbEntity
  8
SPOJOVACÍ
  6
DASHED
100
AcDbLine
 10
695.2071441149968
 20
463.034315799816
 30
0.0
 11
694.8370457714703
 21
462.6633058819626
 31
0.0
  0
LINE
  5
31A
330
1F
100
AcDbEntity
  8
SPOJOVACÍ
  6
DASHED
100
AcDbLine
 10
695.2071441149968
 20
463.034315799816
 30
0.0
 11
694.8370457714703
 21
463.247623713407
 31
0.0
  0
LINE
  5
31B
330
1F
100
AcDbEntity
  8
SPOJOVACÍ
  6
DASHED
100
AcDbLine
 10
690.8735294990695
 20
463.9960245549628
 30
0.0
 11
694.8370457714703
 21
462.6633058819626
 31
0.0
  0
LINE
  5
31C
330
1F
100
AcDbEntity
  8
SPOJOVACÍ
  6
DASHED
100
AcDbLine
 10
690.8735294990695
 20
464.5803423864146
 30
0.0
 11
694.8370457714703
 21
463.247623713407
 31
0.0
  0
LINE
  5
31D
330
1F
100
AcDbEntity
  8
SPOJOVACÍ
  6
DASHED
100
AcDbLine
 10
690.5034311512649
 20
461.1528306141591
 30
0.0
 11
695.2071441149968
 21
459.9769023732261
 31
0.0
  0
LINE
  5
31E
330
1F
100
AcDbEntity
  8
SPOJOVACÍ
  6
DASHED
100
AcDbLine
 10
690.5034311512649
 20
461.1528306141591
 30
0.0
 11
690.8735294990695
 21
460.9386111283803
 31
0.0
  0
LINE
  5
31F
330
1F
100
AcDbEntity
  8
SPOJOVACÍ
  6
DASHED
100
AcDbLine
 10
690.5034311512649
 20
461.1528306141591
 30
0.0
 11
690.8735294990695
 21
461.5229289598247
 31
0.0
  0
LINE
  5
320
330
1F
100
AcDbEntity
  8
SPOJOVACÍ
  6
DASHED
100
AcDbLine
 10
695.2071441149968
 20
459.9769023732261
 30
0.0
 11
694.8370457714703
 21
459.6058924553727
 31
0.0
  0
LINE
  5
321
330
1F
100
AcDbEntity
  8
SPOJOVACÍ
  6
DASHED
100
AcDbLine
 10
695.2071441149968
 20
459.9769023732261
 30
0.0
 11
694.8370457714703
 21
460.1902102865534
 31
0.0
  0
LINE
  5
322
330
1F
100
AcDbEntity
  8
SPOJOVACÍ
  6
DASHED
100
AcDbLine
 10
690.8735294990695
 20
460.9386111283803
 30
0.0
 11
694.8370457714703
 21
459.6058924553727
 31
0.0
  0
LINE
  5
323
330
1F
100
AcDbEntity
  8
SPOJOVACÍ
  6
DASHED
100
AcDbLine
 10
690.8735294990695
 20
461.5229289598247
 30
0.0
 11
694.8370457714703
 21
460.1902102865534
 31
0.0
  0
LINE
  5
324
330
1F
100
AcDbEntity
  8
SPOJOVACÍ
  6
DASHED
100
AcDbLine
 10
690.5034311512649
 20
458.0945056151177
 30
0.0
 11
695.2071441149968
 21
456.9185773741848
 31
0.0
  0
LINE
  5
325
330
1F
100
AcDbEntity
  8
SPOJOVACÍ
  6
DASHED
100
AcDbLine
 10
690.5034311512649
 20
458.0945056151177
 30
0.0
 11
690.8735294990695
 21
457.8811977017904
 31
0.0
  0
LINE
  5
326
330
1F
100
AcDbEntity
  8
SPOJOVACÍ
  6
DASHED
100
AcDbLine
 10
690.5034311512649
 20
458.0945056151177
 30
0.0
 11
690.8735294990695
 21
458.4655155332422
 31
0.0
  0
LINE
  5
327
330
1F
100
AcDbEntity
  8
SPOJOVACÍ
  6
DASHED
100
AcDbLine
 10
695.2071441149968
 20
456.9185773741848
 30
0.0
 11
694.8370457714703
 21
456.5484790285191
 31
0.0
  0
LINE
  5
328
330
1F
100
AcDbEntity
  8
SPOJOVACÍ
  6
DASHED
100
AcDbLine
 10
695.2071441149968
 20
456.9185773741848
 30
0.0
 11
694.8370457714703
 21
457.1327968599709
 31
0.0
  0
LINE
  5
329
330
1F
100
AcDbEntity
  8
SPOJOVACÍ
  6
DASHED
100
AcDbLine
 10
690.8735294990695
 20
457.8811977017904
 30
0.0
 11
694.8370457714703
 21
456.5484790285191
 31
0.0
  0
LINE
  5
32A
330
1F
100
AcDbEntity
  8
SPOJOVACÍ
  6
DASHED
100
AcDbLine
 10
690.8735294990695
 20
458.4655155332422
 30
0.0
 11
694.8370457714703
 21
457.1327968599709
 31
0.0
  0
LINE
  5
32B
330
1F
100
AcDbEntity
  8
SPOJOVACÍ
  6
DASHED
100
AcDbLine
 10
790.8735294990695
 20
458.4655155332422
 30
0.0
 11
794.8370457714703
 21
457.1327968599709
 31
0.0
  0
LINE
  5
32C
330
1F
100
AcDbEntity
  8
SPOJOVACÍ
  6
DASHED
100
AcDbLine
 10
790.8735294990695
 20
457.8811977017904
 30
0.0
 11
794.8370457714703
 21
456.5484790285191
 31
0.0
  0
LINE
  5
32D
330
1F
100
AcDbEntity
  8
SPOJOVACÍ
  6
DASHED
100
AcDbLine
 10
795.2071441149968
 20
456.9185773741848
 30
0.0
 11
794.8370457714703
 21
457.1327968599709
 31
0.0
  0
LINE
  5
32E
330
1F
100
AcDbEntity
  8
SPOJOVACÍ
  6
DASHED
100
AcDbLine
 10
795.2071441149968
 20
456.9185773741848
 30
0.0
 11
794.8370457714703
 21
456.5484790285191
 31
0.0
  0
LINE
  5
32F
330
1F
100
AcDbEntity
  8
SPOJOVACÍ
  6
DASHED
100
AcDbLine
 10
790.5034311512649
 20
458.0945056151177
 30
0.0
 11
790.8735294990695
 21
458.4655155332422
 31
0.0
  0
LINE
  5
330
330
1F
100
AcDbEntity
  8
SPOJOVACÍ
  6
DASHED
100
AcDbLine
 10
790.5034311512649
 20
458.0945056151177
 30
0.0
 11
790.8735294990695
 21
457.8811977017904
 31
0.0
  0
LINE
  5
331
330
1F
100
AcDbEntity
  8
SPOJOVACÍ
  6
DASHED
100
AcDbLine
 10
790.5034311512649
 20
458.0945056151177
 30
0.0
 11
795.2071441149968
 21
456.9185773741848
 31
0.0
  0
LINE
  5
332
330
1F
100
AcDbEntity
  8
SPOJOVACÍ
  6
DASHED
100
AcDbLine
 10
790.8735294990695
 20
461.5229289598247
 30
0.0
 11
794.8370457714703
 21
460.1902102865534
 31
0.0
  0
LINE
  5
333
330
1F
100
AcDbEntity
  8
SPOJOVACÍ
  6
DASHED
100
AcDbLine
 10
790.8735294990695
 20
460.9386111283803
 30
0.0
 11
794.8370457714703
 21
459.6058924553727
 31
0.0
  0
LINE
  5
334
330
1F
100
AcDbEntity
  8
SPOJOVACÍ
  6
DASHED
100
AcDbLine
 10
795.2071441149968
 20
459.9769023732261
 30
0.0
 11
794.8370457714703
 21
460.1902102865534
 31
0.0
  0
LINE
  5
335
330
1F
100
AcDbEntity
  8
SPOJOVACÍ
  6
DASHED
100
AcDbLine
 10
795.2071441149968
 20
459.9769023732261
 30
0.0
 11
794.8370457714703
 21
459.6058924553727
 31
0.0
  0
LINE
  5
336
330
1F
100
AcDbEntity
  8
SPOJOVACÍ
  6
DASHED
100
AcDbLine
 10
790.5034311512649
 20
461.1528306141591
 30
0.0
 11
790.8735294990695
 21
461.5229289598247
 31
0.0
  0
LINE
  5
337
330
1F
100
AcDbEntity
  8
SPOJOVACÍ
  6
DASHED
100
AcDbLine
 10
790.5034311512649
 20
461.1528306141591
 30
0.0
 11
790.8735294990695
 21
460.9386111283803
 31
0.0
  0
LINE
  5
338
330
1F
100
AcDbEntity
  8
SPOJOVACÍ
  6
DASHED
100
AcDbLine
 10
790.5034311512649
 20
461.1528306141591
 30
0.0
 11
795.2071441149968
 21
459.9769023732261
 31
0.0
  0
LINE
  5
339
330
1F
100
AcDbEntity
  8
SPOJOVACÍ
  6
DASHED
100
AcDbLine
 10
790.8735294990695
 20
464.5803423864146
 30
0.0
 11
794.8370457714703
 21
463.247623713407
 31
0.0
  0
LINE
  5
33A
330
1F
100
AcDbEntity
  8
SPOJOVACÍ
  6
DASHED
100
AcDbLine
 10
790.8735294990695
 20
463.9960245549628
 30
0.0
 11
794.8370457714703
 21
462.6633058819626
 31
0.0
  0
LINE
  5
33B
330
1F
100
AcDbEntity
  8
SPOJOVACÍ
  6
DASHED
100
AcDbLine
 10
795.2071441149968
 20
463.034315799816
 30
0.0
 11
794.8370457714703
 21
463.247623713407
 31
0.0
  0
LINE
  5
33C
330
1F
100
AcDbEntity
  8
SPOJOVACÍ
  6
DASHED
100
AcDbLine
 10
795.2071441149968
 20
463.034315799816
 30
0.0
 11
794.8370457714703
 21
462.6633058819626
 31
0.0
  0
LINE
  5
33D
330
1F
100
AcDbEntity
  8
SPOJOVACÍ
  6
DASHED
100
AcDbLine
 10
790.5034311512649
 20
464.210244040749
 30
0.0
 11
790.8735294990695
 21
464.5803423864146
 31
0.0
  0
LINE
  5
33E
330
1F
100
AcDbEntity
  8
SPOJOVACÍ
  6
DASHED
100
AcDbLine
 10
790.5034311512649
 20
464.210244040749
 30
0.0
 11
790.8735294990695
 21
463.9960245549628
 31
0.0
  0
LINE
  5
33F
330
1F
100
AcDbEntity
  8
SPOJOVACÍ
  6
DASHED
100
AcDbLine
 10
790.5034311512649
 20
464.210244040749
 30
0.0
 11
795.2071441149968
 21
463.034315799816
 31
0.0
  0
LINE
  5
340
330
1F
100
AcDbEntity
  8
SPOJOVACÍ
  6
DASHED
100
AcDbLine
 10
791.8589391340432
 20
449.1711245674852
 30
0.0
 11
793.9701405326708
 21
448.8666594260267
 31
0.0
  0
LINE
  5
341
330
1F
100
AcDbEntity
  8
SPOJOVACÍ
  6
DASHED
100
AcDbLine
 10
792.2290374775696
 20
449.5412229131508
 30
0.0
 11
793.6000421891443
 21
449.0799673396178
 31
0.0
  0
LINE
  5
342
330
1F
100
AcDbEntity
  8
SPOJOVACÍ
  6
DASHED
100
AcDbLine
 10
792.2290374775696
 20
448.9569050817063
 30
0.0
 11
793.6000421891443
 21
448.4956495081734
 31
0.0
  0
LINE
  5
343
330
1F
100
AcDbEntity
  8
SPOJOVACÍ
  6
DASHED
100
AcDbLine
 10
793.9701405326708
 20
448.8666594260267
 30
0.0
 11
793.6000421891443
 21
449.0799673396178
 31
0.0
  0
LINE
  5
344
330
1F
100
AcDbEntity
  8
SPOJOVACÍ
  6
DASHED
100
AcDbLine
 10
793.9701405326708
 20
448.8666594260267
 30
0.0
 11
793.6000421891443
 21
448.4956495081734
 31
0.0
  0
LINE
  5
345
330
1F
100
AcDbEntity
  8
SPOJOVACÍ
  6
DASHED
100
AcDbLine
 10
791.8589391340432
 20
449.1711245674852
 30
0.0
 11
792.2290374775696
 21
449.5412229131508
 31
0.0
  0
LINE
  5
346
330
1F
100
AcDbEntity
  8
SPOJOVACÍ
  6
DASHED
100
AcDbLine
 10
791.8589391340432
 20
449.1711245674852
 30
0.0
 11
792.2290374775696
 21
448.9569050817063
 31
0.0
  0
LINE
  5
347
330
1F
100
AcDbEntity
  8
SPOJOVACÍ
  6
DASHED
100
AcDbLine
 10
791.3056147577812
 20
452.1246187542384
 30
0.0
 11
794.3593818958837
 21
451.5038380318038
 31
0.0
  0
LINE
  5
348
330
1F
100
AcDbEntity
  8
SPOJOVACÍ
  6
DASHED
100
AcDbLine
 10
791.6757131055859
 20
452.4956286723628
 30
0.0
 11
793.9892835523573
 21
451.7171459451311
 31
0.0
  0
LINE
  5
349
330
1F
100
AcDbEntity
  8
SPOJOVACÍ
  6
DASHED
100
AcDbLine
 10
791.6757131055859
 20
451.9113108409111
 30
0.0
 11
793.9892835523573
 21
451.1328281139505
 31
0.0
  0
LINE
  5
34A
330
1F
100
AcDbEntity
  8
SPOJOVACÍ
  6
DASHED
100
AcDbLine
 10
794.3593818958837
 20
451.5038380318038
 30
0.0
 11
793.9892835523573
 21
451.7171459451311
 31
0.0
  0
LINE
  5
34B
330
1F
100
AcDbEntity
  8
SPOJOVACÍ
  6
DASHED
100
AcDbLine
 10
794.3593818958837
 20
451.5038380318038
 30
0.0
 11
793.9892835523573
 21
451.1328281139505
 31
0.0
  0
LINE
  5
34C
330
1F
100
AcDbEntity
  8
SPOJOVACÍ
  6
DASHED
100
AcDbLine
 10
791.3056147577812
 20
452.1246187542384
 30
0.0
 11
791.6757131055859
 21
452.4956286723628
 31
0.0
  0
LINE
  5
34D
330
1F
100
AcDbEntity
  8
SPOJOVACÍ
  6
DASHED
100
AcDbLine
 10
791.3056147577812
 20
452.1246187542384
 30
0.0
 11
791.6757131055859
 21
451.9113108409111
 31
0.0
  0
LINE
  5
34E
330
1F
100
AcDbEntity
  8
SPOJOVACÍ
  6
DASHED
100
AcDbLine
 10
790.7522903857974
 20
455.0790245134504
 30
0.0
 11
794.7951134454855
 21
454.1255199087919
 31
0.0
  0
LINE
  5
34F
330
1F
100
AcDbEntity
  8
SPOJOVACÍ
  6
DASHED
100
AcDbLine
 10
791.123300303116
 20
455.449122859116
 30
0.0
 11
794.425015101959
 21
454.3388278221192
 31
0.0
  0
LINE
  5
350
330
1F
100
AcDbEntity
  8
SPOJOVACÍ
  6
DASHED
100
AcDbLine
 10
791.123300303116
 20
454.8648050276644
 30
0.0
 11
794.425015101959
 21
453.7545099906675
 31
0.0
  0
LINE
  5
351
330
1F
100
AcDbEntity
  8
SPOJOVACÍ
  6
DASHED
100
AcDbLine
 10
794.7951134454855
 20
454.1255199087919
 30
0.0
 11
794.425015101959
 21
454.3388278221192
 31
0.0
  0
LINE
  5
352
330
1F
100
AcDbEntity
  8
SPOJOVACÍ
  6
DASHED
100
AcDbLine
 10
794.7951134454855
 20
454.1255199087919
 30
0.0
 11
794.425015101959
 21
453.7545099906675
 31
0.0
  0
LINE
  5
353
330
1F
100
AcDbEntity
  8
SPOJOVACÍ
  6
DASHED
100
AcDbLine
 10
790.7522903857974
 20
455.0790245134504
 30
0.0
 11
791.123300303116
 21
455.449122859116
 31
0.0
  0
LINE
  5
354
330
1F
100
AcDbEntity
  8
SPOJOVACÍ
  6
DASHED
100
AcDbLine
 10
790.7522903857974
 20
455.0790245134504
 30
0.0
 11
791.123300303116
 21
454.8648050276644
 31
0.0
  0
LINE
  5
355
330
1F
100
AcDbEntity
  8
SPOJOVACÍ
  6
DASHED
100
AcDbLine
 10
790.8735294990695
 20
467.6377558132681
 30
0.0
 11
794.8370457714703
 21
466.3059487121846
 31
0.0
  0
LINE
  5
356
330
1F
100
AcDbEntity
  8
SPOJOVACÍ
  6
DASHED
100
AcDbLine
 10
790.8735294990695
 20
467.0534379818165
 30
0.0
 11
794.8370457714703
 21
465.7216308810039
 31
0.0
  0
LINE
  5
357
330
1F
100
AcDbEntity
  8
SPOJOVACÍ
  6
DASHED
100
AcDbLine
 10
795.2071441149968
 20
466.0917292263985
 30
0.0
 11
794.8370457714703
 21
466.3059487121846
 31
0.0
  0
LINE
  5
358
330
1F
100
AcDbEntity
  8
SPOJOVACÍ
  6
DASHED
100
AcDbLine
 10
795.2071441149968
 20
466.0917292263985
 30
0.0
 11
794.8370457714703
 21
465.7216308810039
 31
0.0
  0
LINE
  5
359
330
1F
100
AcDbEntity
  8
SPOJOVACÍ
  6
DASHED
100
AcDbLine
 10
790.5034311512649
 20
467.2676574676025
 30
0.0
 11
790.8735294990695
 21
467.6377558132681
 31
0.0
  0
LINE
  5
35A
330
1F
100
AcDbEntity
  8
SPOJOVACÍ
  6
DASHED
100
AcDbLine
 10
790.5034311512649
 20
467.2676574676025
 30
0.0
 11
790.8735294990695
 21
467.0534379818165
 31
0.0
  0
LINE
  5
35B
330
1F
100
AcDbEntity
  8
SPOJOVACÍ
  6
DASHED
100
AcDbLine
 10
790.5034311512649
 20
467.2676574676025
 30
0.0
 11
795.2071441149968
 21
466.0917292263985
 31
0.0
  0
LINE
  5
35C
330
1F
100
AcDbEntity
  8
SPOJOVACÍ
  6
DASHED
100
AcDbLine
 10
790.8735294990695
 20
470.6960808120385
 30
0.0
 11
794.8370457714703
 21
469.3633621390382
 31
0.0
  0
LINE
  5
35D
330
1F
100
AcDbEntity
  8
SPOJOVACÍ
  6
DASHED
100
AcDbLine
 10
790.8735294990695
 20
470.1117629808578
 30
0.0
 11
794.8370457714703
 21
468.7790443075865
 31
0.0
  0
LINE
  5
35E
330
1F
100
AcDbEntity
  8
SPOJOVACÍ
  6
DASHED
100
AcDbLine
 10
795.2071441149968
 20
469.1491426532521
 30
0.0
 11
794.8370457714703
 21
469.3633621390382
 31
0.0
  0
LINE
  5
35F
330
1F
100
AcDbEntity
  8
SPOJOVACÍ
  6
DASHED
100
AcDbLine
 10
795.2071441149968
 20
469.1491426532521
 30
0.0
 11
794.8370457714703
 21
468.7790443075865
 31
0.0
  0
LINE
  5
360
330
1F
100
AcDbEntity
  8
SPOJOVACÍ
  6
DASHED
100
AcDbLine
 10
790.5034311512649
 20
470.3250708941851
 30
0.0
 11
790.8735294990695
 21
470.6960808120385
 31
0.0
  0
LINE
  5
361
330
1F
100
AcDbEntity
  8
SPOJOVACÍ
  6
DASHED
100
AcDbLine
 10
790.5034311512649
 20
470.3250708941851
 30
0.0
 11
790.8735294990695
 21
470.1117629808578
 31
0.0
  0
LINE
  5
362
330
1F
100
AcDbEntity
  8
SPOJOVACÍ
  6
DASHED
100
AcDbLine
 10
790.5034311512649
 20
470.3250708941851
 30
0.0
 11
795.2071441149968
 21
469.1491426532521
 31
0.0
  0
LINE
  5
363
330
1F
100
AcDbEntity
  8
SPOJOVACÍ
  6
DASHED
100
AcDbLine
 10
793.9373239317723
 20
454.5120265554415
 30
0.0
 11
794.1779790150107
 21
456.443648216502
 31
0.0
  0
LINE
  5
364
330
1F
100
AcDbEntity
  8
SPOJOVACÍ
  6
DASHED
100
AcDbLine
 10
793.6055116190622
 20
451.8593512208609
 30
0.0
 11
793.867132865293
 21
453.9532327476573
 31
0.0
  0
LINE
  5
365
330
1F
100
AcDbEntity
  8
SPOJOVACÍ
  6
DASHED
100
AcDbLine
 10
793.2727877411165
 20
449.1966485914164
 30
0.0
 11
793.5353205568612
 21
451.2987342687011
 31
0.0
  0
LINE
  5
366
330
1F
100
AcDbEntity
  8
SPOJOVACÍ
  6
DASHED
100
AcDbLine
 10
792.4769851383102
 20
448.8867140162966
 30
0.0
 11
792.8552876331308
 21
445.8593824748478
 31
0.0
  0
LINE
  5
367
330
1F
100
AcDbEntity
  8
SPOJOVACÍ
  6
DASHED
100
AcDbLine
 10
792.1169140893838
 20
451.7691055651813
 30
0.0
 11
792.4013246376347
 21
449.494732727033
 31
0.0
  0
LINE
  5
368
330
1F
100
AcDbEntity
  8
SPOJOVACÍ
  6
DASHED
100
AcDbLine
 10
791.7550198928733
 20
454.662435981396
 30
0.0
 11
792.0394304454024
 21
452.3871515710526
 31
0.0
  0
LINE
  5
369
330
1F
100
AcDbEntity
  8
SPOJOVACÍ
  6
DASHED
100
AcDbLine
 10
792.8552876331308
 20
445.8593824748478
 30
0.0
 11
793.2025966746372
 21
448.6387663560909
 31
0.0
  0
LINE
  5
36A
330
1F
100
AcDbEntity
  8
SPOJOVACÍ
  6
DASHED
100
AcDbLine
 10
791.5325962555292
 20
456.443648216502
 30
0.0
 11
791.6793593921978
 21
455.2704546921323
 31
0.0
  0
LINE
  5
36B
330
1F
100
AcDbEntity
  8
SPOJOVACÍ
  6
DASHED
100
AcDbLine
 10
794.1779790150107
 20
456.773637381628
 30
0.0
 11
794.1779790150107
 21
456.443648216502
 31
0.0
  0
LINE
  5
36C
330
1F
100
AcDbEntity
  8
SPOJOVACÍ
  6
DASHED
100
AcDbLine
 10
794.1779790150107
 20
459.8337855253086
 30
0.0
 11
794.1779790150107
 21
457.3652477913802
 31
0.0
  0
LINE
  5
36D
330
1F
100
AcDbEntity
  8
SPOJOVACÍ
  6
DASHED
100
AcDbLine
 10
791.5325962555292
 20
457.6660666435528
 30
0.0
 11
791.5325962555292
 21
456.443648216502
 31
0.0
  0
LINE
  5
36E
330
1F
100
AcDbEntity
  8
SPOJOVACÍ
  6
DASHED
100
AcDbLine
 10
791.5325962555292
 20
460.7180106367451
 30
0.0
 11
791.5325962555292
 21
458.2503844750045
 31
0.0
  0
LINE
  5
36F
330
1F
100
AcDbEntity
  8
SPOJOVACÍ
  6
DASHED
100
AcDbLine
 10
794.1779790150107
 20
462.8930220965377
 30
0.0
 11
794.1779790150107
 21
460.4226612179628
 31
0.0
  0
LINE
  5
370
330
1F
100
AcDbEntity
  8
SPOJOVACÍ
  6
DASHED
100
AcDbLine
 10
794.1779790150107
 20
465.9531702399545
 30
0.0
 11
794.1779790150107
 21
463.4755167833429
 31
0.0
  0
LINE
  5
371
330
1F
100
AcDbEntity
  8
SPOJOVACÍ
  6
DASHED
100
AcDbLine
 10
794.1779790150107
 20
469.0060258053346
 30
0.0
 11
794.1779790150107
 21
466.5374880714063
 31
0.0
  0
LINE
  5
372
330
1F
100
AcDbEntity
  8
SPOJOVACÍ
  6
DASHED
100
AcDbLine
 10
791.5325962555292
 20
463.7881860752969
 30
0.0
 11
791.5325962555292
 21
461.3105326186852
 31
0.0
  0
LINE
  5
373
330
1F
100
AcDbEntity
  8
SPOJOVACÍ
  6
DASHED
100
AcDbLine
 10
791.5325962555292
 20
466.841041640677
 30
0.0
 11
791.5325962555292
 21
464.3706807621021
 31
0.0
  0
LINE
  5
374
330
1F
100
AcDbEntity
  8
SPOJOVACÍ
  6
DASHED
100
AcDbLine
 10
791.5325962555292
 20
469.9011897840938
 30
0.0
 11
791.5325962555292
 21
467.4326520501655
 31
0.0
  0
LINE
  5
375
330
1F
100
AcDbEntity
  8
SPOJOVACÍ
  6
DASHED
100
AcDbLine
 10
791.5325962555292
 20
474.4417313101731
 30
0.0
 11
791.5325962555292
 21
470.4845960430867
 31
0.0
  0
LINE
  5
376
330
1F
100
AcDbEntity
  8
SPOJOVACÍ
  6
DASHED
100
AcDbLine
 10
794.1779790150107
 20
474.4417313101731
 30
0.0
 11
794.1779790150107
 21
469.5976362148232
 31
0.0
  0
LINE
  5
377
330
1F
100
AcDbEntity
  8
SPOJOVACÍ
  6
DASHED
100
AcDbLine
 10
787.8571368222695
 20
479.7334083946426
 30
0.0
 11
789.1798282041494
 21
479.0041505708979
 31
0.0
  0
LINE
  5
378
330
1F
100
AcDbEntity
  8
SPOJOVACÍ
  6
DASHED
100
AcDbLine
 10
789.1798282041494
 20
479.0041505708979
 30
0.0
 11
790.2682455065009
 21
477.9567540212739
 31
0.0
  0
LINE
  5
379
330
1F
100
AcDbEntity
  8
SPOJOVACÍ
  6
DASHED
100
AcDbLine
 10
790.2682455065009
 20
477.9567540212739
 30
0.0
 11
791.0485513762327
 21
476.6641445285423
 31
0.0
  0
LINE
  5
37A
330
1F
100
AcDbEntity
  8
SPOJOVACÍ
  6
DASHED
100
AcDbLine
 10
791.0485513762327
 20
476.6641445285423
 30
0.0
 11
791.4678746232461
 21
475.2129214588332
 31
0.0
  0
LINE
  5
37B
330
1F
100
AcDbEntity
  8
SPOJOVACÍ
  6
DASHED
100
AcDbLine
 10
791.4678746232461
 20
475.2129214588332
 30
0.0
 11
791.5325962555292
 21
474.4417313101731
 31
0.0
  0
LINE
  5
37C
330
1F
100
AcDbEntity
  8
SPOJOVACÍ
  6
DASHED
100
AcDbLine
 10
795.9400482288259
 20
478.5036973892839
 30
0.0
 11
797.1524393615476
 21
479.4034192295168
 31
0.0
  0
LINE
  5
37D
330
1F
100
AcDbEntity
  8
SPOJOVACÍ
  6
DASHED
100
AcDbLine
 10
797.1524393615476
 20
479.4034192295168
 30
0.0
 11
797.8534384439921
 21
479.7334083946426
 31
0.0
  0
LINE
  5
37E
330
1F
100
AcDbEntity
  8
SPOJOVACÍ
  6
DASHED
100
AcDbLine
 10
787.8571368222695
 20
479.7334083946426
 30
0.0
 11
797.8534384439921
 21
479.7334083946426
 31
0.0
  0
LINE
  5
37F
330
1F
100
AcDbEntity
  8
SPOJOVACÍ
  6
DASHED
100
AcDbLine
 10
787.8571368222695
 20
480.9093366358394
 30
0.0
 11
787.8571368222695
 21
479.7334083946426
 31
0.0
  0
LINE
  5
380
330
1F
100
AcDbEntity
  8
SPOJOVACÍ
  6
DASHED
100
AcDbLine
 10
787.8571368222695
 20
480.9093366358394
 30
0.0
 11
797.8534384439921
 21
480.9093366358394
 31
0.0
  0
LINE
  5
381
330
1F
100
AcDbEntity
  8
SPOJOVACÍ
  6
DASHED
100
AcDbLine
 10
797.8534384439921
 20
480.9093366358394
 30
0.0
 11
797.8534384439921
 21
479.7334083946426
 31
0.0
  0
LINE
  5
382
330
1F
100
AcDbEntity
  8
SPOJOVACÍ
  6
DASHED
100
AcDbLine
 10
794.1779790150107
 20
474.4417313101731
 30
0.0
 11
794.4004026480764
 21
475.9348867045338
 31
0.0
  0
LINE
  5
383
330
1F
100
AcDbEntity
  8
SPOJOVACÍ
  6
DASHED
100
AcDbLine
 10
794.4004026480764
 20
475.9348867045338
 30
0.0
 11
795.0011287802412
 21
477.320476570043
 31
0.0
  0
LINE
  5
384
330
1F
100
AcDbEntity
  8
SPOJOVACÍ
  6
DASHED
100
AcDbLine
 10
795.0011287802412
 20
477.320476570043
 30
0.0
 11
795.9400482288259
 21
478.5036973892839
 31
0.0
  0
HATCH
  5
385
330
1F
100
AcDbEntity
  8
izolace
100
AcDbHatch
 10
0.0
 20
0.0
 30
0.0
210
0.0
220
0.0
230
1.0
  2
SOLID
 70
     1
 71
     0
 91
        1
 92
        7
 72
     0
 73
     1
 93
        4
 10
708.6351091762193
 20
416.9093366358394
 10
684.9933764663841
 20
416.9093366358394
 10
684.9933764663805
 20
413.9093366358394
 10
708.6351091762193
 20
413.9093366358394
 97
        0
 75
     0
 76
     1
 47
0.1901250437635136
 98
        1
 10
694.3511712247239
 20
416.0925250847595
  0
LWPOLYLINE
  5
386
330
1F
100
AcDbEntity
  8
izolace
100
AcDbPolyline
 90
        4
 70
     1
 43
0.0
 10
708.6351091762156
 20
416.9093366358394
 10
684.9933764663805
 20
416.9093366358394
 10
684.9933764663805
 20
413.9093366358394
 10
708.6351091762156
 20
413.9093366358394
  0
HATCH
  5
387
330
1F
100
AcDbEntity
  8
izolace
100
AcDbHatch
 10
0.0
 20
0.0
 30
0.0
210
0.0
220
0.0
230
1.0
  2
SOLID
 70
     1
 71
     0
 91
        1
 92
        7
 72
     0
 73
     1
 93
        4
 10
755.9185745958897
 20
416.9093366358394
 10
732.2768418860545
 20
416.9093366358394
 10
732.2768418860508
 20
413.9093366358394
 10
755.9185745958897
 20
413.9093366358394
 97
        0
 75
     0
 76
     1
 47
0.1901250437635136
 98
        1
 10
741.6346366443944
 20
416.0925250847595
  0
LWPOLYLINE
  5
388
330
1F
100
AcDbEntity
  8
izolace
100
AcDbPolyline
 90
        4
 70
     1
 43
0.0
 10
755.9185745958861
 20
416.9093366358394
 10
732.2768418860508
 20
416.9093366358394
 10
732.2768418860508
 20
413.9093366358394
 10
755.9185745958861
 20
413.9093366358394
  0
INSERT
  5
389
330
1F
100
AcDbEntity
  8
POPIS
100
AcDbBlockReference
  2
E_PUNKT
 10
692.8295997253193
 20
473.8827616813952
 30
0.0
 50
270.0
  0
LINE
  5
38A
330
1F
100
AcDbEntity
  8
CETRIS
100
AcDbLine
 10
919.5520248790167
 20
468.9093366358394
 30
0.0
 11
919.5520248790167
 21
456.9093366358393
 31
0.0
  0
HATCH
  5
38B
330
1F
100
AcDbEntity
  8
izolace
100
AcDbHatch
 10
0.0
 20
0.0
 30
0.0
210
0.0
220
0.0
230
1.0
  2
SOLID
 70
     1
 71
     0
 91
        1
 92
        7
 72
     0
 73
     1
 93
        4
 10
850.4855054352304
 20
416.9093366358394
 10
826.8437727253953
 20
416.9093366358394
 10
826.8437727253916
 20
413.9093366358394
 10
850.4855054352304
 20
413.9093366358394
 97
        0
 75
     0
 76
     1
 47
0.1901250437635136
 98
        1
 10
836.2015674837351
 20
416.0925250847595
  0
LWPOLYLINE
  5
38C
330
1F
100
AcDbEntity
  8
izolace
100
AcDbPolyline
 90
        4
 70
     1
 43
0.0
 10
850.4855054352269
 20
416.9093366358394
 10
826.8437727253916
 20
416.9093366358394
 10
826.8437727253916
 20
413.9093366358394
 10
850.4855054352269
 20
413.9093366358394
  0
HATCH
  5
38D
330
1F
100
AcDbEntity
  8
izolace
100
AcDbHatch
 10
0.0
 20
0.0
 30
0.0
210
0.0
220
0.0
230
1.0
  2
SOLID
 70
     1
 71
     0
 91
        1
 92
        7
 72
     0
 73
     1
 93
        4
 10
897.7689708549009
 20
416.9093366358394
 10
874.1272381450656
 20
416.9093366358394
 10
874.127238145062
 20
413.9093366358394
 10
897.7689708549009
 20
413.9093366358394
 97
        0
 75
     0
 76
     1
 47
0.1901250437635136
 98
        1
 10
883.4850329034056
 20
416.0925250847595
  0
LWPOLYLINE
  5
38E
330
1F
100
AcDbEntity
  8
izolace
100
AcDbPolyline
 90
        4
 70
     1
 43
0.0
 10
897.7689708548973
 20
416.9093366358394
 10
874.127238145062
 20
416.9093366358394
 10
874.127238145062
 20
413.9093366358394
 10
897.7689708548973
 20
413.9093366358394
  0
HATCH
  5
38F
330
1F
100
AcDbEntity
  8
izolace
100
AcDbHatch
 10
0.0
 20
0.0
 30
0.0
210
0.0
220
0.0
230
1.0
  2
SOLID
 70
     1
 71
     0
 91
        1
 92
        7
 72
     0
 73
     1
 93
        4
 10
945.0524362745714
 20
416.9093366358394
 10
921.4107035647362
 20
416.9093366358394
 10
921.4107035647325
 20
413.9093366358394
 10
945.0524362745714
 20
413.9093366358394
 97
        0
 75
     0
 76
     1
 47
0.1901250437635136
 98
        1
 10
930.768498323076
 20
416.0925250847595
  0
LWPOLYLINE
  5
390
330
1F
100
AcDbEntity
  8
izolace
100
AcDbPolyline
 90
        4
 70
     1
 43
0.0
 10
945.0524362745678
 20
416.9093366358394
 10
921.4107035647325
 20
416.9093366358394
 10
921.4107035647325
 20
413.9093366358394
 10
945.0524362745678
 20
413.9093366358394
  0
INSERT
  5
391
330
1F
100
AcDbEntity
  8
POPIS
100
AcDbBlockReference
  2
E_PUNKT
 10
848.5288799932936
 20
439.1270191256928
 30
0.0
 50
270.0
  0
INSERT
  5
392
330
1F
100
AcDbEntity
  8
POPIS
100
AcDbBlockReference
  2
E_PUNKT
 10
895.411194807461
 20
416.9369470114662
 30
0.0
 50
270.0
  0
INSERT
  5
393
330
1F
100
AcDbEntity
  8
POPIS
100
AcDbBlockReference
  2
E_PUNKT
 10
944.4997102717465
 20
358.4846632261025
 30
0.0
 50
270.0
  0
TEXT
  5
394
330
1F
100
AcDbEntity
  8
POPIS
100
AcDbText
 10
675.9609971243884
 20
562.0521564617503
 30
0.0
 40
25.0
  1
05
 41
0.85
  7
SIMPLEX7
100
AcDbText
  0
TEXT
  5
395
330
1F
100
AcDbEntity
  8
POPIS
100
AcDbText
 10
878.54259220653
 20
562.0521564617503
 30
0.0
 40
25.0
  1
07
 41
0.85
  7
SIMPLEX7
100
AcDbText
  0
TEXT
  5
396
330
1F
100
AcDbEntity
  8
POPIS
100
AcDbText
 10
831.6602773923627
 20
562.0521564617503
 30
0.0
 40
25.0
  1
06
 41
0.85
  7
SIMPLEX7
100
AcDbText
  0
TEXT
  5
397
330
1F
100
AcDbEntity
  8
POPIS
100
AcDbText
 10
1269.696543789722
 20
490.2122140231582
 30
0.0
 40
25.0
  1
Parozábrana
 41
0.85
  7
SIMPLEX7
100
AcDbText
  0
TEXT
  5
398
330
1F
100
AcDbEntity
  8
POPIS
100
AcDbText
 10
1269.696543789722
 20
559.5016467806068
 30
0.0
 40
25.0
  1
Vrut Bűhnen 4,2x35 mm
 41
0.85
  7
SIMPLEX7
100
AcDbText
  0
TEXT
  5
399
330
1F
100
AcDbEntity
  8
POPIS
100
AcDbText
 10
1269.696543789722
 20
524.0974855624441
 30
0.0
 40
25.0
  1
Izolační deska IZOPLAT
 41
0.85
  7
SIMPLEX7
100
AcDbText
  0
TEXT
  5
39A
330
1F
100
AcDbEntity
  8
POPIS
100
AcDbText
 10
1269.696543789722
 20
453.376674020266
 30
0.0
 40
25.0
  1
Dilatační spára tl. 15 mm
 41
0.85
  7
SIMPLEX7
100
AcDbText
  0
TEXT
  5
39B
330
1F
100
AcDbEntity
  8
POPIS
100
AcDbText
 10
1269.696543789722
 20
421.6177674176375
 30
0.0
 40
25.0
  1
Stropní konstrukce
 41
0.85
  7
SIMPLEX7
100
AcDbText
  0
TEXT
  5
39C
330
1F
100
AcDbEntity
  8
POPIS
100
AcDbText
 10
1215.352840629979
 20
489.5029645116697
 30
0.0
 40
25.0
  1
07
 41
0.85
  7
SIMPLEX7
100
AcDbText
  0
LINE
  5
39D
330
1F
100
AcDbEntity
  8
SPOJOVACÍ
  6
DASHED
100
AcDbLine
 10
1045.001128780241
 20
474.320476570043
 30
0.0
 11
1045.940048228826
 21
475.5036973892839
 31
0.0
  0
LINE
  5
39E
330
1F
100
AcDbEntity
  8
SPOJOVACÍ
  6
DASHED
100
AcDbLine
 10
1044.400402648076
 20
472.9348867045338
 30
0.0
 11
1045.001128780241
 21
474.320476570043
 31
0.0
  0
LINE
  5
39F
330
1F
100
AcDbEntity
  8
SPOJOVACÍ
  6
DASHED
100
AcDbLine
 10
1044.17797901501
 20
471.4417313101732
 30
0.0
 11
1044.400402648076
 21
472.9348867045338
 31
0.0
  0
LINE
  5
3A0
330
1F
100
AcDbEntity
  8
SPOJOVACÍ
  6
DASHED
100
AcDbLine
 10
1047.853438443992
 20
477.9093366358393
 30
0.0
 11
1047.853438443992
 21
476.7334083946426
 31
0.0
  0
LINE
  5
3A1
330
1F
100
AcDbEntity
  8
SPOJOVACÍ
  6
DASHED
100
AcDbLine
 10
1037.857136822269
 20
477.9093366358393
 30
0.0
 11
1047.853438443992
 21
477.9093366358393
 31
0.0
  0
LINE
  5
3A2
330
1F
100
AcDbEntity
  8
SPOJOVACÍ
  6
DASHED
100
AcDbLine
 10
1037.857136822269
 20
477.9093366358393
 30
0.0
 11
1037.857136822269
 21
476.7334083946426
 31
0.0
  0
LINE
  5
3A3
330
1F
100
AcDbEntity
  8
SPOJOVACÍ
  6
DASHED
100
AcDbLine
 10
1037.857136822269
 20
476.7334083946426
 30
0.0
 11
1047.853438443992
 21
476.7334083946426
 31
0.0
  0
LINE
  5
3A4
330
1F
100
AcDbEntity
  8
SPOJOVACÍ
  6
DASHED
100
AcDbLine
 10
1047.152439361547
 20
476.4034192295167
 30
0.0
 11
1047.853438443992
 21
476.7334083946426
 31
0.0
  0
LINE
  5
3A5
330
1F
100
AcDbEntity
  8
SPOJOVACÍ
  6
DASHED
100
AcDbLine
 10
1045.940048228826
 20
475.5036973892839
 30
0.0
 11
1047.152439361547
 21
476.4034192295167
 31
0.0
  0
LINE
  5
3A6
330
1F
100
AcDbEntity
  8
SPOJOVACÍ
  6
DASHED
100
AcDbLine
 10
1041.467874623246
 20
472.2129214588331
 30
0.0
 11
1041.532596255529
 21
471.4417313101732
 31
0.0
  0
LINE
  5
3A7
330
1F
100
AcDbEntity
  8
SPOJOVACÍ
  6
DASHED
100
AcDbLine
 10
1041.048551376232
 20
473.6641445285423
 30
0.0
 11
1041.467874623246
 21
472.2129214588331
 31
0.0
  0
LINE
  5
3A8
330
1F
100
AcDbEntity
  8
SPOJOVACÍ
  6
DASHED
100
AcDbLine
 10
1040.268245506501
 20
474.9567540212739
 30
0.0
 11
1041.048551376232
 21
473.6641445285423
 31
0.0
  0
LINE
  5
3A9
330
1F
100
AcDbEntity
  8
SPOJOVACÍ
  6
DASHED
100
AcDbLine
 10
1039.179828204149
 20
476.0041505708978
 30
0.0
 11
1040.268245506501
 21
474.9567540212739
 31
0.0
  0
LINE
  5
3AA
330
1F
100
AcDbEntity
  8
SPOJOVACÍ
  6
DASHED
100
AcDbLine
 10
1037.857136822269
 20
476.7334083946426
 30
0.0
 11
1039.179828204149
 21
476.0041505708978
 31
0.0
  0
LINE
  5
3AB
330
1F
100
AcDbEntity
  8
SPOJOVACÍ
  6
DASHED
100
AcDbLine
 10
1044.17797901501
 20
471.4417313101732
 30
0.0
 11
1044.17797901501
 21
466.5976362148231
 31
0.0
  0
LINE
  5
3AC
330
1F
100
AcDbEntity
  8
SPOJOVACÍ
  6
DASHED
100
AcDbLine
 10
1041.532596255529
 20
471.4417313101732
 30
0.0
 11
1041.532596255529
 21
467.4845960430867
 31
0.0
  0
LINE
  5
3AD
330
1F
100
AcDbEntity
  8
SPOJOVACÍ
  6
DASHED
100
AcDbLine
 10
1041.532596255529
 20
466.9011897840938
 30
0.0
 11
1041.532596255529
 21
464.4326520501655
 31
0.0
  0
LINE
  5
3AE
330
1F
100
AcDbEntity
  8
SPOJOVACÍ
  6
DASHED
100
AcDbLine
 10
1041.532596255529
 20
463.8410416406769
 30
0.0
 11
1041.532596255529
 21
461.3706807621021
 31
0.0
  0
LINE
  5
3AF
330
1F
100
AcDbEntity
  8
SPOJOVACÍ
  6
DASHED
100
AcDbLine
 10
1041.532596255529
 20
460.7881860752969
 30
0.0
 11
1041.532596255529
 21
458.3105326186852
 31
0.0
  0
LINE
  5
3B0
330
1F
100
AcDbEntity
  8
SPOJOVACÍ
  6
DASHED
100
AcDbLine
 10
1044.17797901501
 20
466.0060258053346
 30
0.0
 11
1044.17797901501
 21
463.5374880714063
 31
0.0
  0
LINE
  5
3B1
330
1F
100
AcDbEntity
  8
SPOJOVACÍ
  6
DASHED
100
AcDbLine
 10
1044.17797901501
 20
462.9531702399545
 30
0.0
 11
1044.17797901501
 21
460.4755167833428
 31
0.0
  0
LINE
  5
3B2
330
1F
100
AcDbEntity
  8
SPOJOVACÍ
  6
DASHED
100
AcDbLine
 10
1044.17797901501
 20
459.8930220965377
 30
0.0
 11
1044.17797901501
 21
457.4226612179628
 31
0.0
  0
LINE
  5
3B3
330
1F
100
AcDbEntity
  8
SPOJOVACÍ
  6
DASHED
100
AcDbLine
 10
1041.532596255529
 20
457.7180106367451
 30
0.0
 11
1041.532596255529
 21
455.2503844750045
 31
0.0
  0
LINE
  5
3B4
330
1F
100
AcDbEntity
  8
SPOJOVACÍ
  6
DASHED
100
AcDbLine
 10
1041.532596255529
 20
454.6660666435529
 30
0.0
 11
1041.532596255529
 21
453.4436482165021
 31
0.0
  0
LINE
  5
3B5
330
1F
100
AcDbEntity
  8
SPOJOVACÍ
  6
DASHED
100
AcDbLine
 10
1044.17797901501
 20
456.8337855253085
 30
0.0
 11
1044.17797901501
 21
454.3652477913802
 31
0.0
  0
LINE
  5
3B6
330
1F
100
AcDbEntity
  8
SPOJOVACÍ
  6
DASHED
100
AcDbLine
 10
1044.17797901501
 20
453.7736373816279
 30
0.0
 11
1044.17797901501
 21
453.4436482165021
 31
0.0
  0
LINE
  5
3B7
330
1F
100
AcDbEntity
  8
SPOJOVACÍ
  6
DASHED
100
AcDbLine
 10
1041.532596255529
 20
453.4436482165021
 30
0.0
 11
1041.679359392198
 21
452.2704546921324
 31
0.0
  0
LINE
  5
3B8
330
1F
100
AcDbEntity
  8
SPOJOVACÍ
  6
DASHED
100
AcDbLine
 10
1042.85528763313
 20
442.8593824748478
 30
0.0
 11
1043.202596674637
 21
445.6387663560909
 31
0.0
  0
LINE
  5
3B9
330
1F
100
AcDbEntity
  8
SPOJOVACÍ
  6
DASHED
100
AcDbLine
 10
1041.755019892873
 20
451.662435981396
 30
0.0
 11
1042.039430445402
 21
449.3871515710526
 31
0.0
  0
LINE
  5
3BA
330
1F
100
AcDbEntity
  8
SPOJOVACÍ
  6
DASHED
100
AcDbLine
 10
1042.116914089384
 20
448.7691055651813
 30
0.0
 11
1042.401324637634
 21
446.494732727033
 31
0.0
  0
LINE
  5
3BB
330
1F
100
AcDbEntity
  8
SPOJOVACÍ
  6
DASHED
100
AcDbLine
 10
1042.47698513831
 20
445.8867140162966
 30
0.0
 11
1042.85528763313
 21
442.8593824748478
 31
0.0
  0
LINE
  5
3BC
330
1F
100
AcDbEntity
  8
SPOJOVACÍ
  6
DASHED
100
AcDbLine
 10
1043.272787741116
 20
446.1966485914164
 30
0.0
 11
1043.535320556861
 21
448.2987342687011
 31
0.0
  0
LINE
  5
3BD
330
1F
100
AcDbEntity
  8
SPOJOVACÍ
  6
DASHED
100
AcDbLine
 10
1043.605511619062
 20
448.8593512208609
 30
0.0
 11
1043.867132865293
 21
450.9532327476573
 31
0.0
  0
LINE
  5
3BE
330
1F
100
AcDbEntity
  8
SPOJOVACÍ
  6
DASHED
100
AcDbLine
 10
1043.937323931772
 20
451.5120265554416
 30
0.0
 11
1044.17797901501
 21
453.4436482165021
 31
0.0
  0
LINE
  5
3BF
330
1F
100
AcDbEntity
  8
SPOJOVACÍ
  6
DASHED
100
AcDbLine
 10
1040.503431151264
 20
467.3250708941851
 30
0.0
 11
1045.207144114997
 21
466.1491426532522
 31
0.0
  0
LINE
  5
3C0
330
1F
100
AcDbEntity
  8
SPOJOVACÍ
  6
DASHED
100
AcDbLine
 10
1040.503431151264
 20
467.3250708941851
 30
0.0
 11
1040.873529499069
 21
467.1117629808578
 31
0.0
  0
LINE
  5
3C1
330
1F
100
AcDbEntity
  8
SPOJOVACÍ
  6
DASHED
100
AcDbLine
 10
1040.503431151264
 20
467.3250708941851
 30
0.0
 11
1040.873529499069
 21
467.6960808120385
 31
0.0
  0
LINE
  5
3C2
330
1F
100
AcDbEntity
  8
SPOJOVACÍ
  6
DASHED
100
AcDbLine
 10
1045.207144114997
 20
466.1491426532522
 30
0.0
 11
1044.83704577147
 21
465.7790443075866
 31
0.0
  0
LINE
  5
3C3
330
1F
100
AcDbEntity
  8
SPOJOVACÍ
  6
DASHED
100
AcDbLine
 10
1045.207144114997
 20
466.1491426532522
 30
0.0
 11
1044.83704577147
 21
466.3633621390382
 31
0.0
  0
LINE
  5
3C4
330
1F
100
AcDbEntity
  8
SPOJOVACÍ
  6
DASHED
100
AcDbLine
 10
1040.873529499069
 20
467.1117629808578
 30
0.0
 11
1044.83704577147
 21
465.7790443075866
 31
0.0
  0
LINE
  5
3C5
330
1F
100
AcDbEntity
  8
SPOJOVACÍ
  6
DASHED
100
AcDbLine
 10
1040.873529499069
 20
467.6960808120385
 30
0.0
 11
1044.83704577147
 21
466.3633621390382
 31
0.0
  0
LINE
  5
3C6
330
1F
100
AcDbEntity
  8
SPOJOVACÍ
  6
DASHED
100
AcDbLine
 10
1040.503431151264
 20
464.2676574676025
 30
0.0
 11
1045.207144114997
 21
463.0917292263985
 31
0.0
  0
LINE
  5
3C7
330
1F
100
AcDbEntity
  8
SPOJOVACÍ
  6
DASHED
100
AcDbLine
 10
1040.503431151264
 20
464.2676574676025
 30
0.0
 11
1040.873529499069
 21
464.0534379818165
 31
0.0
  0
LINE
  5
3C8
330
1F
100
AcDbEntity
  8
SPOJOVACÍ
  6
DASHED
100
AcDbLine
 10
1040.503431151264
 20
464.2676574676025
 30
0.0
 11
1040.873529499069
 21
464.6377558132682
 31
0.0
  0
LINE
  5
3C9
330
1F
100
AcDbEntity
  8
SPOJOVACÍ
  6
DASHED
100
AcDbLine
 10
1045.207144114997
 20
463.0917292263985
 30
0.0
 11
1044.83704577147
 21
462.721630881004
 31
0.0
  0
LINE
  5
3CA
330
1F
100
AcDbEntity
  8
SPOJOVACÍ
  6
DASHED
100
AcDbLine
 10
1045.207144114997
 20
463.0917292263985
 30
0.0
 11
1044.83704577147
 21
463.3059487121847
 31
0.0
  0
LINE
  5
3CB
330
1F
100
AcDbEntity
  8
SPOJOVACÍ
  6
DASHED
100
AcDbLine
 10
1040.873529499069
 20
464.0534379818165
 30
0.0
 11
1044.83704577147
 21
462.721630881004
 31
0.0
  0
LINE
  5
3CC
330
1F
100
AcDbEntity
  8
SPOJOVACÍ
  6
DASHED
100
AcDbLine
 10
1040.873529499069
 20
464.6377558132682
 30
0.0
 11
1044.83704577147
 21
463.3059487121847
 31
0.0
  0
LINE
  5
3CD
330
1F
100
AcDbEntity
  8
SPOJOVACÍ
  6
DASHED
100
AcDbLine
 10
1040.752290385797
 20
452.0790245134504
 30
0.0
 11
1041.123300303116
 21
451.8648050276643
 31
0.0
  0
LINE
  5
3CE
330
1F
100
AcDbEntity
  8
SPOJOVACÍ
  6
DASHED
100
AcDbLine
 10
1040.752290385797
 20
452.0790245134504
 30
0.0
 11
1041.123300303116
 21
452.449122859116
 31
0.0
  0
LINE
  5
3CF
330
1F
100
AcDbEntity
  8
SPOJOVACÍ
  6
DASHED
100
AcDbLine
 10
1044.795113445485
 20
451.1255199087919
 30
0.0
 11
1044.425015101959
 21
450.7545099906675
 31
0.0
  0
LINE
  5
3D0
330
1F
100
AcDbEntity
  8
SPOJOVACÍ
  6
DASHED
100
AcDbLine
 10
1044.795113445485
 20
451.1255199087919
 30
0.0
 11
1044.425015101959
 21
451.3388278221192
 31
0.0
  0
LINE
  5
3D1
330
1F
100
AcDbEntity
  8
SPOJOVACÍ
  6
DASHED
100
AcDbLine
 10
1041.123300303116
 20
451.8648050276643
 30
0.0
 11
1044.425015101959
 21
450.7545099906675
 31
0.0
  0
LINE
  5
3D2
330
1F
100
AcDbEntity
  8
SPOJOVACÍ
  6
DASHED
100
AcDbLine
 10
1041.123300303116
 20
452.449122859116
 30
0.0
 11
1044.425015101959
 21
451.3388278221192
 31
0.0
  0
LINE
  5
3D3
330
1F
100
AcDbEntity
  8
SPOJOVACÍ
  6
DASHED
100
AcDbLine
 10
1040.752290385797
 20
452.0790245134504
 30
0.0
 11
1044.795113445485
 21
451.1255199087919
 31
0.0
  0
LINE
  5
3D4
330
1F
100
AcDbEntity
  8
SPOJOVACÍ
  6
DASHED
100
AcDbLine
 10
1041.305614757781
 20
449.1246187542384
 30
0.0
 11
1041.675713105586
 21
448.9113108409111
 31
0.0
  0
LINE
  5
3D5
330
1F
100
AcDbEntity
  8
SPOJOVACÍ
  6
DASHED
100
AcDbLine
 10
1041.305614757781
 20
449.1246187542384
 30
0.0
 11
1041.675713105586
 21
449.4956286723628
 31
0.0
  0
LINE
  5
3D6
330
1F
100
AcDbEntity
  8
SPOJOVACÍ
  6
DASHED
100
AcDbLine
 10
1044.359381895883
 20
448.5038380318038
 30
0.0
 11
1043.989283552357
 21
448.1328281139504
 31
0.0
  0
LINE
  5
3D7
330
1F
100
AcDbEntity
  8
SPOJOVACÍ
  6
DASHED
100
AcDbLine
 10
1044.359381895883
 20
448.5038380318038
 30
0.0
 11
1043.989283552357
 21
448.7171459451311
 31
0.0
  0
LINE
  5
3D8
330
1F
100
AcDbEntity
  8
SPOJOVACÍ
  6
DASHED
100
AcDbLine
 10
1041.675713105586
 20
448.9113108409111
 30
0.0
 11
1043.989283552357
 21
448.1328281139504
 31
0.0
  0
LINE
  5
3D9
330
1F
100
AcDbEntity
  8
SPOJOVACÍ
  6
DASHED
100
AcDbLine
 10
1041.675713105586
 20
449.4956286723628
 30
0.0
 11
1043.989283552357
 21
448.7171459451311
 31
0.0
  0
LINE
  5
3DA
330
1F
100
AcDbEntity
  8
SPOJOVACÍ
  6
DASHED
100
AcDbLine
 10
1041.305614757781
 20
449.1246187542384
 30
0.0
 11
1044.359381895883
 21
448.5038380318038
 31
0.0
  0
LINE
  5
3DB
330
1F
100
AcDbEntity
  8
SPOJOVACÍ
  6
DASHED
100
AcDbLine
 10
1041.858939134043
 20
446.1711245674852
 30
0.0
 11
1042.22903747757
 21
445.9569050817064
 31
0.0
  0
LINE
  5
3DC
330
1F
100
AcDbEntity
  8
SPOJOVACÍ
  6
DASHED
100
AcDbLine
 10
1041.858939134043
 20
446.1711245674852
 30
0.0
 11
1042.22903747757
 21
446.5412229131508
 31
0.0
  0
LINE
  5
3DD
330
1F
100
AcDbEntity
  8
SPOJOVACÍ
  6
DASHED
100
AcDbLine
 10
1043.970140532671
 20
445.8666594260267
 30
0.0
 11
1043.600042189144
 21
445.4956495081733
 31
0.0
  0
LINE
  5
3DE
330
1F
100
AcDbEntity
  8
SPOJOVACÍ
  6
DASHED
100
AcDbLine
 10
1043.970140532671
 20
445.8666594260267
 30
0.0
 11
1043.600042189144
 21
446.0799673396178
 31
0.0
  0
LINE
  5
3DF
330
1F
100
AcDbEntity
  8
SPOJOVACÍ
  6
DASHED
100
AcDbLine
 10
1042.22903747757
 20
445.9569050817064
 30
0.0
 11
1043.600042189144
 21
445.4956495081733
 31
0.0
  0
LINE
  5
3E0
330
1F
100
AcDbEntity
  8
SPOJOVACÍ
  6
DASHED
100
AcDbLine
 10
1042.22903747757
 20
446.5412229131508
 30
0.0
 11
1043.600042189144
 21
446.0799673396178
 31
0.0
  0
LINE
  5
3E1
330
1F
100
AcDbEntity
  8
SPOJOVACÍ
  6
DASHED
100
AcDbLine
 10
1041.858939134043
 20
446.1711245674852
 30
0.0
 11
1043.970140532671
 21
445.8666594260267
 31
0.0
  0
LINE
  5
3E2
330
1F
100
AcDbEntity
  8
SPOJOVACÍ
  6
DASHED
100
AcDbLine
 10
1040.503431151264
 20
461.210244040749
 30
0.0
 11
1045.207144114997
 21
460.0343157998159
 31
0.0
  0
LINE
  5
3E3
330
1F
100
AcDbEntity
  8
SPOJOVACÍ
  6
DASHED
100
AcDbLine
 10
1040.503431151264
 20
461.210244040749
 30
0.0
 11
1040.873529499069
 21
460.9960245549628
 31
0.0
  0
LINE
  5
3E4
330
1F
100
AcDbEntity
  8
SPOJOVACÍ
  6
DASHED
100
AcDbLine
 10
1040.503431151264
 20
461.210244040749
 30
0.0
 11
1040.873529499069
 21
461.5803423864146
 31
0.0
  0
LINE
  5
3E5
330
1F
100
AcDbEntity
  8
SPOJOVACÍ
  6
DASHED
100
AcDbLine
 10
1045.207144114997
 20
460.0343157998159
 30
0.0
 11
1044.83704577147
 21
459.6633058819626
 31
0.0
  0
LINE
  5
3E6
330
1F
100
AcDbEntity
  8
SPOJOVACÍ
  6
DASHED
100
AcDbLine
 10
1045.207144114997
 20
460.0343157998159
 30
0.0
 11
1044.83704577147
 21
460.247623713407
 31
0.0
  0
LINE
  5
3E7
330
1F
100
AcDbEntity
  8
SPOJOVACÍ
  6
DASHED
100
AcDbLine
 10
1040.873529499069
 20
460.9960245549628
 30
0.0
 11
1044.83704577147
 21
459.6633058819626
 31
0.0
  0
LINE
  5
3E8
330
1F
100
AcDbEntity
  8
SPOJOVACÍ
  6
DASHED
100
AcDbLine
 10
1040.873529499069
 20
461.5803423864146
 30
0.0
 11
1044.83704577147
 21
460.247623713407
 31
0.0
  0
LINE
  5
3E9
330
1F
100
AcDbEntity
  8
SPOJOVACÍ
  6
DASHED
100
AcDbLine
 10
1040.503431151264
 20
458.1528306141591
 30
0.0
 11
1045.207144114997
 21
456.9769023732261
 31
0.0
  0
LINE
  5
3EA
330
1F
100
AcDbEntity
  8
SPOJOVACÍ
  6
DASHED
100
AcDbLine
 10
1040.503431151264
 20
458.1528306141591
 30
0.0
 11
1040.873529499069
 21
457.9386111283803
 31
0.0
  0
LINE
  5
3EB
330
1F
100
AcDbEntity
  8
SPOJOVACÍ
  6
DASHED
100
AcDbLine
 10
1040.503431151264
 20
458.1528306141591
 30
0.0
 11
1040.873529499069
 21
458.5229289598247
 31
0.0
  0
LINE
  5
3EC
330
1F
100
AcDbEntity
  8
SPOJOVACÍ
  6
DASHED
100
AcDbLine
 10
1045.207144114997
 20
456.9769023732261
 30
0.0
 11
1044.83704577147
 21
456.6058924553727
 31
0.0
  0
LINE
  5
3ED
330
1F
100
AcDbEntity
  8
SPOJOVACÍ
  6
DASHED
100
AcDbLine
 10
1045.207144114997
 20
456.9769023732261
 30
0.0
 11
1044.83704577147
 21
457.1902102865534
 31
0.0
  0
LINE
  5
3EE
330
1F
100
AcDbEntity
  8
SPOJOVACÍ
  6
DASHED
100
AcDbLine
 10
1040.873529499069
 20
457.9386111283803
 30
0.0
 11
1044.83704577147
 21
456.6058924553727
 31
0.0
  0
LINE
  5
3EF
330
1F
100
AcDbEntity
  8
SPOJOVACÍ
  6
DASHED
100
AcDbLine
 10
1040.873529499069
 20
458.5229289598247
 30
0.0
 11
1044.83704577147
 21
457.1902102865534
 31
0.0
  0
LINE
  5
3F0
330
1F
100
AcDbEntity
  8
SPOJOVACÍ
  6
DASHED
100
AcDbLine
 10
1040.503431151264
 20
455.0945056151177
 30
0.0
 11
1045.207144114997
 21
453.9185773741848
 31
0.0
  0
LINE
  5
3F1
330
1F
100
AcDbEntity
  8
SPOJOVACÍ
  6
DASHED
100
AcDbLine
 10
1040.503431151264
 20
455.0945056151177
 30
0.0
 11
1040.873529499069
 21
454.8811977017904
 31
0.0
  0
LINE
  5
3F2
330
1F
100
AcDbEntity
  8
SPOJOVACÍ
  6
DASHED
100
AcDbLine
 10
1040.503431151264
 20
455.0945056151177
 30
0.0
 11
1040.873529499069
 21
455.4655155332421
 31
0.0
  0
LINE
  5
3F3
330
1F
100
AcDbEntity
  8
SPOJOVACÍ
  6
DASHED
100
AcDbLine
 10
1045.207144114997
 20
453.9185773741848
 30
0.0
 11
1044.83704577147
 21
453.5484790285192
 31
0.0
  0
LINE
  5
3F4
330
1F
100
AcDbEntity
  8
SPOJOVACÍ
  6
DASHED
100
AcDbLine
 10
1045.207144114997
 20
453.9185773741848
 30
0.0
 11
1044.83704577147
 21
454.1327968599708
 31
0.0
  0
LINE
  5
3F5
330
1F
100
AcDbEntity
  8
SPOJOVACÍ
  6
DASHED
100
AcDbLine
 10
1040.873529499069
 20
454.8811977017904
 30
0.0
 11
1044.83704577147
 21
453.5484790285192
 31
0.0
  0
LINE
  5
3F6
330
1F
100
AcDbEntity
  8
SPOJOVACÍ
  6
DASHED
100
AcDbLine
 10
1040.873529499069
 20
455.4655155332421
 30
0.0
 11
1044.83704577147
 21
454.1327968599708
 31
0.0
  0
HATCH
  5
3F7
330
1F
100
AcDbEntity
  8
izolace
100
AcDbHatch
 10
0.0
 20
0.0
 30
0.0
210
0.0
220
0.0
230
1.0
  2
SOLID
 70
     1
 71
     0
 91
        1
 92
        7
 72
     0
 73
     1
 93
        4
 10
992.3359016942418
 20
416.9093366358394
 10
968.6941689844065
 20
416.9093366358394
 10
968.6941689844029
 20
413.9093366358394
 10
992.3359016942418
 20
413.9093366358394
 97
        0
 75
     0
 76
     1
 47
0.1901250437635136
 98
        1
 10
978.0519637427465
 20
416.0925250847595
  0
LWPOLYLINE
  5
3F8
330
1F
100
AcDbEntity
  8
izolace
100
AcDbPolyline
 90
        4
 70
     1
 43
0.0
 10
992.3359016942381
 20
416.9093366358394
 10
968.6941689844029
 20
416.9093366358394
 10
968.6941689844029
 20
413.9093366358394
 10
992.3359016942381
 20
413.9093366358394
  0
HATCH
  5
3F9
330
1F
100
AcDbEntity
  8
izolace
100
AcDbHatch
 10
0.0
 20
0.0
 30
0.0
210
0.0
220
0.0
230
1.0
  2
SOLID
 70
     1
 71
     0
 91
        1
 92
        7
 72
     0
 73
     1
 93
        4
 10
1039.619367113912
 20
416.9093366358394
 10
1015.977634404076
 20
416.9093366358394
 10
1015.977634404073
 20
413.9093366358394
 10
1039.619367113912
 20
413.9093366358394
 97
        0
 75
     0
 76
     1
 47
0.1901250437635136
 98
        1
 10
1025.335429162416
 20
416.0925250847595
  0
LWPOLYLINE
  5
3FA
330
1F
100
AcDbEntity
  8
izolace
100
AcDbPolyline
 90
        4
 70
     1
 43
0.0
 10
1039.619367113908
 20
416.9093366358394
 10
1015.977634404073
 20
416.9093366358394
 10
1015.977634404073
 20
413.9093366358394
 10
1039.619367113908
 20
413.9093366358394
  0
HATCH
  5
3FB
330
1F
100
AcDbEntity
  8
izolace
100
AcDbHatch
 10
0.0
 20
0.0
 30
0.0
210
0.0
220
0.0
230
1.0
  2
SOLID
 70
     1
 71
     0
 91
        1
 92
        7
 72
     0
 73
     1
 93
        4
 10
1086.902832533582
 20
416.9093366358394
 10
1063.261099823747
 20
416.9093366358394
 10
1063.261099823743
 20
413.9093366358394
 10
1086.902832533582
 20
413.9093366358394
 97
        0
 75
     0
 76
     1
 47
0.1901250437635136
 98
        1
 10
1072.618894582087
 20
416.0925250847595
  0
LWPOLYLINE
  5
3FC
330
1F
100
AcDbEntity
  8
izolace
100
AcDbPolyline
 90
        4
 70
     1
 43
0.0
 10
1086.902832533579
 20
416.9093366358394
 10
1063.261099823743
 20
416.9093366358394
 10
1063.261099823743
 20
413.9093366358394
 10
1086.902832533579
 20
413.9093366358394
  0
TEXT
  5
3FD
330
1F
100
AcDbEntity
  8
POPIS
100
AcDbText
 10
1216.235611630013
 20
453.6911350294263
 30
0.0
 40
25.0
  1
08
 41
0.85
  7
SIMPLEX7
100
AcDbText
  0
TEXT
  5
3FE
330
1F
100
AcDbEntity
  8
POPIS
100
AcDbText
 10
1216.235611630013
 20
421.9322284267978
 30
0.0
 40
25.0
  1
09
 41
0.85
  7
SIMPLEX7
100
AcDbText
  0
TEXT
  5
3FF
330
1F
100
AcDbEntity
  8
POPIS
100
AcDbText
 10
1215.352840629979
 20
560.5918970537601
 30
0.0
 40
25.0
  1
05
 41
0.85
  7
SIMPLEX7
100
AcDbText
  0
TEXT
  5
400
330
1F
100
AcDbEntity
  8
POPIS
100
AcDbText
 10
1215.352840629979
 20
629.8813298112087
 30
0.0
 40
25.0
  1
03
 41
0.85
  7
SIMPLEX7
100
AcDbText
  0
TEXT
  5
401
330
1F
100
AcDbEntity
  8
POPIS
100
AcDbText
 10
1215.352840629979
 20
594.477168593046
 30
0.0
 40
25.0
  1
04
 41
0.85
  7
SIMPLEX7
100
AcDbText
  0
TEXT
  5
402
330
1F
100
AcDbEntity
  8
POPIS
100
AcDbText
 10
1215.352840629979
 20
523.7563570508679
 30
0.0
 40
25.0
  1
06
 41
0.85
  7
SIMPLEX7
100
AcDbText
  0
CIRCLE
  5
403
330
1F
100
AcDbEntity
  8
POPIS
100
AcDbCircle
 10
1481.193340173036
 20
616.4014076631134
 30
0.0
 40
11.13656048292026
  0
TEXT
  5
404
330
1F
100
AcDbEntity
  8
POPIS
100
AcDbText
 10
1476.434311117854
 20
610.8560619181258
 30
0.0
 40
12.0
  1
R
 41
0.85
  7
SIMPLEX7
100
AcDbText
  0
TEXT
  5
405
330
1F
100
AcDbEntity
  8
POPIS
100
AcDbText
 10
1269.696543789722
 20
704.3604264644232
 30
0.0
 40
25.0
  1
Rohová lišta
 41
0.85
  7
SIMPLEX7
100
AcDbText
  0
TEXT
  5
406
330
1F
100
AcDbEntity
  8
POPIS
100
AcDbText
 10
1215.352840629979
 20
704.3604264644232
 30
0.0
 40
25.0
  1
01
 41
0.85
  7
SIMPLEX7
100
AcDbText
  0
LINE
  5
411
330
1F
100
AcDbEntity
  8
STAVBA OBRYS
100
AcDbLine
 10
400.4754665007388
 20
413.9093366358394
 30
0.0
 11
152.2119881198652
 21
413.9093366358379
 31
0.0
  0
ENDSEC
  0
SECTION
  2
OBJECTS
  0
DICTIONARY
  5
C
330
0
100
AcDbDictionary
281
     1
  3
ACAD_GROUP
350
D
  3
ACAD_LAYOUT
350
1A
  3
ACAD_MLINESTYLE
350
17
  3
ACAD_PLOTSETTINGS
350
19
  3
ACAD_PLOTSTYLENAME
350
E
  0
DICTIONARY
  5
D
102
{ACAD_REACTORS
330
C
102
}
330
C
100
AcDbDictionary
281
     1
  0
DICTIONARY
  5
1A
102
{ACAD_REACTORS
330
C
102
}
330
C
100
AcDbDictionary
281
     1
  3
Model
350
22
  3
Rozvržení1
350
1E
  3
Rozvržení2
350
26
  0
DICTIONARY
  5
17
102
{ACAD_REACTORS
330
C
102
}
330
C
100
AcDbDictionary
281
     1
  3
Standard
350
18
  0
DICTIONARY
  5
19
102
{ACAD_REACTORS
330
C
102
}
330
C
100
AcDbDictionary
281
     1
  0
ACDBDICTIONARYWDFLT
  5
E
102
{ACAD_REACTORS
330
C
102
}
330
C
100
AcDbDictionary
281
     1
  3
Normal
350
F
100
AcDbDictionaryWithDefault
340
F
  0
LAYOUT
  5
22
102
{ACAD_REACTORS
330
1A
102
}
330
1A
100
AcDbPlotSettings
  1

  2
HP DeskJet 690C
  4

  6

 40
0.0
 41
0.0
 42
0.0
 43
0.0
 44
0.0
 45
0.0
 46
0.0
 47
0.0
 48
0.0
 49
0.0
140
0.0
141
0.0
142
1.0
143
1.0
 70
  1712
 72
     0
 73
     0
 74
     0
  7
monochrome.ctb
 75
     0
147
1.0
148
0.0
149
0.0
100
AcDbLayout
  1
Model
 70
     1
 71
     0
 10
0.0
 20
0.0
 11
12.0
 21
9.0
 12
0.0
 22
0.0
 32
0.0
 14
0.0
 24
0.0
 34
0.0
 15
0.0
 25
0.0
 35
0.0
146
0.0
 13
0.0
 23
0.0
 33
0.0
 16
1.0
 26
0.0
 36
0.0
 17
0.0
 27
1.0
 37
0.0
 76
     0
330
1F
  0
LAYOUT
  5
1E
102
{ACAD_REACTORS
330
1A
102
}
330
1A
100
AcDbPlotSettings
  1

  2
HP DeskJet 690C
  4

  6

 40
0.0
 41
0.0
 42
0.0
 43
0.0
 44
0.0
 45
0.0
 46
0.0
 47
0.0
 48
0.0
 49
0.0
140
0.0
141
0.0
142
1.0
143
1.0
 70
   688
 72
     0
 73
     0
 74
     5
  7
monochrome.ctb
 75
    16
147
1.0
148
0.0
149
0.0
100
AcDbLayout
  1
Rozvržení1
 70
     1
 71
     1
 10
0.0
 20
0.0
 11
420.0
 21
297.0
 12
0.0
 22
0.0
 32
0.0
 14
1.000000000000000E+20
 24
1.000000000000000E+20
 34
1.000000000000000E+20
 15
-1.000000000000000E+20
 25
-1.000000000000000E+20
 35
-1.000000000000000E+20
146
0.0
 13
0.0
 23
0.0
 33
0.0
 16
1.0
 26
0.0
 36
0.0
 17
0.0
 27
1.0
 37
0.0
 76
     0
330
1B
  0
LAYOUT
  5
26
102
{ACAD_REACTORS
330
1A
102
}
330
1A
100
AcDbPlotSettings
  1

  2
HP DeskJet 690C
  4

  6

 40
0.0
 41
0.0
 42
0.0
 43
0.0
 44
0.0
 45
0.0
 46
0.0
 47
0.0
 48
0.0
 49
0.0
140
0.0
141
0.0
142
1.0
143
1.0
 70
   688
 72
     0
 73
     0
 74
     5
  7
monochrome.ctb
 75
    16
147
1.0
148
0.0
149
0.0
100
AcDbLayout
  1
Rozvržení2
 70
     1
 71
     2
 10
0.0
 20
0.0
 11
12.0
 21
9.0
 12
0.0
 22
0.0
 32
0.0
 14
0.0
 24
0.0
 34
0.0
 15
0.0
 25
0.0
 35
0.0
146
0.0
 13
0.0
 23
0.0
 33
0.0
 16
1.0
 26
0.0
 36
0.0
 17
0.0
 27
1.0
 37
0.0
 76
     0
330
23
  0
MLINESTYLE
  5
18
102
{ACAD_REACTORS
330
17
102
}
330
17
100
AcDbMlineStyle
  2
STANDARD
 70
     0
  3

 62
   256
 51
90.0
 52
90.0
 71
     2
 49
0.5
 62
   256
  6
BYLAYER
 49
-0.5
 62
   256
  6
BYLAYER
  0
ACDBPLACEHOLDER
  5
F
102
{ACAD_REACTORS
330
E
102
}
330
E
  0
ENDSEC
  0
EOF
