  0
SECTION
  2
HEADER
  9
$ACADVER
  1
AC1015
  9
$ACADMAINTVER
 70
    10
  9
$DWGCODEPAGE
  3
ANSI_1250
  9
$INSBASE
 10
0.0
 20
0.0
 30
0.0
  9
$EXTMIN
 10
-112.1379293669116
 20
-103.639362482954
 30
0.0
  9
$EXTMAX
 10
1232.893609924639
 20
461.6019700275585
 30
0.0
  9
$LIMMIN
 10
0.0
 20
0.0
  9
$LIMMAX
 10
420.0
 20
297.0
  9
$ORTHOMODE
 70
     0
  9
$REGENMODE
 70
     1
  9
$FILLMODE
 70
     1
  9
$QTEXTMODE
 70
     0
  9
$MIRRTEXT
 70
     1
  9
$LTSCALE
 40
1.0
  9
$ATTMODE
 70
     1
  9
$TEXTSIZE
 40
2.5
  9
$TRACEWID
 40
1.0
  9
$TEXTSTYLE
  7
Standard
  9
$CLAYER
  8
0
  9
$CELTYPE
  6
ByLayer
  9
$CECOLOR
 62
   256
  9
$CELTSCALE
 40
1.0
  9
$DISPSILH
 70
     0
  9
$DIMSCALE
 40
1.0
  9
$DIMASZ
 40
2.5
  9
$DIMEXO
 40
0.625
  9
$DIMDLI
 40
3.75
  9
$DIMRND
 40
0.0
  9
$DIMDLE
 40
0.0
  9
$DIMEXE
 40
1.25
  9
$DIMTP
 40
0.0
  9
$DIMTM
 40
0.0
  9
$DIMTXT
 40
2.5
  9
$DIMCEN
 40
2.5
  9
$DIMTSZ
 40
0.0
  9
$DIMTOL
 70
     0
  9
$DIMLIM
 70
     0
  9
$DIMTIH
 70
     0
  9
$DIMTOH
 70
     0
  9
$DIMSE1
 70
     0
  9
$DIMSE2
 70
     0
  9
$DIMTAD
 70
     1
  9
$DIMZIN
 70
     8
  9
$DIMBLK
  1

  9
$DIMASO
 70
     1
  9
$DIMSHO
 70
     1
  9
$DIMPOST
  1

  9
$DIMAPOST
  1

  9
$DIMALT
 70
     0
  9
$DIMALTD
 70
     3
  9
$DIMALTF
 40
0.03937007874016
  9
$DIMLFAC
 40
1.0
  9
$DIMTOFL
 70
     1
  9
$DIMTVP
 40
0.0
  9
$DIMTIX
 70
     0
  9
$DIMSOXD
 70
     0
  9
$DIMSAH
 70
     0
  9
$DIMBLK1
  1

  9
$DIMBLK2
  1

  9
$DIMSTYLE
  2
ISO-25
  9
$DIMCLRD
 70
     0
  9
$DIMCLRE
 70
     0
  9
$DIMCLRT
 70
     0
  9
$DIMTFAC
 40
1.0
  9
$DIMGAP
 40
0.625
  9
$DIMJUST
 70
     0
  9
$DIMSD1
 70
     0
  9
$DIMSD2
 70
     0
  9
$DIMTOLJ
 70
     0
  9
$DIMTZIN
 70
     8
  9
$DIMALTZ
 70
     0
  9
$DIMALTTZ
 70
     0
  9
$DIMUPT
 70
     0
  9
$DIMDEC
 70
     2
  9
$DIMTDEC
 70
     2
  9
$DIMALTU
 70
     2
  9
$DIMALTTD
 70
     3
  9
$DIMTXSTY
  7
Standard
  9
$DIMAUNIT
 70
     0
  9
$DIMADEC
 70
     0
  9
$DIMALTRND
 40
0.0
  9
$DIMAZIN
 70
     0
  9
$DIMDSEP
 70
    44
  9
$DIMATFIT
 70
     3
  9
$DIMFRAC
 70
     0
  9
$DIMLDRBLK
  1

  9
$DIMLUNIT
 70
     2
  9
$DIMLWD
 70
    -2
  9
$DIMLWE
 70
    -2
  9
$DIMTMOVE
 70
     0
  9
$LUNITS
 70
     2
  9
$LUPREC
 70
     4
  9
$SKETCHINC
 40
1.0
  9
$FILLETRAD
 40
10.0
  9
$AUNITS
 70
     0
  9
$AUPREC
 70
     0
  9
$MENU
  1
.
  9
$ELEVATION
 40
0.0
  9
$PELEVATION
 40
0.0
  9
$THICKNESS
 40
0.0
  9
$LIMCHECK
 70
     0
  9
$CHAMFERA
 40
10.0
  9
$CHAMFERB
 40
10.0
  9
$CHAMFERC
 40
20.0
  9
$CHAMFERD
 40
0.0
  9
$SKPOLY
 70
     0
  9
$TDCREATE
 40
2452333.440837384
  9
$TDUCREATE
 40
2452333.399170718
  9
$TDUPDATE
 40
2452653.356546574
  9
$TDUUPDATE
 40
2452653.314879907
  9
$TDINDWG
 40
0.0055407523
  9
$TDUSRTIMER
 40
0.0055394792
  9
$USRTIMER
 70
     1
  9
$ANGBASE
 50
0.0
  9
$ANGDIR
 70
     0
  9
$PDMODE
 70
     0
  9
$PDSIZE
 40
0.0
  9
$PLINEWID
 40
0.0
  9
$SPLFRAME
 70
     0
  9
$SPLINETYPE
 70
     6
  9
$SPLINESEGS
 70
     8
  9
$HANDSEED
  5
3B23
  9
$SURFTAB1
 70
     6
  9
$SURFTAB2
 70
     6
  9
$SURFTYPE
 70
     6
  9
$SURFU
 70
     6
  9
$SURFV
 70
     6
  9
$UCSBASE
  2

  9
$UCSNAME
  2

  9
$UCSORG
 10
0.0
 20
0.0
 30
0.0
  9
$UCSXDIR
 10
1.0
 20
0.0
 30
0.0
  9
$UCSYDIR
 10
0.0
 20
1.0
 30
0.0
  9
$UCSORTHOREF
  2

  9
$UCSORTHOVIEW
 70
     0
  9
$UCSORGTOP
 10
0.0
 20
0.0
 30
0.0
  9
$UCSORGBOTTOM
 10
0.0
 20
0.0
 30
0.0
  9
$UCSORGLEFT
 10
0.0
 20
0.0
 30
0.0
  9
$UCSORGRIGHT
 10
0.0
 20
0.0
 30
0.0
  9
$UCSORGFRONT
 10
0.0
 20
0.0
 30
0.0
  9
$UCSORGBACK
 10
0.0
 20
0.0
 30
0.0
  9
$PUCSBASE
  2

  9
$PUCSNAME
  2

  9
$PUCSORG
 10
0.0
 20
0.0
 30
0.0
  9
$PUCSXDIR
 10
1.0
 20
0.0
 30
0.0
  9
$PUCSYDIR
 10
0.0
 20
1.0
 30
0.0
  9
$PUCSORTHOREF
  2

  9
$PUCSORTHOVIEW
 70
     0
  9
$PUCSORGTOP
 10
0.0
 20
0.0
 30
0.0
  9
$PUCSORGBOTTOM
 10
0.0
 20
0.0
 30
0.0
  9
$PUCSORGLEFT
 10
0.0
 20
0.0
 30
0.0
  9
$PUCSORGRIGHT
 10
0.0
 20
0.0
 30
0.0
  9
$PUCSORGFRONT
 10
0.0
 20
0.0
 30
0.0
  9
$PUCSORGBACK
 10
0.0
 20
0.0
 30
0.0
  9
$USERI1
 70
     0
  9
$USERI2
 70
     0
  9
$USERI3
 70
     0
  9
$USERI4
 70
     0
  9
$USERI5
 70
     0
  9
$USERR1
 40
0.0
  9
$USERR2
 40
0.0
  9
$USERR3
 40
0.0
  9
$USERR4
 40
0.0
  9
$USERR5
 40
0.0
  9
$WORLDVIEW
 70
     1
  9
$SHADEDGE
 70
     3
  9
$SHADEDIF
 70
    70
  9
$TILEMODE
 70
     1
  9
$MAXACTVP
 70
    64
  9
$PINSBASE
 10
0.0
 20
0.0
 30
0.0
  9
$PLIMCHECK
 70
     0
  9
$PEXTMIN
 10
1.000000000000000E+20
 20
1.000000000000000E+20
 30
1.000000000000000E+20
  9
$PEXTMAX
 10
-1.000000000000000E+20
 20
-1.000000000000000E+20
 30
-1.000000000000000E+20
  9
$PLIMMIN
 10
0.0
 20
0.0
  9
$PLIMMAX
 10
420.0
 20
297.0
  9
$UNITMODE
 70
     0
  9
$VISRETAIN
 70
     1
  9
$PLINEGEN
 70
     0
  9
$PSLTSCALE
 70
     1
  9
$TREEDEPTH
 70
  3020
  9
$CMLSTYLE
  2
Standard
  9
$CMLJUST
 70
     0
  9
$CMLSCALE
 40
20.0
  9
$PROXYGRAPHICS
 70
     1
  9
$MEASUREMENT
 70
     1
  9
$CELWEIGHT
370
    -1
  9
$ENDCAPS
280
     0
  9
$JOINSTYLE
280
     0
  9
$LWDISPLAY
290
     0
  9
$INSUNITS
 70
     4
  9
$HYPERLINKBASE
  1

  9
$STYLESHEET
  1

  9
$XEDIT
290
     1
  9
$CEPSNTYPE
380
     0
  9
$PSTYLEMODE
290
     1
  9
$FINGERPRINTGUID
  2
{E0A79919-1611-4D48-A6CF-929FE36A9D62}
  9
$VERSIONGUID
  2
{6AB3289D-F375-41B6-8A8A-A20583BBFD0A}
  9
$EXTNAMES
290
     1
  9
$PSVPSCALE
 40
0.0
  9
$OLESTARTUP
290
     0
  0
ENDSEC
  0
SECTION
  2
CLASSES
  0
CLASS
  1
ACDBDICTIONARYWDFLT
  2
AcDbDictionaryWithDefault
  3
AutoCAD 2000
 90
        0
280
     0
281
     0
  0
CLASS
  1
ACDBPLACEHOLDER
  2
AcDbPlaceHolder
  3
AutoCAD 2000
 90
        0
280
     0
281
     0
  0
CLASS
  1
LAYOUT
  2
AcDbLayout
  3
AutoCAD 2000
 90
        0
280
     0
281
     0
  0
ENDSEC
  0
SECTION
  2
TABLES
  0
TABLE
  2
VPORT
  5
8
330
0
100
AcDbSymbolTable
 70
     2
  0
VPORT
  5
3B22
330
8
100
AcDbSymbolTableRecord
100
AcDbViewportTableRecord
  2
*Active
 70
     0
 10
0.0
 20
0.0
 11
1.0
 21
1.0
 12
590.6732967579269
 22
160.3368510139766
 13
0.0
 23
0.0
 14
10.0
 24
10.0
 15
10.0
 25
10.0
 16
0.0
 26
0.0
 36
1.0
 17
0.0
 27
0.0
 37
0.0
 40
649.0006503326708
 41
2.283018867924528
 42
50.0
 43
0.0
 44
0.0
 50
0.0
 51
0.0
 71
     0
 72
   100
 73
     1
 74
     3
 75
     0
 76
     0
 77
     0
 78
     0
281
     0
 65
     1
110
0.0
120
0.0
130
0.0
111
1.0
121
0.0
131
0.0
112
0.0
122
1.0
132
0.0
 79
     0
146
0.0
  0
ENDTAB
  0
TABLE
  2
LTYPE
  5
5
330
0
100
AcDbSymbolTable
 70
     5
  0
LTYPE
  5
14
330
5
100
AcDbSymbolTableRecord
100
AcDbLinetypeTableRecord
  2
ByBlock
 70
     0
  3

 72
    65
 73
     0
 40
0.0
  0
LTYPE
  5
15
330
5
100
AcDbSymbolTableRecord
100
AcDbLinetypeTableRecord
  2
ByLayer
 70
     0
  3

 72
    65
 73
     0
 40
0.0
  0
LTYPE
  5
16
330
5
100
AcDbSymbolTableRecord
100
AcDbLinetypeTableRecord
  2
Continuous
 70
     0
  3
Solid line
 72
    65
 73
     0
 40
0.0
  0
LTYPE
  5
33
330
5
100
AcDbSymbolTableRecord
100
AcDbLinetypeTableRecord
  2
DASHED
 70
     0
  3
Dashed __ __ __ __ __ __ __ __ __ __ __ __ __ _
 72
    65
 73
     2
 40
19.04999999999999
 49
12.7
 74
     0
 49
-6.349999999999999
 74
     0
  0
LTYPE
  5
34
330
5
100
AcDbSymbolTableRecord
100
AcDbLinetypeTableRecord
  2
DASHDOT2
 70
     0
  3
Dash dot (.5x) _._._._._._._._._._._._._._._.
 72
    65
 73
     4
 40
12.7
 49
6.349999999999999
 74
     0
 49
-3.174999999999999
 74
     0
 49
0.0
 74
     0
 49
-3.174999999999999
 74
     0
  0
LTYPE
  5
35
330
5
100
AcDbSymbolTableRecord
100
AcDbLinetypeTableRecord
  2
CIKCAK
 70
     0
  3
Cik-cak /\/\/\/\/\/\/\/\/\/\/\/\/\/\/\/\/\/\/\/
 72
    65
 73
     4
 40
20.32254
 49
0.00254
 74
     0
 49
-5.08
 74
     4
 75
   131
340
3E
 46
5.08
 50
0.0
 44
-5.08
 45
0.0
 49
-10.16
 74
     4
 75
   131
340
3E
 46
5.08
 50
180.0
 44
5.08
 45
0.0
 49
-5.08
 74
     0
  0
LTYPE
  5
36
330
5
100
AcDbSymbolTableRecord
100
AcDbLinetypeTableRecord
  2
IZOLACE
 70
     0
  3
Izolace SSSSSSSSSSSSSSSSSSSSSSSSSSSSSSSSSSSSSSS
 72
    65
 73
     4
 40
10.16253999999999
 49
0.00254
 74
     0
 49
-2.54
 74
     4
 75
   134
340
3E
 46
2.54
 50
0.0
 44
-2.54
 45
0.0
 49
-5.08
 74
     4
 75
   134
340
3E
 46
2.54
 50
180.0
 44
2.54
 45
0.0
 49
-2.54
 74
     0
  0
ENDTAB
  0
TABLE
  2
LAYER
  5
2
330
0
100
AcDbSymbolTable
 70
     7
  0
LAYER
  5
10
330
2
100
AcDbSymbolTableRecord
100
AcDbLayerTableRecord
  2
0
 70
     0
 62
     7
  6
Continuous
370
    -3
390
F
  0
LAYER
  5
37
330
2
100
AcDbSymbolTableRecord
100
AcDbLayerTableRecord
  2
POPIS
 70
     0
 62
    30
  6
Continuous
370
    -3
390
F
  0
LAYER
  5
38
330
2
100
AcDbSymbolTableRecord
100
AcDbLayerTableRecord
  2
SPOJOVACÍ
 70
     0
 62
   180
  6
Continuous
370
    -3
390
F
  0
LAYER
  5
39
330
2
100
AcDbSymbolTableRecord
100
AcDbLayerTableRecord
  2
CETRIS
 70
     0
 62
     1
  6
Continuous
370
    -3
390
F
  0
LAYER
  5
3A
330
2
100
AcDbSymbolTableRecord
100
AcDbLayerTableRecord
  2
NOSNÉ KONSTRUKCE
 70
     0
 62
    33
  6
Continuous
370
    -3
390
F
  0
LAYER
  5
3B
330
2
100
AcDbSymbolTableRecord
100
AcDbLayerTableRecord
  2
izolace
 70
     0
 62
    73
  6
Continuous
370
    -3
390
F
  0
LAYER
  5
3C
330
2
100
AcDbSymbolTableRecord
100
AcDbLayerTableRecord
  2
STAVBA OBRYS
 70
     0
 62
     6
  6
Continuous
370
    -3
390
F
  0
ENDTAB
  0
TABLE
  2
STYLE
  5
3
330
0
100
AcDbSymbolTable
 70
     3
  0
STYLE
  5
11
330
3
100
AcDbSymbolTableRecord
100
AcDbTextStyleTableRecord
  2
Standard
 70
     0
 40
0.0
 41
1.0
 50
0.0
 71
     0
 42
2.5
  3
txt
  4

  0
STYLE
  5
3D
330
3
100
AcDbSymbolTableRecord
100
AcDbTextStyleTableRecord
  2
SIMPLEX7
 70
     0
 40
0.0
 41
0.85
 50
0.0
 71
     0
 42
102.0
  3

  4

1001
ACAD
1000
Arial CE
1071
    60962
  0
STYLE
  5
3E
330
3
100
AcDbSymbolTableRecord
100
AcDbTextStyleTableRecord
  2

 70
     1
 40
0.0
 41
1.0
 50
0.0
 71
     0
 42
2.5
  3
ltypeshp.shx
  4

  0
ENDTAB
  0
TABLE
  2
VIEW
  5
6
330
0
100
AcDbSymbolTable
 70
     0
  0
ENDTAB
  0
TABLE
  2
UCS
  5
7
330
0
100
AcDbSymbolTable
 70
     0
  0
ENDTAB
  0
TABLE
  2
APPID
  5
9
330
0
100
AcDbSymbolTable
 70
     1
  0
APPID
  5
12
330
9
100
AcDbSymbolTableRecord
100
AcDbRegAppTableRecord
  2
ACAD
 70
     0
  0
ENDTAB
  0
TABLE
  2
DIMSTYLE
  5
A
330
0
100
AcDbSymbolTable
 70
     1
100
AcDbDimStyleTable
 71
     0
  0
DIMSTYLE
105
27
330
A
100
AcDbSymbolTableRecord
100
AcDbDimStyleTableRecord
  2
ISO-25
 70
     0
 41
2.5
 42
0.625
 43
3.75
 44
1.25
 73
     0
 74
     0
 77
     1
 78
     8
140
2.5
141
2.5
143
0.03937007874016
147
0.625
171
     3
172
     1
271
     2
272
     2
274
     3
278
    44
283
     0
284
     8
340
11
  0
ENDTAB
  0
TABLE
  2
BLOCK_RECORD
  5
1
330
0
100
AcDbSymbolTable
 70
     2
  0
BLOCK_RECORD
  5
1F
330
1
100
AcDbSymbolTableRecord
100
AcDbBlockTableRecord
  2
*Model_Space
340
22
  0
BLOCK_RECORD
  5
1B
330
1
100
AcDbSymbolTableRecord
100
AcDbBlockTableRecord
  2
*Paper_Space
340
1E
  0
BLOCK_RECORD
  5
23
330
1
100
AcDbSymbolTableRecord
100
AcDbBlockTableRecord
  2
*Paper_Space0
340
26
  0
BLOCK_RECORD
  5
2B
330
1
100
AcDbSymbolTableRecord
100
AcDbBlockTableRecord
  2
E_PUNKT
340
0
102
{BLKREFS
331
3885
331
3B02
331
3B04
331
3B0A
331
3B0F
331
3B10
331
3B12
102
}
  0
ENDTAB
  0
ENDSEC
  0
SECTION
  2
BLOCKS
  0
BLOCK
  5
20
330
1F
100
AcDbEntity
  8
0
100
AcDbBlockBegin
  2
*Model_Space
 70
     0
 10
0.0
 20
0.0
 30
0.0
  3
*Model_Space
  1

  0
ENDBLK
  5
21
330
1F
100
AcDbEntity
  8
0
100
AcDbBlockEnd
  0
BLOCK
  5
1C
330
1B
100
AcDbEntity
 67
     1
  8
0
100
AcDbBlockBegin
  2
*Paper_Space
 70
     0
 10
0.0
 20
0.0
 30
0.0
  3
*Paper_Space
  1

  0
ENDBLK
  5
1D
330
1B
100
AcDbEntity
 67
     1
  8
0
100
AcDbBlockEnd
  0
BLOCK
  5
24
330
23
100
AcDbEntity
  8
0
100
AcDbBlockBegin
  2
*Paper_Space0
 70
     0
 10
0.0
 20
0.0
 30
0.0
  3
*Paper_Space0
  1

  0
ENDBLK
  5
25
330
23
100
AcDbEntity
  8
0
100
AcDbBlockEnd
  0
BLOCK
  5
2D
330
2B
100
AcDbEntity
  8
0
100
AcDbBlockBegin
  2
E_PUNKT
 70
     0
 10
0.0
 20
0.0
 30
0.0
  3
E_PUNKT
  1

  0
LWPOLYLINE
  5
2C
330
2B
100
AcDbEntity
  8
POPIS
100
AcDbPolyline
 90
        2
 70
     1
 43
2.5
 10
1.27761037562675
 20
0.0290683308725193
 42
-1.0
 10
-1.222389624373249
 20
0.0290683308725193
 42
-1.0
  0
ENDBLK
  5
2E
330
2B
100
AcDbEntity
  8
0
100
AcDbBlockEnd
  0
ENDSEC
  0
SECTION
  2
ENTITIES
  0
HATCH
  5
3882
330
1F
100
AcDbEntity
  8
NOSNÉ KONSTRUKCE
100
AcDbHatch
 10
0.0
 20
0.0
 30
0.0
210
0.0
220
0.0
230
1.0
  2
SOLID
 70
     1
 71
     0
 91
        1
 92
        1
 93
       78
 72
     1
 10
575.4098331753128
 20
64.94495178327025
 11
576.9098331753128
 21
64.94495178327025
 72
     1
 10
576.9098331753128
 20
64.94495178327025
 11
576.9098331753128
 21
68.9061161695293
 72
     2
 10
575.5457784897597
 20
68.90622288926289
 40
1.364054689724365
 50
359.9955173422458
 51
449.9956000565878
 73
     1
 72
     1
 10
575.5458832402954
 20
70.27027757496518
 11
568.3886352381931
 21
70.27027757496518
 72
     2
 10
568.3886213657468
 20
68.90630178018665
 40
1.363975794848016
 50
449.9994172678322
 51
509.9993729338875
 73
     1
 72
     2
 10
566.0260413190379
 20
70.27035583113075
 40
1.364105569629164
 50
30.00002138114828
 51
149.9999786188517
 73
     0
 72
     2
 10
563.663461272329
 20
68.90630178018302
 40
1.363975794852709
 50
390.0006270662067
 51
450.0005827322442
 73
     1
 72
     1
 10
563.6634473998827
 20
70.27027757496518
 11
555.6212179082293
 21
70.27027757496518
 72
     2
 10
555.6212040516628
 20
68.90630180768977
 40
1.363975767345567
 50
449.9994179347971
 51
509.9993736009129
 73
     1
 72
     2
 10
553.2586768834743
 20
70.27032531084234
 40
1.36404452909372
 50
30.0000213811012
 51
149.9999786188987
 73
     0
 72
     2
 10
550.8961496994096
 20
68.90630178018665
 40
1.363975794849071
 50
390.0006270661125
 51
450.0005827321678
 73
     1
 72
     1
 10
550.8961358269633
 20
70.27027757496518
 11
542.8539063353063
 21
70.27027757496518
 72
     2
 10
542.8538924628599
 20
68.90630178018665
 40
1.363975794848016
 50
449.9994172678322
 51
509.9993729338875
 73
     1
 72
     2
 10
540.4913652946751
 20
70.27032530167463
 40
1.364044510757576
 50
30.00002138111922
 51
149.9999786188807
 73
     0
 72
     2
 10
538.1288381264901
 20
68.90630178018665
 40
1.363975794849071
 50
390.0006270661125
 51
450.0005827321678
 73
     1
 72
     1
 10
538.1288242540439
 20
70.27027757496518
 11
529.3608465095939
 21
70.27027757496518
 72
     2
 10
529.3608983974853
 20
68.90617002669507
 40
1.364107549255989
 50
90.00217941550038
 51
180.0022621297693
 73
     1
 72
     1
 10
527.9967908492916
 20
68.9061161695293
 11
527.9967908492916
 21
62.78124080625758
 72
     2
 10
529.3606436078197
 20
62.78140827005092
 40
1.363852768812942
 50
180.007035193844
 51
235.6187009209929
 73
     1
 72
     2
 10
527.8198608253814
 20
60.5301275134164
 40
1.364200882607377
 50
-55.60560776441116
 51
0.0060579627693785
 73
     0
 72
     1
 10
529.1840617003625
 20
60.52998327455253
 11
529.1840617003625
 21
56.7113463707513
 72
     2
 10
527.8202618063523
 20
56.71141359734367
 40
1.363799895663342
 50
0.002824314642729
 51
55.61449004180289
 73
     0
 72
     2
 10
529.3610445887979
 20
54.46013284070915
 40
1.364253740215838
 50
124.3901822498929
 51
180.0018479770308
 73
     1
 72
     1
 10
527.9967908492916
 20
54.46008883904625
 11
527.9967908492916
 21
36.07615828496756
 72
     2
 10
529.3610445869206
 20
36.07611428429419
 40
1.36425373834027
 50
179.9981520645247
 51
235.6098177916606
 73
     1
 72
     2
 10
527.8202618063595
 20
33.8248335286492
 40
1.363799895660852
 50
-55.61449004192901
 51
-0.0028243147955483
 73
     0
 72
     1
 10
529.1840617003625
 20
33.82490075524521
 11
529.1840617003625
 21
30.00626384945764
 72
     2
 10
527.8198608253814
 20
30.00611961059377
 40
1.364200882606485
 50
-0.0060579627693785
 51
55.60560776441121
 73
     0
 72
     2
 10
529.3606436059389
 20
27.75483885495242
 40
1.363852766929492
 50
124.3812990372945
 51
179.992964764423
 73
     1
 72
     1
 10
527.9967908492916
 20
27.75500631973892
 11
527.9967908492916
 21
21.63013095646721
 72
     2
 10
529.3608983984748
 20
21.63007709830827
 40
1.364107550250173
 50
179.9977378285168
 51
269.9978205427857
 73
     1
 72
     1
 10
529.3608465095939
 20
20.26596954904499
 11
538.1288242540439
 21
20.26596954904499
 72
     2
 10
538.128838124773
 20
21.62994534481305
 40
1.363975795838488
 50
269.9994173399629
 51
329.9993730060831
 73
     1
 72
     2
 10
540.4913652946751
 20
20.26592182431824
 40
1.364044510757576
 50
210.0000213811191
 51
329.9999786188807
 73
     0
 72
     2
 10
542.8538924645771
 20
21.62994534481305
 40
1.363975795838583
 50
210.0006269939167
 51
270.000582660037
 73
     1
 72
     1
 10
542.8539063353063
 20
20.26596954904499
 11
550.8961358269633
 21
20.26596954904499
 72
     2
 10
550.8961496976925
 20
21.62994534481305
 40
1.363975795838488
 50
269.9994173399629
 51
329.9993730060831
 73
     1
 72
     2
 10
553.2586768834743
 20
20.26592181515053
 40
1.36404452909372
 50
210.0000213811012
 51
329.9999786188988
 73
     0
 72
     2
 10
555.6212040533799
 20
21.62994531730993
 40
1.363975768335302
 50
210.0006263268913
 51
270.0005819930721
 73
     1
 72
     1
 10
555.6212179082293
 20
20.26596954904499
 11
563.6634473998827
 21
20.26596954904499
 72
     2
 10
563.6634612706119
 20
21.62994534481669
 40
1.363975795841882
 50
269.9994173398865
 51
329.999373005989
 73
     1
 72
     2
 10
566.0260413190379
 20
20.26589129486211
 40
1.364105569629164
 50
210.0000213811482
 51
329.9999786188517
 73
     0
 72
     2
 10
568.3886213674639
 20
21.62994534481305
 40
1.363975795838583
 50
210.0006269939167
 51
270.000582660037
 73
     1
 72
     1
 10
568.3886352381931
 20
20.26596954904499
 11
575.5457775479489
 21
20.26596954904499
 72
     2
 10
575.545725626126
 20
21.63007709830464
 40
1.364107550249196
 50
270.0021794572142
 51
360.0022621714831
 73
     1
 72
     1
 10
576.9098331753128
 20
21.63013095646357
 11
576.9098331753128
 21
25.59129534271898
 72
     1
 10
576.9098331753128
 20
25.59129534271898
 11
575.4098331753128
 21
25.59129534271898
 72
     1
 10
575.4098331753128
 20
25.59129534271898
 11
575.4098331753128
 21
22.76596954904135
 72
     2
 10
574.4098331753129
 20
22.76596954904135
 40
1.0
 50
0.0
 51
90.0
 73
     0
 72
     1
 10
574.4098331753129
 20
21.76596954904135
 11
568.4658908933605
 21
21.76596954904499
 72
     2
 10
566.0260413190379
 20
20.26589129486939
 40
2.864105569627733
 50
391.5842014864362
 51
508.4157985135637
 73
     1
 72
     1
 10
563.5861917447154
 20
21.76596954904499
 11
555.6984735677623
 21
21.76596954904499
 72
     2
 10
553.2586768834707
 20
20.26592181515053
 40
2.864044529094826
 50
391.5842355323783
 51
508.4157644675406
 73
     1
 72
     1
 10
550.8188801991827
 20
21.76596954904863
 11
542.9311619630761
 21
21.76596954904499
 72
     2
 10
540.4913652946751
 20
20.2659218243146
 40
2.864044510759085
 50
391.5842355426949
 51
508.415764457305
 73
     1
 72
     1
 10
538.0515686262741
 20
21.76596954904499
 11
530.4967908492916
 21
21.76596954904499
 72
     2
 10
530.4967908492916
 20
22.76596954904499
 40
1.0
 50
90.0
 51
180.0
 73
     0
 72
     1
 10
529.4967908492916
 20
22.76596954904499
 11
529.4967908492916
 21
27.68414795037944
 72
     2
 10
527.819860825385
 20
30.00611961059013
 40
2.864200882602513
 50
305.8368500797323
 51
360.0041807823925
 73
     1
 72
     1
 10
530.6840617003626
 20
30.00632860679735
 11
530.6840617003626
 21
33.82490075524521
 72
     2
 10
529.1840616819107
 20
33.82490075049401
 40
1.500000018450919
 50
360.0000001814824
 51
360.0028244959368
 73
     1
 72
     2
 10
527.8202618063668
 20
33.82483352865648
 40
2.863799895650613
 50
360.0028243144894
 51
414.1672517372337
 73
     1
 72
     1
 10
529.4967908492916
 20
36.14660014280281
 11
529.4967908492916
 21
54.3896469831937
 72
     2
 10
527.8202618063668
 20
56.71141359734003
 40
2.863799895650137
 50
305.8327482627515
 51
359.9971756855105
 73
     1
 72
     2
 10
529.1840617511014
 20
56.71134637549887
 40
1.499999949261109
 50
359.9971755040718
 51
359.9999998185174
 73
     1
 72
     1
 10
530.6840617003626
 20
56.71134637074766
 11
530.6840617003626
 21
60.52991851410235
 72
     2
 10
527.8198608253814
 20
60.53012751342004
 40
2.864200882605558
 50
359.9958191553852
 51
414.1631499202233
 73
     1
 72
     1
 10
529.4967908492916
 20
62.85209917363073
 11
529.4967908492916
 21
67.77027757496518
 72
     2
 10
530.4967908492916
 20
67.77027757496518
 40
1.0
 50
180.0
 51
270.0
 73
     0
 72
     1
 10
530.4967908492916
 20
68.77027757496517
 11
538.0515686274929
 21
68.77027757496517
 72
     2
 10
540.4913652946751
 20
70.27032530167827
 40
2.864044510759331
 50
211.5842355892532
 51
328.4157644107466
 73
     1
 72
     1
 10
542.9311619618573
 20
68.77027757496517
 11
550.818880200405
 21
68.77027757496517
 72
     2
 10
553.2586768834743
 20
70.27032531084597
 40
2.864044529094653
 50
211.5842355790273
 51
328.4157644209727
 73
     1
 72
     1
 10
555.6984735665436
 20
68.77027757496517
 11
563.5861917459378
 21
68.77027757496517
 72
     2
 10
566.0260413190343
 20
70.27035583113439
 40
2.864105569629046
 50
211.5842015332367
 51
328.4157984667633
 73
     1
 72
     1
 10
568.4658908921345
 20
68.77027757496517
 11
574.4098331753129
 21
68.77027757496517
 72
     2
 10
574.4098331753129
 20
67.77027757496518
 40
1.0
 50
270.0
 51
360.0
 73
     0
 72
     1
 10
575.4098331753128
 20
67.77027757496518
 11
575.4098331753128
 21
64.94495178327025
 97
        0
 75
     0
 76
     1
 98
        1
 10
4778.370867889633
 20
-28991.91312775027
  0
HATCH
  5
3883
330
1F
100
AcDbEntity
  8
NOSNÉ KONSTRUKCE
100
AcDbHatch
 10
0.0
 20
0.0
 30
0.0
210
0.0
220
0.0
230
1.0
  2
SOLID
 70
     1
 71
     0
 91
        1
 92
        1
 93
       78
 72
     1
 10
187.8617317675751
 20
64.94495178327025
 11
189.3617317675751
 21
64.94495178327025
 72
     1
 10
189.3617317675751
 20
64.94495178327025
 11
189.3617317675751
 21
68.9061161695293
 72
     2
 10
187.997677082022
 20
68.90622288926289
 40
1.364054689724365
 50
359.9955173422458
 51
449.9956000565878
 73
     1
 72
     1
 10
187.9977818325577
 20
70.27027757496518
 11
180.8405338304554
 21
70.27027757496518
 72
     2
 10
180.8405199580091
 20
68.90630178018665
 40
1.363975794848016
 50
449.9994172678322
 51
509.9993729338875
 73
     1
 72
     2
 10
178.4779399113002
 20
70.27035583113075
 40
1.364105569629164
 50
30.00002138114828
 51
149.9999786188517
 73
     0
 72
     2
 10
176.1153598645913
 20
68.90630178018302
 40
1.363975794852709
 50
390.0006270662067
 51
450.0005827322442
 73
     1
 72
     1
 10
176.115345992145
 20
70.27027757496518
 11
168.0731165004916
 21
70.27027757496518
 72
     2
 10
168.0731026439251
 20
68.90630180768977
 40
1.363975767345567
 50
449.9994179347971
 51
509.9993736009129
 73
     1
 72
     2
 10
165.7105754757366
 20
70.27032531084234
 40
1.36404452909372
 50
30.0000213811012
 51
149.9999786188987
 73
     0
 72
     2
 10
163.3480482916719
 20
68.90630178018665
 40
1.363975794849071
 50
390.0006270661125
 51
450.0005827321678
 73
     1
 72
     1
 10
163.3480344192256
 20
70.27027757496518
 11
155.3058049275685
 21
70.27027757496518
 72
     2
 10
155.3057910551223
 20
68.90630178018665
 40
1.363975794848016
 50
449.9994172678322
 51
509.9993729338875
 73
     1
 72
     2
 10
152.9432638869374
 20
70.27032530167463
 40
1.364044510757576
 50
30.00002138111922
 51
149.9999786188807
 73
     0
 72
     2
 10
150.5807367187525
 20
68.90630178018665
 40
1.363975794849071
 50
390.0006270661125
 51
450.0005827321678
 73
     1
 72
     1
 10
150.5807228463062
 20
70.27027757496518
 11
141.8127451018562
 21
70.27027757496518
 72
     2
 10
141.8127969897476
 20
68.90617002669507
 40
1.364107549255989
 50
90.00217941550038
 51
180.0022621297693
 73
     1
 72
     1
 10
140.4486894415539
 20
68.9061161695293
 11
140.4486894415539
 21
62.78124080625758
 72
     2
 10
141.812542200082
 20
62.78140827005092
 40
1.363852768812942
 50
180.007035193844
 51
235.6187009209929
 73
     1
 72
     2
 10
140.2717594176436
 20
60.5301275134164
 40
1.364200882607377
 50
-55.60560776441116
 51
0.0060579627693785
 73
     0
 72
     1
 10
141.6359602926248
 20
60.52998327455253
 11
141.6359602926248
 21
56.7113463707513
 72
     2
 10
140.2721603986145
 20
56.71141359734367
 40
1.363799895663342
 50
0.002824314642729
 51
55.61449004180289
 73
     0
 72
     2
 10
141.8129431810601
 20
54.46013284070915
 40
1.364253740215838
 50
124.3901822498929
 51
180.0018479770308
 73
     1
 72
     1
 10
140.4486894415539
 20
54.46008883904625
 11
140.4486894415539
 21
36.07615828496756
 72
     2
 10
141.8129431791829
 20
36.07611428429419
 40
1.36425373834027
 50
179.9981520645247
 51
235.6098177916606
 73
     1
 72
     2
 10
140.2721603986218
 20
33.8248335286492
 40
1.363799895660852
 50
-55.61449004192901
 51
-0.0028243147955483
 73
     0
 72
     1
 10
141.6359602926248
 20
33.82490075524521
 11
141.6359602926248
 21
30.00626384945764
 72
     2
 10
140.2717594176436
 20
30.00611961059377
 40
1.364200882606485
 50
-0.0060579627693785
 51
55.60560776441121
 73
     0
 72
     2
 10
141.8125421982011
 20
27.75483885495242
 40
1.363852766929492
 50
124.3812990372945
 51
179.992964764423
 73
     1
 72
     1
 10
140.4486894415539
 20
27.75500631973892
 11
140.4486894415539
 21
21.63013095646721
 72
     2
 10
141.8127969907371
 20
21.63007709830827
 40
1.364107550250173
 50
179.9977378285168
 51
269.9978205427857
 73
     1
 72
     1
 10
141.8127451018562
 20
20.26596954904499
 11
150.5807228463062
 21
20.26596954904499
 72
     2
 10
150.5807367170354
 20
21.62994534481305
 40
1.363975795838488
 50
269.9994173399629
 51
329.9993730060831
 73
     1
 72
     2
 10
152.9432638869374
 20
20.26592182431824
 40
1.364044510757576
 50
210.0000213811191
 51
329.9999786188807
 73
     0
 72
     2
 10
155.3057910568394
 20
21.62994534481305
 40
1.363975795838583
 50
210.0006269939167
 51
270.000582660037
 73
     1
 72
     1
 10
155.3058049275685
 20
20.26596954904499
 11
163.3480344192256
 21
20.26596954904499
 72
     2
 10
163.3480482899548
 20
21.62994534481305
 40
1.363975795838488
 50
269.9994173399629
 51
329.9993730060831
 73
     1
 72
     2
 10
165.7105754757366
 20
20.26592181515053
 40
1.36404452909372
 50
210.0000213811012
 51
329.9999786188988
 73
     0
 72
     2
 10
168.0731026456422
 20
21.62994531730993
 40
1.363975768335302
 50
210.0006263268913
 51
270.0005819930721
 73
     1
 72
     1
 10
168.0731165004916
 20
20.26596954904499
 11
176.115345992145
 21
20.26596954904499
 72
     2
 10
176.1153598628742
 20
21.62994534481669
 40
1.363975795841882
 50
269.9994173398865
 51
329.999373005989
 73
     1
 72
     2
 10
178.4779399113002
 20
20.26589129486211
 40
1.364105569629164
 50
210.0000213811482
 51
329.9999786188517
 73
     0
 72
     2
 10
180.8405199597262
 20
21.62994534481305
 40
1.363975795838583
 50
210.0006269939167
 51
270.000582660037
 73
     1
 72
     1
 10
180.8405338304554
 20
20.26596954904499
 11
187.9976761402111
 21
20.26596954904499
 72
     2
 10
187.9976242183882
 20
21.63007709830464
 40
1.364107550249196
 50
270.0021794572142
 51
360.0022621714831
 73
     1
 72
     1
 10
189.3617317675751
 20
21.63013095646357
 11
189.3617317675751
 21
25.59129534271898
 72
     1
 10
189.3617317675751
 20
25.59129534271898
 11
187.8617317675751
 21
25.59129534271898
 72
     1
 10
187.8617317675751
 20
25.59129534271898
 11
187.8617317675751
 21
22.76596954904135
 72
     2
 10
186.8617317675751
 20
22.76596954904135
 40
1.0
 50
0.0
 51
90.0
 73
     0
 72
     1
 10
186.8617317675751
 20
21.76596954904135
 11
180.9177894856228
 21
21.76596954904499
 72
     2
 10
178.4779399113002
 20
20.26589129486939
 40
2.864105569627733
 50
391.5842014864362
 51
508.4157985135637
 73
     1
 72
     1
 10
176.0380903369776
 20
21.76596954904499
 11
168.1503721600246
 21
21.76596954904499
 72
     2
 10
165.7105754757329
 20
20.26592181515053
 40
2.864044529094826
 50
391.5842355323783
 51
508.4157644675406
 73
     1
 72
     1
 10
163.2707787914449
 20
21.76596954904863
 11
155.3830605553383
 21
21.76596954904499
 72
     2
 10
152.9432638869374
 20
20.2659218243146
 40
2.864044510759085
 50
391.5842355426949
 51
508.415764457305
 73
     1
 72
     1
 10
150.5034672185364
 20
21.76596954904499
 11
142.9486894415539
 21
21.76596954904499
 72
     2
 10
142.9486894415539
 20
22.76596954904499
 40
1.0
 50
90.0
 51
180.0
 73
     0
 72
     1
 10
141.9486894415539
 20
22.76596954904499
 11
141.9486894415539
 21
27.68414795037944
 72
     2
 10
140.2717594176473
 20
30.00611961059013
 40
2.864200882602513
 50
305.8368500797323
 51
360.0041807823925
 73
     1
 72
     1
 10
143.1359602926248
 20
30.00632860679735
 11
143.1359602926248
 21
33.82490075524521
 72
     2
 10
141.635960274173
 20
33.82490075049401
 40
1.500000018450919
 50
360.0000001814824
 51
360.0028244959368
 73
     1
 72
     2
 10
140.2721603986291
 20
33.82483352865648
 40
2.863799895650613
 50
360.0028243144894
 51
414.1672517372337
 73
     1
 72
     1
 10
141.9486894415539
 20
36.14660014280281
 11
141.9486894415539
 21
54.3896469831937
 72
     2
 10
140.2721603986291
 20
56.71141359734003
 40
2.863799895650137
 50
305.8327482627515
 51
359.9971756855105
 73
     1
 72
     2
 10
141.6359603433637
 20
56.71134637549887
 40
1.499999949261109
 50
359.9971755040718
 51
359.9999998185174
 73
     1
 72
     1
 10
143.1359602926248
 20
56.71134637074766
 11
143.1359602926248
 21
60.52991851410235
 72
     2
 10
140.2717594176436
 20
60.53012751342004
 40
2.864200882605558
 50
359.9958191553852
 51
414.1631499202233
 73
     1
 72
     1
 10
141.9486894415539
 20
62.85209917363073
 11
141.9486894415539
 21
67.77027757496518
 72
     2
 10
142.9486894415539
 20
67.77027757496518
 40
1.0
 50
180.0
 51
270.0
 73
     0
 72
     1
 10
142.9486894415539
 20
68.77027757496517
 11
150.5034672197551
 21
68.77027757496517
 72
     2
 10
152.9432638869374
 20
70.27032530167827
 40
2.864044510759331
 50
211.5842355892532
 51
328.4157644107466
 73
     1
 72
     1
 10
155.3830605541196
 20
68.77027757496517
 11
163.2707787926673
 21
68.77027757496517
 72
     2
 10
165.7105754757366
 20
70.27032531084597
 40
2.864044529094653
 50
211.5842355790273
 51
328.4157644209727
 73
     1
 72
     1
 10
168.1503721588059
 20
68.77027757496517
 11
176.0380903382
 21
68.77027757496517
 72
     2
 10
178.4779399112966
 20
70.27035583113439
 40
2.864105569629046
 50
211.5842015332367
 51
328.4157984667633
 73
     1
 72
     1
 10
180.9177894843968
 20
68.77027757496517
 11
186.8617317675751
 21
68.77027757496517
 72
     2
 10
186.8617317675751
 20
67.77027757496518
 40
1.0
 50
270.0
 51
360.0
 73
     0
 72
     1
 10
187.8617317675751
 20
67.77027757496518
 11
187.8617317675751
 21
64.94495178327025
 97
        0
 75
     0
 76
     1
 98
        1
 10
4390.822766481895
 20
-28991.91312775027
  0
HATCH
  5
3884
330
1F
100
AcDbEntity
  8
STAVBA OBRYS
100
AcDbHatch
 10
0.0
 20
0.0
 30
0.0
210
0.0
220
0.0
230
1.0
  2
AR-CONC
 70
     0
 71
     0
 91
        2
 92
        7
 72
     0
 73
     1
 93
        4
 10
137.1958990804968
 20
75.66608809717246
 10
124.6958990804931
 20
75.66608809717246
 10
124.6958990804931
 20
49.06974543329335
 10
137.1958990804895
 20
49.06974543329335
 97
        0
 92
        7
 72
     0
 73
     1
 93
        5
 10
137.1958990804895
 20
42.01881258634403
 10
124.6958990804931
 20
42.01881258634358
 10
124.6958990804931
 20
19.85829728015943
 10
129.2921605028067
 20
13.5719725026268
 10
137.1958990804931
 20
13.5719725026268
 97
        0
 75
     0
 76
     1
 52
90.0
 41
0.1
 77
     0
 78
    13
 53
140.0
 43
-23404.30749885539
 44
-1405.69305047025
 45
1.593908553890309
 46
18.2184668996004
 79
     2
 49
1.905
 49
-20.955
 53
85.00000000000001
 43
-23404.30749885539
 44
-1405.69305047025
 45
-19.10566428821799
 46
-3.524282597566697
 79
     2
 49
1.524
 49
-16.764
 53
190.4509999999999
 43
-23404.17467385539
 44
-1404.17485047025
 45
-17.51166878202918
 46
14.69425016659592
 79
     2
 49
1.619
 49
-17.809
 53
136.1841999999999
 43
-23409.38749885539
 44
-1405.69305047025
 45
4.204232793272717
 46
27.10790408921299
 79
     2
 49
2.857499999999999
 49
-31.4325
 53
186.6355999999999
 43
-23409.03714885539
 44
-1403.43406047025
 45
-24.74255558900492
 46
23.74042344662371
 79
     2
 49
2.4285
 49
-26.7135
 53
81.18400000000004
 43
-23409.38749885539
 44
-1405.69305047025
 45
-24.74251178605976
 46
23.74046058139339
 79
     2
 49
2.286
 49
-25.146
 53
111.0
 43
-23408.11749885539
 44
-1403.15305047025
 45
10.22655185167625
 46
15.16148798353833
 79
     2
 49
1.905
 49
-20.955
 53
56.00000000000004
 43
-23408.11749885539
 44
-1403.15305047025
 45
-18.41879661223192
 46
6.180202834764708
 79
     2
 49
1.524
 49
-16.764
 53
161.4514
 43
-23407.26528885539
 44
-1401.88960047025
 45
-8.192285771605742
 46
21.34164907701245
 79
     2
 49
1.618999999999999
 49
-17.80899999999999
 53
127.5
 43
-23404.30749885539
 44
-1405.69305047025
 45
-8.455503887315311
 46
0.3088603250591822
 79
     6
 49
0.0
 49
-16.5608
 49
0.0
 49
-17.018
 49
0.0
 49
-16.8275
 53
97.49999999999998
 43
-23404.30749885539
 44
-1405.69305047025
 45
-10.01805748181195
 46
6.681966251030575
 79
     6
 49
0.0
 49
-9.702799999999999
 49
0.0
 49
-16.1798
 49
0.0
 49
-6.4135
 53
57.5
 43
-23404.30749885539
 44
-1411.35725047025
 45
0.5728743992673473
 46
13.55905951668713
 79
     6
 49
0.0
 49
-6.35
 49
0.0
 49
-19.812
 49
0.0
 49
-26.289
 53
47.5
 43
-23404.30749885539
 44
-1413.89725047025
 45
-2.5426491033333
 46
14.8129181386018
 79
     6
 49
0.0
 49
-8.255
 49
0.0
 49
-13.1572
 49
0.0
 49
-18.669
 47
0.2050603234176583
 98
        2
 10
132.1216299277774
 20
65.33817108655814
 10
132.1216299277774
 20
32.52850438074557
  0
INSERT
  5
3885
330
1F
100
AcDbEntity
  8
POPIS
100
AcDbBlockReference
  2
E_PUNKT
 10
138.9036843774746
 20
29.67021218615019
 30
0.0
  0
TEXT
  5
3886
330
1F
100
AcDbEntity
  8
POPIS
100
AcDbText
 10
198.5119945746345
 20
-82.65048894830641
 30
0.0
 40
25.0
  1
07
 41
0.85
  7
SIMPLEX7
100
AcDbText
  0
LINE
  5
3887
330
1F
100
AcDbEntity
  8
POPIS
100
AcDbLine
 10
138.9312947531005
 20
29.69928051702237
 30
0.0
 11
200.2957947941184
 21
-51.80644736987296
 31
0.0
  0
TEXT
  5
3888
330
1F
100
AcDbEntity
  8
POPIS
100
AcDbText
 10
756.0311482382939
 20
-67.83324868533298
 30
0.0
 40
25.0
  1
07
 41
0.85
  7
SIMPLEX7
100
AcDbText
  0
TEXT
  5
3889
330
1F
100
AcDbEntity
  8
POPIS
100
AcDbText
 10
810.3748513980361
 20
-67.83324868533298
 30
0.0
 40
25.0
  1
Těsnící podložka
 41
0.7
  7
SIMPLEX7
100
AcDbText
  0
HATCH
  5
388A
330
1F
100
AcDbEntity
  8
CETRIS
100
AcDbHatch
 10
0.0
 20
0.0
 30
0.0
210
0.0
220
0.0
230
1.0
  2
ANSI31
 70
     0
 71
     0
 91
       10
 92
        7
 72
     0
 73
     1
 93
       16
 10
157.7275370029646
 20
79.79138738475495
 10
156.616907102595
 20
80.86015937416807
 10
155.2672220190441
 20
81.60430001064497
 10
155.2672220190478
 20
82.80422678737641
 10
142.880169284749
 20
82.80422678737688
 10
142.4139440616789
 20
82.16656872088179
 10
142.4139440616826
 20
70.80422678737551
 10
159.0176908284928
 20
70.80422678737597
 10
159.0176908284964
 20
71.56016293207386
 10
158.3451737300682
 20
71.78629448637531
 10
157.9675223547536
 20
72.0039556224213
 10
158.3451737300646
 20
72.38253717125309
 10
159.0176908284928
 20
72.15640561699757
 10
159.0176908284928
 20
76.20462951627207
 10
158.9516483465712
 20
76.99155823942129
 10
158.5237674822682
 20
78.47239810646425
 97
        0
 92
        7
 72
     0
 73
     1
 93
       12
 10
185.2612986125176
 20
82.80422678737641
 10
165.467529796312
 20
82.80422678737641
 10
165.4675297963157
 20
81.60430001064588
 10
164.7522246101588
 20
81.2675763727678
 10
163.5150908012445
 20
80.34949286231569
 10
162.5570097312564
 20
79.14212467942189
 10
161.9440238821124
 20
77.72825746972904
 10
161.7170609912253
 20
76.20462951629844
 10
161.717060991229
 20
71.24875171224295
 10
162.3895780896572
 20
71.0226201579838
 10
162.766887485225
 20
70.80422678737642
 10
176.4874698620668
 20
70.80422678737597
 97
        0
 92
        7
 72
     0
 73
     1
 93
       23
 10
546.3845105238005
 20
18.21979367300292
 10
545.7119934253722
 20
17.99366211874968
 10
545.3343420500613
 20
18.37224366758056
 10
545.7119934253832
 20
18.58990480363155
 10
546.3845105238005
 20
18.81603635792663
 10
546.3845105238005
 20
19.5719725026268
 10
162.7668874852214
 20
19.5719725026268
 10
162.3895780896645
 20
19.3535791320167
 10
161.717060991229
 20
19.12744757776119
 10
161.7170609912326
 20
14.17156977368932
 10
161.944023882116
 20
12.64794182027645
 10
162.5570097312564
 20
11.23407461057769
 10
163.5150908012373
 20
10.02670642768754
 10
164.7522246101551
 20
9.108622917240893
 10
165.467529796312
 20
8.771899279356432
 10
165.467529796312
 20
7.571972502626806
 10
542.6340417143518
 20
7.571972502626806
 10
542.6340417143554
 20
8.771899279359161
 10
543.98372679791
 20
9.516039915838803
 10
545.0943566982576
 20
10.58481190524008
 10
545.8905871775685
 20
11.9038011835326
 10
546.3184680418788
 20
13.38464105057784
 10
546.3845105238005
 20
14.1715697736866
 97
        0
 92
        7
 72
     0
 73
     1
 93
       15
 10
158.9516483465785
 20
13.38464105060512
 10
159.0176908284964
 20
14.17156977373162
 10
159.0176908284928
 20
18.21979367300383
 10
158.345173730061
 20
17.99366211874968
 10
157.9675223547536
 20
18.37224366757828
 10
158.3451737300646
 20
18.58990480362928
 10
159.0176908284892
 20
18.8160363579289
 10
159.0176908284892
 20
19.5719725026268
 10
142.4139440616826
 20
19.5719725026268
 10
142.4139440616789
 20
7.571972502626351
 10
155.2672220190405
 20
7.571972502625897
 10
155.2672220190441
 20
8.771899279358251
 10
156.6169071025987
 20
9.516039915835165
 10
157.7275370029573
 20
10.58481190524372
 10
158.5237674822682
 20
11.90380118353124
 97
        0
 92
        7
 72
     0
 73
     1
 93
       12
 10
550.8229469934457
 20
82.80422678737641
 10
540.7172597718389
 20
82.80422678737641
 10
540.7172597718425
 20
81.60430001064543
 10
540.0019545856784
 20
81.26757637276325
 10
538.7648207767823
 20
80.34949286232887
 10
537.8067397067979
 20
79.14212467942736
 10
537.1937538576429
 20
77.72825746971176
 10
536.9667909667558
 20
76.20462951630663
 10
536.9667909667595
 20
71.24875171224022
 10
537.6393080651913
 20
71.0226201579847
 10
538.0166174607519
 20
70.80422678737642
 10
550.8229469934421
 20
70.80422678737642
 97
        0
 92
        7
 72
     1
 73
     1
 93
       17
 10
534.2674208040197
 20
76.20462951630208
 42
0.0
 10
534.2013783220981
 20
76.99155823941857
 42
0.0
 10
533.773497457795
 20
78.47239810646517
 42
0.0
 10
532.9772669784805
 20
79.79138738477042
 42
0.0
 10
531.8666370781219
 20
80.86015937416897
 42
0.0
 10
530.5169519945747
 20
81.60430001064497
 42
0.0
 10
530.5169519945747
 20
82.80422678737641
 42
0.0
 10
349.4330023651754
 20
82.80422678737641
 42
-1.0
 10
346.9330023651754
 20
82.80422678737641
 42
0.0
 10
185.2612986125212
 20
82.80422678737641
 42
0.0
 10
176.4874698620705
 20
70.80422678737597
 42
0.0
 10
534.2674208040197
 20
70.80422678737642
 42
0.0
 10
534.2674208040197
 20
71.56016293207386
 42
0.0
 10
533.5949037055987
 20
71.78629448637622
 42
0.0
 10
533.2172523302805
 20
72.00395562242539
 42
0.0
 10
533.5949037055951
 20
72.38253717125218
 42
0.0
 10
534.267420804016
 20
72.1564056170003
 42
0.0
 97
        0
 92
        7
 72
     0
 73
     1
 93
       12
 10
569.6791030201392
 20
76.20462951623614
 10
569.4521401292485
 20
77.72825746973769
 10
568.8391542801008
 20
79.14212467941189
 10
567.8810732101236
 20
80.34949286231796
 10
566.6439394012313
 20
81.26757637275323
 10
565.9286342150525
 20
81.60430001064497
 10
565.9286342150489
 20
82.80422678737641
 10
555.8229469934457
 20
82.80422678737641
 10
555.8229469934457
 20
70.80422678737642
 10
568.6292765261395
 20
70.80422678737642
 10
569.0065859217001
 20
71.02262015798652
 10
569.6791030201319
 20
71.24875171224203
 97
        0
 92
        7
 72
     0
 73
     1
 93
       15
 10
618.6525655418853
 20
82.80422678737641
 10
576.1289419923204
 20
82.80422678737641
 10
576.1289419923204
 20
81.60430001064453
 10
574.7792569087695
 20
80.86015937417078
 10
573.6686270084182
 20
79.79138738475859
 10
572.8723965290927
 20
78.47239810646517
 10
572.4445156647933
 20
76.99155823939856
 10
572.3784731828717
 20
76.20462951628616
 10
572.3784731828717
 20
72.15640561699894
 10
573.0509902812999
 20
72.38253717125127
 10
573.4286416566073
 20
72.00395562242357
 10
573.0509902812963
 20
71.78629448637258
 10
572.3784731828717
 20
71.56016293207478
 10
572.3784731828717
 20
70.80422678737642
 10
618.6525655418817
 20
70.80422678737597
 97
        0
 92
        7
 72
     0
 73
     1
 93
        4
 10
655.8150880418987
 20
82.80422678737641
 10
618.6525655418817
 20
82.80422678737641
 10
618.6525655418817
 20
70.80422678737642
 10
653.604926763598
 20
70.80422678737642
 97
        0
 92
        7
 72
     0
 73
     1
 93
       12
 10
644.1689647119172
 20
19.5719725026268
 10
550.1337071805363
 20
19.5719725026268
 10
549.7563977849575
 20
19.35357913201579
 10
549.0838806865366
 20
19.12744757776437
 10
549.0838806865366
 20
14.17156977369751
 10
549.3108435774201
 20
12.64794182028555
 10
549.9238294265568
 20
11.23407461058906
 10
550.8819104965485
 20
10.02670642767753
 10
552.1190443054409
 20
9.108622917244986
 10
552.8343494916233
 20
8.771899279358706
 10
552.8343494916197
 20
7.571972502626806
 10
641.9588034336201
 20
7.571972502626806
 97
        0
 75
     0
 76
     1
 52
90.0
 41
1.0
 77
     0
 78
     1
 53
135.0
 43
-21707.69376187902
 44
-1816.89738005842
 45
-2.245064030267288
 46
-2.245064030267287
 79
     0
 47
0.7422359400034293
 98
       10
 10
150.0253530756571
 20
78.84322888347225
 10
167.6510027222947
 20
78.19078420721172
 10
168.9566112149667
 20
14.25111097421205
 10
154.3322170798099
 20
12.8450167292861
 10
542.3192145555921
 20
74.16362568822506
 10
514.841490286465
 20
74.9058655100892
 10
563.1131575152875
 20
75.64809802737665
 10
585.3923930897407
 20
74.9058655100892
 10
632.9214376491698
 20
72.67915334907349
 10
607.6716286641939
 20
16.26922637503895
  0
HATCH
  5
388B
330
1F
100
AcDbEntity
  8
STAVBA OBRYS
100
AcDbHatch
 10
0.0
 20
0.0
 30
0.0
210
0.0
220
0.0
230
1.0
  2
BRICK
 70
     0
 71
     0
 91
        1
 92
        7
 72
     0
 73
     1
 93
       10
 10
124.6958990804931
 20
247.2684862978947
 10
-39.63792936691163
 20
247.2777279491217
 10
-39.63792936691163
 20
-103.6393624829535
 10
124.6958990804931
 20
-103.6393624829531
 10
124.6958990804968
 20
2.761998245113602
 10
95.99318522064356
 20
42.01881258634358
 10
78.40238841336838
 20
42.01881258634358
 10
72.75294807264879
 20
45.54427900982028
 10
78.40238841336475
 20
49.06974543329335
 10
124.6958990804895
 20
49.06974543329289
 97
        0
 75
     0
 76
     1
 52
0.0
 41
10.0
 77
     0
 78
     3
 53
0.0
 43
-21707.69376187902
 44
-1816.89738005842
 45
0.0
 46
63.5
 79
     0
 53
90.0
 43
-21707.69376187902
 44
-1816.89738005842
 45
-127.0
 46
0.0000000000000078
 79
     2
 49
63.5
 49
-63.5
 53
90.0
 43
-21644.19376187903
 44
-1816.89738005842
 45
-127.0
 46
0.0000000000000078
 79
     2
 49
-63.5
 49
63.5
 47
1.934738201277294
 98
        1
 10
42.61614639374317
 20
63.16611260029396
  0
LINE
  5
388C
330
1F
100
AcDbEntity
  8
SPOJOVACÍ
  6
Continuous
100
AcDbLine
 10
134.7543768208605
 20
48.39035533015096
 30
0.0
 11
133.3313386594026
 21
42.69820268430822
 31
0.0
  0
LINE
  5
388D
330
1F
100
AcDbEntity
  8
SPOJOVACÍ
  6
Continuous
100
AcDbLine
 10
134.7543768208605
 20
48.39035533015096
 30
0.0
 11
134.4962443173252
 21
47.9424844022431
 31
0.0
  0
LINE
  5
388E
330
1F
100
AcDbEntity
  8
SPOJOVACÍ
  6
Continuous
100
AcDbLine
 10
134.7543768208605
 20
48.39035533015096
 30
0.0
 11
135.2033508767498
 21
47.9424844022431
 31
0.0
  0
LINE
  5
388F
330
1F
100
AcDbEntity
  8
SPOJOVACÍ
  6
Continuous
100
AcDbLine
 10
133.3313386594026
 20
42.69820268430822
 30
0.0
 11
132.8834677340827
 21
43.14607360703877
 31
0.0
  0
LINE
  5
3890
330
1F
100
AcDbEntity
  8
SPOJOVACÍ
  6
Continuous
100
AcDbLine
 10
133.3313386594026
 20
42.69820268430822
 30
0.0
 11
133.5905742935036
 21
43.14607360703877
 31
0.0
  0
LINE
  5
3891
330
1F
100
AcDbEntity
  8
SPOJOVACÍ
  6
Continuous
100
AcDbLine
 10
134.4962443173252
 20
47.9424844022431
 30
0.0
 11
132.8834677340827
 21
43.14607360703877
 31
0.0
  0
LINE
  5
3892
330
1F
100
AcDbEntity
  8
SPOJOVACÍ
  6
Continuous
100
AcDbLine
 10
135.2033508767498
 20
47.9424844022431
 30
0.0
 11
133.5905742935036
 21
43.14607360703877
 31
0.0
  0
LINE
  5
3893
330
1F
100
AcDbEntity
  8
SPOJOVACÍ
  6
Continuous
100
AcDbLine
 10
138.1503667351106
 20
48.39035533015096
 30
0.0
 11
136.7273285736527
 21
42.69820268430822
 31
0.0
  0
LINE
  5
3894
330
1F
100
AcDbEntity
  8
SPOJOVACÍ
  6
Continuous
100
AcDbLine
 10
138.1503667351106
 20
48.39035533015096
 30
0.0
 11
137.8922342315753
 21
47.9424844022431
 31
0.0
  0
LINE
  5
3895
330
1F
100
AcDbEntity
  8
SPOJOVACÍ
  6
Continuous
100
AcDbLine
 10
138.1503667351106
 20
48.39035533015096
 30
0.0
 11
138.5993407909999
 21
47.9424844022431
 31
0.0
  0
LINE
  5
3896
330
1F
100
AcDbEntity
  8
SPOJOVACÍ
  6
Continuous
100
AcDbLine
 10
136.7273285736527
 20
42.69820268430822
 30
0.0
 11
136.2794576483328
 21
43.14607360703877
 31
0.0
  0
LINE
  5
3897
330
1F
100
AcDbEntity
  8
SPOJOVACÍ
  6
Continuous
100
AcDbLine
 10
136.7273285736527
 20
42.69820268430822
 30
0.0
 11
136.9865642077537
 21
43.14607360703877
 31
0.0
  0
LINE
  5
3898
330
1F
100
AcDbEntity
  8
SPOJOVACÍ
  6
Continuous
100
AcDbLine
 10
137.8922342315753
 20
47.9424844022431
 30
0.0
 11
136.2794576483328
 21
43.14607360703877
 31
0.0
  0
LINE
  5
3899
330
1F
100
AcDbEntity
  8
SPOJOVACÍ
  6
Continuous
100
AcDbLine
 10
138.5993407909999
 20
47.9424844022431
 30
0.0
 11
136.9865642077537
 21
43.14607360703877
 31
0.0
  0
LINE
  5
389A
330
1F
100
AcDbEntity
  8
SPOJOVACÍ
  6
Continuous
100
AcDbLine
 10
131.8073609624997
 20
47.9424844022431
 30
0.0
 11
130.1945843792535
 21
43.14607360703877
 31
0.0
  0
LINE
  5
389B
330
1F
100
AcDbEntity
  8
SPOJOVACÍ
  6
Continuous
100
AcDbLine
 10
131.1002544030751
 20
47.9424844022431
 30
0.0
 11
129.4874778198326
 21
43.14607360703877
 31
0.0
  0
LINE
  5
389C
330
1F
100
AcDbEntity
  8
SPOJOVACÍ
  6
Continuous
100
AcDbLine
 10
129.9353487451525
 20
42.69820268430822
 30
0.0
 11
130.1945843792535
 21
43.14607360703877
 31
0.0
  0
LINE
  5
389D
330
1F
100
AcDbEntity
  8
SPOJOVACÍ
  6
Continuous
100
AcDbLine
 10
129.9353487451525
 20
42.69820268430822
 30
0.0
 11
129.4874778198326
 21
43.14607360703877
 31
0.0
  0
LINE
  5
389E
330
1F
100
AcDbEntity
  8
SPOJOVACÍ
  6
Continuous
100
AcDbLine
 10
131.3583869066104
 20
48.39035533015096
 30
0.0
 11
131.8073609624997
 21
47.9424844022431
 31
0.0
  0
LINE
  5
389F
330
1F
100
AcDbEntity
  8
SPOJOVACÍ
  6
Continuous
100
AcDbLine
 10
131.3583869066104
 20
48.39035533015096
 30
0.0
 11
131.1002544030751
 21
47.9424844022431
 31
0.0
  0
LINE
  5
38A0
330
1F
100
AcDbEntity
  8
SPOJOVACÍ
  6
Continuous
100
AcDbLine
 10
131.3583869066104
 20
48.39035533015096
 30
0.0
 11
129.9353487451525
 21
42.69820268430822
 31
0.0
  0
HATCH
  5
38A1
330
1F
100
AcDbEntity
  8
STAVBA OBRYS
100
AcDbHatch
 10
0.0
 20
0.0
 30
0.0
210
0.0
220
0.0
230
1.0
  2
AR-CONC
 70
     0
 71
     0
 91
        3
 92
        7
 72
     0
 73
     1
 93
        4
 10
137.1958990804931
 20
247.2677833346559
 10
124.6958990804895
 20
247.2684862978951
 10
124.6958990804895
 20
71.82674979409632
 10
137.1958990804931
 20
77.08647024861085
 97
        0
 92
        7
 72
     0
 73
     1
 93
        4
 10
137.1958990804931
 20
13.57197250262589
 10
124.6958990804931
 20
18.8316929571427
 10
124.6958990804931
 20
2.761998245118149
 10
137.1958990804895
 20
-14.33430078992358
 97
        0
 92
        7
 72
     0
 73
     1
 93
        4
 10
137.1958990804895
 20
-14.33430078992131
 10
124.6958990804931
 20
2.761998245113602
 10
124.6958990804931
 20
-103.6393624829531
 10
137.1958990804895
 20
-103.6393624829535
 97
        0
 75
     0
 76
     1
 52
90.0
 41
0.1
 77
     0
 78
    13
 53
140.0
 43
-21707.69376187902
 44
-1816.89738005842
 45
1.593908553890309
 46
18.2184668996004
 79
     2
 49
1.905
 49
-20.955
 53
85.00000000000001
 43
-21707.69376187902
 44
-1816.89738005842
 45
-19.10566428821799
 46
-3.524282597566697
 79
     2
 49
1.524
 49
-16.764
 53
190.4509999999999
 43
-21707.56093687903
 44
-1815.37918005842
 45
-17.51166878202918
 46
14.69425016659592
 79
     2
 49
1.619
 49
-17.809
 53
136.1841999999999
 43
-21712.77376187902
 44
-1816.89738005842
 45
4.204232793272717
 46
27.10790408921299
 79
     2
 49
2.857499999999999
 49
-31.4325
 53
186.6355999999999
 43
-21712.42341187903
 44
-1814.63839005842
 45
-24.74255558900492
 46
23.74042344662371
 79
     2
 49
2.4285
 49
-26.7135
 53
81.18400000000004
 43
-21712.77376187902
 44
-1816.89738005842
 45
-24.74251178605976
 46
23.74046058139339
 79
     2
 49
2.286
 49
-25.146
 53
111.0
 43
-21711.50376187902
 44
-1814.35738005842
 45
10.22655185167625
 46
15.16148798353833
 79
     2
 49
1.905
 49
-20.955
 53
56.00000000000004
 43
-21711.50376187902
 44
-1814.35738005842
 45
-18.41879661223192
 46
6.180202834764708
 79
     2
 49
1.524
 49
-16.764
 53
161.4514
 43
-21710.65155187902
 44
-1813.09393005842
 45
-8.192285771605742
 46
21.34164907701245
 79
     2
 49
1.618999999999999
 49
-17.80899999999998
 53
127.5
 43
-21707.69376187902
 44
-1816.89738005842
 45
-8.455503887315311
 46
0.3088603250591822
 79
     6
 49
0.0
 49
-16.5608
 49
0.0
 49
-17.018
 49
0.0
 49
-16.8275
 53
97.49999999999998
 43
-21707.69376187902
 44
-1816.89738005842
 45
-10.01805748181195
 46
6.681966251030575
 79
     6
 49
0.0
 49
-9.702799999999999
 49
0.0
 49
-16.1798
 49
0.0
 49
-6.4135
 53
57.5
 43
-21707.69376187902
 44
-1822.56158005842
 45
0.5728743992673473
 46
13.55905951668713
 79
     6
 49
0.0
 49
-6.35
 49
0.0
 49
-19.812
 49
0.0
 49
-26.289
 53
47.5
 43
-21707.69376187902
 44
-1825.10158005842
 45
-2.5426491033333
 46
14.8129181386018
 79
     6
 49
0.0
 49
-8.255
 49
0.0
 49
-13.1572
 49
0.0
 49
-18.669
 47
0.7649822313258392
 98
        3
 10
131.4749028304148
 20
102.0469066307344
 10
131.4749028304148
 20
6.424126932371393
 10
128.4132995502449
 20
-31.06000306000686
  0
LINE
  5
38A2
330
1F
100
AcDbEntity
  8
STAVBA OBRYS
100
AcDbLine
 10
137.1958990804931
 20
13.5719725026268
 30
0.0
 11
137.1958990804931
 21
247.2677833346559
 31
0.0
  0
HATCH
  5
38A3
330
1F
100
AcDbEntity
  8
STAVBA OBRYS
100
AcDbHatch
 10
0.0
 20
0.0
 30
0.0
210
0.0
220
0.0
230
1.0
  2
AR-CONC
 70
     0
 71
     0
 91
        1
 92
        7
 72
     0
 73
     1
 93
        4
 10
-99.63792936691163
 20
247.2811021726696
 10
-112.137929366908
 20
247.2818051359088
 10
-112.137929366908
 20
-103.6393624829531
 10
-99.63792936691163
 20
-103.639362482954
 97
        0
 75
     0
 76
     1
 52
90.0
 41
0.1
 77
     0
 78
    13
 53
140.0
 43
-21695.19643157674
 44
-1816.89738005842
 45
1.593908553890309
 46
18.2184668996004
 79
     2
 49
1.905
 49
-20.955
 53
85.00000000000001
 43
-21695.19643157674
 44
-1816.89738005842
 45
-19.10566428821799
 46
-3.524282597566697
 79
     2
 49
1.524
 49
-16.764
 53
190.4509999999999
 43
-21695.06360657674
 44
-1815.37918005842
 45
-17.51166878202918
 46
14.69425016659592
 79
     2
 49
1.619
 49
-17.809
 53
136.1841999999999
 43
-21700.27643157674
 44
-1816.89738005842
 45
4.204232793272717
 46
27.10790408921299
 79
     2
 49
2.857499999999999
 49
-31.4325
 53
186.6355999999999
 43
-21699.92608157675
 44
-1814.63839005842
 45
-24.74255558900492
 46
23.74042344662371
 79
     2
 49
2.4285
 49
-26.7135
 53
81.18400000000004
 43
-21700.27643157674
 44
-1816.89738005842
 45
-24.74251178605976
 46
23.74046058139339
 79
     2
 49
2.286
 49
-25.146
 53
111.0
 43
-21699.00643157674
 44
-1814.35738005842
 45
10.22655185167625
 46
15.16148798353833
 79
     2
 49
1.905
 49
-20.955
 53
56.00000000000004
 43
-21699.00643157674
 44
-1814.35738005842
 45
-18.41879661223192
 46
6.180202834764708
 79
     2
 49
1.524
 49
-16.764
 53
161.4514
 43
-21698.15422157674
 44
-1813.09393005842
 45
-8.192285771605742
 46
21.34164907701245
 79
     2
 49
1.618999999999998
 49
-17.80899999999998
 53
127.5
 43
-21695.19643157674
 44
-1816.89738005842
 45
-8.455503887315311
 46
0.3088603250591822
 79
     6
 49
0.0
 49
-16.5608
 49
0.0
 49
-17.018
 49
0.0
 49
-16.8275
 53
97.49999999999994
 43
-21695.19643157674
 44
-1816.89738005842
 45
-10.01805748181195
 46
6.681966251030575
 79
     6
 49
0.0
 49
-9.702799999999999
 49
0.0
 49
-16.1798
 49
0.0
 49
-6.4135
 53
57.5
 43
-21695.19643157674
 44
-1822.56158005842
 45
0.5728743992673473
 46
13.55905951668713
 79
     6
 49
0.0
 49
-6.35
 49
0.0
 49
-19.812
 49
0.0
 49
-26.289
 53
47.5
 43
-21695.19643157674
 44
-1825.10158005842
 45
-2.5426491033333
 46
14.8129181386018
 79
     6
 49
0.0
 49
-8.255
 49
0.0
 49
-13.1572
 49
0.0
 49
-18.669
 47
1.012476867815381
 98
        3
 10
132.8152473380113
 20
-68.77774067880062
 10
128.7631298685745
 20
25.38261188901953
 10
-104.2336837188551
 20
6.145552339687412
  0
LINE
  5
38A4
330
1F
100
AcDbEntity
  8
STAVBA OBRYS
100
AcDbLine
 10
-39.63792936691163
 20
247.2792534452354
 30
0.0
 11
-39.63792936691163
 21
-103.6393624829535
 31
0.0
  0
LINE
  5
38A5
330
1F
100
AcDbEntity
  8
STAVBA OBRYS
  6
IZOLACE
 48
3.0
100
AcDbLine
 10
-69.63792936691163
 20
247.2792534452354
 30
0.0
 11
-69.63792936691163
 21
-103.6393624829535
 31
0.0
  0
LINE
  5
38A6
330
1F
100
AcDbEntity
  8
NOSNÉ KONSTRUKCE
100
AcDbLine
 10
188.4027310963
 20
64.71366543200367
 30
0.0
 11
189.9027310963
 21
64.71366543200367
 31
0.0
  0
LINE
  5
38A7
330
1F
100
AcDbEntity
  8
NOSNÉ KONSTRUKCE
100
AcDbLine
 10
192.0852624683037
 20
25.36000899145648
 30
0.0
 11
190.5852624683037
 21
25.36000899145648
 31
0.0
  0
LINE
  5
38A8
330
1F
100
AcDbEntity
  8
NOSNÉ KONSTRUKCE
100
AcDbLine
 10
579.5852624683037
 20
25.36000899145648
 30
0.0
 11
578.0852624683038
 21
25.36000899145648
 31
0.0
  0
LINE
  5
38A9
330
1F
100
AcDbEntity
  8
NOSNÉ KONSTRUKCE
100
AcDbLine
 10
575.9027310963
 20
64.71366543200367
 30
0.0
 11
577.4027310963
 21
64.71366543200367
 31
0.0
  0
LINE
  5
38AA
330
1F
100
AcDbEntity
  8
CETRIS
100
AcDbLine
 10
142.4139440616789
 20
19.5719725026268
 30
0.0
 11
644.1689647119172
 21
19.5719725026268
 31
0.0
  0
LINE
  5
38AB
330
1F
100
AcDbEntity
  8
CETRIS
100
AcDbLine
 10
142.4139440616789
 20
7.571972502626351
 30
0.0
 11
641.9588034336165
 21
7.571972502626806
 31
0.0
  0
LINE
  5
38AC
330
1F
100
AcDbEntity
  8
CETRIS
100
AcDbLine
 10
142.4139440616826
 20
82.80422678737641
 30
0.0
 11
550.8229469934457
 21
82.80422678737641
 31
0.0
  0
LINE
  5
38AD
330
1F
100
AcDbEntity
  8
CETRIS
100
AcDbLine
 10
142.4139440616826
 20
70.80422678737642
 30
0.0
 11
550.8229469934457
 21
70.80422678737642
 31
0.0
  0
LINE
  5
38AE
330
1F
100
AcDbEntity
  8
izolace
100
AcDbLine
 10
140.3667742287042
 20
70.03899122568083
 30
0.0
 11
140.3667742287042
 21
20.03468319777886
 31
0.0
  0
LINE
  5
38AF
330
1F
100
AcDbEntity
  8
izolace
100
AcDbLine
 10
138.3667742287078
 20
70.03899122568083
 30
0.0
 11
138.3667742287005
 21
20.03468319777886
 31
0.0
  0
LWPOLYLINE
  5
38B0
330
1F
100
AcDbEntity
  8
izolace
100
AcDbPolyline
 90
        4
 70
     1
 43
0.0
 10
138.3667742287005
 20
25.83503526722626
 10
140.3667742287042
 20
25.83503526722626
 10
140.3667742287042
 20
38.33611227420152
 10
138.3667742287005
 20
38.33611227420152
  0
LWPOLYLINE
  5
38B1
330
1F
100
AcDbEntity
  8
izolace
100
AcDbPolyline
 90
        4
 70
     1
 43
0.0
 10
138.3667742287005
 20
50.83718928117679
 10
140.3667742287042
 20
50.83718928117679
 10
140.3667742287042
 20
63.33826628815251
 10
138.3667742287005
 20
63.33826628815251
  0
HATCH
  5
38B2
330
1F
100
AcDbEntity
  8
izolace
100
AcDbHatch
 10
0.0
 20
0.0
 30
0.0
210
0.0
220
0.0
230
1.0
  2
SOLID
 70
     1
 71
     0
 91
        3
 92
        7
 72
     0
 73
     1
 93
        4
 10
140.3667742287005
 20
70.03899122568083
 10
138.3667742287042
 20
70.03899122568083
 10
138.3667742287005
 20
63.33826628815251
 10
140.3667742287005
 20
63.33826628815251
 97
        0
 92
        7
 72
     0
 73
     1
 93
        4
 10
140.3667742287005
 20
50.83718928117679
 10
138.3667742287005
 20
50.83718928117679
 10
138.3667742287005
 20
38.33611227420152
 10
140.3667742287005
 20
38.33611227420152
 97
        0
 92
        7
 72
     0
 73
     1
 93
        4
 10
140.3667742287042
 20
25.83503526722626
 10
138.3667742286969
 20
25.83503526722626
 10
138.3667742287005
 20
20.03468319777886
 10
140.3667742287042
 20
20.03468319777886
 97
        0
 75
     0
 76
     1
 47
0.0846398039763049
 98
        3
 10
139.66047218366
 20
65.16931523259183
 10
139.8298578993097
 20
48.49526182703477
 10
139.5758380180603
 20
25.30386516353093
  0
LINE
  5
38B3
330
1F
100
AcDbEntity
  8
CETRIS
100
AcDbLine
 10
142.4139440616789
 20
7.571972502626351
 30
0.0
 11
142.4139440616789
 21
19.5719725026268
 31
0.0
  0
LINE
  5
38B4
330
1F
100
AcDbEntity
  8
CETRIS
100
AcDbLine
 10
142.4139440616789
 20
70.80422678737642
 30
0.0
 11
142.4139440616826
 21
82.80422678737641
 31
0.0
  0
LINE
  5
38B5
330
1F
100
AcDbEntity
  8
SPOJOVACÍ
100
AcDbLine
 10
143.6141901285053
 20
52.29427900981892
 30
0.0
 11
142.7372795063719
 21
52.29427900981892
 31
0.0
  0
LINE
  5
38B6
330
1F
100
AcDbEntity
  8
SPOJOVACÍ
100
AcDbLine
 10
142.7372795063719
 20
52.29427900981892
 30
0.0
 11
143.6141901285053
 21
52.29427900981892
 31
0.0
  0
LINE
  5
38B7
330
1F
100
AcDbEntity
  8
SPOJOVACÍ
  6
DASHED
100
AcDbLine
 10
142.7372795063719
 20
52.29427900981892
 30
0.0
 11
139.5546452037969
 21
47.25521650981801
 31
0.0
  0
LINE
  5
38B8
330
1F
100
AcDbEntity
  8
SPOJOVACÍ
100
AcDbLine
 10
142.7372795063719
 20
38.79427900981892
 30
0.0
 11
139.5546452037932
 21
43.83334150981801
 31
0.0
  0
LINE
  5
38B9
330
1F
100
AcDbEntity
  8
SPOJOVACÍ
100
AcDbLine
 10
142.7372795063719
 20
38.79427900981892
 30
0.0
 11
143.6141901285053
 21
38.79427900981892
 31
0.0
  0
LINE
  5
38BA
330
1F
100
AcDbEntity
  8
SPOJOVACÍ
100
AcDbLine
 10
144.1788678728415
 20
52.29427900981892
 30
0.0
 11
142.7372795063719
 21
52.29427900981892
 31
0.0
  0
LINE
  5
38BB
330
1F
100
AcDbEntity
  8
SPOJOVACÍ
100
AcDbLine
 10
144.1788678728415
 20
38.79427900981892
 30
0.0
 11
142.7372795063719
 21
38.79427900981892
 31
0.0
  0
LINE
  5
38BC
330
1F
100
AcDbEntity
  8
SPOJOVACÍ
100
AcDbLine
 10
144.1788678728415
 20
52.29427900981892
 30
0.0
 11
144.1788678728415
 21
38.79427900981892
 31
0.0
  0
LINE
  5
38BD
330
1F
100
AcDbEntity
  8
SPOJOVACÍ
  6
DASHDOT2
100
AcDbLine
 10
154.0757428731093
 20
45.54427900981892
 30
0.0
 11
85.66998766414043
 21
45.54427900981801
 31
0.0
  0
LINE
  5
38BE
330
1F
100
AcDbEntity
  8
SPOJOVACÍ
  6
Continuous
100
AcDbLine
 10
94.13250247316398
 20
47.75725442952472
 30
0.0
 11
93.90708018263547
 21
47.36684220785656
 31
0.0
  0
LINE
  5
38BF
330
1F
100
AcDbEntity
  8
SPOJOVACÍ
  6
Continuous
100
AcDbLine
 10
94.13250247316398
 20
47.75725442952472
 30
0.0
 11
94.52195545170331
 21
47.36684220785656
 31
0.0
  0
LINE
  5
38C0
330
1F
100
AcDbEntity
  8
SPOJOVACÍ
  6
Continuous
100
AcDbLine
 10
93.12913346953507
 20
43.50300822513355
 30
0.0
 11
92.73872124702108
 21
43.89246120142098
 31
0.0
  0
LINE
  5
38C1
330
1F
100
AcDbEntity
  8
SPOJOVACÍ
  6
Continuous
100
AcDbLine
 10
93.12913346953507
 20
43.50300822513355
 30
0.0
 11
93.35359651608531
 21
43.89246120142098
 31
0.0
  0
LINE
  5
38C2
330
1F
100
AcDbEntity
  8
SPOJOVACÍ
  6
Continuous
100
AcDbLine
 10
93.90708018263547
 20
47.36684220785656
 30
0.0
 11
92.73872124702108
 21
43.89246120142098
 31
0.0
  0
LINE
  5
38C3
330
1F
100
AcDbEntity
  8
SPOJOVACÍ
  6
Continuous
100
AcDbLine
 10
94.52195545170331
 20
47.36684220785656
 30
0.0
 11
93.35359651608531
 21
43.89246120142098
 31
0.0
  0
LINE
  5
38C4
330
1F
100
AcDbEntity
  8
SPOJOVACÍ
  6
Continuous
100
AcDbLine
 10
94.13250247316398
 20
47.75725442952472
 30
0.0
 11
93.12913346953507
 21
43.50300822513355
 31
0.0
  0
LINE
  5
38C5
330
1F
100
AcDbEntity
  8
SPOJOVACÍ
  6
Continuous
100
AcDbLine
 10
91.02359335154403
 20
47.17499345135303
 30
0.0
 11
90.79913030499382
 21
46.7855404705636
 31
0.0
  0
LINE
  5
38C6
330
1F
100
AcDbEntity
  8
SPOJOVACÍ
  6
Continuous
100
AcDbLine
 10
91.02359335154403
 20
47.17499345135303
 30
0.0
 11
91.41400557405802
 21
46.7855404705636
 31
0.0
  0
LINE
  5
38C7
330
1F
100
AcDbEntity
  8
SPOJOVACÍ
  6
Continuous
100
AcDbLine
 10
90.37034833112636
 20
43.96152675628338
 30
0.0
 11
89.97993610889613
 21
44.3509797325708
 31
0.0
  0
LINE
  5
38C8
330
1F
100
AcDbEntity
  8
SPOJOVACÍ
  6
Continuous
100
AcDbLine
 10
90.37034833112636
 20
43.96152675628338
 30
0.0
 11
90.59481137767296
 21
44.3509797325708
 31
0.0
  0
LINE
  5
38C9
330
1F
100
AcDbEntity
  8
SPOJOVACÍ
  6
Continuous
100
AcDbLine
 10
90.79913030499382
 20
46.7855404705636
 30
0.0
 11
89.97993610889613
 21
44.3509797325708
 31
0.0
  0
LINE
  5
38CA
330
1F
100
AcDbEntity
  8
SPOJOVACÍ
  6
Continuous
100
AcDbLine
 10
91.41400557405802
 20
46.7855404705636
 30
0.0
 11
90.59481137767296
 21
44.3509797325708
 31
0.0
  0
LINE
  5
38CB
330
1F
100
AcDbEntity
  8
SPOJOVACÍ
  6
Continuous
100
AcDbLine
 10
91.02359335154403
 20
47.17499345135303
 30
0.0
 11
90.37034833112636
 21
43.96152675628338
 31
0.0
  0
LINE
  5
38CC
330
1F
100
AcDbEntity
  8
SPOJOVACÍ
  6
Continuous
100
AcDbLine
 10
87.91564347390238
 20
46.59273246867934
 30
0.0
 11
87.69022118338114
 21
46.20327949239191
 31
0.0
  0
LINE
  5
38CD
330
1F
100
AcDbEntity
  8
SPOJOVACÍ
  6
Continuous
100
AcDbLine
 10
87.91564347390238
 20
46.59273246867934
 30
0.0
 11
88.30509645243807
 21
46.20327949239191
 31
0.0
  0
LINE
  5
38CE
330
1F
100
AcDbEntity
  8
SPOJOVACÍ
  6
Continuous
100
AcDbLine
 10
87.5952560482591
 20
44.37112385405209
 30
0.0
 11
87.20484382602524
 21
44.76057683033952
 31
0.0
  0
LINE
  5
38CF
330
1F
100
AcDbEntity
  8
SPOJOVACÍ
  6
Continuous
100
AcDbLine
 10
87.5952560482591
 20
44.37112385405209
 30
0.0
 11
87.81971909508945
 21
44.76057683033952
 31
0.0
  0
LINE
  5
38D0
330
1F
100
AcDbEntity
  8
SPOJOVACÍ
  6
Continuous
100
AcDbLine
 10
87.69022118338114
 20
46.20327949239191
 30
0.0
 11
87.20484382602524
 21
44.76057683033952
 31
0.0
  0
LINE
  5
38D1
330
1F
100
AcDbEntity
  8
SPOJOVACÍ
  6
Continuous
100
AcDbLine
 10
88.30509645243807
 20
46.20327949239191
 30
0.0
 11
87.81971909508945
 21
44.76057683033952
 31
0.0
  0
LINE
  5
38D2
330
1F
100
AcDbEntity
  8
SPOJOVACÍ
  6
Continuous
100
AcDbLine
 10
87.91564347390238
 20
46.59273246867934
 30
0.0
 11
87.5952560482591
 21
44.37112385405209
 31
0.0
  0
LINE
  5
38D3
330
1F
100
AcDbEntity
  8
SPOJOVACÍ
  6
Continuous
100
AcDbLine
 10
97.398487764979
 20
48.39035533273937
 30
0.0
 11
95.97544960352104
 21
42.69820268689665
 31
0.0
  0
LINE
  5
38D4
330
1F
100
AcDbEntity
  8
SPOJOVACÍ
  6
Continuous
100
AcDbLine
 10
97.398487764979
 20
48.39035533273937
 30
0.0
 11
97.14035526144369
 21
47.94248440483198
 31
0.0
  0
LINE
  5
38D5
330
1F
100
AcDbEntity
  8
SPOJOVACÍ
  6
Continuous
100
AcDbLine
 10
97.398487764979
 20
48.39035533273937
 30
0.0
 11
97.84746182086827
 21
47.94248440483198
 31
0.0
  0
LINE
  5
38D6
330
1F
100
AcDbEntity
  8
SPOJOVACÍ
  6
Continuous
100
AcDbLine
 10
95.97544960352104
 20
42.69820268689665
 30
0.0
 11
95.52757867820117
 21
43.14607360962719
 31
0.0
  0
LINE
  5
38D7
330
1F
100
AcDbEntity
  8
SPOJOVACÍ
  6
Continuous
100
AcDbLine
 10
95.97544960352104
 20
42.69820268689665
 30
0.0
 11
96.23468523762211
 21
43.14607360962719
 31
0.0
  0
LINE
  5
38D8
330
1F
100
AcDbEntity
  8
SPOJOVACÍ
  6
Continuous
100
AcDbLine
 10
97.14035526144369
 20
47.94248440483198
 30
0.0
 11
95.52757867820117
 21
43.14607360962719
 31
0.0
  0
LINE
  5
38D9
330
1F
100
AcDbEntity
  8
SPOJOVACÍ
  6
Continuous
100
AcDbLine
 10
97.84746182086827
 20
47.94248440483198
 30
0.0
 11
96.23468523762211
 21
43.14607360962719
 31
0.0
  0
LINE
  5
38DA
330
1F
100
AcDbEntity
  8
SPOJOVACÍ
  6
DASHED
100
AcDbLine
 10
98.76645983155766
 20
47.25521650981801
 30
0.0
 11
139.5546452037969
 21
47.25521650981801
 31
0.0
  0
LINE
  5
38DB
330
1F
100
AcDbEntity
  8
SPOJOVACÍ
  6
DASHED
100
AcDbLine
 10
98.76645983155766
 20
43.83334150981801
 30
0.0
 11
139.5546452037932
 21
43.83334150981801
 31
0.0
  0
LINE
  5
38DC
330
1F
100
AcDbEntity
  8
SPOJOVACÍ
  6
DASHED
100
AcDbLine
 10
86.06119970786393
 20
45.54427900981801
 30
0.0
 11
98.76645983155766
 21
47.25521650981801
 31
0.0
  0
LINE
  5
38DD
330
1F
100
AcDbEntity
  8
SPOJOVACÍ
  6
DASHED
100
AcDbLine
 10
86.06119970786393
 20
45.54427900981846
 30
0.0
 11
98.76645983155766
 21
43.83334150981801
 31
0.0
  0
LINE
  5
38DE
330
1F
100
AcDbEntity
  8
SPOJOVACÍ
  6
Continuous
100
AcDbLine
 10
101.2434517351183
 20
47.94248440483198
 30
0.0
 11
99.63067515187219
 21
43.14607360962719
 31
0.0
  0
LINE
  5
38DF
330
1F
100
AcDbEntity
  8
SPOJOVACÍ
  6
Continuous
100
AcDbLine
 10
100.5363451756937
 20
47.94248440483198
 30
0.0
 11
98.92356859245126
 21
43.14607360962719
 31
0.0
  0
LINE
  5
38E0
330
1F
100
AcDbEntity
  8
SPOJOVACÍ
  6
Continuous
100
AcDbLine
 10
99.37143951777114
 20
42.69820268689665
 30
0.0
 11
99.63067515187219
 21
43.14607360962719
 31
0.0
  0
LINE
  5
38E1
330
1F
100
AcDbEntity
  8
SPOJOVACÍ
  6
Continuous
100
AcDbLine
 10
99.37143951777114
 20
42.69820268689665
 30
0.0
 11
98.92356859245126
 21
43.14607360962719
 31
0.0
  0
LINE
  5
38E2
330
1F
100
AcDbEntity
  8
SPOJOVACÍ
  6
Continuous
100
AcDbLine
 10
100.794477679229
 20
48.39035533273937
 30
0.0
 11
101.2434517351183
 21
47.94248440483198
 31
0.0
  0
LINE
  5
38E3
330
1F
100
AcDbEntity
  8
SPOJOVACÍ
  6
Continuous
100
AcDbLine
 10
100.794477679229
 20
48.39035533273937
 30
0.0
 11
100.5363451756937
 21
47.94248440483198
 31
0.0
  0
LINE
  5
38E4
330
1F
100
AcDbEntity
  8
SPOJOVACÍ
  6
Continuous
100
AcDbLine
 10
100.794477679229
 20
48.39035533273937
 30
0.0
 11
99.37143951777114
 21
42.69820268689665
 31
0.0
  0
LINE
  5
38E5
330
1F
100
AcDbEntity
  8
SPOJOVACÍ
  6
Continuous
100
AcDbLine
 10
104.1904675934791
 20
48.39035533273937
 30
0.0
 11
102.7674294320212
 21
42.69820268689665
 31
0.0
  0
LINE
  5
38E6
330
1F
100
AcDbEntity
  8
SPOJOVACÍ
  6
Continuous
100
AcDbLine
 10
104.1904675934791
 20
48.39035533273937
 30
0.0
 11
103.9323350899438
 21
47.94248440483198
 31
0.0
  0
LINE
  5
38E7
330
1F
100
AcDbEntity
  8
SPOJOVACÍ
  6
Continuous
100
AcDbLine
 10
104.1904675934791
 20
48.39035533273937
 30
0.0
 11
104.6394416493684
 21
47.94248440483198
 31
0.0
  0
LINE
  5
38E8
330
1F
100
AcDbEntity
  8
SPOJOVACÍ
  6
Continuous
100
AcDbLine
 10
102.7674294320212
 20
42.69820268689665
 30
0.0
 11
102.3195585067013
 21
43.14607360962719
 31
0.0
  0
LINE
  5
38E9
330
1F
100
AcDbEntity
  8
SPOJOVACÍ
  6
Continuous
100
AcDbLine
 10
102.7674294320212
 20
42.69820268689665
 30
0.0
 11
103.0266650661223
 21
43.14607360962719
 31
0.0
  0
LINE
  5
38EA
330
1F
100
AcDbEntity
  8
SPOJOVACÍ
  6
Continuous
100
AcDbLine
 10
103.9323350899438
 20
47.94248440483198
 30
0.0
 11
102.3195585067013
 21
43.14607360962719
 31
0.0
  0
LINE
  5
38EB
330
1F
100
AcDbEntity
  8
SPOJOVACÍ
  6
Continuous
100
AcDbLine
 10
104.6394416493684
 20
47.94248440483198
 30
0.0
 11
103.0266650661223
 21
43.14607360962719
 31
0.0
  0
LINE
  5
38EC
330
1F
100
AcDbEntity
  8
SPOJOVACÍ
  6
Continuous
100
AcDbLine
 10
107.5864575077292
 20
48.39035533273937
 30
0.0
 11
106.1634193462713
 21
42.69820268689665
 31
0.0
  0
LINE
  5
38ED
330
1F
100
AcDbEntity
  8
SPOJOVACÍ
  6
Continuous
100
AcDbLine
 10
107.5864575077292
 20
48.39035533273937
 30
0.0
 11
107.3283250041939
 21
47.94248440483198
 31
0.0
  0
LINE
  5
38EE
330
1F
100
AcDbEntity
  8
SPOJOVACÍ
  6
Continuous
100
AcDbLine
 10
107.5864575077292
 20
48.39035533273937
 30
0.0
 11
108.0354315636185
 21
47.94248440483198
 31
0.0
  0
LINE
  5
38EF
330
1F
100
AcDbEntity
  8
SPOJOVACÍ
  6
Continuous
100
AcDbLine
 10
106.1634193462713
 20
42.69820268689665
 30
0.0
 11
105.7155484209514
 21
43.14607360962719
 31
0.0
  0
LINE
  5
38F0
330
1F
100
AcDbEntity
  8
SPOJOVACÍ
  6
Continuous
100
AcDbLine
 10
106.1634193462713
 20
42.69820268689665
 30
0.0
 11
106.4226549803723
 21
43.14607360962719
 31
0.0
  0
LINE
  5
38F1
330
1F
100
AcDbEntity
  8
SPOJOVACÍ
  6
Continuous
100
AcDbLine
 10
107.3283250041939
 20
47.94248440483198
 30
0.0
 11
105.7155484209514
 21
43.14607360962719
 31
0.0
  0
LINE
  5
38F2
330
1F
100
AcDbEntity
  8
SPOJOVACÍ
  6
Continuous
100
AcDbLine
 10
108.0354315636185
 20
47.94248440483198
 30
0.0
 11
106.4226549803723
 21
43.14607360962719
 31
0.0
  0
LINE
  5
38F3
330
1F
100
AcDbEntity
  8
SPOJOVACÍ
  6
Continuous
100
AcDbLine
 10
110.9824474219793
 20
48.39035533273937
 30
0.0
 11
109.5594092605214
 21
42.69820268689665
 31
0.0
  0
LINE
  5
38F4
330
1F
100
AcDbEntity
  8
SPOJOVACÍ
  6
Continuous
100
AcDbLine
 10
110.9824474219793
 20
48.39035533273937
 30
0.0
 11
110.724314918444
 21
47.94248440483198
 31
0.0
  0
LINE
  5
38F5
330
1F
100
AcDbEntity
  8
SPOJOVACÍ
  6
Continuous
100
AcDbLine
 10
110.9824474219793
 20
48.39035533273937
 30
0.0
 11
111.4314214778686
 21
47.94248440483198
 31
0.0
  0
LINE
  5
38F6
330
1F
100
AcDbEntity
  8
SPOJOVACÍ
  6
Continuous
100
AcDbLine
 10
109.5594092605214
 20
42.69820268689665
 30
0.0
 11
109.1115383352015
 21
43.14607360962719
 31
0.0
  0
LINE
  5
38F7
330
1F
100
AcDbEntity
  8
SPOJOVACÍ
  6
Continuous
100
AcDbLine
 10
109.5594092605214
 20
42.69820268689665
 30
0.0
 11
109.8186448946224
 21
43.14607360962719
 31
0.0
  0
LINE
  5
38F8
330
1F
100
AcDbEntity
  8
SPOJOVACÍ
  6
Continuous
100
AcDbLine
 10
110.724314918444
 20
47.94248440483198
 30
0.0
 11
109.1115383352015
 21
43.14607360962719
 31
0.0
  0
LINE
  5
38F9
330
1F
100
AcDbEntity
  8
SPOJOVACÍ
  6
Continuous
100
AcDbLine
 10
111.4314214778686
 20
47.94248440483198
 30
0.0
 11
109.8186448946224
 21
43.14607360962719
 31
0.0
  0
LINE
  5
38FA
330
1F
100
AcDbEntity
  8
SPOJOVACÍ
  6
Continuous
100
AcDbLine
 10
114.3784373362294
 20
48.39035533273937
 30
0.0
 11
112.9553991747715
 21
42.69820268689665
 31
0.0
  0
LINE
  5
38FB
330
1F
100
AcDbEntity
  8
SPOJOVACÍ
  6
Continuous
100
AcDbLine
 10
114.3784373362294
 20
48.39035533273937
 30
0.0
 11
114.1203048326941
 21
47.94248440483198
 31
0.0
  0
LINE
  5
38FC
330
1F
100
AcDbEntity
  8
SPOJOVACÍ
  6
Continuous
100
AcDbLine
 10
114.3784373362294
 20
48.39035533273937
 30
0.0
 11
114.8274113921187
 21
47.94248440483198
 31
0.0
  0
LINE
  5
38FD
330
1F
100
AcDbEntity
  8
SPOJOVACÍ
  6
Continuous
100
AcDbLine
 10
112.9553991747715
 20
42.69820268689665
 30
0.0
 11
112.5075282494516
 21
43.14607360962719
 31
0.0
  0
LINE
  5
38FE
330
1F
100
AcDbEntity
  8
SPOJOVACÍ
  6
Continuous
100
AcDbLine
 10
112.9553991747715
 20
42.69820268689665
 30
0.0
 11
113.2146348088725
 21
43.14607360962719
 31
0.0
  0
LINE
  5
38FF
330
1F
100
AcDbEntity
  8
SPOJOVACÍ
  6
Continuous
100
AcDbLine
 10
114.1203048326941
 20
47.94248440483198
 30
0.0
 11
112.5075282494516
 21
43.14607360962719
 31
0.0
  0
LINE
  5
3900
330
1F
100
AcDbEntity
  8
SPOJOVACÍ
  6
Continuous
100
AcDbLine
 10
114.8274113921187
 20
47.94248440483198
 30
0.0
 11
113.2146348088725
 21
43.14607360962719
 31
0.0
  0
LINE
  5
3901
330
1F
100
AcDbEntity
  8
SPOJOVACÍ
  6
Continuous
100
AcDbLine
 10
117.7744272504795
 20
48.39035533273937
 30
0.0
 11
116.3513890890216
 21
42.69820268689665
 31
0.0
  0
LINE
  5
3902
330
1F
100
AcDbEntity
  8
SPOJOVACÍ
  6
Continuous
100
AcDbLine
 10
117.7744272504795
 20
48.39035533273937
 30
0.0
 11
117.5162947469442
 21
47.94248440483198
 31
0.0
  0
LINE
  5
3903
330
1F
100
AcDbEntity
  8
SPOJOVACÍ
  6
Continuous
100
AcDbLine
 10
117.7744272504795
 20
48.39035533273937
 30
0.0
 11
118.2234013063688
 21
47.94248440483198
 31
0.0
  0
LINE
  5
3904
330
1F
100
AcDbEntity
  8
SPOJOVACÍ
  6
Continuous
100
AcDbLine
 10
116.3513890890216
 20
42.69820268689665
 30
0.0
 11
115.9035181637017
 21
43.14607360962719
 31
0.0
  0
LINE
  5
3905
330
1F
100
AcDbEntity
  8
SPOJOVACÍ
  6
Continuous
100
AcDbLine
 10
116.3513890890216
 20
42.69820268689665
 30
0.0
 11
116.6106247231226
 21
43.14607360962719
 31
0.0
  0
LINE
  5
3906
330
1F
100
AcDbEntity
  8
SPOJOVACÍ
  6
Continuous
100
AcDbLine
 10
117.5162947469442
 20
47.94248440483198
 30
0.0
 11
115.9035181637017
 21
43.14607360962719
 31
0.0
  0
LINE
  5
3907
330
1F
100
AcDbEntity
  8
SPOJOVACÍ
  6
Continuous
100
AcDbLine
 10
118.2234013063688
 20
47.94248440483198
 30
0.0
 11
116.6106247231226
 21
43.14607360962719
 31
0.0
  0
LINE
  5
3908
330
1F
100
AcDbEntity
  8
SPOJOVACÍ
  6
Continuous
100
AcDbLine
 10
121.1704171647296
 20
48.39035533273937
 30
0.0
 11
119.7473790032717
 21
42.69820268689665
 31
0.0
  0
LINE
  5
3909
330
1F
100
AcDbEntity
  8
SPOJOVACÍ
  6
Continuous
100
AcDbLine
 10
121.1704171647296
 20
48.39035533273937
 30
0.0
 11
120.9122846611943
 21
47.94248440483198
 31
0.0
  0
LINE
  5
390A
330
1F
100
AcDbEntity
  8
SPOJOVACÍ
  6
Continuous
100
AcDbLine
 10
121.1704171647296
 20
48.39035533273937
 30
0.0
 11
121.6193912206189
 21
47.94248440483198
 31
0.0
  0
LINE
  5
390B
330
1F
100
AcDbEntity
  8
SPOJOVACÍ
  6
Continuous
100
AcDbLine
 10
119.7473790032717
 20
42.69820268689665
 30
0.0
 11
119.2995080779518
 21
43.14607360962719
 31
0.0
  0
LINE
  5
390C
330
1F
100
AcDbEntity
  8
SPOJOVACÍ
  6
Continuous
100
AcDbLine
 10
119.7473790032717
 20
42.69820268689665
 30
0.0
 11
120.0066146373727
 21
43.14607360962719
 31
0.0
  0
LINE
  5
390D
330
1F
100
AcDbEntity
  8
SPOJOVACÍ
  6
Continuous
100
AcDbLine
 10
120.9122846611943
 20
47.94248440483198
 30
0.0
 11
119.2995080779518
 21
43.14607360962719
 31
0.0
  0
LINE
  5
390E
330
1F
100
AcDbEntity
  8
SPOJOVACÍ
  6
Continuous
100
AcDbLine
 10
121.6193912206189
 20
47.94248440483198
 30
0.0
 11
120.0066146373727
 21
43.14607360962719
 31
0.0
  0
LINE
  5
390F
330
1F
100
AcDbEntity
  8
SPOJOVACÍ
  6
Continuous
100
AcDbLine
 10
128.4113710491191
 20
47.94248440483198
 30
0.0
 11
126.7985944658729
 21
43.14607360962719
 31
0.0
  0
LINE
  5
3910
330
1F
100
AcDbEntity
  8
SPOJOVACÍ
  6
Continuous
100
AcDbLine
 10
127.7042644896945
 20
47.94248440483198
 30
0.0
 11
126.091487906452
 21
43.14607360962719
 31
0.0
  0
LINE
  5
3911
330
1F
100
AcDbEntity
  8
SPOJOVACÍ
  6
Continuous
100
AcDbLine
 10
126.5393588317718
 20
42.69820268689665
 30
0.0
 11
126.7985944658729
 21
43.14607360962719
 31
0.0
  0
LINE
  5
3912
330
1F
100
AcDbEntity
  8
SPOJOVACÍ
  6
Continuous
100
AcDbLine
 10
126.5393588317718
 20
42.69820268689665
 30
0.0
 11
126.091487906452
 21
43.14607360962719
 31
0.0
  0
LINE
  5
3913
330
1F
100
AcDbEntity
  8
SPOJOVACÍ
  6
Continuous
100
AcDbLine
 10
127.9623969932298
 20
48.39035533273937
 30
0.0
 11
128.4113710491191
 21
47.94248440483198
 31
0.0
  0
LINE
  5
3914
330
1F
100
AcDbEntity
  8
SPOJOVACÍ
  6
Continuous
100
AcDbLine
 10
127.9623969932298
 20
48.39035533273937
 30
0.0
 11
127.7042644896945
 21
47.94248440483198
 31
0.0
  0
LINE
  5
3915
330
1F
100
AcDbEntity
  8
SPOJOVACÍ
  6
Continuous
100
AcDbLine
 10
127.9623969932298
 20
48.39035533273937
 30
0.0
 11
126.5393588317718
 21
42.69820268689665
 31
0.0
  0
LINE
  5
3916
330
1F
100
AcDbEntity
  8
SPOJOVACÍ
  6
Continuous
100
AcDbLine
 10
125.015381134869
 20
47.94248440483198
 30
0.0
 11
123.4026045516228
 21
43.14607360962719
 31
0.0
  0
LINE
  5
3917
330
1F
100
AcDbEntity
  8
SPOJOVACÍ
  6
Continuous
100
AcDbLine
 10
124.3082745754444
 20
47.94248440483198
 30
0.0
 11
122.6954979922019
 21
43.14607360962719
 31
0.0
  0
LINE
  5
3918
330
1F
100
AcDbEntity
  8
SPOJOVACÍ
  6
Continuous
100
AcDbLine
 10
123.1433689175218
 20
42.69820268689665
 30
0.0
 11
123.4026045516228
 21
43.14607360962719
 31
0.0
  0
LINE
  5
3919
330
1F
100
AcDbEntity
  8
SPOJOVACÍ
  6
Continuous
100
AcDbLine
 10
123.1433689175218
 20
42.69820268689665
 30
0.0
 11
122.6954979922019
 21
43.14607360962719
 31
0.0
  0
LINE
  5
391A
330
1F
100
AcDbEntity
  8
SPOJOVACÍ
  6
Continuous
100
AcDbLine
 10
124.5664070789797
 20
48.39035533273937
 30
0.0
 11
125.015381134869
 21
47.94248440483198
 31
0.0
  0
LINE
  5
391B
330
1F
100
AcDbEntity
  8
SPOJOVACÍ
  6
Continuous
100
AcDbLine
 10
124.5664070789797
 20
48.39035533273937
 30
0.0
 11
124.3082745754444
 21
47.94248440483198
 31
0.0
  0
LINE
  5
391C
330
1F
100
AcDbEntity
  8
SPOJOVACÍ
  6
Continuous
100
AcDbLine
 10
124.5664070789797
 20
48.39035533273937
 30
0.0
 11
123.1433689175218
 21
42.69820268689665
 31
0.0
  0
LINE
  5
391D
330
1F
100
AcDbEntity
  8
SPOJOVACÍ
100
AcDbLine
 10
142.7372795063719
 20
52.29427900981892
 30
0.0
 11
142.7372795063719
 21
38.79427900981892
 31
0.0
  0
LINE
  5
391E
330
1F
100
AcDbEntity
  8
SPOJOVACÍ
  6
CIKCAK
 48
0.25
100
AcDbLine
 10
138.3667742287005
 20
49.06974543329335
 30
0.0
 11
90.90238841336475
 21
49.06974543329335
 31
0.0
  0
LINE
  5
391F
330
1F
100
AcDbEntity
  8
SPOJOVACÍ
 48
0.25
100
AcDbLine
 10
90.90238841336475
 20
49.06974543329335
 30
0.0
 11
85.25294807264879
 21
45.54427900981892
 31
0.0
  0
LINE
  5
3920
330
1F
100
AcDbEntity
  8
SPOJOVACÍ
 48
0.25
100
AcDbLine
 10
90.90238841336839
 20
42.01881258634358
 30
0.0
 11
85.25294807264879
 21
45.54427900981892
 31
0.0
  0
LINE
  5
3921
330
1F
100
AcDbEntity
  8
SPOJOVACÍ
  6
CIKCAK
 48
0.25
100
AcDbLine
 10
138.3667742287005
 20
42.01881258634403
 30
0.0
 11
90.90238841336839
 21
42.01881258634358
 31
0.0
  0
LINE
  5
3922
330
1F
100
AcDbEntity
  8
STAVBA OBRYS
100
AcDbLine
 10
124.6958990804931
 20
247.2792534452354
 30
0.0
 11
124.6958990804931
 21
-103.6393624829535
 31
0.0
  0
LINE
  5
3923
330
1F
100
AcDbEntity
  8
STAVBA OBRYS
100
AcDbLine
 10
137.1958990804931
 20
13.5719725026268
 30
0.0
 11
137.1958990804931
 21
-103.6393624829535
 31
0.0
  0
LINE
  5
3924
330
1F
100
AcDbEntity
  8
STAVBA OBRYS
100
AcDbLine
 10
-112.137929366908
 20
247.2818051359088
 30
0.0
 11
-112.1379293669116
 21
-103.639362482954
 31
0.0
  0
LINE
  5
3925
330
1F
100
AcDbEntity
  8
STAVBA OBRYS
100
AcDbLine
 10
-99.63792936691163
 20
247.2792534452354
 30
0.0
 11
-99.63792936691163
 21
-103.6393624829535
 31
0.0
  0
LINE
  5
3926
330
1F
100
AcDbEntity
  8
SPOJOVACÍ
  6
Continuous
100
AcDbLine
 10
158.3451737300646
 20
30.47383077058322
 30
0.0
 11
162.3895780896572
 21
31.83374778412536
 31
0.0
  0
LINE
  5
3927
330
1F
100
AcDbEntity
  8
SPOJOVACÍ
  6
Continuous
100
AcDbLine
 10
158.3451737300646
 20
31.07007345573794
 30
0.0
 11
162.3895780896572
 21
32.42999046928008
 31
0.0
  0
LINE
  5
3928
330
1F
100
AcDbEntity
  8
SPOJOVACÍ
  6
Continuous
100
AcDbLine
 10
162.7672294606026
 20
32.05233909615191
 30
0.0
 11
162.3895780896572
 21
31.83374778412536
 31
0.0
  0
LINE
  5
3929
330
1F
100
AcDbEntity
  8
SPOJOVACÍ
  6
Continuous
100
AcDbLine
 10
162.7672294606026
 20
32.05233909615191
 30
0.0
 11
162.3895780896572
 21
32.42999046928008
 31
0.0
  0
LINE
  5
392A
330
1F
100
AcDbEntity
  8
SPOJOVACÍ
  6
Continuous
100
AcDbLine
 10
157.9675223547536
 20
30.85241231968967
 30
0.0
 11
158.3451737300646
 21
30.47383077058322
 31
0.0
  0
LINE
  5
392B
330
1F
100
AcDbEntity
  8
SPOJOVACÍ
  6
Continuous
100
AcDbLine
 10
157.9675223547536
 20
30.85241231968967
 30
0.0
 11
158.3451737300646
 21
31.07007345573794
 31
0.0
  0
LINE
  5
392C
330
1F
100
AcDbEntity
  8
SPOJOVACÍ
  6
Continuous
100
AcDbLine
 10
157.9675223547536
 20
30.85241231968967
 30
0.0
 11
162.7672294606026
 21
32.05233909615191
 31
0.0
  0
LINE
  5
392D
330
1F
100
AcDbEntity
  8
SPOJOVACÍ
  6
Continuous
100
AcDbLine
 10
158.3451737300646
 20
27.35402115162134
 30
0.0
 11
162.3895780896572
 21
28.71393816516348
 31
0.0
  0
LINE
  5
392E
330
1F
100
AcDbEntity
  8
SPOJOVACÍ
  6
Continuous
100
AcDbLine
 10
158.3451737300646
 20
27.95026383676878
 30
0.0
 11
162.3895780896572
 21
29.31018085004172
 31
0.0
  0
LINE
  5
392F
330
1F
100
AcDbEntity
  8
SPOJOVACÍ
  6
Continuous
100
AcDbLine
 10
162.7672294606026
 20
28.93159930121175
 30
0.0
 11
162.3895780896572
 21
28.71393816516348
 31
0.0
  0
LINE
  5
3930
330
1F
100
AcDbEntity
  8
SPOJOVACÍ
  6
Continuous
100
AcDbLine
 10
162.7672294606026
 20
28.93159930121175
 30
0.0
 11
162.3895780896572
 21
29.31018085004172
 31
0.0
  0
LINE
  5
3931
330
1F
100
AcDbEntity
  8
SPOJOVACÍ
  6
Continuous
100
AcDbLine
 10
157.9675223547536
 20
27.73167252474951
 30
0.0
 11
158.3451737300646
 21
27.35402115162134
 31
0.0
  0
LINE
  5
3932
330
1F
100
AcDbEntity
  8
SPOJOVACÍ
  6
Continuous
100
AcDbLine
 10
157.9675223547536
 20
27.73167252474951
 30
0.0
 11
158.3451737300646
 21
27.95026383676878
 31
0.0
  0
LINE
  5
3933
330
1F
100
AcDbEntity
  8
SPOJOVACÍ
  6
Continuous
100
AcDbLine
 10
157.9675223547536
 20
27.73167252474951
 30
0.0
 11
162.7672294606026
 21
28.93159930121175
 31
0.0
  0
LINE
  5
3934
330
1F
100
AcDbEntity
  8
SPOJOVACÍ
  6
Continuous
100
AcDbLine
 10
158.3451737300646
 20
24.23421153265218
 30
0.0
 11
162.3895780896572
 21
25.59412854592511
 31
0.0
  0
LINE
  5
3935
330
1F
100
AcDbEntity
  8
SPOJOVACÍ
  6
Continuous
100
AcDbLine
 10
158.3451737300646
 20
24.8304542178069
 30
0.0
 11
162.3895780896572
 21
26.19037123107256
 31
0.0
  0
LINE
  5
3936
330
1F
100
AcDbEntity
  8
SPOJOVACÍ
  6
Continuous
100
AcDbLine
 10
162.7672294606026
 20
25.81178968224259
 30
0.0
 11
162.3895780896572
 21
25.59412854592511
 31
0.0
  0
LINE
  5
3937
330
1F
100
AcDbEntity
  8
SPOJOVACÍ
  6
Continuous
100
AcDbLine
 10
162.7672294606026
 20
25.81178968224259
 30
0.0
 11
162.3895780896572
 21
26.19037123107256
 31
0.0
  0
LINE
  5
3938
330
1F
100
AcDbEntity
  8
SPOJOVACÍ
  6
Continuous
100
AcDbLine
 10
157.9675223547536
 20
24.61186290578035
 30
0.0
 11
158.3451737300646
 21
24.23421153265218
 31
0.0
  0
LINE
  5
3939
330
1F
100
AcDbEntity
  8
SPOJOVACÍ
  6
Continuous
100
AcDbLine
 10
157.9675223547536
 20
24.61186290578035
 30
0.0
 11
158.3451737300646
 21
24.8304542178069
 31
0.0
  0
LINE
  5
393A
330
1F
100
AcDbEntity
  8
SPOJOVACÍ
  6
Continuous
100
AcDbLine
 10
157.9675223547536
 20
24.61186290578035
 30
0.0
 11
162.7672294606026
 21
25.81178968224259
 31
0.0
  0
LINE
  5
393B
330
1F
100
AcDbEntity
  8
SPOJOVACÍ
  6
Continuous
100
AcDbLine
 10
159.3506937657519
 20
39.95790318462087
 30
0.0
 11
161.5049809072087
 21
40.26858190039485
 31
0.0
  0
LINE
  5
393C
330
1F
100
AcDbEntity
  8
SPOJOVACÍ
  6
Continuous
100
AcDbLine
 10
159.7283451366973
 20
39.5802518114927
 30
0.0
 11
161.1273295362633
 21
40.05092076407737
 31
0.0
  0
LINE
  5
393D
330
1F
100
AcDbEntity
  8
SPOJOVACÍ
  6
Continuous
100
AcDbLine
 10
159.7283451366973
 20
40.17649449664014
 30
0.0
 11
161.1273295362633
 21
40.64716344922482
 31
0.0
  0
LINE
  5
393E
330
1F
100
AcDbEntity
  8
SPOJOVACÍ
  6
Continuous
100
AcDbLine
 10
161.5049809072087
 20
40.26858190039485
 30
0.0
 11
161.1273295362633
 21
40.05092076407737
 31
0.0
  0
LINE
  5
393F
330
1F
100
AcDbEntity
  8
SPOJOVACÍ
  6
Continuous
100
AcDbLine
 10
161.5049809072087
 20
40.26858190039485
 30
0.0
 11
161.1273295362633
 21
40.64716344922482
 31
0.0
  0
LINE
  5
3940
330
1F
100
AcDbEntity
  8
SPOJOVACÍ
  6
Continuous
100
AcDbLine
 10
159.3506937657519
 20
39.95790318462087
 30
0.0
 11
159.7283451366973
 21
39.5802518114927
 31
0.0
  0
LINE
  5
3941
330
1F
100
AcDbEntity
  8
SPOJOVACÍ
  6
Continuous
100
AcDbLine
 10
159.3506937657519
 20
39.95790318462087
 30
0.0
 11
159.7283451366973
 21
40.17649449664014
 31
0.0
  0
LINE
  5
3942
330
1F
100
AcDbEntity
  8
SPOJOVACÍ
  6
Continuous
100
AcDbLine
 10
158.7860770552805
 20
36.94413360630125
 30
0.0
 11
161.9021659717117
 21
37.57758332307122
 31
0.0
  0
LINE
  5
3943
330
1F
100
AcDbEntity
  8
SPOJOVACÍ
  6
Continuous
100
AcDbLine
 10
159.1637284305915
 20
36.56555205719479
 30
0.0
 11
161.5245146007663
 21
37.35992218702296
 31
0.0
  0
LINE
  5
3944
330
1F
100
AcDbEntity
  8
SPOJOVACÍ
  6
Continuous
100
AcDbLine
 10
159.1637284305915
 20
37.16179474234951
 30
0.0
 11
161.5245146007663
 21
37.95616487190119
 31
0.0
  0
LINE
  5
3945
330
1F
100
AcDbEntity
  8
SPOJOVACÍ
  6
Continuous
100
AcDbLine
 10
161.9021659717117
 20
37.57758332307122
 30
0.0
 11
161.5245146007663
 21
37.35992218702296
 31
0.0
  0
LINE
  5
3946
330
1F
100
AcDbEntity
  8
SPOJOVACÍ
  6
Continuous
100
AcDbLine
 10
161.9021659717117
 20
37.57758332307122
 30
0.0
 11
161.5245146007663
 21
37.95616487190119
 31
0.0
  0
LINE
  5
3947
330
1F
100
AcDbEntity
  8
SPOJOVACÍ
  6
Continuous
100
AcDbLine
 10
158.7860770552805
 20
36.94413360630125
 30
0.0
 11
159.1637284305915
 21
36.56555205719479
 31
0.0
  0
LINE
  5
3948
330
1F
100
AcDbEntity
  8
SPOJOVACÍ
  6
Continuous
100
AcDbLine
 10
158.7860770552805
 20
36.94413360630125
 30
0.0
 11
159.1637284305915
 21
37.16179474234951
 31
0.0
  0
LINE
  5
3949
330
1F
100
AcDbEntity
  8
SPOJOVACÍ
  6
Continuous
100
AcDbLine
 10
158.2214603491746
 20
33.92943385200334
 30
0.0
 11
162.3467900019176
 21
34.90239773430795
 31
0.0
  0
LINE
  5
394A
330
1F
100
AcDbEntity
  8
SPOJOVACÍ
  6
Continuous
100
AcDbLine
 10
158.6000418974589
 20
33.55178247887517
 30
0.0
 11
161.9691386309722
 21
34.68473659825969
 31
0.0
  0
LINE
  5
394B
330
1F
100
AcDbEntity
  8
SPOJOVACÍ
  6
Continuous
100
AcDbLine
 10
158.6000418974589
 20
34.14802516402989
 30
0.0
 11
161.9691386309722
 21
35.28097928341441
 31
0.0
  0
LINE
  5
394C
330
1F
100
AcDbEntity
  8
SPOJOVACÍ
  6
Continuous
100
AcDbLine
 10
162.3467900019176
 20
34.90239773430795
 30
0.0
 11
161.9691386309722
 21
34.68473659825969
 31
0.0
  0
LINE
  5
394D
330
1F
100
AcDbEntity
  8
SPOJOVACÍ
  6
Continuous
100
AcDbLine
 10
162.3467900019176
 20
34.90239773430795
 30
0.0
 11
161.9691386309722
 21
35.28097928341441
 31
0.0
  0
LINE
  5
394E
330
1F
100
AcDbEntity
  8
SPOJOVACÍ
  6
Continuous
100
AcDbLine
 10
158.2214603491746
 20
33.92943385200334
 30
0.0
 11
158.6000418974589
 21
33.55178247887517
 31
0.0
  0
LINE
  5
394F
330
1F
100
AcDbEntity
  8
SPOJOVACÍ
  6
Continuous
100
AcDbLine
 10
158.2214603491746
 20
33.92943385200334
 30
0.0
 11
158.6000418974589
 21
34.14802516402989
 31
0.0
  0
LINE
  5
3950
330
1F
100
AcDbEntity
  8
SPOJOVACÍ
  6
Continuous
100
AcDbLine
 10
158.3451737300646
 20
21.11440191341381
 30
0.0
 11
162.3895780896572
 21
22.47338875125416
 31
0.0
  0
LINE
  5
3951
330
1F
100
AcDbEntity
  8
SPOJOVACÍ
  6
Continuous
100
AcDbLine
 10
158.3451737300646
 20
21.71064459856853
 30
0.0
 11
162.3895780896572
 21
23.06963143613239
 31
0.0
  0
LINE
  5
3952
330
1F
100
AcDbEntity
  8
SPOJOVACÍ
  6
Continuous
100
AcDbLine
 10
162.7672294606026
 20
22.69198006328071
 30
0.0
 11
162.3895780896572
 21
22.47338875125416
 31
0.0
  0
LINE
  5
3953
330
1F
100
AcDbEntity
  8
SPOJOVACÍ
  6
Continuous
100
AcDbLine
 10
162.7672294606026
 20
22.69198006328071
 30
0.0
 11
162.3895780896572
 21
23.06963143613239
 31
0.0
  0
LINE
  5
3954
330
1F
100
AcDbEntity
  8
SPOJOVACÍ
  6
Continuous
100
AcDbLine
 10
157.9675223547536
 20
21.49205328654198
 30
0.0
 11
158.3451737300646
 21
21.11440191341381
 31
0.0
  0
LINE
  5
3955
330
1F
100
AcDbEntity
  8
SPOJOVACÍ
  6
Continuous
100
AcDbLine
 10
157.9675223547536
 20
21.49205328654198
 30
0.0
 11
158.3451737300646
 21
21.71064459856853
 31
0.0
  0
LINE
  5
3956
330
1F
100
AcDbEntity
  8
SPOJOVACÍ
  6
Continuous
100
AcDbLine
 10
157.9675223547536
 20
21.49205328654198
 30
0.0
 11
162.7672294606026
 21
22.69198006328071
 31
0.0
  0
LINE
  5
3957
330
1F
100
AcDbEntity
  8
SPOJOVACÍ
  6
Continuous
100
AcDbLine
 10
158.3451737300646
 20
17.99366211875013
 30
0.0
 11
162.3895780896572
 21
19.35357913201579
 31
0.0
  0
LINE
  5
3958
330
1F
100
AcDbEntity
  8
SPOJOVACÍ
  6
Continuous
100
AcDbLine
 10
158.3451737300646
 20
18.58990480362837
 30
0.0
 11
162.3895780896572
 21
19.94982181717051
 31
0.0
  0
LINE
  5
3959
330
1F
100
AcDbEntity
  8
SPOJOVACÍ
  6
Continuous
100
AcDbLine
 10
162.7672294606026
 20
19.57217044404234
 30
0.0
 11
162.3895780896572
 21
19.35357913201579
 31
0.0
  0
LINE
  5
395A
330
1F
100
AcDbEntity
  8
SPOJOVACÍ
  6
Continuous
100
AcDbLine
 10
162.7672294606026
 20
19.57217044404234
 30
0.0
 11
162.3895780896572
 21
19.94982181717051
 31
0.0
  0
LINE
  5
395B
330
1F
100
AcDbEntity
  8
SPOJOVACÍ
  6
Continuous
100
AcDbLine
 10
157.9675223547536
 20
18.3722436675801
 30
0.0
 11
158.3451737300646
 21
17.99366211875013
 31
0.0
  0
LINE
  5
395C
330
1F
100
AcDbEntity
  8
SPOJOVACÍ
  6
Continuous
100
AcDbLine
 10
157.9675223547536
 20
18.3722436675801
 30
0.0
 11
158.3451737300646
 21
18.58990480362837
 31
0.0
  0
LINE
  5
395D
330
1F
100
AcDbEntity
  8
SPOJOVACÍ
  6
Continuous
100
AcDbLine
 10
157.9675223547536
 20
18.3722436675801
 30
0.0
 11
162.7672294606026
 21
19.57217044404234
 31
0.0
  0
LINE
  5
395E
330
1F
100
AcDbEntity
  8
SPOJOVACÍ
  6
Continuous
100
AcDbLine
 10
161.4714945797612
 20
34.50800319691035
 30
0.0
 11
161.717060991229
 21
32.53696068562414
 31
0.0
  0
LINE
  5
395F
330
1F
100
AcDbEntity
  8
SPOJOVACÍ
  6
Continuous
100
AcDbLine
 10
161.1329105871999
 20
37.21481476280888
 30
0.0
 11
161.3998710425374
 21
35.07820095995549
 31
0.0
  0
LINE
  5
3960
330
1F
100
AcDbEntity
  8
SPOJOVACÍ
  6
Continuous
100
AcDbLine
 10
160.7933964260308
 20
39.93185826224209
 30
0.0
 11
161.0612870543417
 21
37.78687287725762
 31
0.0
  0
LINE
  5
3961
330
1F
100
AcDbEntity
  8
SPOJOVACÍ
  6
Continuous
100
AcDbLine
 10
159.9813529537794
 20
40.24811803277254
 30
0.0
 11
160.3673759076781
 21
43.33723185057744
 31
0.0
  0
LINE
  5
3962
330
1F
100
AcDbEntity
  8
SPOJOVACÍ
  6
Continuous
100
AcDbLine
 10
159.6139335160995
 20
37.30690216656359
 30
0.0
 11
159.9041483612535
 21
39.62769077691911
 31
0.0
  0
LINE
  5
3963
330
1F
100
AcDbEntity
  8
SPOJOVACÍ
  6
Continuous
100
AcDbLine
 10
159.2446537237418
 20
34.35452419083441
 30
0.0
 11
159.5348685732614
 21
36.676242976899
 31
0.0
  0
LINE
  5
3964
330
1F
100
AcDbEntity
  8
SPOJOVACÍ
  6
Continuous
100
AcDbLine
 10
160.3673759076781
 20
43.33723185057744
 30
0.0
 11
160.721772888807
 21
40.50112584930895
 31
0.0
  0
LINE
  5
3965
330
1F
100
AcDbEntity
  8
SPOJOVACÍ
  6
Continuous
100
AcDbLine
 10
159.0176908284928
 20
32.53696068562414
 30
0.0
 11
159.1674491312159
 21
33.73409693498098
 31
0.0
  0
LINE
  5
3966
330
1F
100
AcDbEntity
  8
SPOJOVACÍ
  6
Continuous
100
AcDbLine
 10
161.717060991229
 20
32.20023704774058
 30
0.0
 11
161.717060991229
 21
32.53696068562414
 31
0.0
  0
LINE
  5
3967
330
1F
100
AcDbEntity
  8
SPOJOVACÍ
  6
Continuous
100
AcDbLine
 10
161.717060991229
 20
29.07763690112762
 30
0.0
 11
161.717060991229
 21
31.59655295615658
 31
0.0
  0
LINE
  5
3968
330
1F
100
AcDbEntity
  8
SPOJOVACÍ
  6
Continuous
100
AcDbLine
 10
159.0176908284928
 20
31.28959494373549
 30
0.0
 11
159.0176908284928
 21
32.53696068562414
 31
0.0
  0
LINE
  5
3969
330
1F
100
AcDbEntity
  8
SPOJOVACÍ
  6
Continuous
100
AcDbLine
 10
159.0176908284928
 20
28.1753663792536
 30
0.0
 11
159.0176908284928
 21
30.69335225858077
 31
0.0
  0
LINE
  5
396A
330
1F
100
AcDbEntity
  8
SPOJOVACÍ
  6
Continuous
100
AcDbLine
 10
161.717060991229
 20
25.95596693048566
 30
0.0
 11
161.717060991229
 21
28.4767433371947
 31
0.0
  0
LINE
  5
396B
330
1F
100
AcDbEntity
  8
SPOJOVACÍ
  6
Continuous
100
AcDbLine
 10
161.717060991229
 20
22.8333667841419
 30
0.0
 11
161.717060991229
 21
25.36158459701101
 31
0.0
  0
LINE
  5
396C
330
1F
100
AcDbEntity
  8
SPOJOVACÍ
  6
Continuous
100
AcDbLine
 10
161.717060991229
 20
19.71820804395821
 30
0.0
 11
161.717060991229
 21
22.23712409898717
 31
0.0
  0
LINE
  5
396D
330
1F
100
AcDbEntity
  8
SPOJOVACÍ
  6
Continuous
100
AcDbLine
 10
159.0176908284928
 20
25.04253429909869
 30
0.0
 11
159.0176908284928
 21
27.5707521119678
 31
0.0
  0
LINE
  5
396E
330
1F
100
AcDbEntity
  8
SPOJOVACÍ
  6
Continuous
100
AcDbLine
 10
159.0176908284928
 20
21.927375558915
 30
0.0
 11
159.0176908284928
 21
24.44815196562405
 31
0.0
  0
LINE
  5
396F
330
1F
100
AcDbEntity
  8
SPOJOVACÍ
  6
Continuous
100
AcDbLine
 10
159.0176908284928
 20
18.80477541257124
 30
0.0
 11
159.0176908284928
 21
21.32369146760021
 31
0.0
  0
LINE
  5
3970
330
1F
100
AcDbEntity
  8
SPOJOVACÍ
  6
Continuous
100
AcDbLine
 10
159.0176908284928
 20
14.17156977371479
 30
0.0
 11
159.0176908284928
 21
18.2094629033948
 31
0.0
  0
LINE
  5
3971
330
1F
100
AcDbEntity
  8
SPOJOVACÍ
  6
Continuous
100
AcDbLine
 10
161.717060991229
 20
14.17156977371479
 30
0.0
 11
161.717060991229
 21
19.11452395264342
 31
0.0
  0
LINE
  5
3972
330
1F
100
AcDbEntity
  8
SPOJOVACÍ
  6
Continuous
100
AcDbLine
 10
155.2672220190441
 20
8.771899279358251
 30
0.0
 11
156.616907102595
 21
9.516039915832436
 31
0.0
  0
LINE
  5
3973
330
1F
100
AcDbEntity
  8
SPOJOVACÍ
  6
Continuous
100
AcDbLine
 10
156.616907102595
 20
9.516039915832436
 30
0.0
 11
157.7275370029536
 21
10.58481190524463
 31
0.0
  0
LINE
  5
3974
330
1F
100
AcDbEntity
  8
SPOJOVACÍ
  6
Continuous
100
AcDbLine
 10
157.7275370029536
 20
10.58481190524463
 30
0.0
 11
158.5237674822718
 21
11.90380118354215
 31
0.0
  0
LINE
  5
3975
330
1F
100
AcDbEntity
  8
SPOJOVACÍ
  6
Continuous
100
AcDbLine
 10
158.5237674822718
 20
11.90380118354215
 30
0.0
 11
158.9516483465712
 21
13.38464105059239
 31
0.0
  0
LINE
  5
3976
330
1F
100
AcDbEntity
  8
SPOJOVACÍ
  6
Continuous
100
AcDbLine
 10
158.9516483465712
 20
13.38464105059239
 30
0.0
 11
159.0176908284928
 21
14.17156977371479
 31
0.0
  0
LINE
  5
3977
330
1F
100
AcDbEntity
  8
SPOJOVACÍ
  6
Continuous
100
AcDbLine
 10
163.5150908012445
 20
10.02670642768345
 30
0.0
 11
164.7522246101442
 21
9.108622917241802
 31
0.0
  0
LINE
  5
3978
330
1F
100
AcDbEntity
  8
SPOJOVACÍ
  6
Continuous
100
AcDbLine
 10
164.7522246101442
 20
9.108622917241802
 30
0.0
 11
165.467529796312
 21
8.771899279358251
 31
0.0
  0
LINE
  5
3979
330
1F
100
AcDbEntity
  8
SPOJOVACÍ
  6
Continuous
100
AcDbLine
 10
155.2672220190441
 20
8.771899279358251
 30
0.0
 11
165.467529796312
 21
8.771899279358251
 31
0.0
  0
LINE
  5
397A
330
1F
100
AcDbEntity
  8
SPOJOVACÍ
  6
Continuous
100
AcDbLine
 10
155.2672220190441
 20
7.571972502626806
 30
0.0
 11
155.2672220190441
 21
8.771899279358251
 31
0.0
  0
LINE
  5
397B
330
1F
100
AcDbEntity
  8
SPOJOVACÍ
  6
Continuous
100
AcDbLine
 10
155.2672220190441
 20
7.571972502626806
 30
0.0
 11
165.467529796312
 21
7.571972502626806
 31
0.0
  0
LINE
  5
397C
330
1F
100
AcDbEntity
  8
SPOJOVACÍ
  6
Continuous
100
AcDbLine
 10
165.467529796312
 20
7.571972502626806
 30
0.0
 11
165.467529796312
 21
8.771899279358251
 31
0.0
  0
LINE
  5
397D
330
1F
100
AcDbEntity
  8
SPOJOVACÍ
  6
Continuous
100
AcDbLine
 10
161.717060991229
 20
14.17156977371479
 30
0.0
 11
161.9440238821124
 21
12.64794182028555
 31
0.0
  0
LINE
  5
397E
330
1F
100
AcDbEntity
  8
SPOJOVACÍ
  6
Continuous
100
AcDbLine
 10
161.9440238821124
 20
12.64794182028555
 30
0.0
 11
162.5570097312601
 21
11.23407461058224
 31
0.0
  0
LINE
  5
397F
330
1F
100
AcDbEntity
  8
SPOJOVACÍ
  6
Continuous
100
AcDbLine
 10
162.5570097312601
 20
11.23407461058224
 30
0.0
 11
163.5150908012445
 21
10.02670642768345
 31
0.0
  0
LINE
  5
3980
330
1F
100
AcDbEntity
  8
SPOJOVACÍ
  6
Continuous
100
AcDbLine
 10
162.5570097312601
 20
79.14212467942099
 30
0.0
 11
163.5150908012445
 21
80.34949286231977
 31
0.0
  0
LINE
  5
3981
330
1F
100
AcDbEntity
  8
SPOJOVACÍ
  6
Continuous
100
AcDbLine
 10
161.9440238821124
 20
77.72825746971768
 30
0.0
 11
162.5570097312601
 21
79.14212467942099
 31
0.0
  0
LINE
  5
3982
330
1F
100
AcDbEntity
  8
SPOJOVACÍ
  6
Continuous
100
AcDbLine
 10
161.717060991229
 20
76.20462951628844
 30
0.0
 11
161.9440238821124
 21
77.72825746971768
 31
0.0
  0
LINE
  5
3983
330
1F
100
AcDbEntity
  8
SPOJOVACÍ
  6
Continuous
100
AcDbLine
 10
165.467529796312
 20
82.80422678737641
 30
0.0
 11
165.467529796312
 21
81.60430001064497
 31
0.0
  0
LINE
  5
3984
330
1F
100
AcDbEntity
  8
SPOJOVACÍ
  6
Continuous
100
AcDbLine
 10
155.2672220190441
 20
82.80422678737641
 30
0.0
 11
165.467529796312
 21
82.80422678737641
 31
0.0
  0
LINE
  5
3985
330
1F
100
AcDbEntity
  8
SPOJOVACÍ
  6
Continuous
100
AcDbLine
 10
155.2672220190441
 20
82.80422678737641
 30
0.0
 11
155.2672220190441
 21
81.60430001064497
 31
0.0
  0
LINE
  5
3986
330
1F
100
AcDbEntity
  8
SPOJOVACÍ
  6
Continuous
100
AcDbLine
 10
155.2672220190441
 20
81.60430001064497
 30
0.0
 11
165.467529796312
 21
81.60430001064497
 31
0.0
  0
LINE
  5
3987
330
1F
100
AcDbEntity
  8
SPOJOVACÍ
  6
Continuous
100
AcDbLine
 10
164.7522246101442
 20
81.26757637276142
 30
0.0
 11
165.467529796312
 21
81.60430001064497
 31
0.0
  0
LINE
  5
3988
330
1F
100
AcDbEntity
  8
SPOJOVACÍ
  6
Continuous
100
AcDbLine
 10
163.5150908012445
 20
80.34949286231977
 30
0.0
 11
164.7522246101442
 21
81.26757637276142
 31
0.0
  0
LINE
  5
3989
330
1F
100
AcDbEntity
  8
SPOJOVACÍ
  6
Continuous
100
AcDbLine
 10
158.9516483465712
 20
76.99155823941083
 30
0.0
 11
159.0176908284928
 21
76.20462951628844
 31
0.0
  0
LINE
  5
398A
330
1F
100
AcDbEntity
  8
SPOJOVACÍ
  6
Continuous
100
AcDbLine
 10
158.5237674822718
 20
78.47239810646107
 30
0.0
 11
158.9516483465712
 21
76.99155823941083
 31
0.0
  0
LINE
  5
398B
330
1F
100
AcDbEntity
  8
SPOJOVACÍ
  6
Continuous
100
AcDbLine
 10
157.7275370029536
 20
79.79138738475859
 30
0.0
 11
158.5237674822718
 21
78.47239810646107
 31
0.0
  0
LINE
  5
398C
330
1F
100
AcDbEntity
  8
SPOJOVACÍ
  6
Continuous
100
AcDbLine
 10
156.616907102595
 20
80.86015937417078
 30
0.0
 11
157.7275370029536
 21
79.79138738475859
 31
0.0
  0
LINE
  5
398D
330
1F
100
AcDbEntity
  8
SPOJOVACÍ
  6
Continuous
100
AcDbLine
 10
155.2672220190441
 20
81.60430001064497
 30
0.0
 11
156.616907102595
 21
80.86015937417078
 31
0.0
  0
LINE
  5
398E
330
1F
100
AcDbEntity
  8
SPOJOVACÍ
  6
Continuous
100
AcDbLine
 10
161.717060991229
 20
76.20462951628844
 30
0.0
 11
161.717060991229
 21
71.2616753373598
 31
0.0
  0
LINE
  5
398F
330
1F
100
AcDbEntity
  8
SPOJOVACÍ
  6
Continuous
100
AcDbLine
 10
159.0176908284928
 20
76.20462951628844
 30
0.0
 11
159.0176908284928
 21
72.16673638660842
 31
0.0
  0
LINE
  5
3990
330
1F
100
AcDbEntity
  8
SPOJOVACÍ
  6
Continuous
100
AcDbLine
 10
159.0176908284928
 20
71.57142387743198
 30
0.0
 11
159.0176908284928
 21
69.05250782240301
 31
0.0
  0
LINE
  5
3991
330
1F
100
AcDbEntity
  8
SPOJOVACÍ
  6
Continuous
100
AcDbLine
 10
159.0176908284928
 20
68.44882373108823
 30
0.0
 11
159.0176908284928
 21
65.92804732437918
 31
0.0
  0
LINE
  5
3992
330
1F
100
AcDbEntity
  8
SPOJOVACÍ
  6
Continuous
100
AcDbLine
 10
159.0176908284928
 20
65.33366499090454
 30
0.0
 11
159.0176908284928
 21
62.80544717803542
 31
0.0
  0
LINE
  5
3993
330
1F
100
AcDbEntity
  8
SPOJOVACÍ
  6
Continuous
100
AcDbLine
 10
161.717060991229
 20
70.65799124604501
 30
0.0
 11
161.717060991229
 21
68.13907519101604
 31
0.0
  0
LINE
  5
3994
330
1F
100
AcDbEntity
  8
SPOJOVACÍ
  6
Continuous
100
AcDbLine
 10
161.717060991229
 20
67.54283250586133
 30
0.0
 11
161.717060991229
 21
65.01461469299221
 31
0.0
  0
LINE
  5
3995
330
1F
100
AcDbEntity
  8
SPOJOVACÍ
  6
Continuous
100
AcDbLine
 10
161.717060991229
 20
64.42023235951757
 30
0.0
 11
161.717060991229
 21
61.89945595280852
 31
0.0
  0
LINE
  5
3996
330
1F
100
AcDbEntity
  8
SPOJOVACÍ
  6
Continuous
100
AcDbLine
 10
159.0176908284928
 20
62.20083291074963
 30
0.0
 11
159.0176908284928
 21
59.68284703142245
 31
0.0
  0
LINE
  5
3997
330
1F
100
AcDbEntity
  8
SPOJOVACÍ
  6
Continuous
100
AcDbLine
 10
159.0176908284928
 20
59.08660434626773
 30
0.0
 11
159.0176908284928
 21
57.83923860437909
 31
0.0
  0
LINE
  5
3998
330
1F
100
AcDbEntity
  8
SPOJOVACÍ
  6
Continuous
100
AcDbLine
 10
161.717060991229
 20
61.29856238887561
 30
0.0
 11
161.717060991229
 21
58.77964633384664
 31
0.0
  0
LINE
  5
3999
330
1F
100
AcDbEntity
  8
SPOJOVACÍ
  6
Continuous
100
AcDbLine
 10
161.717060991229
 20
58.17596224226264
 30
0.0
 11
161.717060991229
 21
57.83923860437909
 31
0.0
  0
LINE
  5
399A
330
1F
100
AcDbEntity
  8
SPOJOVACÍ
  6
Continuous
100
AcDbLine
 10
159.0176908284928
 20
57.83923860437909
 30
0.0
 11
159.1674491312159
 21
56.64210235502224
 31
0.0
  0
LINE
  5
399B
330
1F
100
AcDbEntity
  8
SPOJOVACÍ
  6
Continuous
100
AcDbLine
 10
160.3673759076781
 20
47.03896743942578
 30
0.0
 11
160.721772888807
 21
49.87507344069427
 31
0.0
  0
LINE
  5
399C
330
1F
100
AcDbEntity
  8
SPOJOVACÍ
  6
Continuous
100
AcDbLine
 10
159.2446537237418
 20
56.02167509916881
 30
0.0
 11
159.5348685732614
 21
53.69995631310422
 31
0.0
  0
LINE
  5
399D
330
1F
100
AcDbEntity
  8
SPOJOVACÍ
  6
Continuous
100
AcDbLine
 10
159.6139335160995
 20
53.06929712343964
 30
0.0
 11
159.9041483612535
 21
50.74850851308411
 31
0.0
  0
LINE
  5
399E
330
1F
100
AcDbEntity
  8
SPOJOVACÍ
  6
Continuous
100
AcDbLine
 10
159.9813529537794
 20
50.12808125723068
 30
0.0
 11
160.3673759076781
 21
47.03896743942578
 31
0.0
  0
LINE
  5
399F
330
1F
100
AcDbEntity
  8
SPOJOVACÍ
  6
Continuous
100
AcDbLine
 10
160.7933964260308
 20
50.44434102776114
 30
0.0
 11
161.0612870543417
 21
52.58932641274561
 31
0.0
  0
LINE
  5
39A0
330
1F
100
AcDbEntity
  8
SPOJOVACÍ
  6
Continuous
100
AcDbLine
 10
161.1329105871999
 20
53.16138452719434
 30
0.0
 11
161.3998710425374
 21
55.29799833004773
 31
0.0
  0
LINE
  5
39A1
330
1F
100
AcDbEntity
  8
SPOJOVACÍ
  6
Continuous
100
AcDbLine
 10
161.4714945797612
 20
55.86819609309287
 30
0.0
 11
161.717060991229
 21
57.83923860437909
 31
0.0
  0
LINE
  5
39A2
330
1F
100
AcDbEntity
  8
SPOJOVACÍ
  6
Continuous
100
AcDbLine
 10
157.9675223547536
 20
72.00395562242312
 30
0.0
 11
162.7672294606026
 21
70.80402884596089
 31
0.0
  0
LINE
  5
39A3
330
1F
100
AcDbEntity
  8
SPOJOVACÍ
  6
Continuous
100
AcDbLine
 10
157.9675223547536
 20
72.00395562242312
 30
0.0
 11
158.3451737300646
 21
71.78629448637486
 31
0.0
  0
LINE
  5
39A4
330
1F
100
AcDbEntity
  8
SPOJOVACÍ
  6
Continuous
100
AcDbLine
 10
157.9675223547536
 20
72.00395562242312
 30
0.0
 11
158.3451737300646
 21
72.38253717125309
 31
0.0
  0
LINE
  5
39A5
330
1F
100
AcDbEntity
  8
SPOJOVACÍ
  6
Continuous
100
AcDbLine
 10
162.7672294606026
 20
70.80402884596089
 30
0.0
 11
162.3895780896572
 21
70.42637747283271
 31
0.0
  0
LINE
  5
39A6
330
1F
100
AcDbEntity
  8
SPOJOVACÍ
  6
Continuous
100
AcDbLine
 10
162.7672294606026
 20
70.80402884596089
 30
0.0
 11
162.3895780896572
 21
71.02262015798743
 31
0.0
  0
LINE
  5
39A7
330
1F
100
AcDbEntity
  8
SPOJOVACÍ
  6
Continuous
100
AcDbLine
 10
158.3451737300646
 20
71.78629448637486
 30
0.0
 11
162.3895780896572
 21
70.42637747283271
 31
0.0
  0
LINE
  5
39A8
330
1F
100
AcDbEntity
  8
SPOJOVACÍ
  6
Continuous
100
AcDbLine
 10
158.3451737300646
 20
72.38253717125309
 30
0.0
 11
162.3895780896572
 21
71.02262015798743
 31
0.0
  0
LINE
  5
39A9
330
1F
100
AcDbEntity
  8
SPOJOVACÍ
  6
Continuous
100
AcDbLine
 10
157.9675223547536
 20
68.88414600346123
 30
0.0
 11
162.7672294606026
 21
67.68421922672252
 31
0.0
  0
LINE
  5
39AA
330
1F
100
AcDbEntity
  8
SPOJOVACÍ
  6
Continuous
100
AcDbLine
 10
157.9675223547536
 20
68.88414600346123
 30
0.0
 11
158.3451737300646
 21
68.66555469143469
 31
0.0
  0
LINE
  5
39AB
330
1F
100
AcDbEntity
  8
SPOJOVACÍ
  6
Continuous
100
AcDbLine
 10
157.9675223547536
 20
68.88414600346123
 30
0.0
 11
158.3451737300646
 21
69.26179737658941
 31
0.0
  0
LINE
  5
39AC
330
1F
100
AcDbEntity
  8
SPOJOVACÍ
  6
Continuous
100
AcDbLine
 10
162.7672294606026
 20
67.68421922672252
 30
0.0
 11
162.3895780896572
 21
67.30656785387083
 31
0.0
  0
LINE
  5
39AD
330
1F
100
AcDbEntity
  8
SPOJOVACÍ
  6
Continuous
100
AcDbLine
 10
162.7672294606026
 20
67.68421922672252
 30
0.0
 11
162.3895780896572
 21
67.90281053874906
 31
0.0
  0
LINE
  5
39AE
330
1F
100
AcDbEntity
  8
SPOJOVACÍ
  6
Continuous
100
AcDbLine
 10
158.3451737300646
 20
68.66555469143469
 30
0.0
 11
162.3895780896572
 21
67.30656785387083
 31
0.0
  0
LINE
  5
39AF
330
1F
100
AcDbEntity
  8
SPOJOVACÍ
  6
Continuous
100
AcDbLine
 10
158.3451737300646
 20
69.26179737658941
 30
0.0
 11
162.3895780896572
 21
67.90281053874906
 31
0.0
  0
LINE
  5
39B0
330
1F
100
AcDbEntity
  8
SPOJOVACÍ
  6
Continuous
100
AcDbLine
 10
158.2214603491746
 20
56.44676543799988
 30
0.0
 11
158.6000418974589
 21
56.22817412597334
 31
0.0
  0
LINE
  5
39B1
330
1F
100
AcDbEntity
  8
SPOJOVACÍ
  6
Continuous
100
AcDbLine
 10
158.2214603491746
 20
56.44676543799988
 30
0.0
 11
158.6000418974589
 21
56.82441681112806
 31
0.0
  0
LINE
  5
39B2
330
1F
100
AcDbEntity
  8
SPOJOVACÍ
  6
Continuous
100
AcDbLine
 10
162.3467900019176
 20
55.47380155569527
 30
0.0
 11
161.9691386309722
 21
55.09522000658882
 31
0.0
  0
LINE
  5
39B3
330
1F
100
AcDbEntity
  8
SPOJOVACÍ
  6
Continuous
100
AcDbLine
 10
162.3467900019176
 20
55.47380155569527
 30
0.0
 11
161.9691386309722
 21
55.69146269174353
 31
0.0
  0
LINE
  5
39B4
330
1F
100
AcDbEntity
  8
SPOJOVACÍ
  6
Continuous
100
AcDbLine
 10
158.6000418974589
 20
56.22817412597334
 30
0.0
 11
161.9691386309722
 21
55.09522000658882
 31
0.0
  0
LINE
  5
39B5
330
1F
100
AcDbEntity
  8
SPOJOVACÍ
  6
Continuous
100
AcDbLine
 10
158.6000418974589
 20
56.82441681112806
 30
0.0
 11
161.9691386309722
 21
55.69146269174353
 31
0.0
  0
LINE
  5
39B6
330
1F
100
AcDbEntity
  8
SPOJOVACÍ
  6
Continuous
100
AcDbLine
 10
158.2214603491746
 20
56.44676543799988
 30
0.0
 11
162.3467900019176
 21
55.47380155569527
 31
0.0
  0
LINE
  5
39B7
330
1F
100
AcDbEntity
  8
SPOJOVACÍ
  6
Continuous
100
AcDbLine
 10
158.7860770552805
 20
53.43206568370198
 30
0.0
 11
159.1637284305915
 21
53.21440454765371
 31
0.0
  0
LINE
  5
39B8
330
1F
100
AcDbEntity
  8
SPOJOVACÍ
  6
Continuous
100
AcDbLine
 10
158.7860770552805
 20
53.43206568370198
 30
0.0
 11
159.1637284305915
 21
53.81064723280843
 31
0.0
  0
LINE
  5
39B9
330
1F
100
AcDbEntity
  8
SPOJOVACÍ
  6
Continuous
100
AcDbLine
 10
161.9021659717117
 20
52.798615966932
 30
0.0
 11
161.5245146007663
 21
52.42003441810203
 31
0.0
  0
LINE
  5
39BA
330
1F
100
AcDbEntity
  8
SPOJOVACÍ
  6
Continuous
100
AcDbLine
 10
161.9021659717117
 20
52.798615966932
 30
0.0
 11
161.5245146007663
 21
53.01627710298027
 31
0.0
  0
LINE
  5
39BB
330
1F
100
AcDbEntity
  8
SPOJOVACÍ
  6
Continuous
100
AcDbLine
 10
159.1637284305915
 20
53.21440454765371
 30
0.0
 11
161.5245146007663
 21
52.42003441810203
 31
0.0
  0
LINE
  5
39BC
330
1F
100
AcDbEntity
  8
SPOJOVACÍ
  6
Continuous
100
AcDbLine
 10
159.1637284305915
 20
53.81064723280843
 30
0.0
 11
161.5245146007663
 21
53.01627710298027
 31
0.0
  0
LINE
  5
39BD
330
1F
100
AcDbEntity
  8
SPOJOVACÍ
  6
Continuous
100
AcDbLine
 10
158.7860770552805
 20
53.43206568370198
 30
0.0
 11
161.9021659717117
 21
52.798615966932
 31
0.0
  0
LINE
  5
39BE
330
1F
100
AcDbEntity
  8
SPOJOVACÍ
  6
Continuous
100
AcDbLine
 10
159.3506937657519
 20
50.41829610538235
 30
0.0
 11
159.7283451366973
 21
50.19970479336308
 31
0.0
  0
LINE
  5
39BF
330
1F
100
AcDbEntity
  8
SPOJOVACÍ
  6
Continuous
100
AcDbLine
 10
159.3506937657519
 20
50.41829610538235
 30
0.0
 11
159.7283451366973
 21
50.79594747851053
 31
0.0
  0
LINE
  5
39C0
330
1F
100
AcDbEntity
  8
SPOJOVACÍ
  6
Continuous
100
AcDbLine
 10
161.5049809072087
 20
50.10761738960837
 30
0.0
 11
161.1273295362633
 21
49.7290358407784
 31
0.0
  0
LINE
  5
39C1
330
1F
100
AcDbEntity
  8
SPOJOVACÍ
  6
Continuous
100
AcDbLine
 10
161.5049809072087
 20
50.10761738960837
 30
0.0
 11
161.1273295362633
 21
50.32527852592585
 31
0.0
  0
LINE
  5
39C2
330
1F
100
AcDbEntity
  8
SPOJOVACÍ
  6
Continuous
100
AcDbLine
 10
159.7283451366973
 20
50.19970479336308
 30
0.0
 11
161.1273295362633
 21
49.7290358407784
 31
0.0
  0
LINE
  5
39C3
330
1F
100
AcDbEntity
  8
SPOJOVACÍ
  6
Continuous
100
AcDbLine
 10
159.7283451366973
 20
50.79594747851053
 30
0.0
 11
161.1273295362633
 21
50.32527852592585
 31
0.0
  0
LINE
  5
39C4
330
1F
100
AcDbEntity
  8
SPOJOVACÍ
  6
Continuous
100
AcDbLine
 10
159.3506937657519
 20
50.41829610538235
 30
0.0
 11
161.5049809072087
 21
50.10761738960837
 31
0.0
  0
LINE
  5
39C5
330
1F
100
AcDbEntity
  8
SPOJOVACÍ
  6
Continuous
100
AcDbLine
 10
157.9675223547536
 20
65.76433638422287
 30
0.0
 11
162.7672294606026
 21
64.56440960776063
 31
0.0
  0
LINE
  5
39C6
330
1F
100
AcDbEntity
  8
SPOJOVACÍ
  6
Continuous
100
AcDbLine
 10
157.9675223547536
 20
65.76433638422287
 30
0.0
 11
158.3451737300646
 21
65.54574507219633
 31
0.0
  0
LINE
  5
39C7
330
1F
100
AcDbEntity
  8
SPOJOVACÍ
  6
Continuous
100
AcDbLine
 10
157.9675223547536
 20
65.76433638422287
 30
0.0
 11
158.3451737300646
 21
66.14198775735104
 31
0.0
  0
LINE
  5
39C8
330
1F
100
AcDbEntity
  8
SPOJOVACÍ
  6
Continuous
100
AcDbLine
 10
162.7672294606026
 20
64.56440960776063
 30
0.0
 11
162.3895780896572
 21
64.18582805893066
 31
0.0
  0
LINE
  5
39C9
330
1F
100
AcDbEntity
  8
SPOJOVACÍ
  6
Continuous
100
AcDbLine
 10
162.7672294606026
 20
64.56440960776063
 30
0.0
 11
162.3895780896572
 21
64.78207074407811
 31
0.0
  0
LINE
  5
39CA
330
1F
100
AcDbEntity
  8
SPOJOVACÍ
  6
Continuous
100
AcDbLine
 10
158.3451737300646
 20
65.54574507219633
 30
0.0
 11
162.3895780896572
 21
64.18582805893066
 31
0.0
  0
LINE
  5
39CB
330
1F
100
AcDbEntity
  8
SPOJOVACÍ
  6
Continuous
100
AcDbLine
 10
158.3451737300646
 20
66.14198775735104
 30
0.0
 11
162.3895780896572
 21
64.78207074407811
 31
0.0
  0
LINE
  5
39CC
330
1F
100
AcDbEntity
  8
SPOJOVACÍ
  6
Continuous
100
AcDbLine
 10
157.9675223547536
 20
62.64452676525372
 30
0.0
 11
162.7672294606026
 21
61.44459998879148
 31
0.0
  0
LINE
  5
39CD
330
1F
100
AcDbEntity
  8
SPOJOVACÍ
  6
Continuous
100
AcDbLine
 10
157.9675223547536
 20
62.64452676525372
 30
0.0
 11
158.3451737300646
 21
62.42593545323444
 31
0.0
  0
LINE
  5
39CE
330
1F
100
AcDbEntity
  8
SPOJOVACÍ
  6
Continuous
100
AcDbLine
 10
157.9675223547536
 20
62.64452676525372
 30
0.0
 11
158.3451737300646
 21
63.02217813838189
 31
0.0
  0
LINE
  5
39CF
330
1F
100
AcDbEntity
  8
SPOJOVACÍ
  6
Continuous
100
AcDbLine
 10
162.7672294606026
 20
61.44459998879148
 30
0.0
 11
162.3895780896572
 21
61.06601843996151
 31
0.0
  0
LINE
  5
39D0
330
1F
100
AcDbEntity
  8
SPOJOVACÍ
  6
Continuous
100
AcDbLine
 10
162.7672294606026
 20
61.44459998879148
 30
0.0
 11
162.3895780896572
 21
61.66226112483975
 31
0.0
  0
LINE
  5
39D1
330
1F
100
AcDbEntity
  8
SPOJOVACÍ
  6
Continuous
100
AcDbLine
 10
158.3451737300646
 20
62.42593545323444
 30
0.0
 11
162.3895780896572
 21
61.06601843996151
 31
0.0
  0
LINE
  5
39D2
330
1F
100
AcDbEntity
  8
SPOJOVACÍ
  6
Continuous
100
AcDbLine
 10
158.3451737300646
 20
63.02217813838189
 30
0.0
 11
162.3895780896572
 21
61.66226112483975
 31
0.0
  0
LINE
  5
39D3
330
1F
100
AcDbEntity
  8
SPOJOVACÍ
  6
Continuous
100
AcDbLine
 10
157.9675223547536
 20
59.52378697031355
 30
0.0
 11
162.7672294606026
 21
58.32386019385132
 31
0.0
  0
LINE
  5
39D4
330
1F
100
AcDbEntity
  8
SPOJOVACÍ
  6
Continuous
100
AcDbLine
 10
157.9675223547536
 20
59.52378697031355
 30
0.0
 11
158.3451737300646
 21
59.30612583426529
 31
0.0
  0
LINE
  5
39D5
330
1F
100
AcDbEntity
  8
SPOJOVACÍ
  6
Continuous
100
AcDbLine
 10
157.9675223547536
 20
59.52378697031355
 30
0.0
 11
158.3451737300646
 21
59.90236851942
 31
0.0
  0
LINE
  5
39D6
330
1F
100
AcDbEntity
  8
SPOJOVACÍ
  6
Continuous
100
AcDbLine
 10
162.7672294606026
 20
58.32386019385132
 30
0.0
 11
162.3895780896572
 21
57.94620882072314
 31
0.0
  0
LINE
  5
39D7
330
1F
100
AcDbEntity
  8
SPOJOVACÍ
  6
Continuous
100
AcDbLine
 10
162.7672294606026
 20
58.32386019385132
 30
0.0
 11
162.3895780896572
 21
58.54245150587786
 31
0.0
  0
LINE
  5
39D8
330
1F
100
AcDbEntity
  8
SPOJOVACÍ
  6
Continuous
100
AcDbLine
 10
158.3451737300646
 20
59.30612583426529
 30
0.0
 11
162.3895780896572
 21
57.94620882072314
 31
0.0
  0
LINE
  5
39D9
330
1F
100
AcDbEntity
  8
SPOJOVACÍ
  6
Continuous
100
AcDbLine
 10
158.3451737300646
 20
59.90236851942
 30
0.0
 11
162.3895780896572
 21
58.54245150587786
 31
0.0
  0
LINE
  5
39DA
330
1F
100
AcDbEntity
  8
NOSNÉ KONSTRUKCE
100
AcDbLine
 10
142.4896887702788
 20
64.71366543200367
 30
0.0
 11
652.4831665243663
 21
64.71366543200367
 31
0.0
  0
LINE
  5
39DB
330
1F
100
AcDbEntity
  8
NOSNÉ KONSTRUKCE
100
AcDbLine
 10
142.4896887702788
 20
25.36000899145557
 30
0.0
 11
645.2350058890013
 21
25.36000899145557
 31
0.0
  0
LINE
  5
39DC
330
1F
100
AcDbEntity
  8
SPOJOVACÍ
  6
Continuous
100
AcDbLine
 10
533.5949037055915
 20
59.90236851942
 30
0.0
 11
537.639308065184
 21
58.54245150587786
 31
0.0
  0
LINE
  5
39DD
330
1F
100
AcDbEntity
  8
SPOJOVACÍ
  6
Continuous
100
AcDbLine
 10
533.5949037055915
 20
59.30612583426529
 30
0.0
 11
537.639308065184
 21
57.94620882072314
 31
0.0
  0
LINE
  5
39DE
330
1F
100
AcDbEntity
  8
SPOJOVACÍ
  6
Continuous
100
AcDbLine
 10
538.0169594361294
 20
58.32386019385132
 30
0.0
 11
537.639308065184
 21
58.54245150587786
 31
0.0
  0
LINE
  5
39DF
330
1F
100
AcDbEntity
  8
SPOJOVACÍ
  6
Continuous
100
AcDbLine
 10
538.0169594361294
 20
58.32386019385132
 30
0.0
 11
537.639308065184
 21
57.94620882072314
 31
0.0
  0
LINE
  5
39E0
330
1F
100
AcDbEntity
  8
SPOJOVACÍ
  6
Continuous
100
AcDbLine
 10
533.2172523302805
 20
59.52378697031355
 30
0.0
 11
533.5949037055915
 21
59.90236851942
 31
0.0
  0
LINE
  5
39E1
330
1F
100
AcDbEntity
  8
SPOJOVACÍ
  6
Continuous
100
AcDbLine
 10
533.2172523302805
 20
59.52378697031355
 30
0.0
 11
533.5949037055915
 21
59.30612583426529
 31
0.0
  0
LINE
  5
39E2
330
1F
100
AcDbEntity
  8
SPOJOVACÍ
  6
Continuous
100
AcDbLine
 10
533.2172523302805
 20
59.52378697031355
 30
0.0
 11
538.0169594361294
 21
58.32386019385132
 31
0.0
  0
LINE
  5
39E3
330
1F
100
AcDbEntity
  8
SPOJOVACÍ
  6
Continuous
100
AcDbLine
 10
533.5949037055915
 20
63.02217813838189
 30
0.0
 11
537.639308065184
 21
61.66226112483975
 31
0.0
  0
LINE
  5
39E4
330
1F
100
AcDbEntity
  8
SPOJOVACÍ
  6
Continuous
100
AcDbLine
 10
533.5949037055915
 20
62.42593545323444
 30
0.0
 11
537.639308065184
 21
61.06601843996151
 31
0.0
  0
LINE
  5
39E5
330
1F
100
AcDbEntity
  8
SPOJOVACÍ
  6
Continuous
100
AcDbLine
 10
538.0169594361294
 20
61.44459998879148
 30
0.0
 11
537.639308065184
 21
61.66226112483975
 31
0.0
  0
LINE
  5
39E6
330
1F
100
AcDbEntity
  8
SPOJOVACÍ
  6
Continuous
100
AcDbLine
 10
538.0169594361294
 20
61.44459998879148
 30
0.0
 11
537.639308065184
 21
61.06601843996151
 31
0.0
  0
LINE
  5
39E7
330
1F
100
AcDbEntity
  8
SPOJOVACÍ
  6
Continuous
100
AcDbLine
 10
533.2172523302805
 20
62.64452676525372
 30
0.0
 11
533.5949037055915
 21
63.02217813838189
 31
0.0
  0
LINE
  5
39E8
330
1F
100
AcDbEntity
  8
SPOJOVACÍ
  6
Continuous
100
AcDbLine
 10
533.2172523302805
 20
62.64452676525372
 30
0.0
 11
533.5949037055915
 21
62.42593545323444
 31
0.0
  0
LINE
  5
39E9
330
1F
100
AcDbEntity
  8
SPOJOVACÍ
  6
Continuous
100
AcDbLine
 10
533.2172523302805
 20
62.64452676525372
 30
0.0
 11
538.0169594361294
 21
61.44459998879148
 31
0.0
  0
LINE
  5
39EA
330
1F
100
AcDbEntity
  8
SPOJOVACÍ
  6
Continuous
100
AcDbLine
 10
533.5949037055915
 20
66.14198775735104
 30
0.0
 11
537.639308065184
 21
64.78207074407811
 31
0.0
  0
LINE
  5
39EB
330
1F
100
AcDbEntity
  8
SPOJOVACÍ
  6
Continuous
100
AcDbLine
 10
533.5949037055915
 20
65.54574507219633
 30
0.0
 11
537.639308065184
 21
64.18582805893066
 31
0.0
  0
LINE
  5
39EC
330
1F
100
AcDbEntity
  8
SPOJOVACÍ
  6
Continuous
100
AcDbLine
 10
538.0169594361294
 20
64.56440960776063
 30
0.0
 11
537.639308065184
 21
64.78207074407811
 31
0.0
  0
LINE
  5
39ED
330
1F
100
AcDbEntity
  8
SPOJOVACÍ
  6
Continuous
100
AcDbLine
 10
538.0169594361294
 20
64.56440960776063
 30
0.0
 11
537.639308065184
 21
64.18582805893066
 31
0.0
  0
LINE
  5
39EE
330
1F
100
AcDbEntity
  8
SPOJOVACÍ
  6
Continuous
100
AcDbLine
 10
533.2172523302805
 20
65.76433638422287
 30
0.0
 11
533.5949037055915
 21
66.14198775735104
 31
0.0
  0
LINE
  5
39EF
330
1F
100
AcDbEntity
  8
SPOJOVACÍ
  6
Continuous
100
AcDbLine
 10
533.2172523302805
 20
65.76433638422287
 30
0.0
 11
533.5949037055915
 21
65.54574507219633
 31
0.0
  0
LINE
  5
39F0
330
1F
100
AcDbEntity
  8
SPOJOVACÍ
  6
Continuous
100
AcDbLine
 10
533.2172523302805
 20
65.76433638422287
 30
0.0
 11
538.0169594361294
 21
64.56440960776063
 31
0.0
  0
LINE
  5
39F1
330
1F
100
AcDbEntity
  8
SPOJOVACÍ
  6
Continuous
100
AcDbLine
 10
534.6004237412788
 20
50.41829610538235
 30
0.0
 11
536.7547108827356
 21
50.10761738960837
 31
0.0
  0
LINE
  5
39F2
330
1F
100
AcDbEntity
  8
SPOJOVACÍ
  6
Continuous
100
AcDbLine
 10
534.9780751122242
 20
50.79594747851053
 30
0.0
 11
536.3770595117902
 21
50.32527852592585
 31
0.0
  0
LINE
  5
39F3
330
1F
100
AcDbEntity
  8
SPOJOVACÍ
  6
Continuous
100
AcDbLine
 10
534.9780751122242
 20
50.19970479336308
 30
0.0
 11
536.3770595117902
 21
49.7290358407784
 31
0.0
  0
LINE
  5
39F4
330
1F
100
AcDbEntity
  8
SPOJOVACÍ
  6
Continuous
100
AcDbLine
 10
536.7547108827356
 20
50.10761738960837
 30
0.0
 11
536.3770595117902
 21
50.32527852592585
 31
0.0
  0
LINE
  5
39F5
330
1F
100
AcDbEntity
  8
SPOJOVACÍ
  6
Continuous
100
AcDbLine
 10
536.7547108827356
 20
50.10761738960837
 30
0.0
 11
536.3770595117902
 21
49.7290358407784
 31
0.0
  0
LINE
  5
39F6
330
1F
100
AcDbEntity
  8
SPOJOVACÍ
  6
Continuous
100
AcDbLine
 10
534.6004237412788
 20
50.41829610538235
 30
0.0
 11
534.9780751122242
 21
50.79594747851053
 31
0.0
  0
LINE
  5
39F7
330
1F
100
AcDbEntity
  8
SPOJOVACÍ
  6
Continuous
100
AcDbLine
 10
534.6004237412788
 20
50.41829610538235
 30
0.0
 11
534.9780751122242
 21
50.19970479336308
 31
0.0
  0
LINE
  5
39F8
330
1F
100
AcDbEntity
  8
SPOJOVACÍ
  6
Continuous
100
AcDbLine
 10
534.0358070308074
 20
53.43206568370198
 30
0.0
 11
537.1518959472386
 21
52.798615966932
 31
0.0
  0
LINE
  5
39F9
330
1F
100
AcDbEntity
  8
SPOJOVACÍ
  6
Continuous
100
AcDbLine
 10
534.4134584061183
 20
53.81064723280843
 30
0.0
 11
536.7742445762932
 21
53.01627710298027
 31
0.0
  0
LINE
  5
39FA
330
1F
100
AcDbEntity
  8
SPOJOVACÍ
  6
Continuous
100
AcDbLine
 10
534.4134584061183
 20
53.21440454765371
 30
0.0
 11
536.7742445762932
 21
52.42003441810203
 31
0.0
  0
LINE
  5
39FB
330
1F
100
AcDbEntity
  8
SPOJOVACÍ
  6
Continuous
100
AcDbLine
 10
537.1518959472386
 20
52.798615966932
 30
0.0
 11
536.7742445762932
 21
53.01627710298027
 31
0.0
  0
LINE
  5
39FC
330
1F
100
AcDbEntity
  8
SPOJOVACÍ
  6
Continuous
100
AcDbLine
 10
537.1518959472386
 20
52.798615966932
 30
0.0
 11
536.7742445762932
 21
52.42003441810203
 31
0.0
  0
LINE
  5
39FD
330
1F
100
AcDbEntity
  8
SPOJOVACÍ
  6
Continuous
100
AcDbLine
 10
534.0358070308074
 20
53.43206568370198
 30
0.0
 11
534.4134584061183
 21
53.81064723280843
 31
0.0
  0
LINE
  5
39FE
330
1F
100
AcDbEntity
  8
SPOJOVACÍ
  6
Continuous
100
AcDbLine
 10
534.0358070308074
 20
53.43206568370198
 30
0.0
 11
534.4134584061183
 21
53.21440454765371
 31
0.0
  0
LINE
  5
39FF
330
1F
100
AcDbEntity
  8
SPOJOVACÍ
  6
Continuous
100
AcDbLine
 10
533.4711903247015
 20
56.44676543799988
 30
0.0
 11
537.5965199774444
 21
55.47380155569527
 31
0.0
  0
LINE
  5
3A00
330
1F
100
AcDbEntity
  8
SPOJOVACÍ
  6
Continuous
100
AcDbLine
 10
533.8497718729858
 20
56.82441681112806
 30
0.0
 11
537.2188686064991
 21
55.69146269174353
 31
0.0
  0
LINE
  5
3A01
330
1F
100
AcDbEntity
  8
SPOJOVACÍ
  6
Continuous
100
AcDbLine
 10
533.8497718729858
 20
56.22817412597334
 30
0.0
 11
537.2188686064991
 21
55.09522000658882
 31
0.0
  0
LINE
  5
3A02
330
1F
100
AcDbEntity
  8
SPOJOVACÍ
  6
Continuous
100
AcDbLine
 10
537.5965199774444
 20
55.47380155569527
 30
0.0
 11
537.2188686064991
 21
55.69146269174353
 31
0.0
  0
LINE
  5
3A03
330
1F
100
AcDbEntity
  8
SPOJOVACÍ
  6
Continuous
100
AcDbLine
 10
537.5965199774444
 20
55.47380155569527
 30
0.0
 11
537.2188686064991
 21
55.09522000658882
 31
0.0
  0
LINE
  5
3A04
330
1F
100
AcDbEntity
  8
SPOJOVACÍ
  6
Continuous
100
AcDbLine
 10
533.4711903247015
 20
56.44676543799988
 30
0.0
 11
533.8497718729858
 21
56.82441681112806
 31
0.0
  0
LINE
  5
3A05
330
1F
100
AcDbEntity
  8
SPOJOVACÍ
  6
Continuous
100
AcDbLine
 10
533.4711903247015
 20
56.44676543799988
 30
0.0
 11
533.8497718729858
 21
56.22817412597334
 31
0.0
  0
LINE
  5
3A06
330
1F
100
AcDbEntity
  8
SPOJOVACÍ
  6
Continuous
100
AcDbLine
 10
533.5949037055915
 20
69.26179737658941
 30
0.0
 11
537.639308065184
 21
67.90281053874906
 31
0.0
  0
LINE
  5
3A07
330
1F
100
AcDbEntity
  8
SPOJOVACÍ
  6
Continuous
100
AcDbLine
 10
533.5949037055915
 20
68.66555469143469
 30
0.0
 11
537.639308065184
 21
67.30656785387083
 31
0.0
  0
LINE
  5
3A08
330
1F
100
AcDbEntity
  8
SPOJOVACÍ
  6
Continuous
100
AcDbLine
 10
538.0169594361294
 20
67.68421922672252
 30
0.0
 11
537.639308065184
 21
67.90281053874906
 31
0.0
  0
LINE
  5
3A09
330
1F
100
AcDbEntity
  8
SPOJOVACÍ
  6
Continuous
100
AcDbLine
 10
538.0169594361294
 20
67.68421922672252
 30
0.0
 11
537.639308065184
 21
67.30656785387083
 31
0.0
  0
LINE
  5
3A0A
330
1F
100
AcDbEntity
  8
SPOJOVACÍ
  6
Continuous
100
AcDbLine
 10
533.2172523302805
 20
68.88414600346123
 30
0.0
 11
533.5949037055915
 21
69.26179737658941
 31
0.0
  0
LINE
  5
3A0B
330
1F
100
AcDbEntity
  8
SPOJOVACÍ
  6
Continuous
100
AcDbLine
 10
533.2172523302805
 20
68.88414600346123
 30
0.0
 11
533.5949037055915
 21
68.66555469143469
 31
0.0
  0
LINE
  5
3A0C
330
1F
100
AcDbEntity
  8
SPOJOVACÍ
  6
Continuous
100
AcDbLine
 10
533.2172523302805
 20
68.88414600346123
 30
0.0
 11
538.0169594361294
 21
67.68421922672252
 31
0.0
  0
LINE
  5
3A0D
330
1F
100
AcDbEntity
  8
SPOJOVACÍ
  6
Continuous
100
AcDbLine
 10
533.5949037055915
 20
72.38253717125309
 30
0.0
 11
537.639308065184
 21
71.02262015798743
 31
0.0
  0
LINE
  5
3A0E
330
1F
100
AcDbEntity
  8
SPOJOVACÍ
  6
Continuous
100
AcDbLine
 10
533.5949037055915
 20
71.78629448637486
 30
0.0
 11
537.639308065184
 21
70.42637747283271
 31
0.0
  0
LINE
  5
3A0F
330
1F
100
AcDbEntity
  8
SPOJOVACÍ
  6
Continuous
100
AcDbLine
 10
538.0169594361294
 20
70.80402884596089
 30
0.0
 11
537.639308065184
 21
71.02262015798743
 31
0.0
  0
LINE
  5
3A10
330
1F
100
AcDbEntity
  8
SPOJOVACÍ
  6
Continuous
100
AcDbLine
 10
538.0169594361294
 20
70.80402884596089
 30
0.0
 11
537.639308065184
 21
70.42637747283271
 31
0.0
  0
LINE
  5
3A11
330
1F
100
AcDbEntity
  8
SPOJOVACÍ
  6
Continuous
100
AcDbLine
 10
533.2172523302805
 20
72.00395562242312
 30
0.0
 11
533.5949037055915
 21
72.38253717125309
 31
0.0
  0
LINE
  5
3A12
330
1F
100
AcDbEntity
  8
SPOJOVACÍ
  6
Continuous
100
AcDbLine
 10
533.2172523302805
 20
72.00395562242312
 30
0.0
 11
533.5949037055915
 21
71.78629448637486
 31
0.0
  0
LINE
  5
3A13
330
1F
100
AcDbEntity
  8
SPOJOVACÍ
  6
Continuous
100
AcDbLine
 10
533.2172523302805
 20
72.00395562242312
 30
0.0
 11
538.0169594361294
 21
70.80402884596089
 31
0.0
  0
LINE
  5
3A14
330
1F
100
AcDbEntity
  8
SPOJOVACÍ
  6
Continuous
100
AcDbLine
 10
536.7212245552881
 20
55.86819609309287
 30
0.0
 11
536.9667909667558
 21
57.83923860437909
 31
0.0
  0
LINE
  5
3A15
330
1F
100
AcDbEntity
  8
SPOJOVACÍ
  6
Continuous
100
AcDbLine
 10
536.3826405627268
 20
53.16138452719434
 30
0.0
 11
536.6496010180643
 21
55.29799833004773
 31
0.0
  0
LINE
  5
3A16
330
1F
100
AcDbEntity
  8
SPOJOVACÍ
  6
Continuous
100
AcDbLine
 10
536.0431264015577
 20
50.44434102776114
 30
0.0
 11
536.3110170298686
 21
52.58932641274561
 31
0.0
  0
LINE
  5
3A17
330
1F
100
AcDbEntity
  8
SPOJOVACÍ
  6
Continuous
100
AcDbLine
 10
535.2310829293063
 20
50.12808125723068
 30
0.0
 11
535.617105883205
 21
47.03896743942578
 31
0.0
  0
LINE
  5
3A18
330
1F
100
AcDbEntity
  8
SPOJOVACÍ
  6
Continuous
100
AcDbLine
 10
534.8636634916264
 20
53.06929712343964
 30
0.0
 11
535.1538783367804
 21
50.74850851308411
 31
0.0
  0
LINE
  5
3A19
330
1F
100
AcDbEntity
  8
SPOJOVACÍ
  6
Continuous
100
AcDbLine
 10
534.4943836992687
 20
56.02167509916881
 30
0.0
 11
534.7845985487882
 21
53.69995631310422
 31
0.0
  0
LINE
  5
3A1A
330
1F
100
AcDbEntity
  8
SPOJOVACÍ
  6
Continuous
100
AcDbLine
 10
535.617105883205
 20
47.03896743942578
 30
0.0
 11
535.9715028643339
 21
49.87507344069427
 31
0.0
  0
LINE
  5
3A1B
330
1F
100
AcDbEntity
  8
SPOJOVACÍ
  6
Continuous
100
AcDbLine
 10
534.2674208040197
 20
57.83923860437909
 30
0.0
 11
534.4171791067427
 21
56.64210235502224
 31
0.0
  0
LINE
  5
3A1C
330
1F
100
AcDbEntity
  8
SPOJOVACÍ
  6
Continuous
100
AcDbLine
 10
536.9667909667558
 20
58.17596224226264
 30
0.0
 11
536.9667909667558
 21
57.83923860437909
 31
0.0
  0
LINE
  5
3A1D
330
1F
100
AcDbEntity
  8
SPOJOVACÍ
  6
Continuous
100
AcDbLine
 10
536.9667909667558
 20
61.29856238887561
 30
0.0
 11
536.9667909667558
 21
58.77964633384664
 31
0.0
  0
LINE
  5
3A1E
330
1F
100
AcDbEntity
  8
SPOJOVACÍ
  6
Continuous
100
AcDbLine
 10
534.2674208040197
 20
59.08660434626773
 30
0.0
 11
534.2674208040197
 21
57.83923860437909
 31
0.0
  0
LINE
  5
3A1F
330
1F
100
AcDbEntity
  8
SPOJOVACÍ
  6
Continuous
100
AcDbLine
 10
534.2674208040197
 20
62.20083291074963
 30
0.0
 11
534.2674208040197
 21
59.68284703142245
 31
0.0
  0
LINE
  5
3A20
330
1F
100
AcDbEntity
  8
SPOJOVACÍ
  6
Continuous
100
AcDbLine
 10
536.9667909667558
 20
64.42023235951757
 30
0.0
 11
536.9667909667558
 21
61.89945595280852
 31
0.0
  0
LINE
  5
3A21
330
1F
100
AcDbEntity
  8
SPOJOVACÍ
  6
Continuous
100
AcDbLine
 10
536.9667909667558
 20
67.54283250586133
 30
0.0
 11
536.9667909667558
 21
65.01461469299221
 31
0.0
  0
LINE
  5
3A22
330
1F
100
AcDbEntity
  8
SPOJOVACÍ
  6
Continuous
100
AcDbLine
 10
536.9667909667558
 20
70.65799124604501
 30
0.0
 11
536.9667909667558
 21
68.13907519101604
 31
0.0
  0
LINE
  5
3A23
330
1F
100
AcDbEntity
  8
SPOJOVACÍ
  6
Continuous
100
AcDbLine
 10
534.2674208040197
 20
65.33366499090454
 30
0.0
 11
534.2674208040197
 21
62.80544717803542
 31
0.0
  0
LINE
  5
3A24
330
1F
100
AcDbEntity
  8
SPOJOVACÍ
  6
Continuous
100
AcDbLine
 10
534.2674208040197
 20
68.44882373108823
 30
0.0
 11
534.2674208040197
 21
65.92804732437918
 31
0.0
  0
LINE
  5
3A25
330
1F
100
AcDbEntity
  8
SPOJOVACÍ
  6
Continuous
100
AcDbLine
 10
534.2674208040197
 20
71.57142387743198
 30
0.0
 11
534.2674208040197
 21
69.05250782240301
 31
0.0
  0
LINE
  5
3A26
330
1F
100
AcDbEntity
  8
SPOJOVACÍ
  6
Continuous
100
AcDbLine
 10
534.2674208040197
 20
76.20462951628844
 30
0.0
 11
534.2674208040197
 21
72.16673638660842
 31
0.0
  0
LINE
  5
3A27
330
1F
100
AcDbEntity
  8
SPOJOVACÍ
  6
Continuous
100
AcDbLine
 10
536.9667909667558
 20
76.20462951628844
 30
0.0
 11
536.9667909667558
 21
71.2616753373598
 31
0.0
  0
LINE
  5
3A28
330
1F
100
AcDbEntity
  8
SPOJOVACÍ
  6
Continuous
100
AcDbLine
 10
530.516951994571
 20
81.60430001064497
 30
0.0
 11
531.8666370781219
 21
80.86015937417078
 31
0.0
  0
LINE
  5
3A29
330
1F
100
AcDbEntity
  8
SPOJOVACÍ
  6
Continuous
100
AcDbLine
 10
531.8666370781219
 20
80.86015937417078
 30
0.0
 11
532.9772669784805
 21
79.79138738475859
 31
0.0
  0
LINE
  5
3A2A
330
1F
100
AcDbEntity
  8
SPOJOVACÍ
  6
Continuous
100
AcDbLine
 10
532.9772669784805
 20
79.79138738475859
 30
0.0
 11
533.7734974577987
 21
78.47239810646107
 31
0.0
  0
LINE
  5
3A2B
330
1F
100
AcDbEntity
  8
SPOJOVACÍ
  6
Continuous
100
AcDbLine
 10
533.7734974577987
 20
78.47239810646107
 30
0.0
 11
534.2013783220981
 21
76.99155823941083
 31
0.0
  0
LINE
  5
3A2C
330
1F
100
AcDbEntity
  8
SPOJOVACÍ
  6
Continuous
100
AcDbLine
 10
534.2013783220981
 20
76.99155823941083
 30
0.0
 11
534.2674208040197
 21
76.20462951628844
 31
0.0
  0
LINE
  5
3A2D
330
1F
100
AcDbEntity
  8
SPOJOVACÍ
  6
Continuous
100
AcDbLine
 10
538.7648207767714
 20
80.34949286231977
 30
0.0
 11
540.0019545856711
 21
81.26757637276142
 31
0.0
  0
LINE
  5
3A2E
330
1F
100
AcDbEntity
  8
SPOJOVACÍ
  6
Continuous
100
AcDbLine
 10
540.0019545856711
 20
81.26757637276142
 30
0.0
 11
540.7172597718389
 21
81.60430001064497
 31
0.0
  0
LINE
  5
3A2F
330
1F
100
AcDbEntity
  8
SPOJOVACÍ
  6
Continuous
100
AcDbLine
 10
530.516951994571
 20
81.60430001064497
 30
0.0
 11
540.7172597718389
 21
81.60430001064497
 31
0.0
  0
LINE
  5
3A30
330
1F
100
AcDbEntity
  8
SPOJOVACÍ
  6
Continuous
100
AcDbLine
 10
530.516951994571
 20
82.80422678737641
 30
0.0
 11
530.516951994571
 21
81.60430001064497
 31
0.0
  0
LINE
  5
3A31
330
1F
100
AcDbEntity
  8
SPOJOVACÍ
  6
Continuous
100
AcDbLine
 10
530.516951994571
 20
82.80422678737641
 30
0.0
 11
540.7172597718389
 21
82.80422678737641
 31
0.0
  0
LINE
  5
3A32
330
1F
100
AcDbEntity
  8
SPOJOVACÍ
  6
Continuous
100
AcDbLine
 10
540.7172597718389
 20
82.80422678737641
 30
0.0
 11
540.7172597718389
 21
81.60430001064497
 31
0.0
  0
LINE
  5
3A33
330
1F
100
AcDbEntity
  8
SPOJOVACÍ
  6
Continuous
100
AcDbLine
 10
536.9667909667558
 20
76.20462951628844
 30
0.0
 11
537.1937538576393
 21
77.72825746971768
 31
0.0
  0
LINE
  5
3A34
330
1F
100
AcDbEntity
  8
SPOJOVACÍ
  6
Continuous
100
AcDbLine
 10
537.1937538576393
 20
77.72825746971768
 30
0.0
 11
537.8067397067869
 21
79.14212467942099
 31
0.0
  0
LINE
  5
3A35
330
1F
100
AcDbEntity
  8
SPOJOVACÍ
  6
Continuous
100
AcDbLine
 10
537.8067397067869
 20
79.14212467942099
 30
0.0
 11
538.7648207767714
 21
80.34949286231977
 31
0.0
  0
LINE
  5
3A36
330
1F
100
AcDbEntity
  8
SPOJOVACÍ
  6
Continuous
100
AcDbLine
 10
549.9238294265677
 20
11.23407461058224
 30
0.0
 11
550.8819104965522
 21
10.02670642768345
 31
0.0
  0
LINE
  5
3A37
330
1F
100
AcDbEntity
  8
SPOJOVACÍ
  6
Continuous
100
AcDbLine
 10
549.3108435774201
 20
12.64794182028555
 30
0.0
 11
549.9238294265677
 21
11.23407461058224
 31
0.0
  0
LINE
  5
3A38
330
1F
100
AcDbEntity
  8
SPOJOVACÍ
  6
Continuous
100
AcDbLine
 10
549.0838806865366
 20
14.17156977371479
 30
0.0
 11
549.3108435774201
 21
12.64794182028555
 31
0.0
  0
LINE
  5
3A39
330
1F
100
AcDbEntity
  8
SPOJOVACÍ
  6
Continuous
100
AcDbLine
 10
552.8343494916197
 20
7.571972502626806
 30
0.0
 11
552.8343494916197
 21
8.771899279358251
 31
0.0
  0
LINE
  5
3A3A
330
1F
100
AcDbEntity
  8
SPOJOVACÍ
  6
Continuous
100
AcDbLine
 10
542.6340417143518
 20
7.571972502626806
 30
0.0
 11
552.8343494916197
 21
7.571972502626806
 31
0.0
  0
LINE
  5
3A3B
330
1F
100
AcDbEntity
  8
SPOJOVACÍ
  6
Continuous
100
AcDbLine
 10
542.6340417143518
 20
7.571972502626806
 30
0.0
 11
542.6340417143518
 21
8.771899279358251
 31
0.0
  0
LINE
  5
3A3C
330
1F
100
AcDbEntity
  8
SPOJOVACÍ
  6
Continuous
100
AcDbLine
 10
542.6340417143518
 20
8.771899279358251
 30
0.0
 11
552.8343494916197
 21
8.771899279358251
 31
0.0
  0
LINE
  5
3A3D
330
1F
100
AcDbEntity
  8
SPOJOVACÍ
  6
Continuous
100
AcDbLine
 10
552.1190443054519
 20
9.108622917241802
 30
0.0
 11
552.8343494916197
 21
8.771899279358251
 31
0.0
  0
LINE
  5
3A3E
330
1F
100
AcDbEntity
  8
SPOJOVACÍ
  6
Continuous
100
AcDbLine
 10
550.8819104965522
 20
10.02670642768345
 30
0.0
 11
552.1190443054519
 21
9.108622917241802
 31
0.0
  0
LINE
  5
3A3F
330
1F
100
AcDbEntity
  8
SPOJOVACÍ
  6
Continuous
100
AcDbLine
 10
546.3184680418788
 20
13.38464105059239
 30
0.0
 11
546.3845105238005
 21
14.17156977371479
 31
0.0
  0
LINE
  5
3A40
330
1F
100
AcDbEntity
  8
SPOJOVACÍ
  6
Continuous
100
AcDbLine
 10
545.8905871775795
 20
11.90380118354215
 30
0.0
 11
546.3184680418788
 21
13.38464105059239
 31
0.0
  0
LINE
  5
3A41
330
1F
100
AcDbEntity
  8
SPOJOVACÍ
  6
Continuous
100
AcDbLine
 10
545.0943566982613
 20
10.58481190524463
 30
0.0
 11
545.8905871775795
 21
11.90380118354215
 31
0.0
  0
LINE
  5
3A42
330
1F
100
AcDbEntity
  8
SPOJOVACÍ
  6
Continuous
100
AcDbLine
 10
543.9837267979027
 20
9.516039915832436
 30
0.0
 11
545.0943566982613
 21
10.58481190524463
 31
0.0
  0
LINE
  5
3A43
330
1F
100
AcDbEntity
  8
SPOJOVACÍ
  6
Continuous
100
AcDbLine
 10
542.6340417143518
 20
8.771899279358251
 30
0.0
 11
543.9837267979027
 21
9.516039915832436
 31
0.0
  0
LINE
  5
3A44
330
1F
100
AcDbEntity
  8
SPOJOVACÍ
  6
Continuous
100
AcDbLine
 10
549.0838806865366
 20
14.17156977371479
 30
0.0
 11
549.0838806865366
 21
19.11452395264342
 31
0.0
  0
LINE
  5
3A45
330
1F
100
AcDbEntity
  8
SPOJOVACÍ
  6
Continuous
100
AcDbLine
 10
546.3845105238005
 20
14.17156977371479
 30
0.0
 11
546.3845105238005
 21
18.2094629033948
 31
0.0
  0
LINE
  5
3A46
330
1F
100
AcDbEntity
  8
SPOJOVACÍ
  6
Continuous
100
AcDbLine
 10
546.3845105238005
 20
18.80477541257124
 30
0.0
 11
546.3845105238005
 21
21.32369146760021
 31
0.0
  0
LINE
  5
3A47
330
1F
100
AcDbEntity
  8
SPOJOVACÍ
  6
Continuous
100
AcDbLine
 10
546.3845105238005
 20
21.927375558915
 30
0.0
 11
546.3845105238005
 21
24.44815196562405
 31
0.0
  0
LINE
  5
3A48
330
1F
100
AcDbEntity
  8
SPOJOVACÍ
  6
Continuous
100
AcDbLine
 10
546.3845105238005
 20
25.04253429909869
 30
0.0
 11
546.3845105238005
 21
27.5707521119678
 31
0.0
  0
LINE
  5
3A49
330
1F
100
AcDbEntity
  8
SPOJOVACÍ
  6
Continuous
100
AcDbLine
 10
549.0838806865366
 20
19.71820804395821
 30
0.0
 11
549.0838806865366
 21
22.23712409898717
 31
0.0
  0
LINE
  5
3A4A
330
1F
100
AcDbEntity
  8
SPOJOVACÍ
  6
Continuous
100
AcDbLine
 10
549.0838806865366
 20
22.8333667841419
 30
0.0
 11
549.0838806865366
 21
25.36158459701101
 31
0.0
  0
LINE
  5
3A4B
330
1F
100
AcDbEntity
  8
SPOJOVACÍ
  6
Continuous
100
AcDbLine
 10
549.0838806865366
 20
25.95596693048566
 30
0.0
 11
549.0838806865366
 21
28.4767433371947
 31
0.0
  0
LINE
  5
3A4C
330
1F
100
AcDbEntity
  8
SPOJOVACÍ
  6
Continuous
100
AcDbLine
 10
546.3845105238005
 20
28.1753663792536
 30
0.0
 11
546.3845105238005
 21
30.69335225858077
 31
0.0
  0
LINE
  5
3A4D
330
1F
100
AcDbEntity
  8
SPOJOVACÍ
  6
Continuous
100
AcDbLine
 10
546.3845105238005
 20
31.28959494373549
 30
0.0
 11
546.3845105238005
 21
32.53696068562414
 31
0.0
  0
LINE
  5
3A4E
330
1F
100
AcDbEntity
  8
SPOJOVACÍ
  6
Continuous
100
AcDbLine
 10
549.0838806865366
 20
29.07763690112762
 30
0.0
 11
549.0838806865366
 21
31.59655295615658
 31
0.0
  0
LINE
  5
3A4F
330
1F
100
AcDbEntity
  8
SPOJOVACÍ
  6
Continuous
100
AcDbLine
 10
549.0838806865366
 20
32.20023704774058
 30
0.0
 11
549.0838806865366
 21
32.53696068562414
 31
0.0
  0
LINE
  5
3A50
330
1F
100
AcDbEntity
  8
SPOJOVACÍ
  6
Continuous
100
AcDbLine
 10
546.3845105238005
 20
32.53696068562414
 30
0.0
 11
546.5342688265235
 21
33.73409693498098
 31
0.0
  0
LINE
  5
3A51
330
1F
100
AcDbEntity
  8
SPOJOVACÍ
  6
Continuous
100
AcDbLine
 10
547.7341956029857
 20
43.33723185057744
 30
0.0
 11
548.0885925841147
 21
40.50112584930895
 31
0.0
  0
LINE
  5
3A52
330
1F
100
AcDbEntity
  8
SPOJOVACÍ
  6
Continuous
100
AcDbLine
 10
546.6114734190495
 20
34.35452419083441
 30
0.0
 11
546.901688268569
 21
36.676242976899
 31
0.0
  0
LINE
  5
3A53
330
1F
100
AcDbEntity
  8
SPOJOVACÍ
  6
Continuous
100
AcDbLine
 10
546.9807532114072
 20
37.30690216656359
 30
0.0
 11
547.2709680565611
 21
39.62769077691911
 31
0.0
  0
LINE
  5
3A54
330
1F
100
AcDbEntity
  8
SPOJOVACÍ
  6
Continuous
100
AcDbLine
 10
547.3481726490871
 20
40.24811803277254
 30
0.0
 11
547.7341956029857
 21
43.33723185057744
 31
0.0
  0
LINE
  5
3A55
330
1F
100
AcDbEntity
  8
SPOJOVACÍ
  6
Continuous
100
AcDbLine
 10
548.1602161213385
 20
39.93185826224209
 30
0.0
 11
548.4281067496493
 21
37.78687287725762
 31
0.0
  0
LINE
  5
3A56
330
1F
100
AcDbEntity
  8
SPOJOVACÍ
  6
Continuous
100
AcDbLine
 10
548.4997302825076
 20
37.21481476280888
 30
0.0
 11
548.7666907378451
 21
35.07820095995549
 31
0.0
  0
LINE
  5
3A57
330
1F
100
AcDbEntity
  8
SPOJOVACÍ
  6
Continuous
100
AcDbLine
 10
548.8383142750689
 20
34.50800319691035
 30
0.0
 11
549.0838806865366
 21
32.53696068562414
 31
0.0
  0
LINE
  5
3A58
330
1F
100
AcDbEntity
  8
SPOJOVACÍ
  6
Continuous
100
AcDbLine
 10
545.3343420500613
 20
18.3722436675801
 30
0.0
 11
550.1340491559102
 21
19.57217044404234
 31
0.0
  0
LINE
  5
3A59
330
1F
100
AcDbEntity
  8
SPOJOVACÍ
  6
Continuous
100
AcDbLine
 10
545.3343420500613
 20
18.3722436675801
 30
0.0
 11
545.7119934253722
 21
18.58990480362837
 31
0.0
  0
LINE
  5
3A5A
330
1F
100
AcDbEntity
  8
SPOJOVACÍ
  6
Continuous
100
AcDbLine
 10
545.3343420500613
 20
18.3722436675801
 30
0.0
 11
545.7119934253722
 21
17.99366211875013
 31
0.0
  0
LINE
  5
3A5B
330
1F
100
AcDbEntity
  8
SPOJOVACÍ
  6
Continuous
100
AcDbLine
 10
550.1340491559102
 20
19.57217044404234
 30
0.0
 11
549.7563977849648
 21
19.94982181717051
 31
0.0
  0
LINE
  5
3A5C
330
1F
100
AcDbEntity
  8
SPOJOVACÍ
  6
Continuous
100
AcDbLine
 10
550.1340491559102
 20
19.57217044404234
 30
0.0
 11
549.7563977849648
 21
19.35357913201579
 31
0.0
  0
LINE
  5
3A5D
330
1F
100
AcDbEntity
  8
SPOJOVACÍ
  6
Continuous
100
AcDbLine
 10
545.7119934253722
 20
18.58990480362837
 30
0.0
 11
549.7563977849648
 21
19.94982181717051
 31
0.0
  0
LINE
  5
3A5E
330
1F
100
AcDbEntity
  8
SPOJOVACÍ
  6
Continuous
100
AcDbLine
 10
545.7119934253722
 20
17.99366211875013
 30
0.0
 11
549.7563977849648
 21
19.35357913201579
 31
0.0
  0
LINE
  5
3A5F
330
1F
100
AcDbEntity
  8
SPOJOVACÍ
  6
Continuous
100
AcDbLine
 10
545.3343420500613
 20
21.49205328654198
 30
0.0
 11
550.1340491559102
 21
22.69198006328071
 31
0.0
  0
LINE
  5
3A60
330
1F
100
AcDbEntity
  8
SPOJOVACÍ
  6
Continuous
100
AcDbLine
 10
545.3343420500613
 20
21.49205328654198
 30
0.0
 11
545.7119934253722
 21
21.71064459856853
 31
0.0
  0
LINE
  5
3A61
330
1F
100
AcDbEntity
  8
SPOJOVACÍ
  6
Continuous
100
AcDbLine
 10
545.3343420500613
 20
21.49205328654198
 30
0.0
 11
545.7119934253722
 21
21.11440191341381
 31
0.0
  0
LINE
  5
3A62
330
1F
100
AcDbEntity
  8
SPOJOVACÍ
  6
Continuous
100
AcDbLine
 10
550.1340491559102
 20
22.69198006328071
 30
0.0
 11
549.7563977849648
 21
23.06963143613239
 31
0.0
  0
LINE
  5
3A63
330
1F
100
AcDbEntity
  8
SPOJOVACÍ
  6
Continuous
100
AcDbLine
 10
550.1340491559102
 20
22.69198006328071
 30
0.0
 11
549.7563977849648
 21
22.47338875125416
 31
0.0
  0
LINE
  5
3A64
330
1F
100
AcDbEntity
  8
SPOJOVACÍ
  6
Continuous
100
AcDbLine
 10
545.7119934253722
 20
21.71064459856853
 30
0.0
 11
549.7563977849648
 21
23.06963143613239
 31
0.0
  0
LINE
  5
3A65
330
1F
100
AcDbEntity
  8
SPOJOVACÍ
  6
Continuous
100
AcDbLine
 10
545.7119934253722
 20
21.11440191341381
 30
0.0
 11
549.7563977849648
 21
22.47338875125416
 31
0.0
  0
LINE
  5
3A66
330
1F
100
AcDbEntity
  8
SPOJOVACÍ
  6
Continuous
100
AcDbLine
 10
545.5882800444823
 20
33.92943385200334
 30
0.0
 11
545.9668615927665
 21
34.14802516402989
 31
0.0
  0
LINE
  5
3A67
330
1F
100
AcDbEntity
  8
SPOJOVACÍ
  6
Continuous
100
AcDbLine
 10
545.5882800444823
 20
33.92943385200334
 30
0.0
 11
545.9668615927665
 21
33.55178247887517
 31
0.0
  0
LINE
  5
3A68
330
1F
100
AcDbEntity
  8
SPOJOVACÍ
  6
Continuous
100
AcDbLine
 10
549.7136096972252
 20
34.90239773430795
 30
0.0
 11
549.3359583262798
 21
35.28097928341441
 31
0.0
  0
LINE
  5
3A69
330
1F
100
AcDbEntity
  8
SPOJOVACÍ
  6
Continuous
100
AcDbLine
 10
549.7136096972252
 20
34.90239773430795
 30
0.0
 11
549.3359583262798
 21
34.68473659825969
 31
0.0
  0
LINE
  5
3A6A
330
1F
100
AcDbEntity
  8
SPOJOVACÍ
  6
Continuous
100
AcDbLine
 10
545.9668615927665
 20
34.14802516402989
 30
0.0
 11
549.3359583262798
 21
35.28097928341441
 31
0.0
  0
LINE
  5
3A6B
330
1F
100
AcDbEntity
  8
SPOJOVACÍ
  6
Continuous
100
AcDbLine
 10
545.9668615927665
 20
33.55178247887517
 30
0.0
 11
549.3359583262798
 21
34.68473659825969
 31
0.0
  0
LINE
  5
3A6C
330
1F
100
AcDbEntity
  8
SPOJOVACÍ
  6
Continuous
100
AcDbLine
 10
545.5882800444823
 20
33.92943385200334
 30
0.0
 11
549.7136096972252
 21
34.90239773430795
 31
0.0
  0
LINE
  5
3A6D
330
1F
100
AcDbEntity
  8
SPOJOVACÍ
  6
Continuous
100
AcDbLine
 10
546.1528967505882
 20
36.94413360630125
 30
0.0
 11
546.5305481258991
 21
37.16179474234951
 31
0.0
  0
LINE
  5
3A6E
330
1F
100
AcDbEntity
  8
SPOJOVACÍ
  6
Continuous
100
AcDbLine
 10
546.1528967505882
 20
36.94413360630125
 30
0.0
 11
546.5305481258991
 21
36.56555205719479
 31
0.0
  0
LINE
  5
3A6F
330
1F
100
AcDbEntity
  8
SPOJOVACÍ
  6
Continuous
100
AcDbLine
 10
549.2689856670193
 20
37.57758332307122
 30
0.0
 11
548.8913342960739
 21
37.95616487190119
 31
0.0
  0
LINE
  5
3A70
330
1F
100
AcDbEntity
  8
SPOJOVACÍ
  6
Continuous
100
AcDbLine
 10
549.2689856670193
 20
37.57758332307122
 30
0.0
 11
548.8913342960739
 21
37.35992218702296
 31
0.0
  0
LINE
  5
3A71
330
1F
100
AcDbEntity
  8
SPOJOVACÍ
  6
Continuous
100
AcDbLine
 10
546.5305481258991
 20
37.16179474234951
 30
0.0
 11
548.8913342960739
 21
37.95616487190119
 31
0.0
  0
LINE
  5
3A72
330
1F
100
AcDbEntity
  8
SPOJOVACÍ
  6
Continuous
100
AcDbLine
 10
546.5305481258991
 20
36.56555205719479
 30
0.0
 11
548.8913342960739
 21
37.35992218702296
 31
0.0
  0
LINE
  5
3A73
330
1F
100
AcDbEntity
  8
SPOJOVACÍ
  6
Continuous
100
AcDbLine
 10
546.1528967505882
 20
36.94413360630125
 30
0.0
 11
549.2689856670193
 21
37.57758332307122
 31
0.0
  0
LINE
  5
3A74
330
1F
100
AcDbEntity
  8
SPOJOVACÍ
  6
Continuous
100
AcDbLine
 10
546.7175134610596
 20
39.95790318462087
 30
0.0
 11
547.095164832005
 21
40.17649449664014
 31
0.0
  0
LINE
  5
3A75
330
1F
100
AcDbEntity
  8
SPOJOVACÍ
  6
Continuous
100
AcDbLine
 10
546.7175134610596
 20
39.95790318462087
 30
0.0
 11
547.095164832005
 21
39.5802518114927
 31
0.0
  0
LINE
  5
3A76
330
1F
100
AcDbEntity
  8
SPOJOVACÍ
  6
Continuous
100
AcDbLine
 10
548.8718006025163
 20
40.26858190039485
 30
0.0
 11
548.494149231571
 21
40.64716344922482
 31
0.0
  0
LINE
  5
3A77
330
1F
100
AcDbEntity
  8
SPOJOVACÍ
  6
Continuous
100
AcDbLine
 10
548.8718006025163
 20
40.26858190039485
 30
0.0
 11
548.494149231571
 21
40.05092076407737
 31
0.0
  0
LINE
  5
3A78
330
1F
100
AcDbEntity
  8
SPOJOVACÍ
  6
Continuous
100
AcDbLine
 10
547.095164832005
 20
40.17649449664014
 30
0.0
 11
548.494149231571
 21
40.64716344922482
 31
0.0
  0
LINE
  5
3A79
330
1F
100
AcDbEntity
  8
SPOJOVACÍ
  6
Continuous
100
AcDbLine
 10
547.095164832005
 20
39.5802518114927
 30
0.0
 11
548.494149231571
 21
40.05092076407737
 31
0.0
  0
LINE
  5
3A7A
330
1F
100
AcDbEntity
  8
SPOJOVACÍ
  6
Continuous
100
AcDbLine
 10
546.7175134610596
 20
39.95790318462087
 30
0.0
 11
548.8718006025163
 21
40.26858190039485
 31
0.0
  0
LINE
  5
3A7B
330
1F
100
AcDbEntity
  8
SPOJOVACÍ
  6
Continuous
100
AcDbLine
 10
545.3343420500613
 20
24.61186290578035
 30
0.0
 11
550.1340491559102
 21
25.81178968224259
 31
0.0
  0
LINE
  5
3A7C
330
1F
100
AcDbEntity
  8
SPOJOVACÍ
  6
Continuous
100
AcDbLine
 10
545.3343420500613
 20
24.61186290578035
 30
0.0
 11
545.7119934253722
 21
24.8304542178069
 31
0.0
  0
LINE
  5
3A7D
330
1F
100
AcDbEntity
  8
SPOJOVACÍ
  6
Continuous
100
AcDbLine
 10
545.3343420500613
 20
24.61186290578035
 30
0.0
 11
545.7119934253722
 21
24.23421153265218
 31
0.0
  0
LINE
  5
3A7E
330
1F
100
AcDbEntity
  8
SPOJOVACÍ
  6
Continuous
100
AcDbLine
 10
550.1340491559102
 20
25.81178968224259
 30
0.0
 11
549.7563977849648
 21
26.19037123107256
 31
0.0
  0
LINE
  5
3A7F
330
1F
100
AcDbEntity
  8
SPOJOVACÍ
  6
Continuous
100
AcDbLine
 10
550.1340491559102
 20
25.81178968224259
 30
0.0
 11
549.7563977849648
 21
25.59412854592511
 31
0.0
  0
LINE
  5
3A80
330
1F
100
AcDbEntity
  8
SPOJOVACÍ
  6
Continuous
100
AcDbLine
 10
545.7119934253722
 20
24.8304542178069
 30
0.0
 11
549.7563977849648
 21
26.19037123107256
 31
0.0
  0
LINE
  5
3A81
330
1F
100
AcDbEntity
  8
SPOJOVACÍ
  6
Continuous
100
AcDbLine
 10
545.7119934253722
 20
24.23421153265218
 30
0.0
 11
549.7563977849648
 21
25.59412854592511
 31
0.0
  0
LINE
  5
3A82
330
1F
100
AcDbEntity
  8
SPOJOVACÍ
  6
Continuous
100
AcDbLine
 10
545.3343420500613
 20
27.73167252474951
 30
0.0
 11
550.1340491559102
 21
28.93159930121175
 31
0.0
  0
LINE
  5
3A83
330
1F
100
AcDbEntity
  8
SPOJOVACÍ
  6
Continuous
100
AcDbLine
 10
545.3343420500613
 20
27.73167252474951
 30
0.0
 11
545.7119934253722
 21
27.95026383676878
 31
0.0
  0
LINE
  5
3A84
330
1F
100
AcDbEntity
  8
SPOJOVACÍ
  6
Continuous
100
AcDbLine
 10
545.3343420500613
 20
27.73167252474951
 30
0.0
 11
545.7119934253722
 21
27.35402115162134
 31
0.0
  0
LINE
  5
3A85
330
1F
100
AcDbEntity
  8
SPOJOVACÍ
  6
Continuous
100
AcDbLine
 10
550.1340491559102
 20
28.93159930121175
 30
0.0
 11
549.7563977849648
 21
29.31018085004172
 31
0.0
  0
LINE
  5
3A86
330
1F
100
AcDbEntity
  8
SPOJOVACÍ
  6
Continuous
100
AcDbLine
 10
550.1340491559102
 20
28.93159930121175
 30
0.0
 11
549.7563977849648
 21
28.71393816516348
 31
0.0
  0
LINE
  5
3A87
330
1F
100
AcDbEntity
  8
SPOJOVACÍ
  6
Continuous
100
AcDbLine
 10
545.7119934253722
 20
27.95026383676878
 30
0.0
 11
549.7563977849648
 21
29.31018085004172
 31
0.0
  0
LINE
  5
3A88
330
1F
100
AcDbEntity
  8
SPOJOVACÍ
  6
Continuous
100
AcDbLine
 10
545.7119934253722
 20
27.35402115162134
 30
0.0
 11
549.7563977849648
 21
28.71393816516348
 31
0.0
  0
LINE
  5
3A89
330
1F
100
AcDbEntity
  8
SPOJOVACÍ
  6
Continuous
100
AcDbLine
 10
545.3343420500613
 20
30.85241231968967
 30
0.0
 11
550.1340491559102
 21
32.05233909615191
 31
0.0
  0
LINE
  5
3A8A
330
1F
100
AcDbEntity
  8
SPOJOVACÍ
  6
Continuous
100
AcDbLine
 10
545.3343420500613
 20
30.85241231968967
 30
0.0
 11
545.7119934253722
 21
31.07007345573794
 31
0.0
  0
LINE
  5
3A8B
330
1F
100
AcDbEntity
  8
SPOJOVACÍ
  6
Continuous
100
AcDbLine
 10
545.3343420500613
 20
30.85241231968967
 30
0.0
 11
545.7119934253722
 21
30.47383077058322
 31
0.0
  0
LINE
  5
3A8C
330
1F
100
AcDbEntity
  8
SPOJOVACÍ
  6
Continuous
100
AcDbLine
 10
550.1340491559102
 20
32.05233909615191
 30
0.0
 11
549.7563977849648
 21
32.42999046928008
 31
0.0
  0
LINE
  5
3A8D
330
1F
100
AcDbEntity
  8
SPOJOVACÍ
  6
Continuous
100
AcDbLine
 10
550.1340491559102
 20
32.05233909615191
 30
0.0
 11
549.7563977849648
 21
31.83374778412536
 31
0.0
  0
LINE
  5
3A8E
330
1F
100
AcDbEntity
  8
SPOJOVACÍ
  6
Continuous
100
AcDbLine
 10
545.7119934253722
 20
31.07007345573794
 30
0.0
 11
549.7563977849648
 21
32.42999046928008
 31
0.0
  0
LINE
  5
3A8F
330
1F
100
AcDbEntity
  8
SPOJOVACÍ
  6
Continuous
100
AcDbLine
 10
545.7119934253722
 20
30.47383077058322
 30
0.0
 11
549.7563977849648
 21
31.83374778412536
 31
0.0
  0
LINE
  5
3A90
330
1F
100
AcDbEntity
  8
izolace
  6
IZOLACE
 48
1.5
100
AcDbLine
 10
144.1788678728415
 20
45.32922137561928
 30
0.0
 11
648.9129375531346
 21
45.32922137561928
 31
0.0
  0
LWPOLYLINE
  5
3A91
330
1F
100
AcDbEntity
  8
izolace
100
AcDbPolyline
 90
        4
 70
     1
 43
0.0
 10
142.4139440616826
 20
7.571972502626806
 10
137.1958990804931
 20
7.571972502626806
 10
137.1958990804931
 20
19.5719725026268
 10
142.4139440616826
 20
19.5719725026268
  0
LWPOLYLINE
  5
3A92
330
1F
100
AcDbEntity
  8
izolace
100
AcDbPolyline
 90
        4
 70
     1
 43
0.0
 10
142.4139440616826
 20
82.80422678737641
 10
137.1958990804931
 20
82.80422678737641
 10
137.1958990804931
 20
70.80422678737642
 10
142.4139440616826
 20
70.80422678737642
  0
HATCH
  5
3A93
330
1F
100
AcDbEntity
  8
izolace
100
AcDbHatch
 10
0.0
 20
0.0
 30
0.0
210
0.0
220
0.0
230
1.0
  2
AR-SAND
 70
     0
 71
     0
 91
        2
 92
        7
 72
     0
 73
     1
 93
        4
 10
142.4139440616826
 20
82.80422678737641
 10
137.1958990804931
 20
82.80422678737641
 10
137.1958990804931
 20
70.80422678737642
 10
142.4139440616826
 20
70.80422678737642
 97
        0
 92
        7
 72
     0
 73
     1
 93
        4
 10
142.4139440616826
 20
19.5719725026268
 10
137.1958990804931
 20
19.5719725026268
 10
137.1958990804931
 20
7.571972502626806
 10
142.4139440616862
 20
7.571972502626806
 97
        0
 75
     0
 76
     1
 52
90.0
 41
0.05
 77
     0
 78
     4
 53
127.5
 43
-23404.30749885539
 44
-1405.69305047025
 45
-2.447066186646711
 46
-0.0800015647992021
 79
     6
 49
0.0
 49
-1.9304
 49
0.0
 49
-2.159
 49
0.0
 49
-2.06375
 53
97.49999999999996
 43
-23404.30749885539
 44
-1405.69305047025
 45
-3.584125502841771
 46
2.247616415690013
 79
     6
 49
0.0
 49
-1.0414
 49
0.0
 49
-1.7399
 49
0.0
 49
-0.6667500000000001
 53
57.5
 43
-23404.30749885539
 44
-1407.25515047025
 45
-0.0071859233927282
 46
3.95496185120729
 79
     6
 49
0.0
 49
-0.635
 49
0.0
 49
-2.286
 49
0.0
 49
-2.9845
 53
47.5
 43
-23404.30749885539
 44
-1407.25515047025
 45
-1.11464661628608
 46
3.817782262361486
 79
     6
 49
0.0
 49
-0.3175
 49
0.0
 49
-1.498599999999999
 49
0.0
 49
-1.7145
 47
0.4414942775221867
 98
        2
 10
139.7617884581421
 20
78.318928373755
 10
140.2035232514616
 20
12.97777008291751
  0
LINE
  5
3A94
330
1F
100
AcDbEntity
  8
CETRIS
100
AcDbLine
 10
550.8229469934457
 20
70.80422678737642
 30
0.0
 11
550.8229469934457
 21
82.80422678737641
 31
0.0
  0
LINE
  5
3A95
330
1F
100
AcDbEntity
  8
CETRIS
100
AcDbLine
 10
555.8229469934457
 20
70.80422678737642
 30
0.0
 11
555.8229469934457
 21
82.80422678737641
 31
0.0
  0
LINE
  5
3A96
330
1F
100
AcDbEntity
  8
CETRIS
100
AcDbLine
 10
555.8229469934457
 20
70.80422678737642
 30
0.0
 11
653.604926763598
 21
70.80422678737642
 31
0.0
  0
LINE
  5
3A97
330
1F
100
AcDbEntity
  8
CETRIS
100
AcDbLine
 10
555.8229469934457
 20
82.80422678737641
 30
0.0
 11
655.8150880418987
 21
82.80422678737641
 31
0.0
  0
LWPOLYLINE
  5
3A98
330
1F
100
AcDbEntity
  8
izolace
100
AcDbPolyline
 90
        4
 70
     1
 43
0.0
 10
555.8229469934457
 20
82.80422678737641
 10
550.8229469934457
 20
82.80422678737641
 10
550.8229469934457
 20
70.80422678737642
 10
555.8229469934457
 20
70.80422678737642
  0
LINE
  5
3A99
330
1F
100
AcDbEntity
  8
SPOJOVACÍ
  6
Continuous
100
AcDbLine
 10
568.8391542801045
 20
79.14212467942099
 30
0.0
 11
567.88107321012
 21
80.34949286231977
 31
0.0
  0
LINE
  5
3A9A
330
1F
100
AcDbEntity
  8
SPOJOVACÍ
  6
Continuous
100
AcDbLine
 10
569.4521401292521
 20
77.72825746971768
 30
0.0
 11
568.8391542801045
 21
79.14212467942099
 31
0.0
  0
LINE
  5
3A9B
330
1F
100
AcDbEntity
  8
SPOJOVACÍ
  6
Continuous
100
AcDbLine
 10
569.6791030201356
 20
76.20462951628844
 30
0.0
 11
569.4521401292521
 21
77.72825746971768
 31
0.0
  0
LINE
  5
3A9C
330
1F
100
AcDbEntity
  8
SPOJOVACÍ
  6
Continuous
100
AcDbLine
 10
565.9286342150525
 20
82.80422678737641
 30
0.0
 11
565.9286342150525
 21
81.60430001064497
 31
0.0
  0
LINE
  5
3A9D
330
1F
100
AcDbEntity
  8
SPOJOVACÍ
  6
Continuous
100
AcDbLine
 10
576.1289419923204
 20
82.80422678737641
 30
0.0
 11
565.9286342150525
 21
82.80422678737641
 31
0.0
  0
LINE
  5
3A9E
330
1F
100
AcDbEntity
  8
SPOJOVACÍ
  6
Continuous
100
AcDbLine
 10
576.1289419923204
 20
82.80422678737641
 30
0.0
 11
576.1289419923204
 21
81.60430001064497
 31
0.0
  0
LINE
  5
3A9F
330
1F
100
AcDbEntity
  8
SPOJOVACÍ
  6
Continuous
100
AcDbLine
 10
576.1289419923204
 20
81.60430001064497
 30
0.0
 11
565.9286342150525
 21
81.60430001064497
 31
0.0
  0
LINE
  5
3AA0
330
1F
100
AcDbEntity
  8
SPOJOVACÍ
  6
Continuous
100
AcDbLine
 10
566.6439394012203
 20
81.26757637276142
 30
0.0
 11
565.9286342150525
 21
81.60430001064497
 31
0.0
  0
LINE
  5
3AA1
330
1F
100
AcDbEntity
  8
SPOJOVACÍ
  6
Continuous
100
AcDbLine
 10
567.88107321012
 20
80.34949286231977
 30
0.0
 11
566.6439394012203
 21
81.26757637276142
 31
0.0
  0
LINE
  5
3AA2
330
1F
100
AcDbEntity
  8
SPOJOVACÍ
  6
Continuous
100
AcDbLine
 10
572.4445156647933
 20
76.99155823941083
 30
0.0
 11
572.3784731828717
 21
76.20462951628844
 31
0.0
  0
LINE
  5
3AA3
330
1F
100
AcDbEntity
  8
SPOJOVACÍ
  6
Continuous
100
AcDbLine
 10
572.8723965290927
 20
78.47239810646107
 30
0.0
 11
572.4445156647933
 21
76.99155823941083
 31
0.0
  0
LINE
  5
3AA4
330
1F
100
AcDbEntity
  8
SPOJOVACÍ
  6
Continuous
100
AcDbLine
 10
573.6686270084109
 20
79.79138738475859
 30
0.0
 11
572.8723965290927
 21
78.47239810646107
 31
0.0
  0
LINE
  5
3AA5
330
1F
100
AcDbEntity
  8
SPOJOVACÍ
  6
Continuous
100
AcDbLine
 10
574.7792569087695
 20
80.86015937417078
 30
0.0
 11
573.6686270084109
 21
79.79138738475859
 31
0.0
  0
LINE
  5
3AA6
330
1F
100
AcDbEntity
  8
SPOJOVACÍ
  6
Continuous
100
AcDbLine
 10
576.1289419923204
 20
81.60430001064497
 30
0.0
 11
574.7792569087695
 21
80.86015937417078
 31
0.0
  0
LINE
  5
3AA7
330
1F
100
AcDbEntity
  8
SPOJOVACÍ
  6
Continuous
100
AcDbLine
 10
569.6791030201356
 20
76.20462951628844
 30
0.0
 11
569.6791030201356
 21
71.2616753373598
 31
0.0
  0
LINE
  5
3AA8
330
1F
100
AcDbEntity
  8
SPOJOVACÍ
  6
Continuous
100
AcDbLine
 10
572.3784731828717
 20
76.20462951628844
 30
0.0
 11
572.3784731828717
 21
72.16673638660842
 31
0.0
  0
LINE
  5
3AA9
330
1F
100
AcDbEntity
  8
SPOJOVACÍ
  6
Continuous
100
AcDbLine
 10
572.3784731828717
 20
71.57142387743198
 30
0.0
 11
572.3784731828717
 21
69.05250782240301
 31
0.0
  0
LINE
  5
3AAA
330
1F
100
AcDbEntity
  8
SPOJOVACÍ
  6
Continuous
100
AcDbLine
 10
572.3784731828717
 20
68.44882373108823
 30
0.0
 11
572.3784731828717
 21
65.92804732437918
 31
0.0
  0
LINE
  5
3AAB
330
1F
100
AcDbEntity
  8
SPOJOVACÍ
  6
Continuous
100
AcDbLine
 10
572.3784731828717
 20
65.33366499090454
 30
0.0
 11
572.3784731828717
 21
62.80544717803542
 31
0.0
  0
LINE
  5
3AAC
330
1F
100
AcDbEntity
  8
SPOJOVACÍ
  6
Continuous
100
AcDbLine
 10
569.6791030201356
 20
70.65799124604501
 30
0.0
 11
569.6791030201356
 21
68.13907519101604
 31
0.0
  0
LINE
  5
3AAD
330
1F
100
AcDbEntity
  8
SPOJOVACÍ
  6
Continuous
100
AcDbLine
 10
569.6791030201356
 20
67.54283250586133
 30
0.0
 11
569.6791030201356
 21
65.01461469299221
 31
0.0
  0
LINE
  5
3AAE
330
1F
100
AcDbEntity
  8
SPOJOVACÍ
  6
Continuous
100
AcDbLine
 10
569.6791030201356
 20
64.42023235951757
 30
0.0
 11
569.6791030201356
 21
61.89945595280852
 31
0.0
  0
LINE
  5
3AAF
330
1F
100
AcDbEntity
  8
SPOJOVACÍ
  6
Continuous
100
AcDbLine
 10
572.3784731828717
 20
62.20083291074963
 30
0.0
 11
572.3784731828717
 21
59.68284703142245
 31
0.0
  0
LINE
  5
3AB0
330
1F
100
AcDbEntity
  8
SPOJOVACÍ
  6
Continuous
100
AcDbLine
 10
572.3784731828717
 20
59.08660434626773
 30
0.0
 11
572.3784731828717
 21
57.83923860437909
 31
0.0
  0
LINE
  5
3AB1
330
1F
100
AcDbEntity
  8
SPOJOVACÍ
  6
Continuous
100
AcDbLine
 10
569.6791030201356
 20
61.29856238887561
 30
0.0
 11
569.6791030201356
 21
58.77964633384664
 31
0.0
  0
LINE
  5
3AB2
330
1F
100
AcDbEntity
  8
SPOJOVACÍ
  6
Continuous
100
AcDbLine
 10
569.6791030201356
 20
58.17596224226264
 30
0.0
 11
569.6791030201356
 21
57.83923860437909
 31
0.0
  0
LINE
  5
3AB3
330
1F
100
AcDbEntity
  8
SPOJOVACÍ
  6
Continuous
100
AcDbLine
 10
572.3784731828717
 20
57.83923860437909
 30
0.0
 11
572.2287148801487
 21
56.64210235502224
 31
0.0
  0
LINE
  5
3AB4
330
1F
100
AcDbEntity
  8
SPOJOVACÍ
  6
Continuous
100
AcDbLine
 10
571.0287881036864
 20
47.03896743942578
 30
0.0
 11
570.6743911225575
 21
49.87507344069427
 31
0.0
  0
LINE
  5
3AB5
330
1F
100
AcDbEntity
  8
SPOJOVACÍ
  6
Continuous
100
AcDbLine
 10
572.1515102876227
 20
56.02167509916881
 30
0.0
 11
571.8612954381032
 21
53.69995631310422
 31
0.0
  0
LINE
  5
3AB6
330
1F
100
AcDbEntity
  8
SPOJOVACÍ
  6
Continuous
100
AcDbLine
 10
571.782230495265
 20
53.06929712343964
 30
0.0
 11
571.492015650111
 21
50.74850851308411
 31
0.0
  0
LINE
  5
3AB7
330
1F
100
AcDbEntity
  8
SPOJOVACÍ
  6
Continuous
100
AcDbLine
 10
571.4148110575851
 20
50.12808125723068
 30
0.0
 11
571.0287881036864
 21
47.03896743942578
 31
0.0
  0
LINE
  5
3AB8
330
1F
100
AcDbEntity
  8
SPOJOVACÍ
  6
Continuous
100
AcDbLine
 10
570.6027675853337
 20
50.44434102776114
 30
0.0
 11
570.3348769570228
 21
52.58932641274561
 31
0.0
  0
LINE
  5
3AB9
330
1F
100
AcDbEntity
  8
SPOJOVACÍ
  6
Continuous
100
AcDbLine
 10
570.2632534241646
 20
53.16138452719434
 30
0.0
 11
569.9962929688271
 21
55.29799833004773
 31
0.0
  0
LINE
  5
3ABA
330
1F
100
AcDbEntity
  8
SPOJOVACÍ
  6
Continuous
100
AcDbLine
 10
569.9246694316033
 20
55.86819609309287
 30
0.0
 11
569.6791030201356
 21
57.83923860437909
 31
0.0
  0
LINE
  5
3ABB
330
1F
100
AcDbEntity
  8
SPOJOVACÍ
  6
Continuous
100
AcDbLine
 10
573.4286416566109
 20
72.00395562242312
 30
0.0
 11
568.628934550762
 21
70.80402884596089
 31
0.0
  0
LINE
  5
3ABC
330
1F
100
AcDbEntity
  8
SPOJOVACÍ
  6
Continuous
100
AcDbLine
 10
573.4286416566109
 20
72.00395562242312
 30
0.0
 11
573.0509902812999
 21
71.78629448637486
 31
0.0
  0
LINE
  5
3ABD
330
1F
100
AcDbEntity
  8
SPOJOVACÍ
  6
Continuous
100
AcDbLine
 10
573.4286416566109
 20
72.00395562242312
 30
0.0
 11
573.0509902812999
 21
72.38253717125309
 31
0.0
  0
LINE
  5
3ABE
330
1F
100
AcDbEntity
  8
SPOJOVACÍ
  6
Continuous
100
AcDbLine
 10
568.628934550762
 20
70.80402884596089
 30
0.0
 11
569.0065859217074
 21
70.42637747283271
 31
0.0
  0
LINE
  5
3ABF
330
1F
100
AcDbEntity
  8
SPOJOVACÍ
  6
Continuous
100
AcDbLine
 10
568.628934550762
 20
70.80402884596089
 30
0.0
 11
569.0065859217074
 21
71.02262015798743
 31
0.0
  0
LINE
  5
3AC0
330
1F
100
AcDbEntity
  8
SPOJOVACÍ
  6
Continuous
100
AcDbLine
 10
573.0509902812999
 20
71.78629448637486
 30
0.0
 11
569.0065859217074
 21
70.42637747283271
 31
0.0
  0
LINE
  5
3AC1
330
1F
100
AcDbEntity
  8
SPOJOVACÍ
  6
Continuous
100
AcDbLine
 10
573.0509902812999
 20
72.38253717125309
 30
0.0
 11
569.0065859217074
 21
71.02262015798743
 31
0.0
  0
LINE
  5
3AC2
330
1F
100
AcDbEntity
  8
SPOJOVACÍ
  6
Continuous
100
AcDbLine
 10
573.4286416566109
 20
68.88414600346123
 30
0.0
 11
568.628934550762
 21
67.68421922672252
 31
0.0
  0
LINE
  5
3AC3
330
1F
100
AcDbEntity
  8
SPOJOVACÍ
  6
Continuous
100
AcDbLine
 10
573.4286416566109
 20
68.88414600346123
 30
0.0
 11
573.0509902812999
 21
68.66555469143469
 31
0.0
  0
LINE
  5
3AC4
330
1F
100
AcDbEntity
  8
SPOJOVACÍ
  6
Continuous
100
AcDbLine
 10
573.4286416566109
 20
68.88414600346123
 30
0.0
 11
573.0509902812999
 21
69.26179737658941
 31
0.0
  0
LINE
  5
3AC5
330
1F
100
AcDbEntity
  8
SPOJOVACÍ
  6
Continuous
100
AcDbLine
 10
568.628934550762
 20
67.68421922672252
 30
0.0
 11
569.0065859217074
 21
67.30656785387083
 31
0.0
  0
LINE
  5
3AC6
330
1F
100
AcDbEntity
  8
SPOJOVACÍ
  6
Continuous
100
AcDbLine
 10
568.628934550762
 20
67.68421922672252
 30
0.0
 11
569.0065859217074
 21
67.90281053874906
 31
0.0
  0
LINE
  5
3AC7
330
1F
100
AcDbEntity
  8
SPOJOVACÍ
  6
Continuous
100
AcDbLine
 10
573.0509902812999
 20
68.66555469143469
 30
0.0
 11
569.0065859217074
 21
67.30656785387083
 31
0.0
  0
LINE
  5
3AC8
330
1F
100
AcDbEntity
  8
SPOJOVACÍ
  6
Continuous
100
AcDbLine
 10
573.0509902812999
 20
69.26179737658941
 30
0.0
 11
569.0065859217074
 21
67.90281053874906
 31
0.0
  0
LINE
  5
3AC9
330
1F
100
AcDbEntity
  8
SPOJOVACÍ
  6
Continuous
100
AcDbLine
 10
573.1747036621899
 20
56.44676543799988
 30
0.0
 11
572.7961221139056
 21
56.22817412597334
 31
0.0
  0
LINE
  5
3ACA
330
1F
100
AcDbEntity
  8
SPOJOVACÍ
  6
Continuous
100
AcDbLine
 10
573.1747036621899
 20
56.44676543799988
 30
0.0
 11
572.7961221139056
 21
56.82441681112806
 31
0.0
  0
LINE
  5
3ACB
330
1F
100
AcDbEntity
  8
SPOJOVACÍ
  6
Continuous
100
AcDbLine
 10
569.049374009447
 20
55.47380155569527
 30
0.0
 11
569.4270253803924
 21
55.09522000658882
 31
0.0
  0
LINE
  5
3ACC
330
1F
100
AcDbEntity
  8
SPOJOVACÍ
  6
Continuous
100
AcDbLine
 10
569.049374009447
 20
55.47380155569527
 30
0.0
 11
569.4270253803924
 21
55.69146269174353
 31
0.0
  0
LINE
  5
3ACD
330
1F
100
AcDbEntity
  8
SPOJOVACÍ
  6
Continuous
100
AcDbLine
 10
572.7961221139056
 20
56.22817412597334
 30
0.0
 11
569.4270253803924
 21
55.09522000658882
 31
0.0
  0
LINE
  5
3ACE
330
1F
100
AcDbEntity
  8
SPOJOVACÍ
  6
Continuous
100
AcDbLine
 10
572.7961221139056
 20
56.82441681112806
 30
0.0
 11
569.4270253803924
 21
55.69146269174353
 31
0.0
  0
LINE
  5
3ACF
330
1F
100
AcDbEntity
  8
SPOJOVACÍ
  6
Continuous
100
AcDbLine
 10
573.1747036621899
 20
56.44676543799988
 30
0.0
 11
569.049374009447
 21
55.47380155569527
 31
0.0
  0
LINE
  5
3AD0
330
1F
100
AcDbEntity
  8
SPOJOVACÍ
  6
Continuous
100
AcDbLine
 10
572.610086956084
 20
53.43206568370198
 30
0.0
 11
572.2324355807731
 21
53.21440454765371
 31
0.0
  0
LINE
  5
3AD1
330
1F
100
AcDbEntity
  8
SPOJOVACÍ
  6
Continuous
100
AcDbLine
 10
572.610086956084
 20
53.43206568370198
 30
0.0
 11
572.2324355807731
 21
53.81064723280843
 31
0.0
  0
LINE
  5
3AD2
330
1F
100
AcDbEntity
  8
SPOJOVACÍ
  6
Continuous
100
AcDbLine
 10
569.4939980396529
 20
52.798615966932
 30
0.0
 11
569.8716494105982
 21
52.42003441810203
 31
0.0
  0
LINE
  5
3AD3
330
1F
100
AcDbEntity
  8
SPOJOVACÍ
  6
Continuous
100
AcDbLine
 10
569.4939980396529
 20
52.798615966932
 30
0.0
 11
569.8716494105982
 21
53.01627710298027
 31
0.0
  0
LINE
  5
3AD4
330
1F
100
AcDbEntity
  8
SPOJOVACÍ
  6
Continuous
100
AcDbLine
 10
572.2324355807731
 20
53.21440454765371
 30
0.0
 11
569.8716494105982
 21
52.42003441810203
 31
0.0
  0
LINE
  5
3AD5
330
1F
100
AcDbEntity
  8
SPOJOVACÍ
  6
Continuous
100
AcDbLine
 10
572.2324355807731
 20
53.81064723280843
 30
0.0
 11
569.8716494105982
 21
53.01627710298027
 31
0.0
  0
LINE
  5
3AD6
330
1F
100
AcDbEntity
  8
SPOJOVACÍ
  6
Continuous
100
AcDbLine
 10
572.610086956084
 20
53.43206568370198
 30
0.0
 11
569.4939980396529
 21
52.798615966932
 31
0.0
  0
LINE
  5
3AD7
330
1F
100
AcDbEntity
  8
SPOJOVACÍ
  6
Continuous
100
AcDbLine
 10
572.0454702456126
 20
50.41829610538235
 30
0.0
 11
571.6678188746672
 21
50.19970479336308
 31
0.0
  0
LINE
  5
3AD8
330
1F
100
AcDbEntity
  8
SPOJOVACÍ
  6
Continuous
100
AcDbLine
 10
572.0454702456126
 20
50.41829610538235
 30
0.0
 11
571.6678188746672
 21
50.79594747851053
 31
0.0
  0
LINE
  5
3AD9
330
1F
100
AcDbEntity
  8
SPOJOVACÍ
  6
Continuous
100
AcDbLine
 10
569.8911831041558
 20
50.10761738960837
 30
0.0
 11
570.2688344751012
 21
49.7290358407784
 31
0.0
  0
LINE
  5
3ADA
330
1F
100
AcDbEntity
  8
SPOJOVACÍ
  6
Continuous
100
AcDbLine
 10
569.8911831041558
 20
50.10761738960837
 30
0.0
 11
570.2688344751012
 21
50.32527852592585
 31
0.0
  0
LINE
  5
3ADB
330
1F
100
AcDbEntity
  8
SPOJOVACÍ
  6
Continuous
100
AcDbLine
 10
571.6678188746672
 20
50.19970479336308
 30
0.0
 11
570.2688344751012
 21
49.7290358407784
 31
0.0
  0
LINE
  5
3ADC
330
1F
100
AcDbEntity
  8
SPOJOVACÍ
  6
Continuous
100
AcDbLine
 10
571.6678188746672
 20
50.79594747851053
 30
0.0
 11
570.2688344751012
 21
50.32527852592585
 31
0.0
  0
LINE
  5
3ADD
330
1F
100
AcDbEntity
  8
SPOJOVACÍ
  6
Continuous
100
AcDbLine
 10
572.0454702456126
 20
50.41829610538235
 30
0.0
 11
569.8911831041558
 21
50.10761738960837
 31
0.0
  0
LINE
  5
3ADE
330
1F
100
AcDbEntity
  8
SPOJOVACÍ
  6
Continuous
100
AcDbLine
 10
573.4286416566109
 20
65.76433638422287
 30
0.0
 11
568.628934550762
 21
64.56440960776063
 31
0.0
  0
LINE
  5
3ADF
330
1F
100
AcDbEntity
  8
SPOJOVACÍ
  6
Continuous
100
AcDbLine
 10
573.4286416566109
 20
65.76433638422287
 30
0.0
 11
573.0509902812999
 21
65.54574507219633
 31
0.0
  0
LINE
  5
3AE0
330
1F
100
AcDbEntity
  8
SPOJOVACÍ
  6
Continuous
100
AcDbLine
 10
573.4286416566109
 20
65.76433638422287
 30
0.0
 11
573.0509902812999
 21
66.14198775735104
 31
0.0
  0
LINE
  5
3AE1
330
1F
100
AcDbEntity
  8
SPOJOVACÍ
  6
Continuous
100
AcDbLine
 10
568.628934550762
 20
64.56440960776063
 30
0.0
 11
569.0065859217074
 21
64.18582805893066
 31
0.0
  0
LINE
  5
3AE2
330
1F
100
AcDbEntity
  8
SPOJOVACÍ
  6
Continuous
100
AcDbLine
 10
568.628934550762
 20
64.56440960776063
 30
0.0
 11
569.0065859217074
 21
64.78207074407811
 31
0.0
  0
LINE
  5
3AE3
330
1F
100
AcDbEntity
  8
SPOJOVACÍ
  6
Continuous
100
AcDbLine
 10
573.0509902812999
 20
65.54574507219633
 30
0.0
 11
569.0065859217074
 21
64.18582805893066
 31
0.0
  0
LINE
  5
3AE4
330
1F
100
AcDbEntity
  8
SPOJOVACÍ
  6
Continuous
100
AcDbLine
 10
573.0509902812999
 20
66.14198775735104
 30
0.0
 11
569.0065859217074
 21
64.78207074407811
 31
0.0
  0
LINE
  5
3AE5
330
1F
100
AcDbEntity
  8
SPOJOVACÍ
  6
Continuous
100
AcDbLine
 10
573.4286416566109
 20
62.64452676525372
 30
0.0
 11
568.628934550762
 21
61.44459998879148
 31
0.0
  0
LINE
  5
3AE6
330
1F
100
AcDbEntity
  8
SPOJOVACÍ
  6
Continuous
100
AcDbLine
 10
573.4286416566109
 20
62.64452676525372
 30
0.0
 11
573.0509902812999
 21
62.42593545323444
 31
0.0
  0
LINE
  5
3AE7
330
1F
100
AcDbEntity
  8
SPOJOVACÍ
  6
Continuous
100
AcDbLine
 10
573.4286416566109
 20
62.64452676525372
 30
0.0
 11
573.0509902812999
 21
63.02217813838189
 31
0.0
  0
LINE
  5
3AE8
330
1F
100
AcDbEntity
  8
SPOJOVACÍ
  6
Continuous
100
AcDbLine
 10
568.628934550762
 20
61.44459998879148
 30
0.0
 11
569.0065859217074
 21
61.06601843996151
 31
0.0
  0
LINE
  5
3AE9
330
1F
100
AcDbEntity
  8
SPOJOVACÍ
  6
Continuous
100
AcDbLine
 10
568.628934550762
 20
61.44459998879148
 30
0.0
 11
569.0065859217074
 21
61.66226112483975
 31
0.0
  0
LINE
  5
3AEA
330
1F
100
AcDbEntity
  8
SPOJOVACÍ
  6
Continuous
100
AcDbLine
 10
573.0509902812999
 20
62.42593545323444
 30
0.0
 11
569.0065859217074
 21
61.06601843996151
 31
0.0
  0
LINE
  5
3AEB
330
1F
100
AcDbEntity
  8
SPOJOVACÍ
  6
Continuous
100
AcDbLine
 10
573.0509902812999
 20
63.02217813838189
 30
0.0
 11
569.0065859217074
 21
61.66226112483975
 31
0.0
  0
LINE
  5
3AEC
330
1F
100
AcDbEntity
  8
SPOJOVACÍ
  6
Continuous
100
AcDbLine
 10
573.4286416566109
 20
59.52378697031355
 30
0.0
 11
568.628934550762
 21
58.32386019385132
 31
0.0
  0
LINE
  5
3AED
330
1F
100
AcDbEntity
  8
SPOJOVACÍ
  6
Continuous
100
AcDbLine
 10
573.4286416566109
 20
59.52378697031355
 30
0.0
 11
573.0509902812999
 21
59.30612583426529
 31
0.0
  0
LINE
  5
3AEE
330
1F
100
AcDbEntity
  8
SPOJOVACÍ
  6
Continuous
100
AcDbLine
 10
573.4286416566109
 20
59.52378697031355
 30
0.0
 11
573.0509902812999
 21
59.90236851942
 31
0.0
  0
LINE
  5
3AEF
330
1F
100
AcDbEntity
  8
SPOJOVACÍ
  6
Continuous
100
AcDbLine
 10
568.628934550762
 20
58.32386019385132
 30
0.0
 11
569.0065859217074
 21
57.94620882072314
 31
0.0
  0
LINE
  5
3AF0
330
1F
100
AcDbEntity
  8
SPOJOVACÍ
  6
Continuous
100
AcDbLine
 10
568.628934550762
 20
58.32386019385132
 30
0.0
 11
569.0065859217074
 21
58.54245150587786
 31
0.0
  0
LINE
  5
3AF1
330
1F
100
AcDbEntity
  8
SPOJOVACÍ
  6
Continuous
100
AcDbLine
 10
573.0509902812999
 20
59.30612583426529
 30
0.0
 11
569.0065859217074
 21
57.94620882072314
 31
0.0
  0
LINE
  5
3AF2
330
1F
100
AcDbEntity
  8
SPOJOVACÍ
  6
Continuous
100
AcDbLine
 10
573.0509902812999
 20
59.90236851942
 30
0.0
 11
569.0065859217074
 21
58.54245150587786
 31
0.0
  0
HATCH
  5
3AF3
330
1F
100
AcDbEntity
  8
izolace
100
AcDbHatch
 10
0.0
 20
0.0
 30
0.0
210
0.0
220
0.0
230
1.0
  2
AR-SAND
 70
     0
 71
     0
 91
        1
 92
        7
 72
     0
 73
     1
 93
        4
 10
555.8229469934457
 20
82.80422678737641
 10
550.8229469934457
 20
82.80422678737597
 10
550.8229469934457
 20
70.80422678737642
 10
555.8229469934457
 20
70.80422678737642
 97
        0
 75
     0
 76
     1
 52
90.0
 41
0.05
 77
     0
 78
     4
 53
127.5
 43
-23404.30749885539
 44
-1405.69305047025
 45
-2.447066186646711
 46
-0.0800015647992021
 79
     6
 49
0.0
 49
-1.9304
 49
0.0
 49
-2.159
 49
0.0
 49
-2.06375
 53
97.49999999999996
 43
-23404.30749885539
 44
-1405.69305047025
 45
-3.584125502841771
 46
2.247616415690013
 79
     6
 49
0.0
 49
-1.0414
 49
0.0
 49
-1.7399
 49
0.0
 49
-0.6667500000000001
 53
57.5
 43
-23404.30749885539
 44
-1407.25515047025
 45
-0.0071859233927282
 46
3.95496185120729
 79
     6
 49
0.0
 49
-0.635
 49
0.0
 49
-2.286
 49
0.0
 49
-2.9845
 53
47.5
 43
-23404.30749885539
 44
-1407.25515047025
 45
-1.11464661628608
 46
3.817782262361486
 79
     6
 49
0.0
 49
-0.3175
 49
0.0
 49
-1.498599999999999
 49
0.0
 49
-1.7145
 47
0.2359071171925059
 98
        1
 10
552.8470990906397
 20
76.63769268659172
  0
TEXT
  5
3AF4
330
1F
100
AcDbEntity
  8
POPIS
100
AcDbText
 10
810.3748513980361
 20
-34.66805032153269
 30
0.0
 40
25.0
  1
Přikotvení - hmoždinka
 41
0.7
  7
SIMPLEX7
100
AcDbText
  0
TEXT
  5
3AF5
330
1F
100
AcDbEntity
  8
POPIS
100
AcDbText
 10
756.0311482382939
 20
-34.66805032153269
 30
0.0
 40
25.0
  1
06
 41
0.85
  7
SIMPLEX7
100
AcDbText
  0
CIRCLE
  5
3AF6
330
1F
100
AcDbEntity
  8
POPIS
100
AcDbCircle
 10
982.760065692263
 20
172.1621806366341
 30
0.0
 40
11.13656048292026
  0
TEXT
  5
3AF7
330
1F
100
AcDbEntity
  8
POPIS
100
AcDbText
 10
978.0010366370815
 20
166.6168348916465
 30
0.0
 40
12.0
  1
R
 41
0.85
  7
SIMPLEX7
100
AcDbText
  0
TEXT
  5
3AF8
330
1F
100
AcDbEntity
  8
POPIS
100
AcDbText
 10
756.0311482382939
 20
-0.4146577823345865
 30
0.0
 40
25.0
  1
05
 41
0.85
  7
SIMPLEX7
100
AcDbText
  0
TEXT
  5
3AF9
330
1F
100
AcDbEntity
  8
POPIS
100
AcDbText
 10
810.3748513980361
 20
-0.4146577823345865
 30
0.0
 40
25.0
  1
Trvale pružný tmel
 41
0.7
  7
SIMPLEX7
100
AcDbText
  0
TEXT
  5
3AFA
330
1F
100
AcDbEntity
  8
POPIS
100
AcDbText
 10
810.3748513980361
 20
35.69216370485384
 30
0.0
 40
25.0
  1
Tepelná izolace
 41
0.7
  7
SIMPLEX7
100
AcDbText
  0
TEXT
  5
3AFB
330
1F
100
AcDbEntity
  8
POPIS
100
AcDbText
 10
756.0311482382939
 20
35.69216370485384
 30
0.0
 40
25.0
  1
04
 41
0.85
  7
SIMPLEX7
100
AcDbText
  0
TEXT
  5
3AFC
330
1F
100
AcDbEntity
  8
POPIS
100
AcDbText
 10
810.3748513980361
 20
71.09632492301654
 30
0.0
 40
25.0
  1
CW profil (ocelový nosník I, U) - stojina
 41
0.7
  7
SIMPLEX7
100
AcDbText
  0
TEXT
  5
3AFD
330
1F
100
AcDbEntity
  8
POPIS
100
AcDbText
 10
756.0311482382939
 20
71.09632492301654
 30
0.0
 40
25.0
  1
03
 41
0.85
  7
SIMPLEX7
100
AcDbText
  0
TEXT
  5
3AFE
330
1F
100
AcDbEntity
  8
POPIS
100
AcDbText
 10
810.3748513980361
 20
105.0465131677386
 30
0.0
 40
25.0
  1
Vrut Bűhnen 4,2x35 (45,55) mm
 41
0.7
  7
SIMPLEX7
100
AcDbText
  0
TEXT
  5
3AFF
330
1F
100
AcDbEntity
  8
POPIS
100
AcDbText
 10
756.0311482382939
 20
105.0465131677386
 30
0.0
 40
25.0
  1
02
 41
0.85
  7
SIMPLEX7
100
AcDbText
  0
TEXT
  5
3B00
330
1F
100
AcDbEntity
  8
POPIS
100
AcDbText
 10
810.3748513980361
 20
141.6415247833659
 30
0.0
 40
25.0
  1
Deska CETRIS   
 41
0.7
  7
SIMPLEX7
100
AcDbText
  0
TEXT
  5
3B01
330
1F
100
AcDbEntity
  8
POPIS
100
AcDbText
 10
756.0311482382939
 20
141.6415247833659
 30
0.0
 40
25.0
  1
01
 41
0.85
  7
SIMPLEX7
100
AcDbText
  0
INSERT
  5
3B02
330
1F
100
AcDbEntity
  8
POPIS
100
AcDbBlockReference
  2
E_PUNKT
 10
360.6553919895494
 20
82.77515845650333
 30
0.0
  0
TEXT
  5
3B03
330
1F
100
AcDbEntity
  8
POPIS
100
AcDbText
 10
518.0557805178658
 20
147.1659532576353
 30
0.0
 40
25.0
  1
02
 41
0.85
  7
SIMPLEX7
100
AcDbText
  0
INSERT
  5
3B04
330
1F
100
AcDbEntity
  8
POPIS
100
AcDbBlockReference
  2
E_PUNKT
 10
535.6846176306906
 20
82.77515845650333
 30
0.0
  0
LINE
  5
3B05
330
1F
100
AcDbEntity
  8
POPIS
100
AcDbLine
 10
535.7122280063166
 20
82.80422678737641
 30
0.0
 11
535.7122280063166
 21
142.4648901211115
 31
0.0
  0
LINE
  5
3B06
330
1F
100
AcDbEntity
  8
POPIS
100
AcDbLine
 10
360.7781244882906
 20
82.80422678737915
 30
0.0
 11
360.7781244882906
 21
142.4648901211151
 31
0.0
  0
TEXT
  5
3B07
330
1F
100
AcDbEntity
  8
POPIS
100
AcDbText
 10
343.1216769998399
 20
147.1659532576389
 30
0.0
 40
25.0
  1
01
 41
0.85
  7
SIMPLEX7
100
AcDbText
  0
LINE
  5
3B08
330
1F
100
AcDbEntity
  8
POPIS
100
AcDbLine
 10
631.1525655418853
 20
45.32922137561928
 30
0.0
 11
631.1525655418853
 21
142.4648901211115
 31
0.0
  0
TEXT
  5
3B09
330
1F
100
AcDbEntity
  8
POPIS
100
AcDbText
 10
613.4961180534345
 20
147.1659532576353
 30
0.0
 40
25.0
  1
04
 41
0.85
  7
SIMPLEX7
100
AcDbText
  0
INSERT
  5
3B0A
330
1F
100
AcDbEntity
  8
POPIS
100
AcDbBlockReference
  2
E_PUNKT
 10
631.1249551662593
 20
45.30015304474665
 30
0.0
  0
TEXT
  5
3B0B
330
1F
100
AcDbEntity
  8
POPIS
100
AcDbText
 10
168.8447587320159
 20
147.1659532576353
 30
0.0
 40
25.0
  1
05
 41
0.85
  7
SIMPLEX7
100
AcDbText
  0
LINE
  5
3B0C
330
1F
100
AcDbEntity
  8
POPIS
100
AcDbLine
 10
140.0823976651525
 20
78.97770356815073
 30
0.0
 11
186.5012062204667
 21
142.4648901211115
 31
0.0
  0
LINE
  5
3B0D
330
1F
100
AcDbEntity
  8
POPIS
100
AcDbLine
 10
187.5372834823618
 20
69.49042696153111
 30
0.0
 11
240.8927370588979
 21
142.4648901211115
 31
0.0
  0
TEXT
  5
3B0E
330
1F
100
AcDbEntity
  8
POPIS
100
AcDbText
 10
223.2362895704472
 20
147.1659532576353
 30
0.0
 40
25.0
  1
03
 41
0.85
  7
SIMPLEX7
100
AcDbText
  0
INSERT
  5
3B0F
330
1F
100
AcDbEntity
  8
POPIS
100
AcDbBlockReference
  2
E_PUNKT
 10
140.0547872895266
 20
78.9486352372781
 30
0.0
  0
INSERT
  5
3B10
330
1F
100
AcDbEntity
  8
POPIS
100
AcDbBlockReference
  2
E_PUNKT
 10
187.3751207206741
 20
68.50992289282413
 30
0.0
  0
LINE
  5
3B11
330
1F
100
AcDbEntity
  8
POPIS
100
AcDbLine
 10
105.9155319985555
 20
45.54427900981801
 30
0.0
 11
177.0937488308562
 21
-51.80644736987296
 31
0.0
  0
INSERT
  5
3B12
330
1F
100
AcDbEntity
  8
POPIS
100
AcDbBlockReference
  2
E_PUNKT
 10
105.8879216229296
 20
45.51521067894583
 30
0.0
  0
TEXT
  5
3B13
330
1F
100
AcDbEntity
  8
POPIS
100
AcDbText
 10
152.0927861695971
 20
-82.65048894830641
 30
0.0
 40
25.0
  1
06
 41
0.85
  7
SIMPLEX7
100
AcDbText
  0
TEXT
  5
3B14
330
1F
100
AcDbEntity
  8
POPIS
100
AcDbText
 10
-103.476814252982
 20
343.7439391436403
 30
0.0
 40
35.0
  1
PŮDORYS
 41
0.85
  7
SIMPLEX7
100
AcDbText
  0
TEXT
  5
3B15
330
1F
100
AcDbEntity
  8
POPIS
100
AcDbText
 10
-103.476814252982
 20
398.3686821694412
 30
0.0
 40
50.0
  1
Napojení příčky na zděnou (betonovou) stěnu
 41
0.85
  7
SIMPLEX7
100
AcDbText
  0
ENDSEC
  0
SECTION
  2
OBJECTS
  0
DICTIONARY
  5
C
330
0
100
AcDbDictionary
281
     1
  3
ACAD_GROUP
350
D
  3
ACAD_LAYOUT
350
1A
  3
ACAD_MLINESTYLE
350
17
  3
ACAD_PLOTSETTINGS
350
19
  3
ACAD_PLOTSTYLENAME
350
E
  0
DICTIONARY
  5
D
102
{ACAD_REACTORS
330
C
102
}
330
C
100
AcDbDictionary
281
     1
  0
DICTIONARY
  5
1A
102
{ACAD_REACTORS
330
C
102
}
330
C
100
AcDbDictionary
281
     1
  3
Model
350
22
  3
Rozvržení1
350
1E
  3
Rozvržení2
350
26
  0
DICTIONARY
  5
17
102
{ACAD_REACTORS
330
C
102
}
330
C
100
AcDbDictionary
281
     1
  3
Standard
350
18
  0
DICTIONARY
  5
19
102
{ACAD_REACTORS
330
C
102
}
330
C
100
AcDbDictionary
281
     1
  0
ACDBDICTIONARYWDFLT
  5
E
102
{ACAD_REACTORS
330
C
102
}
330
C
100
AcDbDictionary
281
     1
  3
Normal
350
F
100
AcDbDictionaryWithDefault
340
F
  0
LAYOUT
  5
22
102
{ACAD_REACTORS
330
1A
102
}
330
1A
100
AcDbPlotSettings
  1

  2
HP DeskJet 690C
  4

  6

 40
0.0
 41
0.0
 42
0.0
 43
0.0
 44
0.0
 45
0.0
 46
0.0
 47
0.0
 48
0.0
 49
0.0
140
0.0
141
0.0
142
1.0
143
1.0
 70
  1712
 72
     0
 73
     0
 74
     0
  7
monochrome.ctb
 75
     0
147
1.0
148
0.0
149
0.0
100
AcDbLayout
  1
Model
 70
     1
 71
     0
 10
0.0
 20
0.0
 11
12.0
 21
9.0
 12
0.0
 22
0.0
 32
0.0
 14
0.0
 24
0.0
 34
0.0
 15
0.0
 25
0.0
 35
0.0
146
0.0
 13
0.0
 23
0.0
 33
0.0
 16
1.0
 26
0.0
 36
0.0
 17
0.0
 27
1.0
 37
0.0
 76
     0
330
1F
  0
LAYOUT
  5
1E
102
{ACAD_REACTORS
330
1A
102
}
330
1A
100
AcDbPlotSettings
  1

  2
HP DeskJet 690C
  4

  6

 40
0.0
 41
0.0
 42
0.0
 43
0.0
 44
0.0
 45
0.0
 46
0.0
 47
0.0
 48
0.0
 49
0.0
140
0.0
141
0.0
142
1.0
143
1.0
 70
   688
 72
     0
 73
     0
 74
     5
  7
monochrome.ctb
 75
    16
147
1.0
148
0.0
149
0.0
100
AcDbLayout
  1
Rozvržení1
 70
     1
 71
     1
 10
0.0
 20
0.0
 11
420.0
 21
297.0
 12
0.0
 22
0.0
 32
0.0
 14
1.000000000000000E+20
 24
1.000000000000000E+20
 34
1.000000000000000E+20
 15
-1.000000000000000E+20
 25
-1.000000000000000E+20
 35
-1.000000000000000E+20
146
0.0
 13
0.0
 23
0.0
 33
0.0
 16
1.0
 26
0.0
 36
0.0
 17
0.0
 27
1.0
 37
0.0
 76
     0
330
1B
  0
LAYOUT
  5
26
102
{ACAD_REACTORS
330
1A
102
}
330
1A
100
AcDbPlotSettings
  1

  2
HP DeskJet 690C
  4

  6

 40
0.0
 41
0.0
 42
0.0
 43
0.0
 44
0.0
 45
0.0
 46
0.0
 47
0.0
 48
0.0
 49
0.0
140
0.0
141
0.0
142
1.0
143
1.0
 70
   688
 72
     0
 73
     0
 74
     5
  7
monochrome.ctb
 75
    16
147
1.0
148
0.0
149
0.0
100
AcDbLayout
  1
Rozvržení2
 70
     1
 71
     2
 10
0.0
 20
0.0
 11
12.0
 21
9.0
 12
0.0
 22
0.0
 32
0.0
 14
0.0
 24
0.0
 34
0.0
 15
0.0
 25
0.0
 35
0.0
146
0.0
 13
0.0
 23
0.0
 33
0.0
 16
1.0
 26
0.0
 36
0.0
 17
0.0
 27
1.0
 37
0.0
 76
     0
330
23
  0
MLINESTYLE
  5
18
102
{ACAD_REACTORS
330
17
102
}
330
17
100
AcDbMlineStyle
  2
STANDARD
 70
     0
  3

 62
   256
 51
90.0
 52
90.0
 71
     2
 49
0.5
 62
   256
  6
BYLAYER
 49
-0.5
 62
   256
  6
BYLAYER
  0
ACDBPLACEHOLDER
  5
F
102
{ACAD_REACTORS
330
E
102
}
330
E
  0
ENDSEC
  0
EOF
