  0
SECTION
  2
HEADER
  9
$ACADVER
  1
AC1015
  9
$ACADMAINTVER
 70
    10
  9
$DWGCODEPAGE
  3
ANSI_1250
  9
$INSBASE
 10
0.0
 20
0.0
 30
0.0
  9
$EXTMIN
 10
-81.9624970687513
 20
-103.6393612664501
 30
0.0
  9
$EXTMAX
 10
1030.227134581999
 20
565.9897085989244
 30
0.0
  9
$LIMMIN
 10
0.0
 20
0.0
  9
$LIMMAX
 10
420.0
 20
297.0
  9
$ORTHOMODE
 70
     0
  9
$REGENMODE
 70
     1
  9
$FILLMODE
 70
     1
  9
$QTEXTMODE
 70
     0
  9
$MIRRTEXT
 70
     1
  9
$LTSCALE
 40
1.0
  9
$ATTMODE
 70
     1
  9
$TEXTSIZE
 40
2.5
  9
$TRACEWID
 40
1.0
  9
$TEXTSTYLE
  7
Standard
  9
$CLAYER
  8
0
  9
$CELTYPE
  6
ByLayer
  9
$CECOLOR
 62
   256
  9
$CELTSCALE
 40
1.0
  9
$DISPSILH
 70
     0
  9
$DIMSCALE
 40
1.0
  9
$DIMASZ
 40
2.5
  9
$DIMEXO
 40
0.625
  9
$DIMDLI
 40
3.75
  9
$DIMRND
 40
0.0
  9
$DIMDLE
 40
0.0
  9
$DIMEXE
 40
1.25
  9
$DIMTP
 40
0.0
  9
$DIMTM
 40
0.0
  9
$DIMTXT
 40
2.5
  9
$DIMCEN
 40
2.5
  9
$DIMTSZ
 40
0.0
  9
$DIMTOL
 70
     0
  9
$DIMLIM
 70
     0
  9
$DIMTIH
 70
     0
  9
$DIMTOH
 70
     0
  9
$DIMSE1
 70
     0
  9
$DIMSE2
 70
     0
  9
$DIMTAD
 70
     1
  9
$DIMZIN
 70
     8
  9
$DIMBLK
  1

  9
$DIMASO
 70
     1
  9
$DIMSHO
 70
     1
  9
$DIMPOST
  1

  9
$DIMAPOST
  1

  9
$DIMALT
 70
     0
  9
$DIMALTD
 70
     3
  9
$DIMALTF
 40
0.03937007874016
  9
$DIMLFAC
 40
1.0
  9
$DIMTOFL
 70
     1
  9
$DIMTVP
 40
0.0
  9
$DIMTIX
 70
     0
  9
$DIMSOXD
 70
     0
  9
$DIMSAH
 70
     0
  9
$DIMBLK1
  1

  9
$DIMBLK2
  1

  9
$DIMSTYLE
  2
ISO-25
  9
$DIMCLRD
 70
     0
  9
$DIMCLRE
 70
     0
  9
$DIMCLRT
 70
     0
  9
$DIMTFAC
 40
1.0
  9
$DIMGAP
 40
0.625
  9
$DIMJUST
 70
     0
  9
$DIMSD1
 70
     0
  9
$DIMSD2
 70
     0
  9
$DIMTOLJ
 70
     0
  9
$DIMTZIN
 70
     8
  9
$DIMALTZ
 70
     0
  9
$DIMALTTZ
 70
     0
  9
$DIMUPT
 70
     0
  9
$DIMDEC
 70
     2
  9
$DIMTDEC
 70
     2
  9
$DIMALTU
 70
     2
  9
$DIMALTTD
 70
     3
  9
$DIMTXSTY
  7
Standard
  9
$DIMAUNIT
 70
     0
  9
$DIMADEC
 70
     0
  9
$DIMALTRND
 40
0.0
  9
$DIMAZIN
 70
     0
  9
$DIMDSEP
 70
    44
  9
$DIMATFIT
 70
     3
  9
$DIMFRAC
 70
     0
  9
$DIMLDRBLK
  1

  9
$DIMLUNIT
 70
     2
  9
$DIMLWD
 70
    -2
  9
$DIMLWE
 70
    -2
  9
$DIMTMOVE
 70
     0
  9
$LUNITS
 70
     2
  9
$LUPREC
 70
     4
  9
$SKETCHINC
 40
1.0
  9
$FILLETRAD
 40
10.0
  9
$AUNITS
 70
     0
  9
$AUPREC
 70
     0
  9
$MENU
  1
.
  9
$ELEVATION
 40
0.0
  9
$PELEVATION
 40
0.0
  9
$THICKNESS
 40
0.0
  9
$LIMCHECK
 70
     0
  9
$CHAMFERA
 40
10.0
  9
$CHAMFERB
 40
10.0
  9
$CHAMFERC
 40
20.0
  9
$CHAMFERD
 40
0.0
  9
$SKPOLY
 70
     0
  9
$TDCREATE
 40
2452333.440837384
  9
$TDUCREATE
 40
2452333.399170718
  9
$TDUPDATE
 40
2452653.353614536
  9
$TDUUPDATE
 40
2452653.311947870
  9
$TDINDWG
 40
0.0033326736
  9
$TDUSRTIMER
 40
0.0033314005
  9
$USRTIMER
 70
     1
  9
$ANGBASE
 50
0.0
  9
$ANGDIR
 70
     0
  9
$PDMODE
 70
     0
  9
$PDSIZE
 40
0.0
  9
$PLINEWID
 40
0.0
  9
$SPLFRAME
 70
     0
  9
$SPLINETYPE
 70
     6
  9
$SPLINESEGS
 70
     8
  9
$HANDSEED
  5
1D3E
  9
$SURFTAB1
 70
     6
  9
$SURFTAB2
 70
     6
  9
$SURFTYPE
 70
     6
  9
$SURFU
 70
     6
  9
$SURFV
 70
     6
  9
$UCSBASE
  2

  9
$UCSNAME
  2

  9
$UCSORG
 10
0.0
 20
0.0
 30
0.0
  9
$UCSXDIR
 10
1.0
 20
0.0
 30
0.0
  9
$UCSYDIR
 10
0.0
 20
1.0
 30
0.0
  9
$UCSORTHOREF
  2

  9
$UCSORTHOVIEW
 70
     0
  9
$UCSORGTOP
 10
0.0
 20
0.0
 30
0.0
  9
$UCSORGBOTTOM
 10
0.0
 20
0.0
 30
0.0
  9
$UCSORGLEFT
 10
0.0
 20
0.0
 30
0.0
  9
$UCSORGRIGHT
 10
0.0
 20
0.0
 30
0.0
  9
$UCSORGFRONT
 10
0.0
 20
0.0
 30
0.0
  9
$UCSORGBACK
 10
0.0
 20
0.0
 30
0.0
  9
$PUCSBASE
  2

  9
$PUCSNAME
  2

  9
$PUCSORG
 10
0.0
 20
0.0
 30
0.0
  9
$PUCSXDIR
 10
1.0
 20
0.0
 30
0.0
  9
$PUCSYDIR
 10
0.0
 20
1.0
 30
0.0
  9
$PUCSORTHOREF
  2

  9
$PUCSORTHOVIEW
 70
     0
  9
$PUCSORGTOP
 10
0.0
 20
0.0
 30
0.0
  9
$PUCSORGBOTTOM
 10
0.0
 20
0.0
 30
0.0
  9
$PUCSORGLEFT
 10
0.0
 20
0.0
 30
0.0
  9
$PUCSORGRIGHT
 10
0.0
 20
0.0
 30
0.0
  9
$PUCSORGFRONT
 10
0.0
 20
0.0
 30
0.0
  9
$PUCSORGBACK
 10
0.0
 20
0.0
 30
0.0
  9
$USERI1
 70
     0
  9
$USERI2
 70
     0
  9
$USERI3
 70
     0
  9
$USERI4
 70
     0
  9
$USERI5
 70
     0
  9
$USERR1
 40
0.0
  9
$USERR2
 40
0.0
  9
$USERR3
 40
0.0
  9
$USERR4
 40
0.0
  9
$USERR5
 40
0.0
  9
$WORLDVIEW
 70
     1
  9
$SHADEDGE
 70
     3
  9
$SHADEDIF
 70
    70
  9
$TILEMODE
 70
     1
  9
$MAXACTVP
 70
    64
  9
$PINSBASE
 10
0.0
 20
0.0
 30
0.0
  9
$PLIMCHECK
 70
     0
  9
$PEXTMIN
 10
1.000000000000000E+20
 20
1.000000000000000E+20
 30
1.000000000000000E+20
  9
$PEXTMAX
 10
-1.000000000000000E+20
 20
-1.000000000000000E+20
 30
-1.000000000000000E+20
  9
$PLIMMIN
 10
0.0
 20
0.0
  9
$PLIMMAX
 10
420.0
 20
297.0
  9
$UNITMODE
 70
     0
  9
$VISRETAIN
 70
     1
  9
$PLINEGEN
 70
     0
  9
$PSLTSCALE
 70
     1
  9
$TREEDEPTH
 70
  3020
  9
$CMLSTYLE
  2
Standard
  9
$CMLJUST
 70
     0
  9
$CMLSCALE
 40
20.0
  9
$PROXYGRAPHICS
 70
     1
  9
$MEASUREMENT
 70
     1
  9
$CELWEIGHT
370
    -1
  9
$ENDCAPS
280
     0
  9
$JOINSTYLE
280
     0
  9
$LWDISPLAY
290
     0
  9
$INSUNITS
 70
     4
  9
$HYPERLINKBASE
  1

  9
$STYLESHEET
  1

  9
$XEDIT
290
     1
  9
$CEPSNTYPE
380
     0
  9
$PSTYLEMODE
290
     1
  9
$FINGERPRINTGUID
  2
{E0A79919-1611-4D48-A6CF-929FE36A9D62}
  9
$VERSIONGUID
  2
{4B7EE3AA-631A-4C9F-81B7-6DB250AB8C69}
  9
$EXTNAMES
290
     1
  9
$PSVPSCALE
 40
0.0
  9
$OLESTARTUP
290
     0
  0
ENDSEC
  0
SECTION
  2
CLASSES
  0
CLASS
  1
ACDBDICTIONARYWDFLT
  2
AcDbDictionaryWithDefault
  3
AutoCAD 2000
 90
        0
280
     0
281
     0
  0
CLASS
  1
ACDBPLACEHOLDER
  2
AcDbPlaceHolder
  3
AutoCAD 2000
 90
        0
280
     0
281
     0
  0
CLASS
  1
LAYOUT
  2
AcDbLayout
  3
AutoCAD 2000
 90
        0
280
     0
281
     0
  0
ENDSEC
  0
SECTION
  2
TABLES
  0
TABLE
  2
VPORT
  5
8
330
0
100
AcDbSymbolTable
 70
     2
  0
VPORT
  5
1D3D
330
8
100
AcDbSymbolTableRecord
100
AcDbViewportTableRecord
  2
*Active
 70
     0
 10
0.0
 20
0.0
 11
1.0
 21
1.0
 12
478.9647715609451
 22
216.9204264267211
 13
0.0
 23
0.0
 14
10.0
 24
10.0
 15
10.0
 25
10.0
 16
0.0
 26
0.0
 36
1.0
 17
0.0
 27
0.0
 37
0.0
 40
774.4039817520961
 41
1.579051383399209
 42
50.0
 43
0.0
 44
0.0
 50
0.0
 51
0.0
 71
     0
 72
   100
 73
     1
 74
     3
 75
     0
 76
     0
 77
     0
 78
     0
281
     0
 65
     1
110
0.0
120
0.0
130
0.0
111
1.0
121
0.0
131
0.0
112
0.0
122
1.0
132
0.0
 79
     0
146
0.0
  0
ENDTAB
  0
TABLE
  2
LTYPE
  5
5
330
0
100
AcDbSymbolTable
 70
     5
  0
LTYPE
  5
14
330
5
100
AcDbSymbolTableRecord
100
AcDbLinetypeTableRecord
  2
ByBlock
 70
     0
  3

 72
    65
 73
     0
 40
0.0
  0
LTYPE
  5
15
330
5
100
AcDbSymbolTableRecord
100
AcDbLinetypeTableRecord
  2
ByLayer
 70
     0
  3

 72
    65
 73
     0
 40
0.0
  0
LTYPE
  5
16
330
5
100
AcDbSymbolTableRecord
100
AcDbLinetypeTableRecord
  2
Continuous
 70
     0
  3
Solid line
 72
    65
 73
     0
 40
0.0
  0
LTYPE
  5
33
330
5
100
AcDbSymbolTableRecord
100
AcDbLinetypeTableRecord
  2
DASHED
 70
     0
  3
Dashed __ __ __ __ __ __ __ __ __ __ __ __ __ _
 72
    65
 73
     2
 40
19.04999999999999
 49
12.7
 74
     0
 49
-6.349999999999999
 74
     0
  0
LTYPE
  5
34
330
5
100
AcDbSymbolTableRecord
100
AcDbLinetypeTableRecord
  2
DASHDOT2
 70
     0
  3
Dash dot (.5x) _._._._._._._._._._._._._._._.
 72
    65
 73
     4
 40
12.7
 49
6.349999999999999
 74
     0
 49
-3.174999999999999
 74
     0
 49
0.0
 74
     0
 49
-3.174999999999999
 74
     0
  0
LTYPE
  5
35
330
5
100
AcDbSymbolTableRecord
100
AcDbLinetypeTableRecord
  2
CIKCAK
 70
     0
  3
Cik-cak /\/\/\/\/\/\/\/\/\/\/\/\/\/\/\/\/\/\/\/
 72
    65
 73
     4
 40
20.32254
 49
0.00254
 74
     0
 49
-5.08
 74
     4
 75
   131
340
3E
 46
5.08
 50
0.0
 44
-5.08
 45
0.0
 49
-10.16
 74
     4
 75
   131
340
3E
 46
5.08
 50
180.0
 44
5.08
 45
0.0
 49
-5.08
 74
     0
  0
LTYPE
  5
36
330
5
100
AcDbSymbolTableRecord
100
AcDbLinetypeTableRecord
  2
IZOLACE
 70
     0
  3
Izolace SSSSSSSSSSSSSSSSSSSSSSSSSSSSSSSSSSSSSSS
 72
    65
 73
     4
 40
10.16253999999999
 49
0.00254
 74
     0
 49
-2.54
 74
     4
 75
   134
340
3E
 46
2.54
 50
0.0
 44
-2.54
 45
0.0
 49
-5.08
 74
     4
 75
   134
340
3E
 46
2.54
 50
180.0
 44
2.54
 45
0.0
 49
-2.54
 74
     0
  0
ENDTAB
  0
TABLE
  2
LAYER
  5
2
330
0
100
AcDbSymbolTable
 70
     7
  0
LAYER
  5
10
330
2
100
AcDbSymbolTableRecord
100
AcDbLayerTableRecord
  2
0
 70
     0
 62
     7
  6
Continuous
370
    -3
390
F
  0
LAYER
  5
37
330
2
100
AcDbSymbolTableRecord
100
AcDbLayerTableRecord
  2
POPIS
 70
     0
 62
    30
  6
Continuous
370
    -3
390
F
  0
LAYER
  5
38
330
2
100
AcDbSymbolTableRecord
100
AcDbLayerTableRecord
  2
SPOJOVACÍ
 70
     0
 62
   180
  6
Continuous
370
    -3
390
F
  0
LAYER
  5
39
330
2
100
AcDbSymbolTableRecord
100
AcDbLayerTableRecord
  2
CETRIS
 70
     0
 62
     1
  6
Continuous
370
    -3
390
F
  0
LAYER
  5
3A
330
2
100
AcDbSymbolTableRecord
100
AcDbLayerTableRecord
  2
NOSNÉ KONSTRUKCE
 70
     0
 62
    33
  6
Continuous
370
    -3
390
F
  0
LAYER
  5
3B
330
2
100
AcDbSymbolTableRecord
100
AcDbLayerTableRecord
  2
izolace
 70
     0
 62
    73
  6
Continuous
370
    -3
390
F
  0
LAYER
  5
3C
330
2
100
AcDbSymbolTableRecord
100
AcDbLayerTableRecord
  2
STAVBA OBRYS
 70
     0
 62
     6
  6
Continuous
370
    -3
390
F
  0
ENDTAB
  0
TABLE
  2
STYLE
  5
3
330
0
100
AcDbSymbolTable
 70
     3
  0
STYLE
  5
11
330
3
100
AcDbSymbolTableRecord
100
AcDbTextStyleTableRecord
  2
Standard
 70
     0
 40
0.0
 41
1.0
 50
0.0
 71
     0
 42
2.5
  3
txt
  4

  0
STYLE
  5
3D
330
3
100
AcDbSymbolTableRecord
100
AcDbTextStyleTableRecord
  2
SIMPLEX7
 70
     0
 40
0.0
 41
0.85
 50
0.0
 71
     0
 42
102.0
  3

  4

1001
ACAD
1000
Arial CE
1071
    60962
  0
STYLE
  5
3E
330
3
100
AcDbSymbolTableRecord
100
AcDbTextStyleTableRecord
  2

 70
     1
 40
0.0
 41
1.0
 50
0.0
 71
     0
 42
2.5
  3
ltypeshp.shx
  4

  0
ENDTAB
  0
TABLE
  2
VIEW
  5
6
330
0
100
AcDbSymbolTable
 70
     0
  0
ENDTAB
  0
TABLE
  2
UCS
  5
7
330
0
100
AcDbSymbolTable
 70
     0
  0
ENDTAB
  0
TABLE
  2
APPID
  5
9
330
0
100
AcDbSymbolTable
 70
     1
  0
APPID
  5
12
330
9
100
AcDbSymbolTableRecord
100
AcDbRegAppTableRecord
  2
ACAD
 70
     0
  0
ENDTAB
  0
TABLE
  2
DIMSTYLE
  5
A
330
0
100
AcDbSymbolTable
 70
     1
100
AcDbDimStyleTable
 71
     0
  0
DIMSTYLE
105
27
330
A
100
AcDbSymbolTableRecord
100
AcDbDimStyleTableRecord
  2
ISO-25
 70
     0
 41
2.5
 42
0.625
 43
3.75
 44
1.25
 73
     0
 74
     0
 77
     1
 78
     8
140
2.5
141
2.5
143
0.03937007874016
147
0.625
171
     3
172
     1
271
     2
272
     2
274
     3
278
    44
283
     0
284
     8
340
11
  0
ENDTAB
  0
TABLE
  2
BLOCK_RECORD
  5
1
330
0
100
AcDbSymbolTable
 70
     2
  0
BLOCK_RECORD
  5
1F
330
1
100
AcDbSymbolTableRecord
100
AcDbBlockTableRecord
  2
*Model_Space
340
22
  0
BLOCK_RECORD
  5
1B
330
1
100
AcDbSymbolTableRecord
100
AcDbBlockTableRecord
  2
*Paper_Space
340
1E
  0
BLOCK_RECORD
  5
23
330
1
100
AcDbSymbolTableRecord
100
AcDbBlockTableRecord
  2
*Paper_Space0
340
26
  0
BLOCK_RECORD
  5
2B
330
1
100
AcDbSymbolTableRecord
100
AcDbBlockTableRecord
  2
E_PUNKT
340
0
102
{BLKREFS
331
1B2B
331
1B2C
331
1BEB
331
1BEC
331
1D2B
102
}
  0
ENDTAB
  0
ENDSEC
  0
SECTION
  2
BLOCKS
  0
BLOCK
  5
20
330
1F
100
AcDbEntity
  8
0
100
AcDbBlockBegin
  2
*Model_Space
 70
     0
 10
0.0
 20
0.0
 30
0.0
  3
*Model_Space
  1

  0
ENDBLK
  5
21
330
1F
100
AcDbEntity
  8
0
100
AcDbBlockEnd
  0
BLOCK
  5
1C
330
1B
100
AcDbEntity
 67
     1
  8
0
100
AcDbBlockBegin
  2
*Paper_Space
 70
     0
 10
0.0
 20
0.0
 30
0.0
  3
*Paper_Space
  1

  0
ENDBLK
  5
1D
330
1B
100
AcDbEntity
 67
     1
  8
0
100
AcDbBlockEnd
  0
BLOCK
  5
24
330
23
100
AcDbEntity
  8
0
100
AcDbBlockBegin
  2
*Paper_Space0
 70
     0
 10
0.0
 20
0.0
 30
0.0
  3
*Paper_Space0
  1

  0
ENDBLK
  5
25
330
23
100
AcDbEntity
  8
0
100
AcDbBlockEnd
  0
BLOCK
  5
2D
330
2B
100
AcDbEntity
  8
0
100
AcDbBlockBegin
  2
E_PUNKT
 70
     0
 10
0.0
 20
0.0
 30
0.0
  3
E_PUNKT
  1

  0
LWPOLYLINE
  5
2C
330
2B
100
AcDbEntity
  8
POPIS
100
AcDbPolyline
 90
        2
 70
     1
 43
2.5
 10
1.27761037562675
 20
0.0290683308725193
 42
-1.0
 10
-1.222389624373249
 20
0.0290683308725193
 42
-1.0
  0
ENDBLK
  5
2E
330
2B
100
AcDbEntity
  8
0
100
AcDbBlockEnd
  0
ENDSEC
  0
SECTION
  2
ENTITIES
  0
LWPOLYLINE
  5
1AFB
330
1F
100
AcDbEntity
  8
NOSNÉ KONSTRUKCE
100
AcDbPolyline
 90
        3
 70
     0
 43
0.0
 10
59.00278037133069
 20
25.61400061099476
 10
68.21880942185055
 20
5.617748179002148
 10
68.86420689719273
 20
1.617810545287568
  0
LWPOLYLINE
  5
1AFC
330
1F
100
AcDbEntity
  8
NOSNÉ KONSTRUKCE
100
AcDbPolyline
 90
        2
 70
     0
 43
0.0
 10
83.5065808512005
 20
4.400828702068167
 10
84.90052691901258
 20
1.614975693943335
  0
LWPOLYLINE
  5
1AFD
330
1F
100
AcDbEntity
  8
NOSNÉ KONSTRUKCE
100
AcDbPolyline
 90
        2
 70
     0
 43
0.0
 10
90.78304223911585
 20
1.614975693943335
 42
0.0463617997943816
 10
102.4740873509687
 20
11.70432754962013
  0
LWPOLYLINE
  5
1AFE
330
1F
100
AcDbEntity
  8
NOSNÉ KONSTRUKCE
100
AcDbPolyline
 90
        4
 70
     0
 43
0.0
 10
62.70344097297095
 20
1.614975693943335
 42
0.006788460145482
 10
72.83230398454145
 20
3.610818984989521
 42
0.0219777111230329
 10
76.35041724037694
 20
4.516931486972964
 42
0.1401208794308004
 10
102.5036108020755
 20
32.28288637420547
  0
LWPOLYLINE
  5
1AFF
330
1F
100
AcDbEntity
  8
NOSNÉ KONSTRUKCE
100
AcDbPolyline
 90
        6
 70
     0
 43
0.0
 10
52.50361080207551
 20
10.08141723176805
 42
0.0128837512779302
 10
55.83677562382184
 20
10.36620919199259
 42
0.0351641677647434
 10
59.44048507816081
 20
10.99396891351563
 42
0.0187319685742942
 10
71.19872242030362
 20
14.3779847945064
 42
0.0582629403736403
 10
74.7785566192357
 20
16.03748466258758
 42
0.2042445348716764
 10
100.0369048087701
 20
51.61497569394334
  0
LINE
  5
1B00
330
1F
100
AcDbEntity
  8
SPOJOVACÍ
100
AcDbLine
 10
70.75361080207551
 20
51.61497569394334
 30
0.0
 11
70.75361080207551
 21
50.17338732747368
 31
0.0
  0
LINE
  5
1B01
330
1F
100
AcDbEntity
  8
SPOJOVACÍ
100
AcDbLine
 10
70.75361080207551
 20
50.17338732747368
 30
0.0
 11
70.75361080207551
 21
51.05029794960711
 31
0.0
  0
LINE
  5
1B02
330
1F
100
AcDbEntity
  8
SPOJOVACÍ
  6
DASHED
100
AcDbLine
 10
75.7926733020646
 20
-39.98533870312411
 30
0.0
 11
75.79267330207915
 21
46.99075302489319
 31
0.0
  0
LINE
  5
1B03
330
1F
100
AcDbEntity
  8
SPOJOVACÍ
  6
DASHED
100
AcDbLine
 10
73.97814437860109
 20
-1.21396522709773
 30
0.0
 11
73.97814437860472
 21
48.13679596341017
 31
0.0
  0
LWPOLYLINE
  5
1B04
330
1F
100
AcDbEntity
  8
NOSNÉ KONSTRUKCE
100
AcDbPolyline
 90
        3
 70
     0
 43
0.0
 10
58.02094149759398
 20
44.90657823623979
 10
66.40468236556228
 20
28.15136061651202
 10
74.58598406665953
 20
19.98425596738735
  0
LWPOLYLINE
  5
1B05
330
1F
100
AcDbEntity
  8
NOSNÉ KONSTRUKCE
100
AcDbPolyline
 90
        7
 70
     0
 43
0.0
 10
52.50361080207551
 20
47.10020721426036
 42
0.0203924744732807
 10
53.51674083122964
 20
48.00229119866918
 42
0.0273961979096945
 10
54.30491720525572
 20
48.85215554886446
 42
0.0243529190212958
 10
55.17867654992335
 20
50.01527604128416
 42
0.0398020282482987
 10
55.61830529336987
 20
50.7902345788446
 42
0.104168275620852
 10
55.70832175354701
 20
51.17664571518464
 42
0.007272956268647
 10
55.72677510484175
 20
51.61497569394334
 42
0.007272956268647
  0
POLYLINE
  5
1B06
330
1F
100
AcDbEntity
  8
NOSNÉ KONSTRUKCE
100
AcDb2dPolyline
 66
     1
 10
0.0
 20
0.0
 30
0.0
  0
VERTEX
  5
1B07
330
1B06
100
AcDbEntity
  8
NOSNÉ KONSTRUKCE
100
AcDbVertex
100
AcDb2dVertex
 10
52.50361080207551
 20
41.75052087974137
 30
0.0
 42
0.0064239028828688
  0
VERTEX
  5
1B08
330
1B06
100
AcDbEntity
  8
NOSNÉ KONSTRUKCE
100
AcDbVertex
100
AcDb2dVertex
 10
52.72272446142562
 20
41.78938931992189
 30
0.0
 42
0.0832048017309575
  0
VERTEX
  5
1B09
330
1B06
100
AcDbEntity
  8
NOSNÉ KONSTRUKCE
100
AcDbVertex
100
AcDb2dVertex
 10
55.05293804108044
 20
42.57357192260343
 30
0.0
 42
0.0336767237692336
  0
VERTEX
  5
1B0A
330
1B06
100
AcDbEntity
  8
NOSNÉ KONSTRUKCE
100
AcDbVertex
100
AcDb2dVertex
 10
57.78121256054112
 20
44.2763884815252
 30
0.0
 42
0.0844635135812105
  0
VERTEX
  5
1B0B
330
1B06
100
AcDbEntity
  8
NOSNÉ KONSTRUKCE
100
AcDbVertex
100
AcDb2dVertex
 10
58.68563416553627
 20
45.19619824141801
 30
0.0
 42
0.0495829410719565
  0
VERTEX
  5
1B0C
330
1B06
100
AcDbEntity
  8
NOSNÉ KONSTRUKCE
100
AcDbVertex
100
AcDb2dVertex
 10
59.66228367284895
 20
46.94487667877211
 30
0.0
 42
0.0322692699774654
  0
VERTEX
  5
1B0D
330
1B06
100
AcDbEntity
  8
NOSNÉ KONSTRUKCE
100
AcDbVertex
100
AcDb2dVertex
 10
60.70380717424962
 20
49.83623085986284
 30
0.0
 42
0.0276160659512937
  0
VERTEX
  5
1B0E
330
1B06
100
AcDbEntity
  8
NOSNÉ KONSTRUKCE
100
AcDbVertex
100
AcDb2dVertex
 10
60.90054260319414
 20
50.69180729815008
 30
0.0
 42
0.0126891984598699
  0
VERTEX
  5
1B0F
330
1B06
100
AcDbEntity
  8
NOSNÉ KONSTRUKCE
100
AcDbVertex
100
AcDb2dVertex
 10
61.03574499273566
 20
51.61497569394152
 30
0.0
  0
SEQEND
  5
1B10
330
1B06
100
AcDbEntity
  8
NOSNÉ KONSTRUKCE
  0
POLYLINE
  5
1B11
330
1F
100
AcDbEntity
  8
NOSNÉ KONSTRUKCE
100
AcDb2dPolyline
 66
     1
 10
0.0
 20
0.0
 30
0.0
  0
VERTEX
  5
1B12
330
1B11
100
AcDbEntity
  8
NOSNÉ KONSTRUKCE
100
AcDbVertex
100
AcDb2dVertex
 10
52.50361080207551
 20
34.52246985900302
 30
0.0
 42
0.0072417954699014
  0
VERTEX
  5
1B13
330
1B11
100
AcDbEntity
  8
NOSNÉ KONSTRUKCE
100
AcDbVertex
100
AcDb2dVertex
 10
52.91501601335006
 20
34.57804022684678
 30
0.0
 42
0.0707158694326265
  0
VERTEX
  5
1B14
330
1B11
100
AcDbEntity
  8
NOSNÉ KONSTRUKCE
100
AcDbVertex
100
AcDb2dVertex
 10
54.85111946594372
 20
35.10916674326682
 30
0.0
 42
0.033952657250207
  0
VERTEX
  5
1B15
330
1B11
100
AcDbEntity
  8
NOSNÉ KONSTRUKCE
100
AcDbVertex
100
AcDb2dVertex
 10
59.20415719111736
 20
37.35782258267528
 30
0.0
 42
0.0571374688189033
  0
VERTEX
  5
1B16
330
1B11
100
AcDbEntity
  8
NOSNÉ KONSTRUKCE
100
AcDbVertex
100
AcDb2dVertex
 10
61.51108147480375
 20
39.1439793425273
 30
0.0
 42
0.0274923553235744
  0
VERTEX
  5
1B17
330
1B11
100
AcDbEntity
  8
NOSNÉ KONSTRUKCE
100
AcDbVertex
100
AcDb2dVertex
 10
63.89615679793826
 20
41.74128507308006
 30
0.0
 42
0.0255412025538677
  0
VERTEX
  5
1B18
330
1B11
100
AcDbEntity
  8
NOSNÉ KONSTRUKCE
100
AcDbVertex
100
AcDb2dVertex
 10
66.15287047495769
 20
44.79271511079088
 30
0.0
 42
0.0272796991712396
  0
VERTEX
  5
1B19
330
1B11
100
AcDbEntity
  8
NOSNÉ KONSTRUKCE
100
AcDbVertex
100
AcDb2dVertex
 10
68.56920635661992
 20
48.9057142639761
 30
0.0
 42
0.056967459841729
  0
VERTEX
  5
1B1A
330
1B11
100
AcDbEntity
  8
NOSNÉ KONSTRUKCE
100
AcDbVertex
100
AcDb2dVertex
 10
69.38194219181935
 20
51.04666154470788
 30
0.0
 42
0.0373408083348504
  0
VERTEX
  5
1B1B
330
1B11
100
AcDbEntity
  8
NOSNÉ KONSTRUKCE
100
AcDbVertex
100
AcDb2dVertex
 10
69.42110773277057
 20
51.2690159201814
 30
0.0
 42
0.0052305969362967
  0
VERTEX
  5
1B1C
330
1B11
100
AcDbEntity
  8
NOSNÉ KONSTRUKCE
100
AcDbVertex
100
AcDb2dVertex
 10
69.45206469967491
 20
51.61497569394152
 30
0.0
  0
SEQEND
  5
1B1D
330
1B11
100
AcDbEntity
  8
NOSNÉ KONSTRUKCE
  0
LINE
  5
1B1E
330
1F
100
AcDbEntity
  8
SPOJOVACÍ
100
AcDbLine
 10
70.75361080207551
 20
50.17338732747368
 30
0.0
 11
75.79267330207551
 21
46.99075302489501
 31
0.0
  0
LWPOLYLINE
  5
1B1F
330
1F
100
AcDbEntity
  8
NOSNÉ KONSTRUKCE
100
AcDbPolyline
 90
       10
 70
     0
 43
0.0
 10
52.50361080207551
 20
27.57269183531963
 42
0.0168162630274194
 10
54.1946489541948
 20
27.70771741438358
 42
0.0575155827655532
 10
57.29427361491218
 20
28.38774969472643
 42
0.0310289133982999
 10
64.53930113955687
 20
31.39055103955462
 42
0.0882970623535771
 10
66.7796701903568
 20
33.02777295964762
 42
0.0171636441953577
 10
69.29358754560201
 20
35.84113702150563
 42
0.0157521173632038
 10
71.82508359810857
 20
39.07999185854197
 42
0.0073640874174249
 10
75.11348502384464
 20
43.71364121486323
 42
0.0194185739168057
 10
76.2650540231258
 20
45.53568453453983
 42
0.0567960585128809
 10
78.91691822850373
 20
51.61497569394334
 42
0.0229547400386702
  0
LINE
  5
1B20
330
1F
100
AcDbEntity
  8
SPOJOVACÍ
  6
DASHED
100
AcDbLine
 10
79.21454830207551
 20
-39.9853387031996
 30
0.0
 11
79.21454830207551
 21
46.99075302489956
 31
0.0
  0
LWPOLYLINE
  5
1B21
330
1F
100
AcDbEntity
  8
NOSNÉ KONSTRUKCE
100
AcDbPolyline
 90
        4
 70
     1
 43
0.0
 10
102.5036108020755
 20
1.614975693943335
 10
52.50361080207551
 20
1.614975693943335
 10
52.50361080207551
 20
51.61497569394334
 10
102.5036108020755
 20
51.61497569394334
  0
LINE
  5
1B22
330
1F
100
AcDbEntity
  8
NOSNÉ KONSTRUKCE
100
AcDbLine
 10
52.50361080207551
 20
51.61497569394334
 30
0.0
 11
89.52136525455319
 21
51.61497569394334
 31
0.0
  0
LWPOLYLINE
  5
1B23
330
1F
100
AcDbEntity
  8
NOSNÉ KONSTRUKCE
100
AcDbPolyline
 90
        8
 70
     0
 43
0.0
 10
52.50361080207551
 20
18.70563261180933
 42
0.0120721047703132
 10
54.23749894081959
 20
18.77461530184729
 42
0.044358077361292
 10
56.93329895923636
 20
19.17024303652061
 42
0.0188067511131767
 10
64.17552813454278
 20
21.19006648490386
 42
0.0457786284636091
 10
67.02413851742278
 20
22.39808937451954
 42
0.0295006114745606
 10
70.95103773082485
 20
24.81414982881898
 42
0.0258674098621065
 10
75.09681780957873
 20
28.04682514278312
 42
0.2409478365688615
 10
89.52136525455319
 20
51.61497569394334
 42
0.0884720560394402
  0
LINE
  5
1B24
330
1F
100
AcDbEntity
  8
SPOJOVACÍ
  6
DASHED
100
AcDbLine
 10
81.02907722554993
 20
-1.21396522709773
 30
0.0
 11
81.02907722554993
 21
48.13679596341654
 31
0.0
  0
LINE
  5
1B25
330
1F
100
AcDbEntity
  8
SPOJOVACÍ
100
AcDbLine
 10
84.25361080207551
 20
50.17338732747368
 30
0.0
 11
70.75361080207551
 21
50.17338732747368
 31
0.0
  0
LINE
  5
1B26
330
1F
100
AcDbEntity
  8
SPOJOVACÍ
100
AcDbLine
 10
84.25361080207551
 20
51.61497569394334
 30
0.0
 11
70.75361080207551
 21
51.61497569394334
 31
0.0
  0
LINE
  5
1B27
330
1F
100
AcDbEntity
  8
SPOJOVACÍ
100
AcDbLine
 10
84.25361080207551
 20
51.61497569394334
 30
0.0
 11
84.25361080207551
 21
50.17338732747368
 31
0.0
  0
LINE
  5
1B28
330
1F
100
AcDbEntity
  8
SPOJOVACÍ
  6
DASHED
100
AcDbLine
 10
84.25361080207551
 20
50.17338732747368
 30
0.0
 11
79.21454830207551
 21
46.99075302489865
 31
0.0
  0
LINE
  5
1B29
330
1F
100
AcDbEntity
  8
SPOJOVACÍ
100
AcDbLine
 10
84.25361080207551
 20
50.17338732747368
 30
0.0
 11
84.25361080207551
 21
51.05029794960711
 31
0.0
  0
LINE
  5
1B2A
330
1F
100
AcDbEntity
  8
SPOJOVACÍ
100
AcDbLine
 10
84.25361080207551
 20
51.05029794960711
 30
0.0
 11
84.25361080207551
 21
50.17338732747368
 31
0.0
  0
INSERT
  5
1B2B
330
1F
100
AcDbEntity
  8
POPIS
100
AcDbBlockReference
  2
E_PUNKT
 10
76.87429247871808
 20
225.1271781182034
 30
0.0
 50
270.0
  0
INSERT
  5
1B2C
330
1F
100
AcDbEntity
  8
POPIS
100
AcDbBlockReference
  2
E_PUNKT
 10
113.5345634720284
 20
284.1431877485441
 30
0.0
 50
270.0
  0
LINE
  5
1B2D
330
1F
100
AcDbEntity
  8
POPIS
100
AcDbLine
 10
184.8459034838011
 20
225.0995677425765
 30
0.0
 11
78.15336080959207
 21
225.0995677425765
 31
0.0
  0
LINE
  5
1B2E
330
1F
100
AcDbEntity
  8
POPIS
100
AcDbLine
 10
184.8459034838011
 20
284.1238502012877
 30
0.0
 11
115.151886961488
 21
284.1238502012877
 31
0.0
  0
LINE
  5
1B2F
330
1F
100
AcDbEntity
  8
POPIS
100
AcDbLine
 10
184.8459034838011
 20
327.0172873646827
 30
0.0
 11
115.151886961488
 21
327.0172873646827
 31
0.0
  0
TEXT
  5
1B30
330
1F
100
AcDbEntity
  8
POPIS
100
AcDbText
 10
190.0021146950926
 20
316.3240578306107
 30
0.0
 40
25.0
  1
01
 41
0.85
  7
SIMPLEX7
100
AcDbText
  0
TEXT
  5
1B31
330
1F
100
AcDbEntity
  8
POPIS
100
AcDbText
 10
190.0021146950926
 20
270.8480344388702
 30
0.0
 40
25.0
  1
02
 41
0.85
  7
SIMPLEX7
100
AcDbText
  0
TEXT
  5
1B32
330
1F
100
AcDbEntity
  8
POPIS
100
AcDbText
 10
190.0021146950926
 20
213.3342811613732
 30
0.0
 40
25.0
  1
03
 41
0.85
  7
SIMPLEX7
100
AcDbText
  0
LINE
  5
1B33
330
1F
100
AcDbEntity
  8
SPOJOVACÍ
  6
Continuous
100
AcDbLine
 10
111.1014564716784
 20
286.3052111964992
 30
0.0
 11
112.3088246545772
 21
287.2632922664836
 31
0.0
  0
LINE
  5
1B34
330
1F
100
AcDbEntity
  8
SPOJOVACÍ
  6
Continuous
100
AcDbLine
 10
109.6875892619751
 20
285.6922253473515
 30
0.0
 11
111.1014564716784
 21
286.3052111964992
 31
0.0
  0
LINE
  5
1B35
330
1F
100
AcDbEntity
  8
SPOJOVACÍ
  6
Continuous
100
AcDbLine
 10
108.1639613085459
 20
285.465262456468
 30
0.0
 11
109.6875892619751
 21
285.6922253473515
 31
0.0
  0
LINE
  5
1B36
330
1F
100
AcDbEntity
  8
SPOJOVACÍ
  6
Continuous
100
AcDbLine
 10
114.7635585796339
 20
289.2157312615511
 30
0.0
 11
113.5636318029024
 21
289.2157312615511
 31
0.0
  0
LINE
  5
1B37
330
1F
100
AcDbEntity
  8
SPOJOVACÍ
  6
Continuous
100
AcDbLine
 10
114.7635585796339
 20
279.0154234842832
 30
0.0
 11
114.7635585796339
 21
289.2157312615511
 31
0.0
  0
LINE
  5
1B38
330
1F
100
AcDbEntity
  8
SPOJOVACÍ
  6
Continuous
100
AcDbLine
 10
114.7635585796339
 20
279.0154234842832
 30
0.0
 11
113.5636318029024
 21
279.0154234842832
 31
0.0
  0
LINE
  5
1B39
330
1F
100
AcDbEntity
  8
SPOJOVACÍ
  6
Continuous
100
AcDbLine
 10
113.5636318029024
 20
279.0154234842832
 30
0.0
 11
113.5636318029024
 21
289.2157312615511
 31
0.0
  0
LINE
  5
1B3A
330
1F
100
AcDbEntity
  8
SPOJOVACÍ
  6
Continuous
100
AcDbLine
 10
113.2269081650189
 20
288.5004260753833
 30
0.0
 11
113.5636318029024
 21
289.2157312615511
 31
0.0
  0
LINE
  5
1B3B
330
1F
100
AcDbEntity
  8
SPOJOVACÍ
  6
Continuous
100
AcDbLine
 10
112.3088246545772
 20
287.2632922664836
 30
0.0
 11
113.2269081650189
 21
288.5004260753833
 31
0.0
  0
LINE
  5
1B3C
330
1F
100
AcDbEntity
  8
SPOJOVACÍ
  6
Continuous
100
AcDbLine
 10
108.9508900316683
 20
282.6998498118103
 30
0.0
 11
108.1639613085459
 21
282.7658922937319
 31
0.0
  0
LINE
  5
1B3D
330
1F
100
AcDbEntity
  8
SPOJOVACÍ
  6
Continuous
100
AcDbLine
 10
110.4317298987185
 20
282.2719689475109
 30
0.0
 11
108.9508900316683
 21
282.6998498118103
 31
0.0
  0
LINE
  5
1B3E
330
1F
100
AcDbEntity
  8
SPOJOVACÍ
  6
Continuous
100
AcDbLine
 10
111.750719177016
 20
281.4757384681927
 30
0.0
 11
110.4317298987185
 21
282.2719689475109
 31
0.0
  0
LINE
  5
1B3F
330
1F
100
AcDbEntity
  8
SPOJOVACÍ
  6
Continuous
100
AcDbLine
 10
112.8194911664282
 20
280.3651085678341
 30
0.0
 11
111.750719177016
 21
281.4757384681927
 31
0.0
  0
LINE
  5
1B40
330
1F
100
AcDbEntity
  8
SPOJOVACÍ
  6
Continuous
100
AcDbLine
 10
113.5636318029024
 20
279.0154234842832
 30
0.0
 11
112.8194911664282
 21
280.3651085678341
 31
0.0
  0
LINE
  5
1B41
330
1F
100
AcDbEntity
  8
SPOJOVACÍ
  6
Continuous
100
AcDbLine
 10
108.1639613085459
 20
285.465262456468
 30
0.0
 11
103.2210071296173
 21
285.465262456468
 31
0.0
  0
LINE
  5
1B42
330
1F
100
AcDbEntity
  8
SPOJOVACÍ
  6
Continuous
100
AcDbLine
 10
108.1639613085459
 20
282.7658922937319
 30
0.0
 11
104.1260681788659
 21
282.7658922937319
 31
0.0
  0
LINE
  5
1B43
330
1F
100
AcDbEntity
  8
SPOJOVACÍ
  6
Continuous
100
AcDbLine
 10
103.5307556696894
 20
282.7658922937319
 30
0.0
 11
101.0118396146605
 21
282.7658922937319
 31
0.0
  0
LINE
  5
1B44
330
1F
100
AcDbEntity
  8
SPOJOVACÍ
  6
Continuous
100
AcDbLine
 10
100.4081555233457
 20
282.7658922937319
 30
0.0
 11
97.88737911663668
 21
282.7658922937319
 31
0.0
  0
LINE
  5
1B45
330
1F
100
AcDbEntity
  8
SPOJOVACÍ
  6
Continuous
100
AcDbLine
 10
97.29299678316204
 20
282.7658922937319
 30
0.0
 11
94.76477897029292
 21
282.7658922937319
 31
0.0
  0
LINE
  5
1B46
330
1F
100
AcDbEntity
  8
SPOJOVACÍ
  6
Continuous
100
AcDbLine
 10
102.6173230383025
 20
285.465262456468
 30
0.0
 11
100.0984069832735
 21
285.465262456468
 31
0.0
  0
LINE
  5
1B47
330
1F
100
AcDbEntity
  8
SPOJOVACÍ
  6
Continuous
100
AcDbLine
 10
99.50216429811883
 20
285.465262456468
 30
0.0
 11
96.97394648524971
 21
285.465262456468
 31
0.0
  0
LINE
  5
1B48
330
1F
100
AcDbEntity
  8
SPOJOVACÍ
  6
Continuous
100
AcDbLine
 10
96.37956415177507
 20
285.465262456468
 30
0.0
 11
93.85878774506602
 21
285.465262456468
 31
0.0
  0
LINE
  5
1B49
330
1F
100
AcDbEntity
  8
SPOJOVACÍ
  6
Continuous
100
AcDbLine
 10
94.16016470300712
 20
282.7658922937319
 30
0.0
 11
91.64217882367996
 21
282.7658922937319
 31
0.0
  0
LINE
  5
1B4A
330
1F
100
AcDbEntity
  8
SPOJOVACÍ
  6
Continuous
100
AcDbLine
 10
91.04593613852523
 20
282.7658922937319
 30
0.0
 11
89.79857039663659
 21
282.7658922937319
 31
0.0
  0
LINE
  5
1B4B
330
1F
100
AcDbEntity
  8
SPOJOVACÍ
  6
Continuous
100
AcDbLine
 10
93.25789418113311
 20
285.465262456468
 30
0.0
 11
90.73897812610415
 21
285.465262456468
 31
0.0
  0
LINE
  5
1B4C
330
1F
100
AcDbEntity
  8
SPOJOVACÍ
  6
Continuous
100
AcDbLine
 10
90.13529403452015
 20
285.465262456468
 30
0.0
 11
89.79857039663659
 21
285.465262456468
 31
0.0
  0
LINE
  5
1B4D
330
1F
100
AcDbEntity
  8
SPOJOVACÍ
  6
Continuous
100
AcDbLine
 10
89.79857039663659
 20
282.7658922937319
 30
0.0
 11
88.60143414727975
 21
282.9156505964549
 31
0.0
  0
LINE
  5
1B4E
330
1F
100
AcDbEntity
  8
SPOJOVACÍ
  6
Continuous
100
AcDbLine
 10
78.99829923168329
 20
284.1155773729172
 30
0.0
 11
81.83440523295178
 21
284.4699743540461
 31
0.0
  0
LINE
  5
1B4F
330
1F
100
AcDbEntity
  8
SPOJOVACÍ
  6
Continuous
100
AcDbLine
 10
87.98100689142632
 20
282.9928551889809
 30
0.0
 11
85.65928810536172
 21
283.2830700385004
 31
0.0
  0
LINE
  5
1B50
330
1F
100
AcDbEntity
  8
SPOJOVACÍ
  6
Continuous
100
AcDbLine
 10
85.02862891569714
 20
283.3621349813386
 30
0.0
 11
82.70784030534162
 21
283.6523498264926
 31
0.0
  0
LINE
  5
1B51
330
1F
100
AcDbEntity
  8
SPOJOVACÍ
  6
Continuous
100
AcDbLine
 10
82.08741304948819
 20
283.7295544190185
 30
0.0
 11
78.99829923168329
 21
284.1155773729172
 31
0.0
  0
LINE
  5
1B52
330
1F
100
AcDbEntity
  8
SPOJOVACÍ
  6
Continuous
100
AcDbLine
 10
82.40367282001864
 20
284.5415978912699
 30
0.0
 11
84.54865820500311
 21
284.8094885195808
 31
0.0
  0
LINE
  5
1B53
330
1F
100
AcDbEntity
  8
SPOJOVACÍ
  6
Continuous
100
AcDbLine
 10
85.12071631945184
 20
284.881112052439
 30
0.0
 11
87.25733012230524
 21
285.1480725077765
 31
0.0
  0
LINE
  5
1B54
330
1F
100
AcDbEntity
  8
SPOJOVACÍ
  6
Continuous
100
AcDbLine
 10
87.82752788535038
 20
285.2196960450003
 30
0.0
 11
89.79857039663659
 21
285.465262456468
 31
0.0
  0
LINE
  5
1B55
330
1F
100
AcDbEntity
  8
SPOJOVACÍ
  6
Continuous
100
AcDbLine
 10
103.9632874146806
 20
281.7157238199927
 30
0.0
 11
102.7633606382183
 21
286.5154309258416
 31
0.0
  0
LINE
  5
1B56
330
1F
100
AcDbEntity
  8
SPOJOVACÍ
  6
Continuous
100
AcDbLine
 10
103.9632874146806
 20
281.7157238199927
 30
0.0
 11
103.7456262786323
 21
282.0933751953037
 31
0.0
  0
LINE
  5
1B57
330
1F
100
AcDbEntity
  8
SPOJOVACÍ
  6
Continuous
100
AcDbLine
 10
103.9632874146806
 20
281.7157238199927
 30
0.0
 11
104.3418689635105
 21
282.0933751953037
 31
0.0
  0
LINE
  5
1B58
330
1F
100
AcDbEntity
  8
SPOJOVACÍ
  6
Continuous
100
AcDbLine
 10
102.7633606382183
 20
286.5154309258416
 30
0.0
 11
102.3857092650902
 21
286.1377795548963
 31
0.0
  0
LINE
  5
1B59
330
1F
100
AcDbEntity
  8
SPOJOVACÍ
  6
Continuous
100
AcDbLine
 10
102.7633606382183
 20
286.5154309258416
 30
0.0
 11
102.9819519502449
 21
286.1377795548963
 31
0.0
  0
LINE
  5
1B5A
330
1F
100
AcDbEntity
  8
SPOJOVACÍ
  6
Continuous
100
AcDbLine
 10
103.7456262786323
 20
282.0933751953037
 30
0.0
 11
102.3857092650902
 21
286.1377795548963
 31
0.0
  0
LINE
  5
1B5B
330
1F
100
AcDbEntity
  8
SPOJOVACÍ
  6
Continuous
100
AcDbLine
 10
104.3418689635105
 20
282.0933751953037
 30
0.0
 11
102.9819519502449
 21
286.1377795548963
 31
0.0
  0
LINE
  5
1B5C
330
1F
100
AcDbEntity
  8
SPOJOVACÍ
  6
Continuous
100
AcDbLine
 10
100.8434777957187
 20
281.7157238199927
 30
0.0
 11
99.64355101898002
 21
286.5154309258416
 31
0.0
  0
LINE
  5
1B5D
330
1F
100
AcDbEntity
  8
SPOJOVACÍ
  6
Continuous
100
AcDbLine
 10
100.8434777957187
 20
281.7157238199927
 30
0.0
 11
100.6248864836921
 21
282.0933751953037
 31
0.0
  0
LINE
  5
1B5E
330
1F
100
AcDbEntity
  8
SPOJOVACÍ
  6
Continuous
100
AcDbLine
 10
100.8434777957187
 20
281.7157238199927
 30
0.0
 11
101.2211291688469
 21
282.0933751953037
 31
0.0
  0
LINE
  5
1B5F
330
1F
100
AcDbEntity
  8
SPOJOVACÍ
  6
Continuous
100
AcDbLine
 10
99.64355101898002
 20
286.5154309258416
 30
0.0
 11
99.26589964612833
 21
286.1377795548963
 31
0.0
  0
LINE
  5
1B60
330
1F
100
AcDbEntity
  8
SPOJOVACÍ
  6
Continuous
100
AcDbLine
 10
99.64355101898002
 20
286.5154309258416
 30
0.0
 11
99.86214233100657
 21
286.1377795548963
 31
0.0
  0
LINE
  5
1B61
330
1F
100
AcDbEntity
  8
SPOJOVACÍ
  6
Continuous
100
AcDbLine
 10
100.6248864836921
 20
282.0933751953037
 30
0.0
 11
99.26589964612833
 21
286.1377795548963
 31
0.0
  0
LINE
  5
1B62
330
1F
100
AcDbEntity
  8
SPOJOVACÍ
  6
Continuous
100
AcDbLine
 10
101.2211291688469
 20
282.0933751953037
 30
0.0
 11
99.86214233100657
 21
286.1377795548963
 31
0.0
  0
LINE
  5
1B63
330
1F
100
AcDbEntity
  8
SPOJOVACÍ
  6
Continuous
100
AcDbLine
 10
88.40609723025739
 20
281.9696618144137
 30
0.0
 11
88.18750591823084
 21
282.348243362698
 31
0.0
  0
LINE
  5
1B64
330
1F
100
AcDbEntity
  8
SPOJOVACÍ
  6
Continuous
100
AcDbLine
 10
88.40609723025739
 20
281.9696618144137
 30
0.0
 11
88.78374860338556
 21
282.348243362698
 31
0.0
  0
LINE
  5
1B65
330
1F
100
AcDbEntity
  8
SPOJOVACÍ
  6
Continuous
100
AcDbLine
 10
87.43313334795278
 20
286.0949914671567
 30
0.0
 11
87.05455179884632
 21
285.7173400962113
 31
0.0
  0
LINE
  5
1B66
330
1F
100
AcDbEntity
  8
SPOJOVACÍ
  6
Continuous
100
AcDbLine
 10
87.43313334795278
 20
286.0949914671567
 30
0.0
 11
87.65079448400104
 21
285.7173400962113
 31
0.0
  0
LINE
  5
1B67
330
1F
100
AcDbEntity
  8
SPOJOVACÍ
  6
Continuous
100
AcDbLine
 10
88.18750591823084
 20
282.348243362698
 30
0.0
 11
87.05455179884632
 21
285.7173400962113
 31
0.0
  0
LINE
  5
1B68
330
1F
100
AcDbEntity
  8
SPOJOVACÍ
  6
Continuous
100
AcDbLine
 10
88.78374860338556
 20
282.348243362698
 30
0.0
 11
87.65079448400104
 21
285.7173400962113
 31
0.0
  0
LINE
  5
1B69
330
1F
100
AcDbEntity
  8
SPOJOVACÍ
  6
Continuous
100
AcDbLine
 10
88.40609723025739
 20
281.9696618144137
 30
0.0
 11
87.43313334795278
 21
286.0949914671567
 31
0.0
  0
LINE
  5
1B6A
330
1F
100
AcDbEntity
  8
SPOJOVACÍ
  6
Continuous
100
AcDbLine
 10
85.39139747595948
 20
282.5342785205196
 30
0.0
 11
85.17373633991121
 21
282.9119298958305
 31
0.0
  0
LINE
  5
1B6B
330
1F
100
AcDbEntity
  8
SPOJOVACÍ
  6
Continuous
100
AcDbLine
 10
85.39139747595948
 20
282.5342785205196
 30
0.0
 11
85.76997902506594
 21
282.9119298958305
 31
0.0
  0
LINE
  5
1B6C
330
1F
100
AcDbEntity
  8
SPOJOVACÍ
  6
Continuous
100
AcDbLine
 10
84.7579477591895
 20
285.6503674369508
 30
0.0
 11
84.37936621035953
 21
285.2727160660054
 31
0.0
  0
LINE
  5
1B6D
330
1F
100
AcDbEntity
  8
SPOJOVACÍ
  6
Continuous
100
AcDbLine
 10
84.7579477591895
 20
285.6503674369508
 30
0.0
 11
84.97560889523777
 21
285.2727160660054
 31
0.0
  0
LINE
  5
1B6E
330
1F
100
AcDbEntity
  8
SPOJOVACÍ
  6
Continuous
100
AcDbLine
 10
85.17373633991121
 20
282.9119298958305
 30
0.0
 11
84.37936621035953
 21
285.2727160660054
 31
0.0
  0
LINE
  5
1B6F
330
1F
100
AcDbEntity
  8
SPOJOVACÍ
  6
Continuous
100
AcDbLine
 10
85.76997902506594
 20
282.9119298958305
 30
0.0
 11
84.97560889523777
 21
285.2727160660054
 31
0.0
  0
LINE
  5
1B70
330
1F
100
AcDbEntity
  8
SPOJOVACÍ
  6
Continuous
100
AcDbLine
 10
85.39139747595948
 20
282.5342785205196
 30
0.0
 11
84.7579477591895
 21
285.6503674369508
 31
0.0
  0
LINE
  5
1B71
330
1F
100
AcDbEntity
  8
SPOJOVACÍ
  6
Continuous
100
AcDbLine
 10
82.37762789763985
 20
283.098895230991
 30
0.0
 11
82.15903658562059
 21
283.4765466019364
 31
0.0
  0
LINE
  5
1B72
330
1F
100
AcDbEntity
  8
SPOJOVACÍ
  6
Continuous
100
AcDbLine
 10
82.37762789763985
 20
283.098895230991
 30
0.0
 11
82.75527927076803
 21
283.4765466019364
 31
0.0
  0
LINE
  5
1B73
330
1F
100
AcDbEntity
  8
SPOJOVACÍ
  6
Continuous
100
AcDbLine
 10
82.06694918186588
 20
285.2531823724478
 30
0.0
 11
81.68836763303591
 21
284.8755310015024
 31
0.0
  0
LINE
  5
1B74
330
1F
100
AcDbEntity
  8
SPOJOVACÍ
  6
Continuous
100
AcDbLine
 10
82.06694918186588
 20
285.2531823724478
 30
0.0
 11
82.28461031818335
 21
284.8755310015024
 31
0.0
  0
LINE
  5
1B75
330
1F
100
AcDbEntity
  8
SPOJOVACÍ
  6
Continuous
100
AcDbLine
 10
82.15903658562059
 20
283.4765466019364
 30
0.0
 11
81.68836763303591
 21
284.8755310015024
 31
0.0
  0
LINE
  5
1B76
330
1F
100
AcDbEntity
  8
SPOJOVACÍ
  6
Continuous
100
AcDbLine
 10
82.75527927076803
 20
283.4765466019364
 30
0.0
 11
82.28461031818335
 21
284.8755310015024
 31
0.0
  0
LINE
  5
1B77
330
1F
100
AcDbEntity
  8
SPOJOVACÍ
  6
Continuous
100
AcDbLine
 10
82.37762789763985
 20
283.098895230991
 30
0.0
 11
82.06694918186588
 21
285.2531823724478
 31
0.0
  0
LINE
  5
1B78
330
1F
100
AcDbEntity
  8
SPOJOVACÍ
  6
Continuous
100
AcDbLine
 10
97.72366817648038
 20
281.7157238199927
 30
0.0
 11
96.52374140001814
 21
286.5154309258416
 31
0.0
  0
LINE
  5
1B79
330
1F
100
AcDbEntity
  8
SPOJOVACÍ
  6
Continuous
100
AcDbLine
 10
97.72366817648038
 20
281.7157238199927
 30
0.0
 11
97.50507686445383
 21
282.0933751953037
 31
0.0
  0
LINE
  5
1B7A
330
1F
100
AcDbEntity
  8
SPOJOVACÍ
  6
Continuous
100
AcDbLine
 10
97.72366817648038
 20
281.7157238199927
 30
0.0
 11
98.10131954960855
 21
282.0933751953037
 31
0.0
  0
LINE
  5
1B7B
330
1F
100
AcDbEntity
  8
SPOJOVACÍ
  6
Continuous
100
AcDbLine
 10
96.52374140001814
 20
286.5154309258416
 30
0.0
 11
96.14515985118817
 21
286.1377795548963
 31
0.0
  0
LINE
  5
1B7C
330
1F
100
AcDbEntity
  8
SPOJOVACÍ
  6
Continuous
100
AcDbLine
 10
96.52374140001814
 20
286.5154309258416
 30
0.0
 11
96.74140253633561
 21
286.1377795548963
 31
0.0
  0
LINE
  5
1B7D
330
1F
100
AcDbEntity
  8
SPOJOVACÍ
  6
Continuous
100
AcDbLine
 10
97.50507686445383
 20
282.0933751953037
 30
0.0
 11
96.14515985118817
 21
286.1377795548963
 31
0.0
  0
LINE
  5
1B7E
330
1F
100
AcDbEntity
  8
SPOJOVACÍ
  6
Continuous
100
AcDbLine
 10
98.10131954960855
 20
282.0933751953037
 30
0.0
 11
96.74140253633561
 21
286.1377795548963
 31
0.0
  0
LINE
  5
1B7F
330
1F
100
AcDbEntity
  8
SPOJOVACÍ
  6
Continuous
100
AcDbLine
 10
94.60385855751122
 20
281.7157238199927
 30
0.0
 11
93.40393178104898
 21
286.5154309258416
 31
0.0
  0
LINE
  5
1B80
330
1F
100
AcDbEntity
  8
SPOJOVACÍ
  6
Continuous
100
AcDbLine
 10
94.60385855751122
 20
281.7157238199927
 30
0.0
 11
94.38526724549195
 21
282.0933751953037
 31
0.0
  0
LINE
  5
1B81
330
1F
100
AcDbEntity
  8
SPOJOVACÍ
  6
Continuous
100
AcDbLine
 10
94.60385855751122
 20
281.7157238199927
 30
0.0
 11
94.98150993063939
 21
282.0933751953037
 31
0.0
  0
LINE
  5
1B82
330
1F
100
AcDbEntity
  8
SPOJOVACÍ
  6
Continuous
100
AcDbLine
 10
93.40393178104898
 20
286.5154309258416
 30
0.0
 11
93.02535023221901
 21
286.1377795548963
 31
0.0
  0
LINE
  5
1B83
330
1F
100
AcDbEntity
  8
SPOJOVACÍ
  6
Continuous
100
AcDbLine
 10
93.40393178104898
 20
286.5154309258416
 30
0.0
 11
93.62159291709724
 21
286.1377795548963
 31
0.0
  0
LINE
  5
1B84
330
1F
100
AcDbEntity
  8
SPOJOVACÍ
  6
Continuous
100
AcDbLine
 10
94.38526724549195
 20
282.0933751953037
 30
0.0
 11
93.02535023221901
 21
286.1377795548963
 31
0.0
  0
LINE
  5
1B85
330
1F
100
AcDbEntity
  8
SPOJOVACÍ
  6
Continuous
100
AcDbLine
 10
94.98150993063939
 20
282.0933751953037
 30
0.0
 11
93.62159291709724
 21
286.1377795548963
 31
0.0
  0
LINE
  5
1B86
330
1F
100
AcDbEntity
  8
SPOJOVACÍ
  6
Continuous
100
AcDbLine
 10
91.48311876257105
 20
281.7157238199927
 30
0.0
 11
90.28319198610882
 21
286.5154309258416
 31
0.0
  0
LINE
  5
1B87
330
1F
100
AcDbEntity
  8
SPOJOVACÍ
  6
Continuous
100
AcDbLine
 10
91.48311876257105
 20
281.7157238199927
 30
0.0
 11
91.26545762652279
 21
282.0933751953037
 31
0.0
  0
LINE
  5
1B88
330
1F
100
AcDbEntity
  8
SPOJOVACÍ
  6
Continuous
100
AcDbLine
 10
91.48311876257105
 20
281.7157238199927
 30
0.0
 11
91.86170031167751
 21
282.0933751953037
 31
0.0
  0
LINE
  5
1B89
330
1F
100
AcDbEntity
  8
SPOJOVACÍ
  6
Continuous
100
AcDbLine
 10
90.28319198610882
 20
286.5154309258416
 30
0.0
 11
89.90554061298064
 21
286.1377795548963
 31
0.0
  0
LINE
  5
1B8A
330
1F
100
AcDbEntity
  8
SPOJOVACÍ
  6
Continuous
100
AcDbLine
 10
90.28319198610882
 20
286.5154309258416
 30
0.0
 11
90.50178329813537
 21
286.1377795548963
 31
0.0
  0
LINE
  5
1B8B
330
1F
100
AcDbEntity
  8
SPOJOVACÍ
  6
Continuous
100
AcDbLine
 10
91.26545762652279
 20
282.0933751953037
 30
0.0
 11
89.90554061298064
 21
286.1377795548963
 31
0.0
  0
LINE
  5
1B8C
330
1F
100
AcDbEntity
  8
SPOJOVACÍ
  6
Continuous
100
AcDbLine
 10
91.86170031167751
 20
282.0933751953037
 30
0.0
 11
90.50178329813537
 21
286.1377795548963
 31
0.0
  0
LINE
  5
1B8D
330
1F
100
AcDbEntity
  8
SPOJOVACÍ
  6
Continuous
100
AcDbLine
 10
62.43316256283981
 20
282.0933751953037
 30
0.0
 11
63.79307957638196
 21
286.1377795548963
 31
0.0
  0
LINE
  5
1B8E
330
1F
100
AcDbEntity
  8
SPOJOVACÍ
  6
Continuous
100
AcDbLine
 10
63.02940524799453
 20
282.0933751953037
 30
0.0
 11
64.38932226153667
 21
286.1377795548963
 31
0.0
  0
LINE
  5
1B8F
330
1F
100
AcDbEntity
  8
SPOJOVACÍ
  6
Continuous
100
AcDbLine
 10
64.0116708884085
 20
286.5154309258416
 30
0.0
 11
63.79307957638196
 21
286.1377795548963
 31
0.0
  0
LINE
  5
1B90
330
1F
100
AcDbEntity
  8
SPOJOVACÍ
  6
Continuous
100
AcDbLine
 10
64.0116708884085
 20
286.5154309258416
 30
0.0
 11
64.38932226153667
 21
286.1377795548963
 31
0.0
  0
LINE
  5
1B91
330
1F
100
AcDbEntity
  8
SPOJOVACÍ
  6
Continuous
100
AcDbLine
 10
62.81174411194626
 20
281.7157238199927
 30
0.0
 11
62.43316256283981
 21
282.0933751953037
 31
0.0
  0
LINE
  5
1B92
330
1F
100
AcDbEntity
  8
SPOJOVACÍ
  6
Continuous
100
AcDbLine
 10
62.81174411194626
 20
281.7157238199927
 30
0.0
 11
63.02940524799453
 21
282.0933751953037
 31
0.0
  0
LINE
  5
1B93
330
1F
100
AcDbEntity
  8
SPOJOVACÍ
  6
Continuous
100
AcDbLine
 10
62.81174411194626
 20
281.7157238199927
 30
0.0
 11
64.0116708884085
 21
286.5154309258416
 31
0.0
  0
LINE
  5
1B94
330
1F
100
AcDbEntity
  8
SPOJOVACÍ
  6
Continuous
100
AcDbLine
 10
59.31335294387793
 20
282.0933751953037
 30
0.0
 11
60.67326995742007
 21
286.1377795548963
 31
0.0
  0
LINE
  5
1B95
330
1F
100
AcDbEntity
  8
SPOJOVACÍ
  6
Continuous
100
AcDbLine
 10
59.90959562902538
 20
282.0933751953037
 30
0.0
 11
61.2695126422983
 21
286.1377795548963
 31
0.0
  0
LINE
  5
1B96
330
1F
100
AcDbEntity
  8
SPOJOVACÍ
  6
Continuous
100
AcDbLine
 10
60.89093109346833
 20
286.5154309258416
 30
0.0
 11
60.67326995742007
 21
286.1377795548963
 31
0.0
  0
LINE
  5
1B97
330
1F
100
AcDbEntity
  8
SPOJOVACÍ
  6
Continuous
100
AcDbLine
 10
60.89093109346833
 20
286.5154309258416
 30
0.0
 11
61.2695126422983
 21
286.1377795548963
 31
0.0
  0
LINE
  5
1B98
330
1F
100
AcDbEntity
  8
SPOJOVACÍ
  6
Continuous
100
AcDbLine
 10
59.6910043170061
 20
281.7157238199927
 30
0.0
 11
59.31335294387793
 21
282.0933751953037
 31
0.0
  0
LINE
  5
1B99
330
1F
100
AcDbEntity
  8
SPOJOVACÍ
  6
Continuous
100
AcDbLine
 10
59.6910043170061
 20
281.7157238199927
 30
0.0
 11
59.90959562902538
 21
282.0933751953037
 31
0.0
  0
LINE
  5
1B9A
330
1F
100
AcDbEntity
  8
SPOJOVACÍ
  6
Continuous
100
AcDbLine
 10
59.6910043170061
 20
281.7157238199927
 30
0.0
 11
60.89093109346833
 21
286.5154309258416
 31
0.0
  0
LINE
  5
1B9B
330
1F
100
AcDbEntity
  8
SPOJOVACÍ
  6
Continuous
100
AcDbLine
 10
56.19354332490877
 20
282.0933751953037
 30
0.0
 11
57.5534603381817
 21
286.1377795548963
 31
0.0
  0
LINE
  5
1B9C
330
1F
100
AcDbEntity
  8
SPOJOVACÍ
  6
Continuous
100
AcDbLine
 10
56.78978601006349
 20
282.0933751953037
 30
0.0
 11
58.14970302332915
 21
286.1377795548963
 31
0.0
  0
LINE
  5
1B9D
330
1F
100
AcDbEntity
  8
SPOJOVACÍ
  6
Continuous
100
AcDbLine
 10
57.77112147449918
 20
286.5154309258416
 30
0.0
 11
57.5534603381817
 21
286.1377795548963
 31
0.0
  0
LINE
  5
1B9E
330
1F
100
AcDbEntity
  8
SPOJOVACÍ
  6
Continuous
100
AcDbLine
 10
57.77112147449918
 20
286.5154309258416
 30
0.0
 11
58.14970302332915
 21
286.1377795548963
 31
0.0
  0
LINE
  5
1B9F
330
1F
100
AcDbEntity
  8
SPOJOVACÍ
  6
Continuous
100
AcDbLine
 10
56.57119469803695
 20
281.7157238199927
 30
0.0
 11
56.19354332490877
 21
282.0933751953037
 31
0.0
  0
LINE
  5
1BA0
330
1F
100
AcDbEntity
  8
SPOJOVACÍ
  6
Continuous
100
AcDbLine
 10
56.57119469803695
 20
281.7157238199927
 30
0.0
 11
56.78978601006349
 21
282.0933751953037
 31
0.0
  0
LINE
  5
1BA1
330
1F
100
AcDbEntity
  8
SPOJOVACÍ
  6
Continuous
100
AcDbLine
 10
56.57119469803695
 20
281.7157238199927
 30
0.0
 11
57.77112147449918
 21
286.5154309258416
 31
0.0
  0
LINE
  5
1BA2
330
1F
100
AcDbEntity
  8
SPOJOVACÍ
  6
Continuous
100
AcDbLine
 10
71.91723497687746
 20
283.098895230991
 30
0.0
 11
72.22791369265144
 21
285.2531823724478
 31
0.0
  0
LINE
  5
1BA3
330
1F
100
AcDbEntity
  8
SPOJOVACÍ
  6
Continuous
100
AcDbLine
 10
71.53958360374929
 20
283.4765466019364
 30
0.0
 11
72.01025255633396
 21
284.8755310015024
 31
0.0
  0
LINE
  5
1BA4
330
1F
100
AcDbEntity
  8
SPOJOVACÍ
  6
Continuous
100
AcDbLine
 10
72.13582628889674
 20
283.4765466019364
 30
0.0
 11
72.60649524148141
 21
284.8755310015024
 31
0.0
  0
LINE
  5
1BA5
330
1F
100
AcDbEntity
  8
SPOJOVACÍ
  6
Continuous
100
AcDbLine
 10
72.22791369265144
 20
285.2531823724478
 30
0.0
 11
72.01025255633396
 21
284.8755310015024
 31
0.0
  0
LINE
  5
1BA6
330
1F
100
AcDbEntity
  8
SPOJOVACÍ
  6
Continuous
100
AcDbLine
 10
72.22791369265144
 20
285.2531823724478
 30
0.0
 11
72.60649524148141
 21
284.8755310015024
 31
0.0
  0
LINE
  5
1BA7
330
1F
100
AcDbEntity
  8
SPOJOVACÍ
  6
Continuous
100
AcDbLine
 10
71.91723497687746
 20
283.098895230991
 30
0.0
 11
71.53958360374929
 21
283.4765466019364
 31
0.0
  0
LINE
  5
1BA8
330
1F
100
AcDbEntity
  8
SPOJOVACÍ
  6
Continuous
100
AcDbLine
 10
71.91723497687746
 20
283.098895230991
 30
0.0
 11
72.13582628889674
 21
283.4765466019364
 31
0.0
  0
LINE
  5
1BA9
330
1F
100
AcDbEntity
  8
SPOJOVACÍ
  6
Continuous
100
AcDbLine
 10
68.90346539855784
 20
282.5342785205196
 30
0.0
 11
69.53691511532781
 21
285.6503674369508
 31
0.0
  0
LINE
  5
1BAA
330
1F
100
AcDbEntity
  8
SPOJOVACÍ
  6
Continuous
100
AcDbLine
 10
68.52488384945139
 20
282.9119298958305
 30
0.0
 11
69.31925397927955
 21
285.2727160660054
 31
0.0
  0
LINE
  5
1BAB
330
1F
100
AcDbEntity
  8
SPOJOVACÍ
  6
Continuous
100
AcDbLine
 10
69.1211265346061
 20
282.9119298958305
 30
0.0
 11
69.91549666415778
 21
285.2727160660054
 31
0.0
  0
LINE
  5
1BAC
330
1F
100
AcDbEntity
  8
SPOJOVACÍ
  6
Continuous
100
AcDbLine
 10
69.53691511532781
 20
285.6503674369508
 30
0.0
 11
69.31925397927955
 21
285.2727160660054
 31
0.0
  0
LINE
  5
1BAD
330
1F
100
AcDbEntity
  8
SPOJOVACÍ
  6
Continuous
100
AcDbLine
 10
69.53691511532781
 20
285.6503674369508
 30
0.0
 11
69.91549666415778
 21
285.2727160660054
 31
0.0
  0
LINE
  5
1BAE
330
1F
100
AcDbEntity
  8
SPOJOVACÍ
  6
Continuous
100
AcDbLine
 10
68.90346539855784
 20
282.5342785205196
 30
0.0
 11
68.52488384945139
 21
282.9119298958305
 31
0.0
  0
LINE
  5
1BAF
330
1F
100
AcDbEntity
  8
SPOJOVACÍ
  6
Continuous
100
AcDbLine
 10
68.90346539855784
 20
282.5342785205196
 30
0.0
 11
69.1211265346061
 21
282.9119298958305
 31
0.0
  0
LINE
  5
1BB0
330
1F
100
AcDbEntity
  8
SPOJOVACÍ
  6
Continuous
100
AcDbLine
 10
65.88876564425993
 20
281.9696618144137
 30
0.0
 11
66.86172952656455
 21
286.0949914671567
 31
0.0
  0
LINE
  5
1BB1
330
1F
100
AcDbEntity
  8
SPOJOVACÍ
  6
Continuous
100
AcDbLine
 10
65.51111427113176
 20
282.348243362698
 30
0.0
 11
66.64406839051628
 21
285.7173400962113
 31
0.0
  0
LINE
  5
1BB2
330
1F
100
AcDbEntity
  8
SPOJOVACÍ
  6
Continuous
100
AcDbLine
 10
66.10735695628648
 20
282.348243362698
 30
0.0
 11
67.240311075671
 21
285.7173400962113
 31
0.0
  0
LINE
  5
1BB3
330
1F
100
AcDbEntity
  8
SPOJOVACÍ
  6
Continuous
100
AcDbLine
 10
66.86172952656455
 20
286.0949914671567
 30
0.0
 11
66.64406839051628
 21
285.7173400962113
 31
0.0
  0
LINE
  5
1BB4
330
1F
100
AcDbEntity
  8
SPOJOVACÍ
  6
Continuous
100
AcDbLine
 10
66.86172952656455
 20
286.0949914671567
 30
0.0
 11
67.240311075671
 21
285.7173400962113
 31
0.0
  0
LINE
  5
1BB5
330
1F
100
AcDbEntity
  8
SPOJOVACÍ
  6
Continuous
100
AcDbLine
 10
65.88876564425993
 20
281.9696618144137
 30
0.0
 11
65.51111427113176
 21
282.348243362698
 31
0.0
  0
LINE
  5
1BB6
330
1F
100
AcDbEntity
  8
SPOJOVACÍ
  6
Continuous
100
AcDbLine
 10
65.88876564425993
 20
281.9696618144137
 30
0.0
 11
66.10735695628648
 21
282.348243362698
 31
0.0
  0
LINE
  5
1BB7
330
1F
100
AcDbEntity
  8
SPOJOVACÍ
  6
Continuous
100
AcDbLine
 10
53.07373370567041
 20
282.0933751953037
 30
0.0
 11
54.43272054351075
 21
286.1377795548963
 31
0.0
  0
LINE
  5
1BB8
330
1F
100
AcDbEntity
  8
SPOJOVACÍ
  6
Continuous
100
AcDbLine
 10
53.66997639082512
 20
282.0933751953037
 30
0.0
 11
55.02896322838899
 21
286.1377795548963
 31
0.0
  0
LINE
  5
1BB9
330
1F
100
AcDbEntity
  8
SPOJOVACÍ
  6
Continuous
100
AcDbLine
 10
54.6513118555373
 20
286.5154309258416
 30
0.0
 11
54.43272054351075
 21
286.1377795548963
 31
0.0
  0
LINE
  5
1BBA
330
1F
100
AcDbEntity
  8
SPOJOVACÍ
  6
Continuous
100
AcDbLine
 10
54.6513118555373
 20
286.5154309258416
 30
0.0
 11
55.02896322838899
 21
286.1377795548963
 31
0.0
  0
LINE
  5
1BBB
330
1F
100
AcDbEntity
  8
SPOJOVACÍ
  6
Continuous
100
AcDbLine
 10
53.45138507879858
 20
281.7157238199927
 30
0.0
 11
53.07373370567041
 21
282.0933751953037
 31
0.0
  0
LINE
  5
1BBC
330
1F
100
AcDbEntity
  8
SPOJOVACÍ
  6
Continuous
100
AcDbLine
 10
53.45138507879858
 20
281.7157238199927
 30
0.0
 11
53.66997639082512
 21
282.0933751953037
 31
0.0
  0
LINE
  5
1BBD
330
1F
100
AcDbEntity
  8
SPOJOVACÍ
  6
Continuous
100
AcDbLine
 10
53.45138507879858
 20
281.7157238199927
 30
0.0
 11
54.6513118555373
 21
286.5154309258416
 31
0.0
  0
LINE
  5
1BBE
330
1F
100
AcDbEntity
  8
SPOJOVACÍ
  6
Continuous
100
AcDbLine
 10
49.95299391100672
 20
282.0933751953037
 30
0.0
 11
51.31291092427239
 21
286.1377795548963
 31
0.0
  0
LINE
  5
1BBF
330
1F
100
AcDbEntity
  8
SPOJOVACÍ
  6
Continuous
100
AcDbLine
 10
50.54923659588496
 20
282.0933751953037
 30
0.0
 11
51.9091536094271
 21
286.1377795548963
 31
0.0
  0
LINE
  5
1BC0
330
1F
100
AcDbEntity
  8
SPOJOVACÍ
  6
Continuous
100
AcDbLine
 10
51.53150223629893
 20
286.5154309258416
 30
0.0
 11
51.31291092427239
 21
286.1377795548963
 31
0.0
  0
LINE
  5
1BC1
330
1F
100
AcDbEntity
  8
SPOJOVACÍ
  6
Continuous
100
AcDbLine
 10
51.53150223629893
 20
286.5154309258416
 30
0.0
 11
51.9091536094271
 21
286.1377795548963
 31
0.0
  0
LINE
  5
1BC2
330
1F
100
AcDbEntity
  8
SPOJOVACÍ
  6
Continuous
100
AcDbLine
 10
50.33157545983669
 20
281.7157238199927
 30
0.0
 11
49.95299391100672
 21
282.0933751953037
 31
0.0
  0
LINE
  5
1BC3
330
1F
100
AcDbEntity
  8
SPOJOVACÍ
  6
Continuous
100
AcDbLine
 10
50.33157545983669
 20
281.7157238199927
 30
0.0
 11
50.54923659588496
 21
282.0933751953037
 31
0.0
  0
LINE
  5
1BC4
330
1F
100
AcDbEntity
  8
SPOJOVACÍ
  6
Continuous
100
AcDbLine
 10
50.33157545983669
 20
281.7157238199927
 30
0.0
 11
51.53150223629893
 21
286.5154309258416
 31
0.0
  0
LINE
  5
1BC5
330
1F
100
AcDbEntity
  8
SPOJOVACÍ
  6
Continuous
100
AcDbLine
 10
66.46733498916694
 20
285.2196960450003
 30
0.0
 11
64.49629247788073
 21
285.465262456468
 31
0.0
  0
LINE
  5
1BC6
330
1F
100
AcDbEntity
  8
SPOJOVACÍ
  6
Continuous
100
AcDbLine
 10
69.17414655506547
 20
284.881112052439
 30
0.0
 11
67.03753275221209
 21
285.1480725077765
 31
0.0
  0
LINE
  5
1BC7
330
1F
100
AcDbEntity
  8
SPOJOVACÍ
  6
Continuous
100
AcDbLine
 10
71.89119005449867
 20
284.5415978912699
 30
0.0
 11
69.74620466951421
 21
284.8094885195808
 31
0.0
  0
LINE
  5
1BC8
330
1F
100
AcDbEntity
  8
SPOJOVACÍ
  6
Continuous
100
AcDbLine
 10
72.20744982502913
 20
283.7295544190185
 30
0.0
 11
75.29656364283403
 21
284.1155773729172
 31
0.0
  0
LINE
  5
1BC9
330
1F
100
AcDbEntity
  8
SPOJOVACÍ
  6
Continuous
100
AcDbLine
 10
69.26623395882018
 20
283.3621349813386
 30
0.0
 11
71.5870225691757
 21
283.6523498264926
 31
0.0
  0
LINE
  5
1BCA
330
1F
100
AcDbEntity
  8
SPOJOVACÍ
  6
Continuous
100
AcDbLine
 10
66.313855983091
 20
282.9928551889809
 30
0.0
 11
68.63557476915559
 21
283.2830700385004
 31
0.0
  0
LINE
  5
1BCB
330
1F
100
AcDbEntity
  8
SPOJOVACÍ
  6
Continuous
100
AcDbLine
 10
75.29656364283403
 20
284.1155773729172
 30
0.0
 11
72.46045764156554
 21
284.4699743540461
 31
0.0
  0
LINE
  5
1BCC
330
1F
100
AcDbEntity
  8
SPOJOVACÍ
  6
Continuous
100
AcDbLine
 10
64.49629247788073
 20
282.7658922937319
 30
0.0
 11
65.69342872723757
 21
282.9156505964549
 31
0.0
  0
LINE
  5
1BCD
330
1F
100
AcDbEntity
  8
SPOJOVACÍ
  6
Continuous
100
AcDbLine
 10
64.15956883999718
 20
285.465262456468
 30
0.0
 11
64.49629247788073
 21
285.465262456468
 31
0.0
  0
LINE
  5
1BCE
330
1F
100
AcDbEntity
  8
SPOJOVACÍ
  6
Continuous
100
AcDbLine
 10
61.03696869338421
 20
285.465262456468
 30
0.0
 11
63.55588474841318
 21
285.465262456468
 31
0.0
  0
LINE
  5
1BCF
330
1F
100
AcDbEntity
  8
SPOJOVACÍ
  6
Continuous
100
AcDbLine
 10
63.24892673599208
 20
282.7658922937319
 30
0.0
 11
64.49629247788073
 21
282.7658922937319
 31
0.0
  0
LINE
  5
1BD0
330
1F
100
AcDbEntity
  8
SPOJOVACÍ
  6
Continuous
100
AcDbLine
 10
60.13469817151019
 20
282.7658922937319
 30
0.0
 11
62.65268405083737
 21
282.7658922937319
 31
0.0
  0
LINE
  5
1BD1
330
1F
100
AcDbEntity
  8
SPOJOVACÍ
  6
Continuous
100
AcDbLine
 10
57.91529872274224
 20
285.465262456468
 30
0.0
 11
60.43607512945129
 21
285.465262456468
 31
0.0
  0
LINE
  5
1BD2
330
1F
100
AcDbEntity
  8
SPOJOVACÍ
  6
Continuous
100
AcDbLine
 10
54.79269857639849
 20
285.465262456468
 30
0.0
 11
57.3209163892676
 21
285.465262456468
 31
0.0
  0
LINE
  5
1BD3
330
1F
100
AcDbEntity
  8
SPOJOVACÍ
  6
Continuous
100
AcDbLine
 10
51.6775398362148
 20
285.465262456468
 30
0.0
 11
54.19645589124377
 21
285.465262456468
 31
0.0
  0
LINE
  5
1BD4
330
1F
100
AcDbEntity
  8
SPOJOVACÍ
  6
Continuous
100
AcDbLine
 10
57.00186609135528
 20
282.7658922937319
 30
0.0
 11
59.53008390422439
 21
282.7658922937319
 31
0.0
  0
LINE
  5
1BD5
330
1F
100
AcDbEntity
  8
SPOJOVACÍ
  6
Continuous
100
AcDbLine
 10
53.88670735117159
 20
282.7658922937319
 30
0.0
 11
56.40748375788064
 21
282.7658922937319
 31
0.0
  0
LINE
  5
1BD6
330
1F
100
AcDbEntity
  8
SPOJOVACÍ
  6
Continuous
100
AcDbLine
 10
50.76410720482783
 20
282.7658922937319
 30
0.0
 11
53.2830232598568
 21
282.7658922937319
 31
0.0
  0
LINE
  5
1BD7
330
1F
100
AcDbEntity
  8
SPOJOVACÍ
  6
Continuous
100
AcDbLine
 10
46.13090156597138
 20
282.7658922937319
 30
0.0
 11
50.16879469565139
 21
282.7658922937319
 31
0.0
  0
LINE
  5
1BD8
330
1F
100
AcDbEntity
  8
SPOJOVACÍ
  6
Continuous
100
AcDbLine
 10
46.13090156597138
 20
285.465262456468
 30
0.0
 11
51.07385574490002
 21
285.465262456468
 31
0.0
  0
LINE
  5
1BD9
330
1F
100
AcDbEntity
  8
SPOJOVACÍ
  6
Continuous
100
AcDbLine
 10
40.73123107161484
 20
279.0154234842832
 30
0.0
 11
41.47537170808902
 21
280.3651085678341
 31
0.0
  0
LINE
  5
1BDA
330
1F
100
AcDbEntity
  8
SPOJOVACÍ
  6
Continuous
100
AcDbLine
 10
41.47537170808902
 20
280.3651085678341
 30
0.0
 11
42.54414369750122
 21
281.4757384681927
 31
0.0
  0
LINE
  5
1BDB
330
1F
100
AcDbEntity
  8
SPOJOVACÍ
  6
Continuous
100
AcDbLine
 10
42.54414369750122
 20
281.4757384681927
 30
0.0
 11
43.86313297579874
 21
282.2719689475109
 31
0.0
  0
LINE
  5
1BDC
330
1F
100
AcDbEntity
  8
SPOJOVACÍ
  6
Continuous
100
AcDbLine
 10
43.86313297579874
 20
282.2719689475109
 30
0.0
 11
45.34397284284898
 21
282.6998498118103
 31
0.0
  0
LINE
  5
1BDD
330
1F
100
AcDbEntity
  8
SPOJOVACÍ
  6
Continuous
100
AcDbLine
 10
45.34397284284898
 20
282.6998498118103
 30
0.0
 11
46.13090156597138
 21
282.7658922937319
 31
0.0
  0
LINE
  5
1BDE
330
1F
100
AcDbEntity
  8
SPOJOVACÍ
  6
Continuous
100
AcDbLine
 10
41.98603821994004
 20
287.2632922664836
 30
0.0
 11
41.06795470949839
 21
288.5004260753833
 31
0.0
  0
LINE
  5
1BDF
330
1F
100
AcDbEntity
  8
SPOJOVACÍ
  6
Continuous
100
AcDbLine
 10
41.06795470949839
 20
288.5004260753833
 30
0.0
 11
40.73123107161484
 21
289.2157312615511
 31
0.0
  0
LINE
  5
1BE0
330
1F
100
AcDbEntity
  8
SPOJOVACÍ
  6
Continuous
100
AcDbLine
 10
40.73123107161484
 20
279.0154234842832
 30
0.0
 11
40.73123107161484
 21
289.2157312615511
 31
0.0
  0
LINE
  5
1BE1
330
1F
100
AcDbEntity
  8
SPOJOVACÍ
  6
Continuous
100
AcDbLine
 10
39.53130429488339
 20
279.0154234842832
 30
0.0
 11
40.73123107161484
 21
279.0154234842832
 31
0.0
  0
LINE
  5
1BE2
330
1F
100
AcDbEntity
  8
SPOJOVACÍ
  6
Continuous
100
AcDbLine
 10
39.53130429488339
 20
279.0154234842832
 30
0.0
 11
39.53130429488339
 21
289.2157312615511
 31
0.0
  0
LINE
  5
1BE3
330
1F
100
AcDbEntity
  8
SPOJOVACÍ
  6
Continuous
100
AcDbLine
 10
39.53130429488339
 20
289.2157312615511
 30
0.0
 11
40.73123107161484
 21
289.2157312615511
 31
0.0
  0
LINE
  5
1BE4
330
1F
100
AcDbEntity
  8
SPOJOVACÍ
  6
Continuous
100
AcDbLine
 10
46.13090156597138
 20
285.465262456468
 30
0.0
 11
44.60727361254214
 21
285.6922253473515
 31
0.0
  0
LINE
  5
1BE5
330
1F
100
AcDbEntity
  8
SPOJOVACÍ
  6
Continuous
100
AcDbLine
 10
44.60727361254214
 20
285.6922253473515
 30
0.0
 11
43.19340640283883
 21
286.3052111964992
 31
0.0
  0
LINE
  5
1BE6
330
1F
100
AcDbEntity
  8
SPOJOVACÍ
  6
Continuous
100
AcDbLine
 10
43.19340640283883
 20
286.3052111964992
 30
0.0
 11
41.98603821994004
 21
287.2632922664836
 31
0.0
  0
LINE
  5
1BE7
330
1F
100
AcDbEntity
  8
POPIS
100
AcDbLine
 10
182.6441432651623
 20
60.96202315281181
 30
0.0
 11
78.16857621792554
 21
-22.84363036306393
 31
0.0
  0
LINE
  5
1BE8
330
1F
100
AcDbEntity
  8
POPIS
100
AcDbLine
 10
184.8933963006053
 20
135.0746639768788
 30
0.0
 11
92.0429078847734
 21
43.10835297762452
 31
0.0
  0
TEXT
  5
1BE9
330
1F
100
AcDbEntity
  8
POPIS
100
AcDbText
 10
190.0021146950926
 20
122.382269238133
 30
0.0
 40
25.0
  1
04
 41
0.85
  7
SIMPLEX7
100
AcDbText
  0
TEXT
  5
1BEA
330
1F
100
AcDbEntity
  8
POPIS
100
AcDbText
 10
190.0021146950926
 20
49.57225110715473
 30
0.0
 40
25.0
  1
06
 41
0.85
  7
SIMPLEX7
100
AcDbText
  0
INSERT
  5
1BEB
330
1F
100
AcDbEntity
  8
POPIS
100
AcDbBlockReference
  2
E_PUNKT
 10
92.01383955389941
 20
43.13596335325138
 30
0.0
 50
270.0
  0
INSERT
  5
1BEC
330
1F
100
AcDbEntity
  8
POPIS
100
AcDbBlockReference
  2
E_PUNKT
 10
78.13950788705153
 20
-22.81601998743707
 30
0.0
 50
270.0
  0
TEXT
  5
1BED
330
1F
100
AcDbEntity
  8
POPIS
100
AcDbText
 10
-63.16901088002885
 20
61.03123373334921
 30
0.0
 40
25.0
  1
05
 41
0.85
  7
SIMPLEX7
100
AcDbText
  0
LINE
  5
1BEE
330
1F
100
AcDbEntity
  8
STAVBA OBRYS
100
AcDbLine
 10
38.38454299719126
 20
2.727320598187645
 30
0.0
 11
-72.95548462666227
 21
2.727320598187645
 31
0.0
  0
LINE
  5
1BEF
330
1F
100
AcDbEntity
  8
STAVBA OBRYS
100
AcDbLine
 10
115.5806760272531
 20
-0.3364915253657159
 30
0.0
 11
114.7635585796339
 21
-0.3364915253657159
 31
0.0
  0
LINE
  5
1BF0
330
1F
100
AcDbEntity
  8
STAVBA OBRYS
100
AcDbLine
 10
38.80870687177196
 20
34.76277531563056
 30
0.0
 11
38.80870687177196
 21
4.762775315630563
 31
0.0
  0
LINE
  5
1BF1
330
1F
100
AcDbEntity
  8
STAVBA OBRYS
100
AcDbLine
 10
36.80870687177196
 20
34.76277531563056
 30
0.0
 11
38.80870687177196
 21
34.76277531563056
 31
0.0
  0
LINE
  5
1BF2
330
1F
100
AcDbEntity
  8
STAVBA OBRYS
100
AcDbLine
 10
36.80870687177196
 20
6.762775315630563
 30
0.0
 11
36.80870687177196
 21
34.76277531563056
 31
0.0
  0
LINE
  5
1BF3
330
1F
100
AcDbEntity
  8
STAVBA OBRYS
100
AcDbLine
 10
8.80870687177196
 20
6.762775315630563
 30
0.0
 11
36.80870687177196
 21
6.762775315630563
 31
0.0
  0
LINE
  5
1BF4
330
1F
100
AcDbEntity
  8
STAVBA OBRYS
100
AcDbLine
 10
8.80870687177196
 20
4.762775315630563
 30
0.0
 11
8.80870687177196
 21
6.762775315630563
 31
0.0
  0
LINE
  5
1BF5
330
1F
100
AcDbEntity
  8
STAVBA OBRYS
100
AcDbLine
 10
38.80870687177196
 20
4.762775315630563
 30
0.0
 11
8.80870687177196
 21
4.762775315630563
 31
0.0
  0
LINE
  5
1BF6
330
1F
100
AcDbEntity
  8
STAVBA OBRYS
  6
CIKCAK
 48
0.2
100
AcDbLine
 10
8.80870687177196
 20
5.380949688249813
 30
0.0
 11
-72.95176191180542
 21
5.380949688249813
 31
0.0
  0
LINE
  5
1BF7
330
1F
100
AcDbEntity
  8
STAVBA OBRYS
100
AcDbLine
 10
38.38454299719126
 20
0.5326591518281134
 30
0.0
 11
38.38454299719126
 21
4.762775315630563
 31
0.0
  0
LINE
  5
1BF8
330
1F
100
AcDbEntity
  8
STAVBA OBRYS
100
AcDbLine
 10
-72.960843079862
 20
0.5326591518281134
 30
0.0
 11
38.38454299719126
 21
0.5326591518281134
 31
0.0
  0
LINE
  5
1BF9
330
1F
100
AcDbEntity
  8
STAVBA OBRYS
100
AcDbLine
 10
-73.08154928885085
 20
-1.21396522709773
 30
0.0
 11
326.1912384714738
 21
-1.21396522709773
 31
0.0
  0
LINE
  5
1BFA
330
1F
100
AcDbEntity
  8
CETRIS
100
AcDbLine
 10
102.7635585796339
 20
3.185629302270456
 30
0.0
 11
114.7635585796339
 21
3.185629302274094
 31
0.0
  0
LINE
  5
1BFB
330
1F
100
AcDbEntity
  8
CETRIS
100
AcDbLine
 10
39.53130429488339
 20
3.185629302270456
 30
0.0
 11
51.53130429488339
 21
3.185629302270456
 31
0.0
  0
LINE
  5
1BFC
330
1F
100
AcDbEntity
  8
izolace
  6
IZOLACE
 48
1.5
100
AcDbLine
 10
77.28855316787633
 20
51.61497569394334
 30
0.0
 11
77.28855316787633
 21
338.2457135593597
 31
0.0
  0
LINE
  5
1BFD
330
1F
100
AcDbEntity
  8
SPOJOVACÍ
  6
Continuous
100
AcDbLine
 10
91.86170031167751
 20
32.09337519530373
 30
0.0
 11
90.50178329813537
 21
36.13777955489632
 31
0.0
  0
LINE
  5
1BFE
330
1F
100
AcDbEntity
  8
SPOJOVACÍ
  6
Continuous
100
AcDbLine
 10
91.26545762652279
 20
32.09337519530373
 30
0.0
 11
89.90554061298064
 21
36.13777955489632
 31
0.0
  0
LINE
  5
1BFF
330
1F
100
AcDbEntity
  8
SPOJOVACÍ
  6
Continuous
100
AcDbLine
 10
90.28319198610882
 20
36.51543092584171
 30
0.0
 11
90.50178329813537
 21
36.13777955489632
 31
0.0
  0
LINE
  5
1C00
330
1F
100
AcDbEntity
  8
SPOJOVACÍ
  6
Continuous
100
AcDbLine
 10
90.28319198610882
 20
36.51543092584171
 30
0.0
 11
89.90554061298064
 21
36.13777955489632
 31
0.0
  0
LINE
  5
1C01
330
1F
100
AcDbEntity
  8
SPOJOVACÍ
  6
Continuous
100
AcDbLine
 10
91.48311876257105
 20
31.71572381999277
 30
0.0
 11
91.86170031167751
 21
32.09337519530373
 31
0.0
  0
LINE
  5
1C02
330
1F
100
AcDbEntity
  8
SPOJOVACÍ
  6
Continuous
100
AcDbLine
 10
91.48311876257105
 20
31.71572381999277
 30
0.0
 11
91.26545762652279
 21
32.09337519530373
 31
0.0
  0
LINE
  5
1C03
330
1F
100
AcDbEntity
  8
SPOJOVACÍ
  6
Continuous
100
AcDbLine
 10
91.48311876257105
 20
31.71572381999277
 30
0.0
 11
90.28319198610882
 21
36.51543092584171
 31
0.0
  0
LINE
  5
1C04
330
1F
100
AcDbEntity
  8
SPOJOVACÍ
  6
Continuous
100
AcDbLine
 10
94.98150993063939
 20
32.09337519530373
 30
0.0
 11
93.62159291709724
 21
36.13777955489632
 31
0.0
  0
LINE
  5
1C05
330
1F
100
AcDbEntity
  8
SPOJOVACÍ
  6
Continuous
100
AcDbLine
 10
94.38526724549195
 20
32.09337519530373
 30
0.0
 11
93.02535023221901
 21
36.13777955489632
 31
0.0
  0
LINE
  5
1C06
330
1F
100
AcDbEntity
  8
SPOJOVACÍ
  6
Continuous
100
AcDbLine
 10
93.40393178104898
 20
36.51543092584171
 30
0.0
 11
93.62159291709724
 21
36.13777955489632
 31
0.0
  0
LINE
  5
1C07
330
1F
100
AcDbEntity
  8
SPOJOVACÍ
  6
Continuous
100
AcDbLine
 10
93.40393178104898
 20
36.51543092584171
 30
0.0
 11
93.02535023221901
 21
36.13777955489632
 31
0.0
  0
LINE
  5
1C08
330
1F
100
AcDbEntity
  8
SPOJOVACÍ
  6
Continuous
100
AcDbLine
 10
94.60385855751122
 20
31.71572381999277
 30
0.0
 11
94.98150993063939
 21
32.09337519530373
 31
0.0
  0
LINE
  5
1C09
330
1F
100
AcDbEntity
  8
SPOJOVACÍ
  6
Continuous
100
AcDbLine
 10
94.60385855751122
 20
31.71572381999277
 30
0.0
 11
94.38526724549195
 21
32.09337519530373
 31
0.0
  0
LINE
  5
1C0A
330
1F
100
AcDbEntity
  8
SPOJOVACÍ
  6
Continuous
100
AcDbLine
 10
94.60385855751122
 20
31.71572381999277
 30
0.0
 11
93.40393178104898
 21
36.51543092584171
 31
0.0
  0
LINE
  5
1C0B
330
1F
100
AcDbEntity
  8
SPOJOVACÍ
  6
Continuous
100
AcDbLine
 10
98.10131954960855
 20
32.09337519530373
 30
0.0
 11
96.74140253633561
 21
36.13777955489632
 31
0.0
  0
LINE
  5
1C0C
330
1F
100
AcDbEntity
  8
SPOJOVACÍ
  6
Continuous
100
AcDbLine
 10
97.50507686445383
 20
32.09337519530373
 30
0.0
 11
96.14515985118817
 21
36.13777955489632
 31
0.0
  0
LINE
  5
1C0D
330
1F
100
AcDbEntity
  8
SPOJOVACÍ
  6
Continuous
100
AcDbLine
 10
96.52374140001814
 20
36.51543092584171
 30
0.0
 11
96.74140253633561
 21
36.13777955489632
 31
0.0
  0
LINE
  5
1C0E
330
1F
100
AcDbEntity
  8
SPOJOVACÍ
  6
Continuous
100
AcDbLine
 10
96.52374140001814
 20
36.51543092584171
 30
0.0
 11
96.14515985118817
 21
36.13777955489632
 31
0.0
  0
LINE
  5
1C0F
330
1F
100
AcDbEntity
  8
SPOJOVACÍ
  6
Continuous
100
AcDbLine
 10
97.72366817648038
 20
31.71572381999277
 30
0.0
 11
98.10131954960855
 21
32.09337519530373
 31
0.0
  0
LINE
  5
1C10
330
1F
100
AcDbEntity
  8
SPOJOVACÍ
  6
Continuous
100
AcDbLine
 10
97.72366817648038
 20
31.71572381999277
 30
0.0
 11
97.50507686445383
 21
32.09337519530373
 31
0.0
  0
LINE
  5
1C11
330
1F
100
AcDbEntity
  8
SPOJOVACÍ
  6
Continuous
100
AcDbLine
 10
97.72366817648038
 20
31.71572381999277
 30
0.0
 11
96.52374140001814
 21
36.51543092584171
 31
0.0
  0
LINE
  5
1C12
330
1F
100
AcDbEntity
  8
SPOJOVACÍ
  6
Continuous
100
AcDbLine
 10
82.37762789763985
 20
33.0988952309911
 30
0.0
 11
82.06694918186588
 21
35.25318237244784
 31
0.0
  0
LINE
  5
1C13
330
1F
100
AcDbEntity
  8
SPOJOVACÍ
  6
Continuous
100
AcDbLine
 10
82.75527927076803
 20
33.47654660193649
 30
0.0
 11
82.28461031818335
 21
34.87553100150245
 31
0.0
  0
LINE
  5
1C14
330
1F
100
AcDbEntity
  8
SPOJOVACÍ
  6
Continuous
100
AcDbLine
 10
82.15903658562059
 20
33.47654660193649
 30
0.0
 11
81.68836763303591
 21
34.87553100150245
 31
0.0
  0
LINE
  5
1C15
330
1F
100
AcDbEntity
  8
SPOJOVACÍ
  6
Continuous
100
AcDbLine
 10
82.06694918186588
 20
35.25318237244784
 30
0.0
 11
82.28461031818335
 21
34.87553100150245
 31
0.0
  0
LINE
  5
1C16
330
1F
100
AcDbEntity
  8
SPOJOVACÍ
  6
Continuous
100
AcDbLine
 10
82.06694918186588
 20
35.25318237244784
 30
0.0
 11
81.68836763303591
 21
34.87553100150245
 31
0.0
  0
LINE
  5
1C17
330
1F
100
AcDbEntity
  8
SPOJOVACÍ
  6
Continuous
100
AcDbLine
 10
82.37762789763985
 20
33.0988952309911
 30
0.0
 11
82.75527927076803
 21
33.47654660193649
 31
0.0
  0
LINE
  5
1C18
330
1F
100
AcDbEntity
  8
SPOJOVACÍ
  6
Continuous
100
AcDbLine
 10
82.37762789763985
 20
33.0988952309911
 30
0.0
 11
82.15903658562059
 21
33.47654660193649
 31
0.0
  0
LINE
  5
1C19
330
1F
100
AcDbEntity
  8
SPOJOVACÍ
  6
Continuous
100
AcDbLine
 10
85.39139747595948
 20
32.53427852051965
 30
0.0
 11
84.7579477591895
 21
35.65036743695083
 31
0.0
  0
LINE
  5
1C1A
330
1F
100
AcDbEntity
  8
SPOJOVACÍ
  6
Continuous
100
AcDbLine
 10
85.76997902506594
 20
32.91192989583061
 30
0.0
 11
84.97560889523777
 21
35.27271606600544
 31
0.0
  0
LINE
  5
1C1B
330
1F
100
AcDbEntity
  8
SPOJOVACÍ
  6
Continuous
100
AcDbLine
 10
85.17373633991121
 20
32.91192989583061
 30
0.0
 11
84.37936621035953
 21
35.27271606600544
 31
0.0
  0
LINE
  5
1C1C
330
1F
100
AcDbEntity
  8
SPOJOVACÍ
  6
Continuous
100
AcDbLine
 10
84.7579477591895
 20
35.65036743695083
 30
0.0
 11
84.97560889523777
 21
35.27271606600544
 31
0.0
  0
LINE
  5
1C1D
330
1F
100
AcDbEntity
  8
SPOJOVACÍ
  6
Continuous
100
AcDbLine
 10
84.7579477591895
 20
35.65036743695083
 30
0.0
 11
84.37936621035953
 21
35.27271606600544
 31
0.0
  0
LINE
  5
1C1E
330
1F
100
AcDbEntity
  8
SPOJOVACÍ
  6
Continuous
100
AcDbLine
 10
85.39139747595948
 20
32.53427852051965
 30
0.0
 11
85.76997902506594
 21
32.91192989583061
 31
0.0
  0
LINE
  5
1C1F
330
1F
100
AcDbEntity
  8
SPOJOVACÍ
  6
Continuous
100
AcDbLine
 10
85.39139747595948
 20
32.53427852051965
 30
0.0
 11
85.17373633991121
 21
32.91192989583061
 31
0.0
  0
LINE
  5
1C20
330
1F
100
AcDbEntity
  8
SPOJOVACÍ
  6
Continuous
100
AcDbLine
 10
88.40609723025739
 20
31.96966181441377
 30
0.0
 11
87.43313334795278
 21
36.09499146715672
 31
0.0
  0
LINE
  5
1C21
330
1F
100
AcDbEntity
  8
SPOJOVACÍ
  6
Continuous
100
AcDbLine
 10
88.78374860338556
 20
32.34824336269804
 30
0.0
 11
87.65079448400104
 21
35.71734009621133
 31
0.0
  0
LINE
  5
1C22
330
1F
100
AcDbEntity
  8
SPOJOVACÍ
  6
Continuous
100
AcDbLine
 10
88.18750591823084
 20
32.34824336269804
 30
0.0
 11
87.05455179884632
 21
35.71734009621133
 31
0.0
  0
LINE
  5
1C23
330
1F
100
AcDbEntity
  8
SPOJOVACÍ
  6
Continuous
100
AcDbLine
 10
87.43313334795278
 20
36.09499146715672
 30
0.0
 11
87.65079448400104
 21
35.71734009621133
 31
0.0
  0
LINE
  5
1C24
330
1F
100
AcDbEntity
  8
SPOJOVACÍ
  6
Continuous
100
AcDbLine
 10
87.43313334795278
 20
36.09499146715672
 30
0.0
 11
87.05455179884632
 21
35.71734009621133
 31
0.0
  0
LINE
  5
1C25
330
1F
100
AcDbEntity
  8
SPOJOVACÍ
  6
Continuous
100
AcDbLine
 10
88.40609723025739
 20
31.96966181441377
 30
0.0
 11
88.78374860338556
 21
32.34824336269804
 31
0.0
  0
LINE
  5
1C26
330
1F
100
AcDbEntity
  8
SPOJOVACÍ
  6
Continuous
100
AcDbLine
 10
88.40609723025739
 20
31.96966181441377
 30
0.0
 11
88.18750591823084
 21
32.34824336269804
 31
0.0
  0
LINE
  5
1C27
330
1F
100
AcDbEntity
  8
SPOJOVACÍ
  6
Continuous
100
AcDbLine
 10
101.2211291688469
 20
32.09337519530373
 30
0.0
 11
99.86214233100657
 21
36.13777955489632
 31
0.0
  0
LINE
  5
1C28
330
1F
100
AcDbEntity
  8
SPOJOVACÍ
  6
Continuous
100
AcDbLine
 10
100.6248864836921
 20
32.09337519530373
 30
0.0
 11
99.26589964612833
 21
36.13777955489632
 31
0.0
  0
LINE
  5
1C29
330
1F
100
AcDbEntity
  8
SPOJOVACÍ
  6
Continuous
100
AcDbLine
 10
99.64355101898002
 20
36.51543092584171
 30
0.0
 11
99.86214233100657
 21
36.13777955489632
 31
0.0
  0
LINE
  5
1C2A
330
1F
100
AcDbEntity
  8
SPOJOVACÍ
  6
Continuous
100
AcDbLine
 10
99.64355101898002
 20
36.51543092584171
 30
0.0
 11
99.26589964612833
 21
36.13777955489632
 31
0.0
  0
LINE
  5
1C2B
330
1F
100
AcDbEntity
  8
SPOJOVACÍ
  6
Continuous
100
AcDbLine
 10
100.8434777957187
 20
31.71572381999277
 30
0.0
 11
101.2211291688469
 21
32.09337519530373
 31
0.0
  0
LINE
  5
1C2C
330
1F
100
AcDbEntity
  8
SPOJOVACÍ
  6
Continuous
100
AcDbLine
 10
100.8434777957187
 20
31.71572381999277
 30
0.0
 11
100.6248864836921
 21
32.09337519530373
 31
0.0
  0
LINE
  5
1C2D
330
1F
100
AcDbEntity
  8
SPOJOVACÍ
  6
Continuous
100
AcDbLine
 10
100.8434777957187
 20
31.71572381999277
 30
0.0
 11
99.64355101898002
 21
36.51543092584171
 31
0.0
  0
LINE
  5
1C2E
330
1F
100
AcDbEntity
  8
SPOJOVACÍ
  6
Continuous
100
AcDbLine
 10
104.3418689635105
 20
32.09337519530373
 30
0.0
 11
102.9819519502449
 21
36.13777955489632
 31
0.0
  0
LINE
  5
1C2F
330
1F
100
AcDbEntity
  8
SPOJOVACÍ
  6
Continuous
100
AcDbLine
 10
103.7456262786323
 20
32.09337519530373
 30
0.0
 11
102.3857092650902
 21
36.13777955489632
 31
0.0
  0
LINE
  5
1C30
330
1F
100
AcDbEntity
  8
SPOJOVACÍ
  6
Continuous
100
AcDbLine
 10
102.7633606382183
 20
36.51543092584171
 30
0.0
 11
102.9819519502449
 21
36.13777955489632
 31
0.0
  0
LINE
  5
1C31
330
1F
100
AcDbEntity
  8
SPOJOVACÍ
  6
Continuous
100
AcDbLine
 10
102.7633606382183
 20
36.51543092584171
 30
0.0
 11
102.3857092650902
 21
36.13777955489632
 31
0.0
  0
LINE
  5
1C32
330
1F
100
AcDbEntity
  8
SPOJOVACÍ
  6
Continuous
100
AcDbLine
 10
103.9632874146806
 20
31.71572381999277
 30
0.0
 11
104.3418689635105
 21
32.09337519530373
 31
0.0
  0
LINE
  5
1C33
330
1F
100
AcDbEntity
  8
SPOJOVACÍ
  6
Continuous
100
AcDbLine
 10
103.9632874146806
 20
31.71572381999277
 30
0.0
 11
103.7456262786323
 21
32.09337519530373
 31
0.0
  0
LINE
  5
1C34
330
1F
100
AcDbEntity
  8
SPOJOVACÍ
  6
Continuous
100
AcDbLine
 10
103.9632874146806
 20
31.71572381999277
 30
0.0
 11
102.7633606382183
 21
36.51543092584171
 31
0.0
  0
LINE
  5
1C35
330
1F
100
AcDbEntity
  8
SPOJOVACÍ
  6
Continuous
100
AcDbLine
 10
87.82752788535038
 20
35.21969604500037
 30
0.0
 11
89.79857039663659
 21
35.46526245646811
 31
0.0
  0
LINE
  5
1C36
330
1F
100
AcDbEntity
  8
SPOJOVACÍ
  6
Continuous
100
AcDbLine
 10
85.12071631945184
 20
34.88111205243905
 30
0.0
 11
87.25733012230524
 21
35.14807250777659
 31
0.0
  0
LINE
  5
1C37
330
1F
100
AcDbEntity
  8
SPOJOVACÍ
  6
Continuous
100
AcDbLine
 10
82.40367282001864
 20
34.54159789126999
 30
0.0
 11
84.54865820500311
 21
34.80948851958084
 31
0.0
  0
LINE
  5
1C38
330
1F
100
AcDbEntity
  8
SPOJOVACÍ
  6
Continuous
100
AcDbLine
 10
82.08741304948819
 20
33.7295544190186
 30
0.0
 11
78.99829923168329
 21
34.11557737291724
 31
0.0
  0
LINE
  5
1C39
330
1F
100
AcDbEntity
  8
SPOJOVACÍ
  6
Continuous
100
AcDbLine
 10
85.02862891569714
 20
33.36213498133867
 30
0.0
 11
82.70784030534162
 21
33.65234982649264
 31
0.0
  0
LINE
  5
1C3A
330
1F
100
AcDbEntity
  8
SPOJOVACÍ
  6
Continuous
100
AcDbLine
 10
87.98100689142632
 20
32.99285518898097
 30
0.0
 11
85.65928810536172
 21
33.28307003850051
 31
0.0
  0
LINE
  5
1C3B
330
1F
100
AcDbEntity
  8
SPOJOVACÍ
  6
Continuous
100
AcDbLine
 10
78.99829923168329
 20
34.11557737291724
 30
0.0
 11
81.83440523295178
 21
34.4699743540462
 31
0.0
  0
LINE
  5
1C3C
330
1F
100
AcDbEntity
  8
SPOJOVACÍ
  6
Continuous
100
AcDbLine
 10
89.79857039663659
 20
32.76589229373195
 30
0.0
 11
88.60143414727975
 21
32.91565059645501
 31
0.0
  0
LINE
  5
1C3D
330
1F
100
AcDbEntity
  8
SPOJOVACÍ
  6
Continuous
100
AcDbLine
 10
90.13529403452015
 20
35.46526245646811
 30
0.0
 11
89.79857039663659
 21
35.46526245646811
 31
0.0
  0
LINE
  5
1C3E
330
1F
100
AcDbEntity
  8
SPOJOVACÍ
  6
Continuous
100
AcDbLine
 10
93.25789418113311
 20
35.46526245646811
 30
0.0
 11
90.73897812610415
 21
35.46526245646811
 31
0.0
  0
LINE
  5
1C3F
330
1F
100
AcDbEntity
  8
SPOJOVACÍ
  6
Continuous
100
AcDbLine
 10
91.04593613852523
 20
32.76589229373195
 30
0.0
 11
89.79857039663659
 21
32.76589229373195
 31
0.0
  0
LINE
  5
1C40
330
1F
100
AcDbEntity
  8
SPOJOVACÍ
  6
Continuous
100
AcDbLine
 10
94.16016470300712
 20
32.76589229373195
 30
0.0
 11
91.64217882367996
 21
32.76589229373195
 31
0.0
  0
LINE
  5
1C41
330
1F
100
AcDbEntity
  8
SPOJOVACÍ
  6
Continuous
100
AcDbLine
 10
96.37956415177507
 20
35.46526245646811
 30
0.0
 11
93.85878774506602
 21
35.46526245646811
 31
0.0
  0
LINE
  5
1C42
330
1F
100
AcDbEntity
  8
SPOJOVACÍ
  6
Continuous
100
AcDbLine
 10
99.50216429811883
 20
35.46526245646811
 30
0.0
 11
96.97394648524971
 21
35.46526245646811
 31
0.0
  0
LINE
  5
1C43
330
1F
100
AcDbEntity
  8
SPOJOVACÍ
  6
Continuous
100
AcDbLine
 10
102.6173230383025
 20
35.46526245646811
 30
0.0
 11
100.0984069832735
 21
35.46526245646811
 31
0.0
  0
LINE
  5
1C44
330
1F
100
AcDbEntity
  8
SPOJOVACÍ
  6
Continuous
100
AcDbLine
 10
97.29299678316204
 20
32.76589229373195
 30
0.0
 11
94.76477897029292
 21
32.76589229373195
 31
0.0
  0
LINE
  5
1C45
330
1F
100
AcDbEntity
  8
SPOJOVACÍ
  6
Continuous
100
AcDbLine
 10
100.4081555233457
 20
32.76589229373195
 30
0.0
 11
97.88737911663668
 21
32.76589229373195
 31
0.0
  0
LINE
  5
1C46
330
1F
100
AcDbEntity
  8
SPOJOVACÍ
  6
Continuous
100
AcDbLine
 10
103.5307556696894
 20
32.76589229373195
 30
0.0
 11
101.0118396146605
 21
32.76589229373195
 31
0.0
  0
LINE
  5
1C47
330
1F
100
AcDbEntity
  8
SPOJOVACÍ
  6
Continuous
100
AcDbLine
 10
108.1639613085459
 20
32.76589229373195
 30
0.0
 11
104.1260681788659
 21
32.76589229373195
 31
0.0
  0
LINE
  5
1C48
330
1F
100
AcDbEntity
  8
SPOJOVACÍ
  6
Continuous
100
AcDbLine
 10
108.1639613085459
 20
35.46526245646811
 30
0.0
 11
103.2210071296173
 21
35.46526245646811
 31
0.0
  0
LINE
  5
1C49
330
1F
100
AcDbEntity
  8
SPOJOVACÍ
  6
Continuous
100
AcDbLine
 10
113.5636318029024
 20
29.0154234842833
 30
0.0
 11
112.8194911664282
 21
30.36510856783417
 31
0.0
  0
LINE
  5
1C4A
330
1F
100
AcDbEntity
  8
SPOJOVACÍ
  6
Continuous
100
AcDbLine
 10
112.8194911664282
 20
30.36510856783417
 30
0.0
 11
111.750719177016
 21
31.47573846819279
 31
0.0
  0
LINE
  5
1C4B
330
1F
100
AcDbEntity
  8
SPOJOVACÍ
  6
Continuous
100
AcDbLine
 10
111.750719177016
 20
31.47573846819279
 30
0.0
 11
110.4317298987185
 21
32.27196894751097
 31
0.0
  0
LINE
  5
1C4C
330
1F
100
AcDbEntity
  8
SPOJOVACÍ
  6
Continuous
100
AcDbLine
 10
110.4317298987185
 20
32.27196894751097
 30
0.0
 11
108.9508900316683
 21
32.69984981181034
 31
0.0
  0
LINE
  5
1C4D
330
1F
100
AcDbEntity
  8
SPOJOVACÍ
  6
Continuous
100
AcDbLine
 10
108.9508900316683
 20
32.69984981181034
 30
0.0
 11
108.1639613085459
 21
32.76589229373195
 31
0.0
  0
LINE
  5
1C4E
330
1F
100
AcDbEntity
  8
SPOJOVACÍ
  6
Continuous
100
AcDbLine
 10
112.3088246545772
 20
37.26329226648369
 30
0.0
 11
113.2269081650189
 21
38.50042607538336
 31
0.0
  0
LINE
  5
1C4F
330
1F
100
AcDbEntity
  8
SPOJOVACÍ
  6
Continuous
100
AcDbLine
 10
113.2269081650189
 20
38.50042607538336
 30
0.0
 11
113.5636318029024
 21
39.21573126155118
 31
0.0
  0
LINE
  5
1C50
330
1F
100
AcDbEntity
  8
SPOJOVACÍ
  6
Continuous
100
AcDbLine
 10
113.5636318029024
 20
29.0154234842833
 30
0.0
 11
113.5636318029024
 21
39.21573126155118
 31
0.0
  0
LINE
  5
1C51
330
1F
100
AcDbEntity
  8
SPOJOVACÍ
  6
Continuous
100
AcDbLine
 10
114.7635585796339
 20
29.0154234842833
 30
0.0
 11
113.5636318029024
 21
29.0154234842833
 31
0.0
  0
LINE
  5
1C52
330
1F
100
AcDbEntity
  8
SPOJOVACÍ
  6
Continuous
100
AcDbLine
 10
114.7635585796339
 20
29.0154234842833
 30
0.0
 11
114.7635585796339
 21
39.21573126155118
 31
0.0
  0
LINE
  5
1C53
330
1F
100
AcDbEntity
  8
SPOJOVACÍ
  6
Continuous
100
AcDbLine
 10
114.7635585796339
 20
39.21573126155118
 30
0.0
 11
113.5636318029024
 21
39.21573126155118
 31
0.0
  0
LINE
  5
1C54
330
1F
100
AcDbEntity
  8
SPOJOVACÍ
  6
Continuous
100
AcDbLine
 10
108.1639613085459
 20
35.46526245646811
 30
0.0
 11
109.6875892619751
 21
35.69222534735155
 31
0.0
  0
LINE
  5
1C55
330
1F
100
AcDbEntity
  8
SPOJOVACÍ
  6
Continuous
100
AcDbLine
 10
109.6875892619751
 20
35.69222534735155
 30
0.0
 11
111.1014564716784
 21
36.30521119649921
 31
0.0
  0
LINE
  5
1C56
330
1F
100
AcDbEntity
  8
SPOJOVACÍ
  6
Continuous
100
AcDbLine
 10
111.1014564716784
 20
36.30521119649921
 30
0.0
 11
112.3088246545772
 21
37.26329226648369
 31
0.0
  0
LINE
  5
1C57
330
1F
100
AcDbEntity
  8
SPOJOVACÍ
  6
Continuous
100
AcDbLine
 10
43.19340640283883
 20
36.30521119649921
 30
0.0
 11
41.98603821994004
 21
37.26329226648369
 31
0.0
  0
LINE
  5
1C58
330
1F
100
AcDbEntity
  8
SPOJOVACÍ
  6
Continuous
100
AcDbLine
 10
44.60727361254214
 20
35.69222534735155
 30
0.0
 11
43.19340640283883
 21
36.30521119649921
 31
0.0
  0
LINE
  5
1C59
330
1F
100
AcDbEntity
  8
SPOJOVACÍ
  6
Continuous
100
AcDbLine
 10
46.13090156597138
 20
35.46526245646811
 30
0.0
 11
44.60727361254214
 21
35.69222534735155
 31
0.0
  0
LINE
  5
1C5A
330
1F
100
AcDbEntity
  8
SPOJOVACÍ
  6
Continuous
100
AcDbLine
 10
39.53130429488339
 20
39.21573126155118
 30
0.0
 11
40.73123107161484
 21
39.21573126155118
 31
0.0
  0
LINE
  5
1C5B
330
1F
100
AcDbEntity
  8
SPOJOVACÍ
  6
Continuous
100
AcDbLine
 10
39.53130429488339
 20
29.0154234842833
 30
0.0
 11
39.53130429488339
 21
39.21573126155118
 31
0.0
  0
LINE
  5
1C5C
330
1F
100
AcDbEntity
  8
SPOJOVACÍ
  6
Continuous
100
AcDbLine
 10
39.53130429488339
 20
29.0154234842833
 30
0.0
 11
40.73123107161484
 21
29.0154234842833
 31
0.0
  0
LINE
  5
1C5D
330
1F
100
AcDbEntity
  8
SPOJOVACÍ
  6
Continuous
100
AcDbLine
 10
40.73123107161484
 20
29.0154234842833
 30
0.0
 11
40.73123107161484
 21
39.21573126155118
 31
0.0
  0
LINE
  5
1C5E
330
1F
100
AcDbEntity
  8
SPOJOVACÍ
  6
Continuous
100
AcDbLine
 10
41.06795470949839
 20
38.50042607538336
 30
0.0
 11
40.73123107161484
 21
39.21573126155118
 31
0.0
  0
LINE
  5
1C5F
330
1F
100
AcDbEntity
  8
SPOJOVACÍ
  6
Continuous
100
AcDbLine
 10
41.98603821994004
 20
37.26329226648369
 30
0.0
 11
41.06795470949839
 21
38.50042607538336
 31
0.0
  0
LINE
  5
1C60
330
1F
100
AcDbEntity
  8
SPOJOVACÍ
  6
Continuous
100
AcDbLine
 10
45.34397284284898
 20
32.69984981181034
 30
0.0
 11
46.13090156597138
 21
32.76589229373195
 31
0.0
  0
LINE
  5
1C61
330
1F
100
AcDbEntity
  8
SPOJOVACÍ
  6
Continuous
100
AcDbLine
 10
43.86313297579874
 20
32.27196894751097
 30
0.0
 11
45.34397284284898
 21
32.69984981181034
 31
0.0
  0
LINE
  5
1C62
330
1F
100
AcDbEntity
  8
SPOJOVACÍ
  6
Continuous
100
AcDbLine
 10
42.54414369750122
 20
31.47573846819279
 30
0.0
 11
43.86313297579874
 21
32.27196894751097
 31
0.0
  0
LINE
  5
1C63
330
1F
100
AcDbEntity
  8
SPOJOVACÍ
  6
Continuous
100
AcDbLine
 10
41.47537170808902
 20
30.36510856783417
 30
0.0
 11
42.54414369750122
 21
31.47573846819279
 31
0.0
  0
LINE
  5
1C64
330
1F
100
AcDbEntity
  8
SPOJOVACÍ
  6
Continuous
100
AcDbLine
 10
40.73123107161484
 20
29.0154234842833
 30
0.0
 11
41.47537170808902
 21
30.36510856783417
 31
0.0
  0
LINE
  5
1C65
330
1F
100
AcDbEntity
  8
SPOJOVACÍ
  6
Continuous
100
AcDbLine
 10
46.13090156597138
 20
35.46526245646811
 30
0.0
 11
51.07385574490002
 21
35.46526245646811
 31
0.0
  0
LINE
  5
1C66
330
1F
100
AcDbEntity
  8
SPOJOVACÍ
  6
Continuous
100
AcDbLine
 10
46.13090156597138
 20
32.76589229373195
 30
0.0
 11
50.16879469565139
 21
32.76589229373195
 31
0.0
  0
LINE
  5
1C67
330
1F
100
AcDbEntity
  8
SPOJOVACÍ
  6
Continuous
100
AcDbLine
 10
50.76410720482783
 20
32.76589229373195
 30
0.0
 11
53.2830232598568
 21
32.76589229373195
 31
0.0
  0
LINE
  5
1C68
330
1F
100
AcDbEntity
  8
SPOJOVACÍ
  6
Continuous
100
AcDbLine
 10
53.88670735117159
 20
32.76589229373195
 30
0.0
 11
56.40748375788064
 21
32.76589229373195
 31
0.0
  0
LINE
  5
1C69
330
1F
100
AcDbEntity
  8
SPOJOVACÍ
  6
Continuous
100
AcDbLine
 10
57.00186609135528
 20
32.76589229373195
 30
0.0
 11
59.53008390422439
 21
32.76589229373195
 31
0.0
  0
LINE
  5
1C6A
330
1F
100
AcDbEntity
  8
SPOJOVACÍ
  6
Continuous
100
AcDbLine
 10
51.6775398362148
 20
35.46526245646811
 30
0.0
 11
54.19645589124377
 21
35.46526245646811
 31
0.0
  0
LINE
  5
1C6B
330
1F
100
AcDbEntity
  8
SPOJOVACÍ
  6
Continuous
100
AcDbLine
 10
54.79269857639849
 20
35.46526245646811
 30
0.0
 11
57.3209163892676
 21
35.46526245646811
 31
0.0
  0
LINE
  5
1C6C
330
1F
100
AcDbEntity
  8
SPOJOVACÍ
  6
Continuous
100
AcDbLine
 10
57.91529872274224
 20
35.46526245646811
 30
0.0
 11
60.43607512945129
 21
35.46526245646811
 31
0.0
  0
LINE
  5
1C6D
330
1F
100
AcDbEntity
  8
SPOJOVACÍ
  6
Continuous
100
AcDbLine
 10
60.13469817151019
 20
32.76589229373195
 30
0.0
 11
62.65268405083737
 21
32.76589229373195
 31
0.0
  0
LINE
  5
1C6E
330
1F
100
AcDbEntity
  8
SPOJOVACÍ
  6
Continuous
100
AcDbLine
 10
63.24892673599208
 20
32.76589229373195
 30
0.0
 11
64.49629247788073
 21
32.76589229373195
 31
0.0
  0
LINE
  5
1C6F
330
1F
100
AcDbEntity
  8
SPOJOVACÍ
  6
Continuous
100
AcDbLine
 10
61.03696869338421
 20
35.46526245646811
 30
0.0
 11
63.55588474841318
 21
35.46526245646811
 31
0.0
  0
LINE
  5
1C70
330
1F
100
AcDbEntity
  8
SPOJOVACÍ
  6
Continuous
100
AcDbLine
 10
64.15956883999718
 20
35.46526245646811
 30
0.0
 11
64.49629247788073
 21
35.46526245646811
 31
0.0
  0
LINE
  5
1C71
330
1F
100
AcDbEntity
  8
SPOJOVACÍ
  6
Continuous
100
AcDbLine
 10
64.49629247788073
 20
32.76589229373195
 30
0.0
 11
65.69342872723757
 21
32.91565059645501
 31
0.0
  0
LINE
  5
1C72
330
1F
100
AcDbEntity
  8
SPOJOVACÍ
  6
Continuous
100
AcDbLine
 10
75.29656364283403
 20
34.11557737291724
 30
0.0
 11
72.46045764156554
 21
34.4699743540462
 31
0.0
  0
LINE
  5
1C73
330
1F
100
AcDbEntity
  8
SPOJOVACÍ
  6
Continuous
100
AcDbLine
 10
66.313855983091
 20
32.99285518898097
 30
0.0
 11
68.63557476915559
 21
33.28307003850051
 31
0.0
  0
LINE
  5
1C74
330
1F
100
AcDbEntity
  8
SPOJOVACÍ
  6
Continuous
100
AcDbLine
 10
69.26623395882018
 20
33.36213498133867
 30
0.0
 11
71.5870225691757
 21
33.65234982649264
 31
0.0
  0
LINE
  5
1C75
330
1F
100
AcDbEntity
  8
SPOJOVACÍ
  6
Continuous
100
AcDbLine
 10
72.20744982502913
 20
33.7295544190186
 30
0.0
 11
75.29656364283403
 21
34.11557737291724
 31
0.0
  0
LINE
  5
1C76
330
1F
100
AcDbEntity
  8
SPOJOVACÍ
  6
Continuous
100
AcDbLine
 10
71.89119005449867
 20
34.54159789126999
 30
0.0
 11
69.74620466951421
 21
34.80948851958084
 31
0.0
  0
LINE
  5
1C77
330
1F
100
AcDbEntity
  8
SPOJOVACÍ
  6
Continuous
100
AcDbLine
 10
69.17414655506547
 20
34.88111205243905
 30
0.0
 11
67.03753275221209
 21
35.14807250777659
 31
0.0
  0
LINE
  5
1C78
330
1F
100
AcDbEntity
  8
SPOJOVACÍ
  6
Continuous
100
AcDbLine
 10
66.46733498916694
 20
35.21969604500037
 30
0.0
 11
64.49629247788073
 21
35.46526245646811
 31
0.0
  0
LINE
  5
1C79
330
1F
100
AcDbEntity
  8
SPOJOVACÍ
  6
Continuous
100
AcDbLine
 10
50.33157545983669
 20
31.71572381999277
 30
0.0
 11
51.53150223629893
 21
36.51543092584171
 31
0.0
  0
LINE
  5
1C7A
330
1F
100
AcDbEntity
  8
SPOJOVACÍ
  6
Continuous
100
AcDbLine
 10
50.33157545983669
 20
31.71572381999277
 30
0.0
 11
50.54923659588496
 21
32.09337519530373
 31
0.0
  0
LINE
  5
1C7B
330
1F
100
AcDbEntity
  8
SPOJOVACÍ
  6
Continuous
100
AcDbLine
 10
50.33157545983669
 20
31.71572381999277
 30
0.0
 11
49.95299391100672
 21
32.09337519530373
 31
0.0
  0
LINE
  5
1C7C
330
1F
100
AcDbEntity
  8
SPOJOVACÍ
  6
Continuous
100
AcDbLine
 10
51.53150223629893
 20
36.51543092584171
 30
0.0
 11
51.9091536094271
 21
36.13777955489632
 31
0.0
  0
LINE
  5
1C7D
330
1F
100
AcDbEntity
  8
SPOJOVACÍ
  6
Continuous
100
AcDbLine
 10
51.53150223629893
 20
36.51543092584171
 30
0.0
 11
51.31291092427239
 21
36.13777955489632
 31
0.0
  0
LINE
  5
1C7E
330
1F
100
AcDbEntity
  8
SPOJOVACÍ
  6
Continuous
100
AcDbLine
 10
50.54923659588496
 20
32.09337519530373
 30
0.0
 11
51.9091536094271
 21
36.13777955489632
 31
0.0
  0
LINE
  5
1C7F
330
1F
100
AcDbEntity
  8
SPOJOVACÍ
  6
Continuous
100
AcDbLine
 10
49.95299391100672
 20
32.09337519530373
 30
0.0
 11
51.31291092427239
 21
36.13777955489632
 31
0.0
  0
LINE
  5
1C80
330
1F
100
AcDbEntity
  8
SPOJOVACÍ
  6
Continuous
100
AcDbLine
 10
53.45138507879858
 20
31.71572381999277
 30
0.0
 11
54.6513118555373
 21
36.51543092584171
 31
0.0
  0
LINE
  5
1C81
330
1F
100
AcDbEntity
  8
SPOJOVACÍ
  6
Continuous
100
AcDbLine
 10
53.45138507879858
 20
31.71572381999277
 30
0.0
 11
53.66997639082512
 21
32.09337519530373
 31
0.0
  0
LINE
  5
1C82
330
1F
100
AcDbEntity
  8
SPOJOVACÍ
  6
Continuous
100
AcDbLine
 10
53.45138507879858
 20
31.71572381999277
 30
0.0
 11
53.07373370567041
 21
32.09337519530373
 31
0.0
  0
LINE
  5
1C83
330
1F
100
AcDbEntity
  8
SPOJOVACÍ
  6
Continuous
100
AcDbLine
 10
54.6513118555373
 20
36.51543092584171
 30
0.0
 11
55.02896322838899
 21
36.13777955489632
 31
0.0
  0
LINE
  5
1C84
330
1F
100
AcDbEntity
  8
SPOJOVACÍ
  6
Continuous
100
AcDbLine
 10
54.6513118555373
 20
36.51543092584171
 30
0.0
 11
54.43272054351075
 21
36.13777955489632
 31
0.0
  0
LINE
  5
1C85
330
1F
100
AcDbEntity
  8
SPOJOVACÍ
  6
Continuous
100
AcDbLine
 10
53.66997639082512
 20
32.09337519530373
 30
0.0
 11
55.02896322838899
 21
36.13777955489632
 31
0.0
  0
LINE
  5
1C86
330
1F
100
AcDbEntity
  8
SPOJOVACÍ
  6
Continuous
100
AcDbLine
 10
53.07373370567041
 20
32.09337519530373
 30
0.0
 11
54.43272054351075
 21
36.13777955489632
 31
0.0
  0
LINE
  5
1C87
330
1F
100
AcDbEntity
  8
SPOJOVACÍ
  6
Continuous
100
AcDbLine
 10
65.88876564425993
 20
31.96966181441377
 30
0.0
 11
66.10735695628648
 21
32.34824336269804
 31
0.0
  0
LINE
  5
1C88
330
1F
100
AcDbEntity
  8
SPOJOVACÍ
  6
Continuous
100
AcDbLine
 10
65.88876564425993
 20
31.96966181441377
 30
0.0
 11
65.51111427113176
 21
32.34824336269804
 31
0.0
  0
LINE
  5
1C89
330
1F
100
AcDbEntity
  8
SPOJOVACÍ
  6
Continuous
100
AcDbLine
 10
66.86172952656455
 20
36.09499146715672
 30
0.0
 11
67.240311075671
 21
35.71734009621133
 31
0.0
  0
LINE
  5
1C8A
330
1F
100
AcDbEntity
  8
SPOJOVACÍ
  6
Continuous
100
AcDbLine
 10
66.86172952656455
 20
36.09499146715672
 30
0.0
 11
66.64406839051628
 21
35.71734009621133
 31
0.0
  0
LINE
  5
1C8B
330
1F
100
AcDbEntity
  8
SPOJOVACÍ
  6
Continuous
100
AcDbLine
 10
66.10735695628648
 20
32.34824336269804
 30
0.0
 11
67.240311075671
 21
35.71734009621133
 31
0.0
  0
LINE
  5
1C8C
330
1F
100
AcDbEntity
  8
SPOJOVACÍ
  6
Continuous
100
AcDbLine
 10
65.51111427113176
 20
32.34824336269804
 30
0.0
 11
66.64406839051628
 21
35.71734009621133
 31
0.0
  0
LINE
  5
1C8D
330
1F
100
AcDbEntity
  8
SPOJOVACÍ
  6
Continuous
100
AcDbLine
 10
65.88876564425993
 20
31.96966181441377
 30
0.0
 11
66.86172952656455
 21
36.09499146715672
 31
0.0
  0
LINE
  5
1C8E
330
1F
100
AcDbEntity
  8
SPOJOVACÍ
  6
Continuous
100
AcDbLine
 10
68.90346539855784
 20
32.53427852051965
 30
0.0
 11
69.1211265346061
 21
32.91192989583061
 31
0.0
  0
LINE
  5
1C8F
330
1F
100
AcDbEntity
  8
SPOJOVACÍ
  6
Continuous
100
AcDbLine
 10
68.90346539855784
 20
32.53427852051965
 30
0.0
 11
68.52488384945139
 21
32.91192989583061
 31
0.0
  0
LINE
  5
1C90
330
1F
100
AcDbEntity
  8
SPOJOVACÍ
  6
Continuous
100
AcDbLine
 10
69.53691511532781
 20
35.65036743695083
 30
0.0
 11
69.91549666415778
 21
35.27271606600544
 31
0.0
  0
LINE
  5
1C91
330
1F
100
AcDbEntity
  8
SPOJOVACÍ
  6
Continuous
100
AcDbLine
 10
69.53691511532781
 20
35.65036743695083
 30
0.0
 11
69.31925397927955
 21
35.27271606600544
 31
0.0
  0
LINE
  5
1C92
330
1F
100
AcDbEntity
  8
SPOJOVACÍ
  6
Continuous
100
AcDbLine
 10
69.1211265346061
 20
32.91192989583061
 30
0.0
 11
69.91549666415778
 21
35.27271606600544
 31
0.0
  0
LINE
  5
1C93
330
1F
100
AcDbEntity
  8
SPOJOVACÍ
  6
Continuous
100
AcDbLine
 10
68.52488384945139
 20
32.91192989583061
 30
0.0
 11
69.31925397927955
 21
35.27271606600544
 31
0.0
  0
LINE
  5
1C94
330
1F
100
AcDbEntity
  8
SPOJOVACÍ
  6
Continuous
100
AcDbLine
 10
68.90346539855784
 20
32.53427852051965
 30
0.0
 11
69.53691511532781
 21
35.65036743695083
 31
0.0
  0
LINE
  5
1C95
330
1F
100
AcDbEntity
  8
SPOJOVACÍ
  6
Continuous
100
AcDbLine
 10
71.91723497687746
 20
33.0988952309911
 30
0.0
 11
72.13582628889674
 21
33.47654660193649
 31
0.0
  0
LINE
  5
1C96
330
1F
100
AcDbEntity
  8
SPOJOVACÍ
  6
Continuous
100
AcDbLine
 10
71.91723497687746
 20
33.0988952309911
 30
0.0
 11
71.53958360374929
 21
33.47654660193649
 31
0.0
  0
LINE
  5
1C97
330
1F
100
AcDbEntity
  8
SPOJOVACÍ
  6
Continuous
100
AcDbLine
 10
72.22791369265144
 20
35.25318237244784
 30
0.0
 11
72.60649524148141
 21
34.87553100150245
 31
0.0
  0
LINE
  5
1C98
330
1F
100
AcDbEntity
  8
SPOJOVACÍ
  6
Continuous
100
AcDbLine
 10
72.22791369265144
 20
35.25318237244784
 30
0.0
 11
72.01025255633396
 21
34.87553100150245
 31
0.0
  0
LINE
  5
1C99
330
1F
100
AcDbEntity
  8
SPOJOVACÍ
  6
Continuous
100
AcDbLine
 10
72.13582628889674
 20
33.47654660193649
 30
0.0
 11
72.60649524148141
 21
34.87553100150245
 31
0.0
  0
LINE
  5
1C9A
330
1F
100
AcDbEntity
  8
SPOJOVACÍ
  6
Continuous
100
AcDbLine
 10
71.53958360374929
 20
33.47654660193649
 30
0.0
 11
72.01025255633396
 21
34.87553100150245
 31
0.0
  0
LINE
  5
1C9B
330
1F
100
AcDbEntity
  8
SPOJOVACÍ
  6
Continuous
100
AcDbLine
 10
71.91723497687746
 20
33.0988952309911
 30
0.0
 11
72.22791369265144
 21
35.25318237244784
 31
0.0
  0
LINE
  5
1C9C
330
1F
100
AcDbEntity
  8
SPOJOVACÍ
  6
Continuous
100
AcDbLine
 10
56.57119469803695
 20
31.71572381999277
 30
0.0
 11
57.77112147449918
 21
36.51543092584171
 31
0.0
  0
LINE
  5
1C9D
330
1F
100
AcDbEntity
  8
SPOJOVACÍ
  6
Continuous
100
AcDbLine
 10
56.57119469803695
 20
31.71572381999277
 30
0.0
 11
56.78978601006349
 21
32.09337519530373
 31
0.0
  0
LINE
  5
1C9E
330
1F
100
AcDbEntity
  8
SPOJOVACÍ
  6
Continuous
100
AcDbLine
 10
56.57119469803695
 20
31.71572381999277
 30
0.0
 11
56.19354332490877
 21
32.09337519530373
 31
0.0
  0
LINE
  5
1C9F
330
1F
100
AcDbEntity
  8
SPOJOVACÍ
  6
Continuous
100
AcDbLine
 10
57.77112147449918
 20
36.51543092584171
 30
0.0
 11
58.14970302332915
 21
36.13777955489632
 31
0.0
  0
LINE
  5
1CA0
330
1F
100
AcDbEntity
  8
SPOJOVACÍ
  6
Continuous
100
AcDbLine
 10
57.77112147449918
 20
36.51543092584171
 30
0.0
 11
57.5534603381817
 21
36.13777955489632
 31
0.0
  0
LINE
  5
1CA1
330
1F
100
AcDbEntity
  8
SPOJOVACÍ
  6
Continuous
100
AcDbLine
 10
56.78978601006349
 20
32.09337519530373
 30
0.0
 11
58.14970302332915
 21
36.13777955489632
 31
0.0
  0
LINE
  5
1CA2
330
1F
100
AcDbEntity
  8
SPOJOVACÍ
  6
Continuous
100
AcDbLine
 10
56.19354332490877
 20
32.09337519530373
 30
0.0
 11
57.5534603381817
 21
36.13777955489632
 31
0.0
  0
LINE
  5
1CA3
330
1F
100
AcDbEntity
  8
SPOJOVACÍ
  6
Continuous
100
AcDbLine
 10
59.6910043170061
 20
31.71572381999277
 30
0.0
 11
60.89093109346833
 21
36.51543092584171
 31
0.0
  0
LINE
  5
1CA4
330
1F
100
AcDbEntity
  8
SPOJOVACÍ
  6
Continuous
100
AcDbLine
 10
59.6910043170061
 20
31.71572381999277
 30
0.0
 11
59.90959562902538
 21
32.09337519530373
 31
0.0
  0
LINE
  5
1CA5
330
1F
100
AcDbEntity
  8
SPOJOVACÍ
  6
Continuous
100
AcDbLine
 10
59.6910043170061
 20
31.71572381999277
 30
0.0
 11
59.31335294387793
 21
32.09337519530373
 31
0.0
  0
LINE
  5
1CA6
330
1F
100
AcDbEntity
  8
SPOJOVACÍ
  6
Continuous
100
AcDbLine
 10
60.89093109346833
 20
36.51543092584171
 30
0.0
 11
61.2695126422983
 21
36.13777955489632
 31
0.0
  0
LINE
  5
1CA7
330
1F
100
AcDbEntity
  8
SPOJOVACÍ
  6
Continuous
100
AcDbLine
 10
60.89093109346833
 20
36.51543092584171
 30
0.0
 11
60.67326995742007
 21
36.13777955489632
 31
0.0
  0
LINE
  5
1CA8
330
1F
100
AcDbEntity
  8
SPOJOVACÍ
  6
Continuous
100
AcDbLine
 10
59.90959562902538
 20
32.09337519530373
 30
0.0
 11
61.2695126422983
 21
36.13777955489632
 31
0.0
  0
LINE
  5
1CA9
330
1F
100
AcDbEntity
  8
SPOJOVACÍ
  6
Continuous
100
AcDbLine
 10
59.31335294387793
 20
32.09337519530373
 30
0.0
 11
60.67326995742007
 21
36.13777955489632
 31
0.0
  0
LINE
  5
1CAA
330
1F
100
AcDbEntity
  8
SPOJOVACÍ
  6
Continuous
100
AcDbLine
 10
62.81174411194626
 20
31.71572381999277
 30
0.0
 11
64.0116708884085
 21
36.51543092584171
 31
0.0
  0
LINE
  5
1CAB
330
1F
100
AcDbEntity
  8
SPOJOVACÍ
  6
Continuous
100
AcDbLine
 10
62.81174411194626
 20
31.71572381999277
 30
0.0
 11
63.02940524799453
 21
32.09337519530373
 31
0.0
  0
LINE
  5
1CAC
330
1F
100
AcDbEntity
  8
SPOJOVACÍ
  6
Continuous
100
AcDbLine
 10
62.81174411194626
 20
31.71572381999277
 30
0.0
 11
62.43316256283981
 21
32.09337519530373
 31
0.0
  0
LINE
  5
1CAD
330
1F
100
AcDbEntity
  8
SPOJOVACÍ
  6
Continuous
100
AcDbLine
 10
64.0116708884085
 20
36.51543092584171
 30
0.0
 11
64.38932226153667
 21
36.13777955489632
 31
0.0
  0
LINE
  5
1CAE
330
1F
100
AcDbEntity
  8
SPOJOVACÍ
  6
Continuous
100
AcDbLine
 10
64.0116708884085
 20
36.51543092584171
 30
0.0
 11
63.79307957638196
 21
36.13777955489632
 31
0.0
  0
LINE
  5
1CAF
330
1F
100
AcDbEntity
  8
SPOJOVACÍ
  6
Continuous
100
AcDbLine
 10
63.02940524799453
 20
32.09337519530373
 30
0.0
 11
64.38932226153667
 21
36.13777955489632
 31
0.0
  0
LINE
  5
1CB0
330
1F
100
AcDbEntity
  8
SPOJOVACÍ
  6
Continuous
100
AcDbLine
 10
62.43316256283981
 20
32.09337519530373
 30
0.0
 11
63.79307957638196
 21
36.13777955489632
 31
0.0
  0
LINE
  5
1CB1
330
1F
100
AcDbEntity
  8
SPOJOVACÍ
  6
CIKCAK
 48
0.25
100
AcDbLine
 10
73.97814437860109
 20
-0.385024306060302
 30
0.0
 11
73.97814437860109
 21
-47.84941012139251
 31
0.0
  0
LINE
  5
1CB2
330
1F
100
AcDbEntity
  8
SPOJOVACÍ
 48
0.25
100
AcDbLine
 10
73.97814437860109
 20
-47.84941012139251
 30
0.0
 11
77.50361080207551
 21
-53.4988504621121
 31
0.0
  0
LINE
  5
1CB3
330
1F
100
AcDbEntity
  8
SPOJOVACÍ
 48
0.25
100
AcDbLine
 10
81.02907722554993
 20
-47.84941012139614
 30
0.0
 11
77.50361080207551
 21
-53.4988504621121
 31
0.0
  0
LINE
  5
1CB4
330
1F
100
AcDbEntity
  8
SPOJOVACÍ
  6
CIKCAK
 48
0.25
100
AcDbLine
 10
81.02907722554993
 20
-0.385024306060302
 30
0.0
 11
81.02907722554993
 21
-47.84941012139614
 31
0.0
  0
LINE
  5
1CB5
330
1F
100
AcDbEntity
  8
SPOJOVACÍ
  6
Continuous
100
AcDbLine
 10
79.90181619708858
 20
-17.13240731414197
 30
0.0
 11
75.10540540188561
 21
-18.74518389738813
 31
0.0
  0
LINE
  5
1CB6
330
1F
100
AcDbEntity
  8
SPOJOVACÍ
  6
Continuous
100
AcDbLine
 10
79.90181619708858
 20
-17.83951387356654
 30
0.0
 11
75.10540540188561
 21
-19.45229045680906
 31
0.0
  0
LINE
  5
1CB7
330
1F
100
AcDbEntity
  8
SPOJOVACÍ
  6
Continuous
100
AcDbLine
 10
74.65753447915597
 20
-19.00441953148919
 30
0.0
 11
75.10540540188561
 21
-18.74518389738813
 31
0.0
  0
LINE
  5
1CB8
330
1F
100
AcDbEntity
  8
SPOJOVACÍ
  6
Continuous
100
AcDbLine
 10
74.65753447915597
 20
-19.00441953148919
 30
0.0
 11
75.10540540188561
 21
-19.45229045680906
 31
0.0
  0
LINE
  5
1CB9
330
1F
100
AcDbEntity
  8
SPOJOVACÍ
  6
Continuous
100
AcDbLine
 10
80.34968712499505
 20
-17.58138137003123
 30
0.0
 11
79.90181619708858
 21
-17.13240731414197
 31
0.0
  0
LINE
  5
1CBA
330
1F
100
AcDbEntity
  8
SPOJOVACÍ
  6
Continuous
100
AcDbLine
 10
80.34968712499505
 20
-17.58138137003123
 30
0.0
 11
79.90181619708858
 21
-17.83951387356654
 31
0.0
  0
LINE
  5
1CBB
330
1F
100
AcDbEntity
  8
SPOJOVACÍ
  6
Continuous
100
AcDbLine
 10
80.34968712499505
 20
-17.58138137003123
 30
0.0
 11
74.65753447915597
 21
-19.00441953148919
 31
0.0
  0
LINE
  5
1CBC
330
1F
100
AcDbEntity
  8
SPOJOVACÍ
  6
Continuous
100
AcDbLine
 10
79.90181619708858
 20
-20.52839722839206
 30
0.0
 11
75.10540540188561
 21
-22.14117381163822
 31
0.0
  0
LINE
  5
1CBD
330
1F
100
AcDbEntity
  8
SPOJOVACÍ
  6
Continuous
100
AcDbLine
 10
79.90181619708858
 20
-21.23550378781664
 30
0.0
 11
75.10540540188561
 21
-22.84828037105916
 31
0.0
  0
LINE
  5
1CBE
330
1F
100
AcDbEntity
  8
SPOJOVACÍ
  6
Continuous
100
AcDbLine
 10
74.65753447915597
 20
-22.40040944573928
 30
0.0
 11
75.10540540188561
 21
-22.14117381163822
 31
0.0
  0
LINE
  5
1CBF
330
1F
100
AcDbEntity
  8
SPOJOVACÍ
  6
Continuous
100
AcDbLine
 10
74.65753447915597
 20
-22.40040944573928
 30
0.0
 11
75.10540540188561
 21
-22.84828037105916
 31
0.0
  0
LINE
  5
1CC0
330
1F
100
AcDbEntity
  8
SPOJOVACÍ
  6
Continuous
100
AcDbLine
 10
80.34968712499505
 20
-20.97737128428133
 30
0.0
 11
79.90181619708858
 21
-20.52839722839206
 31
0.0
  0
LINE
  5
1CC1
330
1F
100
AcDbEntity
  8
SPOJOVACÍ
  6
Continuous
100
AcDbLine
 10
80.34968712499505
 20
-20.97737128428133
 30
0.0
 11
79.90181619708858
 21
-21.23550378781664
 31
0.0
  0
LINE
  5
1CC2
330
1F
100
AcDbEntity
  8
SPOJOVACÍ
  6
Continuous
100
AcDbLine
 10
80.34968712499505
 20
-20.97737128428133
 30
0.0
 11
74.65753447915597
 21
-22.40040944573928
 31
0.0
  0
LINE
  5
1CC3
330
1F
100
AcDbEntity
  8
SPOJOVACÍ
  6
Continuous
100
AcDbLine
 10
79.90181619708858
 20
-23.92438714264216
 30
0.0
 11
75.10540540188561
 21
-25.53716372588832
 31
0.0
  0
LINE
  5
1CC4
330
1F
100
AcDbEntity
  8
SPOJOVACÍ
  6
Continuous
100
AcDbLine
 10
79.90181619708858
 20
-24.63149370206673
 30
0.0
 11
75.10540540188561
 21
-26.24427028530925
 31
0.0
  0
LINE
  5
1CC5
330
1F
100
AcDbEntity
  8
SPOJOVACÍ
  6
Continuous
100
AcDbLine
 10
74.65753447915597
 20
-25.79639935998938
 30
0.0
 11
75.10540540188561
 21
-25.53716372588832
 31
0.0
  0
LINE
  5
1CC6
330
1F
100
AcDbEntity
  8
SPOJOVACÍ
  6
Continuous
100
AcDbLine
 10
74.65753447915597
 20
-25.79639935998938
 30
0.0
 11
75.10540540188561
 21
-26.24427028530925
 31
0.0
  0
LINE
  5
1CC7
330
1F
100
AcDbEntity
  8
SPOJOVACÍ
  6
Continuous
100
AcDbLine
 10
80.34968712499505
 20
-24.37336119853142
 30
0.0
 11
79.90181619708858
 21
-23.92438714264216
 31
0.0
  0
LINE
  5
1CC8
330
1F
100
AcDbEntity
  8
SPOJOVACÍ
  6
Continuous
100
AcDbLine
 10
80.34968712499505
 20
-24.37336119853142
 30
0.0
 11
79.90181619708858
 21
-24.63149370206673
 31
0.0
  0
LINE
  5
1CC9
330
1F
100
AcDbEntity
  8
SPOJOVACÍ
  6
Continuous
100
AcDbLine
 10
80.34968712499505
 20
-24.37336119853142
 30
0.0
 11
74.65753447915597
 21
-25.79639935998938
 31
0.0
  0
LINE
  5
1CCA
330
1F
100
AcDbEntity
  8
SPOJOVACÍ
  6
Continuous
100
AcDbLine
 10
79.90181619708858
 20
-27.32037705689225
 30
0.0
 11
75.10540540188561
 21
-28.93315364013841
 31
0.0
  0
LINE
  5
1CCB
330
1F
100
AcDbEntity
  8
SPOJOVACÍ
  6
Continuous
100
AcDbLine
 10
79.90181619708858
 20
-28.02748361631683
 30
0.0
 11
75.10540540188561
 21
-29.64026019955935
 31
0.0
  0
LINE
  5
1CCC
330
1F
100
AcDbEntity
  8
SPOJOVACÍ
  6
Continuous
100
AcDbLine
 10
74.65753447915597
 20
-29.19238927423947
 30
0.0
 11
75.10540540188561
 21
-28.93315364013841
 31
0.0
  0
LINE
  5
1CCD
330
1F
100
AcDbEntity
  8
SPOJOVACÍ
  6
Continuous
100
AcDbLine
 10
74.65753447915597
 20
-29.19238927423947
 30
0.0
 11
75.10540540188561
 21
-29.64026019955935
 31
0.0
  0
LINE
  5
1CCE
330
1F
100
AcDbEntity
  8
SPOJOVACÍ
  6
Continuous
100
AcDbLine
 10
80.34968712499505
 20
-27.76935111278152
 30
0.0
 11
79.90181619708858
 21
-27.32037705689225
 31
0.0
  0
LINE
  5
1CCF
330
1F
100
AcDbEntity
  8
SPOJOVACÍ
  6
Continuous
100
AcDbLine
 10
80.34968712499505
 20
-27.76935111278152
 30
0.0
 11
79.90181619708858
 21
-28.02748361631683
 31
0.0
  0
LINE
  5
1CD0
330
1F
100
AcDbEntity
  8
SPOJOVACÍ
  6
Continuous
100
AcDbLine
 10
80.34968712499505
 20
-27.76935111278152
 30
0.0
 11
74.65753447915597
 21
-29.19238927423947
 31
0.0
  0
LINE
  5
1CD1
330
1F
100
AcDbEntity
  8
SPOJOVACÍ
  6
Continuous
100
AcDbLine
 10
79.90181619708858
 20
-30.71636697114235
 30
0.0
 11
75.10540540188561
 21
-32.3291435543885
 31
0.0
  0
LINE
  5
1CD2
330
1F
100
AcDbEntity
  8
SPOJOVACÍ
  6
Continuous
100
AcDbLine
 10
79.90181619708858
 20
-31.42347353056692
 30
0.0
 11
75.10540540188561
 21
-33.03625011380944
 31
0.0
  0
LINE
  5
1CD3
330
1F
100
AcDbEntity
  8
SPOJOVACÍ
  6
Continuous
100
AcDbLine
 10
74.65753447915597
 20
-32.58837918848957
 30
0.0
 11
75.10540540188561
 21
-32.3291435543885
 31
0.0
  0
LINE
  5
1CD4
330
1F
100
AcDbEntity
  8
SPOJOVACÍ
  6
Continuous
100
AcDbLine
 10
74.65753447915597
 20
-32.58837918848957
 30
0.0
 11
75.10540540188561
 21
-33.03625011380944
 31
0.0
  0
LINE
  5
1CD5
330
1F
100
AcDbEntity
  8
SPOJOVACÍ
  6
Continuous
100
AcDbLine
 10
80.34968712499505
 20
-31.16534102703161
 30
0.0
 11
79.90181619708858
 21
-30.71636697114235
 31
0.0
  0
LINE
  5
1CD6
330
1F
100
AcDbEntity
  8
SPOJOVACÍ
  6
Continuous
100
AcDbLine
 10
80.34968712499505
 20
-31.16534102703161
 30
0.0
 11
79.90181619708858
 21
-31.42347353056692
 31
0.0
  0
LINE
  5
1CD7
330
1F
100
AcDbEntity
  8
SPOJOVACÍ
  6
Continuous
100
AcDbLine
 10
80.34968712499505
 20
-31.16534102703161
 30
0.0
 11
74.65753447915597
 21
-32.58837918848957
 31
0.0
  0
LINE
  5
1CD8
330
1F
100
AcDbEntity
  8
SPOJOVACÍ
  6
Continuous
100
AcDbLine
 10
79.90181619708858
 20
-34.11235688539244
 30
0.0
 11
75.10540540188561
 21
-35.7251334686386
 31
0.0
  0
LINE
  5
1CD9
330
1F
100
AcDbEntity
  8
SPOJOVACÍ
  6
Continuous
100
AcDbLine
 10
79.90181619708858
 20
-34.81946344481702
 30
0.0
 11
75.10540540188561
 21
-36.43224002805954
 31
0.0
  0
LINE
  5
1CDA
330
1F
100
AcDbEntity
  8
SPOJOVACÍ
  6
Continuous
100
AcDbLine
 10
74.65753447915597
 20
-35.98436910273966
 30
0.0
 11
75.10540540188561
 21
-35.7251334686386
 31
0.0
  0
LINE
  5
1CDB
330
1F
100
AcDbEntity
  8
SPOJOVACÍ
  6
Continuous
100
AcDbLine
 10
74.65753447915597
 20
-35.98436910273966
 30
0.0
 11
75.10540540188561
 21
-36.43224002805954
 31
0.0
  0
LINE
  5
1CDC
330
1F
100
AcDbEntity
  8
SPOJOVACÍ
  6
Continuous
100
AcDbLine
 10
80.34968712499505
 20
-34.56133094128171
 30
0.0
 11
79.90181619708858
 21
-34.11235688539244
 31
0.0
  0
LINE
  5
1CDD
330
1F
100
AcDbEntity
  8
SPOJOVACÍ
  6
Continuous
100
AcDbLine
 10
80.34968712499505
 20
-34.56133094128171
 30
0.0
 11
79.90181619708858
 21
-34.81946344481702
 31
0.0
  0
LINE
  5
1CDE
330
1F
100
AcDbEntity
  8
SPOJOVACÍ
  6
Continuous
100
AcDbLine
 10
80.34968712499505
 20
-34.56133094128171
 30
0.0
 11
74.65753447915597
 21
-35.98436910273966
 31
0.0
  0
LINE
  5
1CDF
330
1F
100
AcDbEntity
  8
SPOJOVACÍ
  6
Continuous
100
AcDbLine
 10
80.34968712499505
 20
-37.9573208555318
 30
0.0
 11
74.65753447915597
 21
-39.38035901698976
 31
0.0
  0
LINE
  5
1CE0
330
1F
100
AcDbEntity
  8
SPOJOVACÍ
  6
Continuous
100
AcDbLine
 10
80.34968712499505
 20
-37.9573208555318
 30
0.0
 11
79.90181619708858
 21
-38.21545335906711
 31
0.0
  0
LINE
  5
1CE1
330
1F
100
AcDbEntity
  8
SPOJOVACÍ
  6
Continuous
100
AcDbLine
 10
80.34968712499505
 20
-37.9573208555318
 30
0.0
 11
79.90181619708858
 21
-37.50834679964254
 31
0.0
  0
LINE
  5
1CE2
330
1F
100
AcDbEntity
  8
SPOJOVACÍ
  6
Continuous
100
AcDbLine
 10
74.65753447915597
 20
-39.38035901698976
 30
0.0
 11
75.10540540188561
 21
-39.82822994230963
 31
0.0
  0
LINE
  5
1CE3
330
1F
100
AcDbEntity
  8
SPOJOVACÍ
  6
Continuous
100
AcDbLine
 10
74.65753447915597
 20
-39.38035901698976
 30
0.0
 11
75.10540540188561
 21
-39.12112338288869
 31
0.0
  0
LINE
  5
1CE4
330
1F
100
AcDbEntity
  8
SPOJOVACÍ
  6
Continuous
100
AcDbLine
 10
79.90181619708858
 20
-38.21545335906711
 30
0.0
 11
75.10540540188561
 21
-39.82822994230963
 31
0.0
  0
LINE
  5
1CE5
330
1F
100
AcDbEntity
  8
SPOJOVACÍ
  6
Continuous
100
AcDbLine
 10
79.90181619708858
 20
-37.50834679964254
 30
0.0
 11
75.10540540188561
 21
-39.12112338288869
 31
0.0
  0
LINE
  5
1CE6
330
1F
100
AcDbEntity
  8
SPOJOVACÍ
  6
DASHED
100
AcDbLine
 10
77.50361080207551
 20
-52.69059882689697
 30
0.0
 11
75.79267330207551
 21
-39.98533870320324
 31
0.0
  0
LINE
  5
1CE7
330
1F
100
AcDbEntity
  8
SPOJOVACÍ
  6
DASHED
100
AcDbLine
 10
77.50361080207551
 20
-52.69059882689697
 30
0.0
 11
79.21454830207551
 21
-39.98533870320324
 31
0.0
  0
LINE
  5
1CE8
330
1F
100
AcDbEntity
  8
SPOJOVACÍ
  6
DASHED
100
AcDbLine
 10
75.79267330207551
 20
-39.98533870320324
 30
0.0
 11
75.79267330207551
 21
0.8028466690323625
 31
0.0
  0
LINE
  5
1CE9
330
1F
100
AcDbEntity
  8
SPOJOVACÍ
  6
DASHED
100
AcDbLine
 10
79.21454830207551
 20
-39.98533870320324
 30
0.0
 11
79.21454830207551
 21
0.8028466690360005
 31
0.0
  0
LINE
  5
1CEA
330
1F
100
AcDbEntity
  8
SPOJOVACÍ
  6
Continuous
100
AcDbLine
 10
79.90181619708858
 20
-40.90433671389263
 30
0.0
 11
75.10540540188561
 21
-42.51711329713879
 31
0.0
  0
LINE
  5
1CEB
330
1F
100
AcDbEntity
  8
SPOJOVACÍ
  6
Continuous
100
AcDbLine
 10
79.90181619708858
 20
-41.61144327331721
 30
0.0
 11
75.10540540188561
 21
-43.22421985655973
 31
0.0
  0
LINE
  5
1CEC
330
1F
100
AcDbEntity
  8
SPOJOVACÍ
  6
Continuous
100
AcDbLine
 10
74.65753447915597
 20
-42.77634893123985
 30
0.0
 11
75.10540540188561
 21
-42.51711329713879
 31
0.0
  0
LINE
  5
1CED
330
1F
100
AcDbEntity
  8
SPOJOVACÍ
  6
Continuous
100
AcDbLine
 10
74.65753447915597
 20
-42.77634893123985
 30
0.0
 11
75.10540540188561
 21
-43.22421985655973
 31
0.0
  0
LINE
  5
1CEE
330
1F
100
AcDbEntity
  8
SPOJOVACÍ
  6
Continuous
100
AcDbLine
 10
80.34968712499505
 20
-41.35331076978189
 30
0.0
 11
79.90181619708858
 21
-40.90433671389263
 31
0.0
  0
LINE
  5
1CEF
330
1F
100
AcDbEntity
  8
SPOJOVACÍ
  6
Continuous
100
AcDbLine
 10
80.34968712499505
 20
-41.35331076978189
 30
0.0
 11
79.90181619708858
 21
-41.61144327331721
 31
0.0
  0
LINE
  5
1CF0
330
1F
100
AcDbEntity
  8
SPOJOVACÍ
  6
Continuous
100
AcDbLine
 10
80.34968712499505
 20
-41.35331076978189
 30
0.0
 11
74.65753447915597
 21
-42.77634893123985
 31
0.0
  0
LINE
  5
1CF1
330
1F
100
AcDbEntity
  8
SPOJOVACÍ
  6
Continuous
100
AcDbLine
 10
78.55206426093684
 20
-50.83615506085852
 30
0.0
 11
76.33045564631141
 21
-51.15654248650179
 31
0.0
  0
LINE
  5
1CF2
330
1F
100
AcDbEntity
  8
SPOJOVACÍ
  6
Continuous
100
AcDbLine
 10
78.16261128464941
 20
-50.44670208232282
 30
0.0
 11
76.71990862259519
 21
-50.93207943967144
 31
0.0
  0
LINE
  5
1CF3
330
1F
100
AcDbEntity
  8
SPOJOVACÍ
  6
Continuous
100
AcDbLine
 10
78.16261128464941
 20
-51.06157735137975
 30
0.0
 11
76.71990862259519
 21
-51.54695470873566
 31
0.0
  0
LINE
  5
1CF4
330
1F
100
AcDbEntity
  8
SPOJOVACÍ
  6
Continuous
100
AcDbLine
 10
76.33045564631141
 20
-51.15654248650179
 30
0.0
 11
76.71990862259519
 21
-50.93207943967144
 31
0.0
  0
LINE
  5
1CF5
330
1F
100
AcDbEntity
  8
SPOJOVACÍ
  6
Continuous
100
AcDbLine
 10
76.33045564631141
 20
-51.15654248650179
 30
0.0
 11
76.71990862259519
 21
-51.54695470873566
 31
0.0
  0
LINE
  5
1CF6
330
1F
100
AcDbEntity
  8
SPOJOVACÍ
  6
Continuous
100
AcDbLine
 10
78.55206426093684
 20
-50.83615506085852
 30
0.0
 11
78.16261128464941
 21
-50.44670208232282
 31
0.0
  0
LINE
  5
1CF7
330
1F
100
AcDbEntity
  8
SPOJOVACÍ
  6
Continuous
100
AcDbLine
 10
78.55206426093684
 20
-50.83615506085852
 30
0.0
 11
78.16261128464941
 21
-51.06157735137975
 31
0.0
  0
LINE
  5
1CF8
330
1F
100
AcDbEntity
  8
SPOJOVACÍ
  6
Continuous
100
AcDbLine
 10
79.13432524361235
 20
-47.72820518321686
 30
0.0
 11
75.92085854853905
 21
-48.38145020363453
 31
0.0
  0
LINE
  5
1CF9
330
1F
100
AcDbEntity
  8
SPOJOVACÍ
  6
Continuous
100
AcDbLine
 10
78.7448722628211
 20
-47.33779296070287
 30
0.0
 11
76.31031152483013
 21
-48.15698715708794
 31
0.0
  0
LINE
  5
1CFA
330
1F
100
AcDbEntity
  8
SPOJOVACÍ
  6
Continuous
100
AcDbLine
 10
78.7448722628211
 20
-47.95266822976708
 30
0.0
 11
76.31031152483013
 21
-48.77186242586475
 31
0.0
  0
LINE
  5
1CFB
330
1F
100
AcDbEntity
  8
SPOJOVACÍ
  6
Continuous
100
AcDbLine
 10
75.92085854853905
 20
-48.38145020363453
 30
0.0
 11
76.31031152483013
 21
-48.15698715708794
 31
0.0
  0
LINE
  5
1CFC
330
1F
100
AcDbEntity
  8
SPOJOVACÍ
  6
Continuous
100
AcDbLine
 10
75.92085854853905
 20
-48.38145020363453
 30
0.0
 11
76.31031152483013
 21
-48.77186242586475
 31
0.0
  0
LINE
  5
1CFD
330
1F
100
AcDbEntity
  8
SPOJOVACÍ
  6
Continuous
100
AcDbLine
 10
79.13432524361235
 20
-47.72820518321686
 30
0.0
 11
78.7448722628211
 21
-47.33779296070287
 31
0.0
  0
LINE
  5
1CFE
330
1F
100
AcDbEntity
  8
SPOJOVACÍ
  6
Continuous
100
AcDbLine
 10
79.13432524361235
 20
-47.72820518321686
 30
0.0
 11
78.7448722628211
 21
-47.95266822976708
 31
0.0
  0
LINE
  5
1CFF
330
1F
100
AcDbEntity
  8
SPOJOVACÍ
  6
Continuous
100
AcDbLine
 10
79.7165862217804
 20
-44.61929606159691
 30
0.0
 11
75.46234001739105
 21
-45.62266506522582
 31
0.0
  0
LINE
  5
1D00
330
1F
100
AcDbEntity
  8
SPOJOVACÍ
  6
Continuous
100
AcDbLine
 10
79.32617400011406
 20
-44.22984308305757
 30
0.0
 11
75.85179299367848
 21
-45.39820201867558
 31
0.0
  0
LINE
  5
1D01
330
1F
100
AcDbEntity
  8
SPOJOVACÍ
  6
Continuous
100
AcDbLine
 10
79.32617400011406
 20
-44.84471835212542
 30
0.0
 11
75.85179299367848
 21
-46.0130772877398
 31
0.0
  0
LINE
  5
1D02
330
1F
100
AcDbEntity
  8
SPOJOVACÍ
  6
Continuous
100
AcDbLine
 10
75.46234001739105
 20
-45.62266506522582
 30
0.0
 11
75.85179299367848
 21
-45.39820201867558
 31
0.0
  0
LINE
  5
1D03
330
1F
100
AcDbEntity
  8
SPOJOVACÍ
  6
Continuous
100
AcDbLine
 10
75.46234001739105
 20
-45.62266506522582
 30
0.0
 11
75.85179299367848
 21
-46.0130772877398
 31
0.0
  0
LINE
  5
1D04
330
1F
100
AcDbEntity
  8
SPOJOVACÍ
  6
Continuous
100
AcDbLine
 10
79.7165862217804
 20
-44.61929606159691
 30
0.0
 11
79.32617400011406
 21
-44.22984308305757
 31
0.0
  0
LINE
  5
1D05
330
1F
100
AcDbEntity
  8
SPOJOVACÍ
  6
Continuous
100
AcDbLine
 10
79.7165862217804
 20
-44.61929606159691
 30
0.0
 11
79.32617400011406
 21
-44.84471835212542
 31
0.0
  0
LINE
  5
1D06
330
1F
100
AcDbEntity
  8
SPOJOVACÍ
  6
DASHDOT2
100
AcDbLine
 10
77.50361080207551
 20
15.32394433834844
 30
0.0
 11
77.50361080207551
 21
-53.08181087062047
 31
0.0
  0
HATCH
  5
1D07
330
1F
100
AcDbEntity
  8
izolace
100
AcDbHatch
 10
0.0
 20
0.0
 30
0.0
210
0.0
220
0.0
230
1.0
  2
SOLID
 70
     1
 71
     0
 91
        3
 92
        7
 72
     0
 73
     1
 93
        4
 10
101.9983230179383
 20
1.614975693939697
 10
101.9983230179383
 20
-0.385024306056664
 10
95.29759808041092
 20
-0.385024306060302
 10
95.29759808041092
 20
1.614975693939697
 97
        0
 92
        7
 72
     0
 73
     1
 93
        4
 10
82.79652107343247
 20
1.614975693939697
 10
82.79652107343247
 20
-0.385024306060302
 10
70.29544406645766
 20
-0.385024306060302
 10
70.29544406645766
 20
1.614975693939697
 97
        0
 92
        7
 72
     0
 73
     1
 93
        4
 10
57.79436705948285
 20
1.614975693943335
 10
57.79436705948285
 20
-0.38502430606394
 10
51.99401499003545
 20
-0.385024306060302
 10
51.99401499003545
 20
1.614975693943335
 97
        0
 75
     0
 76
     1
 47
0.0846398039763049
 98
        3
 10
97.12864702484843
 20
0.9086736488991959
 10
80.45459361929136
 20
1.078059364548892
 10
57.26319695578752
 20
0.8240394832994866
  0
LWPOLYLINE
  5
1D08
330
1F
100
AcDbEntity
  8
izolace
100
AcDbPolyline
 90
        4
 70
     1
 43
0.0
 10
82.79652107343247
 20
-0.385024306060302
 10
82.79652107343247
 20
1.614975693943335
 10
95.29759808041092
 20
1.614975693943335
 10
95.29759808041092
 20
-0.385024306060302
  0
LWPOLYLINE
  5
1D09
330
1F
100
AcDbEntity
  8
izolace
100
AcDbPolyline
 90
        4
 70
     1
 43
0.0
 10
57.79436705948285
 20
-0.385024306060302
 10
57.79436705948285
 20
1.614975693943335
 10
70.29544406645766
 20
1.614975693943335
 10
70.29544406645766
 20
-0.385024306060302
  0
LINE
  5
1D0A
330
1F
100
AcDbEntity
  8
izolace
100
AcDbLine
 10
101.9983230179383
 20
-0.3850243060530261
 30
0.0
 11
51.99401499003545
 21
-0.385024306060302
 31
0.0
  0
LINE
  5
1D0B
330
1F
100
AcDbEntity
  8
izolace
100
AcDbLine
 10
101.9983230179383
 20
1.614975693943335
 30
0.0
 11
51.99401499003545
 21
1.614975693943335
 31
0.0
  0
LINE
  5
1D0C
330
1F
100
AcDbEntity
  8
CETRIS
100
AcDbLine
 10
102.7635585796339
 20
3.185629302270456
 30
0.0
 11
102.7635585796339
 21
342.9377027698204
 31
0.0
  0
LINE
  5
1D0D
330
1F
100
AcDbEntity
  8
CETRIS
100
AcDbLine
 10
114.7635585796339
 20
3.185629302274094
 30
0.0
 11
114.7635585796302
 21
345.1478640481203
 31
0.0
  0
LINE
  5
1D0E
330
1F
100
AcDbEntity
  8
CETRIS
100
AcDbLine
 10
39.53130429488703
 20
3.185629302270456
 30
0.0
 11
39.53130429488703
 21
331.2915794398425
 31
0.0
  0
LINE
  5
1D0F
330
1F
100
AcDbEntity
  8
CETRIS
100
AcDbLine
 10
51.53130429488339
 20
3.185629302270456
 30
0.0
 11
51.53130429488339
 21
333.5017407181415
 31
0.0
  0
TEXT
  5
1D10
330
1F
100
AcDbEntity
  8
POPIS
100
AcDbText
 10
514.48942821216
 20
145.193701330086
 30
0.0
 40
25.0
  1
Přikotvení - hmoždinka
 41
0.7
  7
SIMPLEX7
100
AcDbText
  0
CIRCLE
  5
1D11
330
1F
100
AcDbEntity
  8
POPIS
100
AcDbCircle
 10
686.874642506387
 20
352.4551696668325
 30
0.0
 40
11.13656048292026
  0
TEXT
  5
1D12
330
1F
100
AcDbEntity
  8
POPIS
100
AcDbText
 10
682.1156134512054
 20
346.9098239218449
 30
0.0
 40
12.0
  1
R
 41
0.85
  7
SIMPLEX7
100
AcDbText
  0
TEXT
  5
1D13
330
1F
100
AcDbEntity
  8
POPIS
100
AcDbText
 10
460.1457250524178
 20
145.2643411928741
 30
0.0
 40
25.0
  1
06
 41
0.85
  7
SIMPLEX7
100
AcDbText
  0
TEXT
  5
1D14
330
1F
100
AcDbEntity
  8
POPIS
100
AcDbText
 10
514.48942821216
 20
179.4470938692841
 30
0.0
 40
25.0
  1
Těsnící podložka
 41
0.7
  7
SIMPLEX7
100
AcDbText
  0
TEXT
  5
1D15
330
1F
100
AcDbEntity
  8
POPIS
100
AcDbText
 10
460.1457250524178
 20
215.9851527350522
 30
0.0
 40
25.0
  1
04
 41
0.85
  7
SIMPLEX7
100
AcDbText
  0
TEXT
  5
1D16
330
1F
100
AcDbEntity
  8
POPIS
100
AcDbText
 10
514.48942821216
 20
251.3893139532149
 30
0.0
 40
25.0
  1
Tepelná izolace 
 41
0.7
  7
SIMPLEX7
100
AcDbText
  0
TEXT
  5
1D17
330
1F
100
AcDbEntity
  8
POPIS
100
AcDbText
 10
460.1457250524178
 20
251.3893139532149
 30
0.0
 40
25.0
  1
03
 41
0.85
  7
SIMPLEX7
100
AcDbText
  0
TEXT
  5
1D18
330
1F
100
AcDbEntity
  8
POPIS
100
AcDbText
 10
514.48942821216
 20
285.339502197937
 30
0.0
 40
25.0
  1
Vrut Bűhnen 4,2x35 (45,55) mm
 41
0.7
  7
SIMPLEX7
100
AcDbText
  0
TEXT
  5
1D19
330
1F
100
AcDbEntity
  8
POPIS
100
AcDbText
 10
460.1457250524178
 20
285.339502197937
 30
0.0
 40
25.0
  1
02
 41
0.85
  7
SIMPLEX7
100
AcDbText
  0
TEXT
  5
1D1A
330
1F
100
AcDbEntity
  8
POPIS
100
AcDbText
 10
514.48942821216
 20
321.9345138135643
 30
0.0
 40
25.0
  1
Deska CETRIS   
 41
0.7
  7
SIMPLEX7
100
AcDbText
  0
TEXT
  5
1D1B
330
1F
100
AcDbEntity
  8
POPIS
100
AcDbText
 10
460.1457250524178
 20
321.9345138135643
 30
0.0
 40
25.0
  1
01
 41
0.85
  7
SIMPLEX7
100
AcDbText
  0
TEXT
  5
1D1C
330
1F
100
AcDbEntity
  8
POPIS
100
AcDbText
 10
-81.9624970687513
 20
502.7564207408071
 30
0.0
 40
50.0
  1
Návaznost příčky na monolitickou podlahu
 41
0.85
  7
SIMPLEX7
100
AcDbText
  0
TEXT
  5
1D1D
330
1F
100
AcDbEntity
  8
POPIS
100
AcDbText
 10
-81.9624970687513
 20
448.1316777150062
 30
0.0
 40
35.0
  1
SVISLÝ ŘEZ
 41
0.85
  7
SIMPLEX7
100
AcDbText
  0
TEXT
  5
1D1E
330
1F
100
AcDbEntity
  8
POPIS
100
AcDbText
 10
460.1457250524178
 20
180.3617807296225
 30
0.0
 40
25.0
  1
05
 41
0.85
  7
SIMPLEX7
100
AcDbText
  0
TEXT
  5
1D1F
330
1F
100
AcDbEntity
  8
POPIS
100
AcDbText
 10
514.48942821216
 20
216.2826338721763
 30
0.0
 40
25.0
  1
Vodorovný dřevěný hranolek 80/50 (50/50)
 41
0.7
  7
SIMPLEX7
100
AcDbText
  0
LINE
  5
1D20
330
1F
100
AcDbEntity
  8
STAVBA OBRYS
100
AcDbLine
 10
-73.08154928885085
 20
-51.21396522709773
 30
0.0
 11
326.1912384714738
 21
-51.21396522709773
 31
0.0
  0
LINE
  5
1D21
330
1F
100
AcDbEntity
  8
STAVBA OBRYS
100
AcDbLine
 10
326.1912384714738
 20
0.5326591518281134
 30
0.0
 11
115.9103198773296
 21
0.5326591518281134
 31
0.0
  0
LINE
  5
1D22
330
1F
100
AcDbEntity
  8
STAVBA OBRYS
100
AcDbLine
 10
115.9103198773296
 20
0.5326591518281134
 30
0.0
 11
115.9103198773296
 21
4.762775315630563
 31
0.0
  0
LINE
  5
1D23
330
1F
100
AcDbEntity
  8
STAVBA OBRYS
  6
CIKCAK
 48
0.2
100
AcDbLine
 10
145.486156002749
 20
5.380949688249813
 30
0.0
 11
326.1912384714738
 21
5.380949688249813
 31
0.0
  0
LINE
  5
1D24
330
1F
100
AcDbEntity
  8
STAVBA OBRYS
100
AcDbLine
 10
115.486156002749
 20
4.762775315630563
 30
0.0
 11
145.486156002749
 21
4.762775315630563
 31
0.0
  0
LINE
  5
1D25
330
1F
100
AcDbEntity
  8
STAVBA OBRYS
100
AcDbLine
 10
145.486156002749
 20
4.762775315630563
 30
0.0
 11
145.486156002749
 21
6.762775315630563
 31
0.0
  0
LINE
  5
1D26
330
1F
100
AcDbEntity
  8
STAVBA OBRYS
100
AcDbLine
 10
145.486156002749
 20
6.762775315630563
 30
0.0
 11
117.486156002749
 21
6.762775315630563
 31
0.0
  0
LINE
  5
1D27
330
1F
100
AcDbEntity
  8
STAVBA OBRYS
100
AcDbLine
 10
117.486156002749
 20
6.762775315630563
 30
0.0
 11
117.486156002749
 21
34.76277531563056
 31
0.0
  0
LINE
  5
1D28
330
1F
100
AcDbEntity
  8
STAVBA OBRYS
100
AcDbLine
 10
115.9103198773296
 20
2.727320598187645
 30
0.0
 11
326.1912384714702
 21
2.727320598187645
 31
0.0
  0
LINE
  5
1D29
330
1F
100
AcDbEntity
  8
STAVBA OBRYS
100
AcDbLine
 10
115.486156002749
 20
34.76277531563056
 30
0.0
 11
115.486156002749
 21
4.762775315630563
 31
0.0
  0
LINE
  5
1D2A
330
1F
100
AcDbEntity
  8
STAVBA OBRYS
100
AcDbLine
 10
117.486156002749
 20
34.76277531563056
 30
0.0
 11
115.486156002749
 21
34.76277531563056
 31
0.0
  0
INSERT
  5
1D2B
330
1F
100
AcDbEntity
  8
POPIS
100
AcDbBlockReference
  2
E_PUNKT
 10
64.01583723209808
 20
-0.357413930433438
 30
0.0
 50
270.0
  0
LINE
  5
1D2C
330
1F
100
AcDbEntity
  8
POPIS
100
AcDbLine
 10
64.04490556297208
 20
-0.385024306060302
 30
0.0
 11
-26.30883963825942
 21
72.91148470560648
 31
0.0
  0
HATCH
  5
1D2D
330
1F
100
AcDbEntity
  8
STAVBA OBRYS
100
AcDbHatch
 10
0.0
 20
0.0
 30
0.0
210
0.0
220
0.0
230
1.0
  2
ANSI35
 70
     0
 71
     0
 91
        2
 92
        7
 72
     0
 73
     1
 93
        6
 10
326.1912384714738
 20
-1.21396522709773
 10
105.133004455383
 20
-1.21396522709773
 10
81.02907722555357
 20
-20.54906367056236
 10
81.02907722554993
 20
-47.84941012139706
 10
78.92946640753837
 20
-51.21396522709773
 10
326.1912384714738
 20
-51.21396522709773
 97
        0
 92
        7
 72
     1
 73
     1
 93
        8
 10
73.97814437860109
 20
-1.21396522709773
 42
0.0
 10
64.98051068770621
 20
-1.21396522709773
 42
-0.2146517840404374
 10
64.04490556297208
 20
-1.635024306060302
 42
-0.2146517840404374
 10
63.10930043823794
 20
-1.21396522709773
 42
0.0
 10
-73.08154928885449
 20
-1.21396522709773
 42
0.0
 10
-73.08154928885449
 20
-51.21396522709773
 42
0.0
 10
76.07775519661993
 20
-51.21396522709773
 42
0.0
 10
73.97814437860109
 20
-47.84941012139251
 42
0.0
 97
        0
 75
     0
 76
     1
 52
0.0
 41
2.0
 77
     0
 78
     2
 53
45.0
 43
-26457.64456150951
 44
-2152.601626456472
 45
-8.980256121069151
 46
8.980256121069153
 79
     0
 53
45.0
 43
-26448.66430150951
 44
-2152.601626456472
 45
-8.980256121069151
 46
8.980256121069153
 79
     4
 49
15.875
 49
-3.174999999999999
 49
0.0
 49
-3.174999999999999
 47
0.5553406467409544
 98
        2
 10
172.5028831403466
 20
-39.17128747670875
 10
28.58132244463161
 20
-33.61787918596536
  0
HATCH
  5
1D2E
330
1F
100
AcDbEntity
  8
STAVBA OBRYS
100
AcDbHatch
 10
0.0
 20
0.0
 30
0.0
210
0.0
220
0.0
230
1.0
  2
ANSI35
 70
     0
 71
     0
 91
        1
 92
        7
 72
     0
 73
     1
 93
        3
 10
81.02907722554993
 20
-1.21396522709773
 10
81.02907722555722
 20
-20.54906367056145
 10
105.1330044553902
 20
-1.21396522709773
 97
        0
 75
     0
 76
     1
 52
0.0
 41
2.0
 77
     0
 78
     2
 53
45.0
 43
-26457.64456150951
 44
-2152.601626456472
 45
-8.980256121069151
 46
8.980256121069153
 79
     0
 53
45.0
 43
-26448.66430150951
 44
-2152.601626456472
 45
-8.980256121069151
 46
8.980256121069153
 79
     4
 49
15.875
 49
-3.174999999999999
 49
0.0
 49
-3.174999999999999
 47
0.5553406467409544
 98
        1
 10
86.92791388901936
 20
-4.184821971100689
  0
HATCH
  5
1D2F
330
1F
100
AcDbEntity
  8
CETRIS
100
AcDbHatch
 10
0.0
 20
0.0
 30
0.0
210
0.0
220
0.0
230
1.0
  2
ANSI31
 70
     0
 71
     0
 91
       12
 92
        7
 72
     0
 73
     1
 93
       12
 10
114.7635585796302
 20
345.1478640481203
 10
102.7635585796339
 20
342.9377027698213
 10
102.7635585796302
 20
286.5150889504678
 10
102.9819519502412
 20
286.1377795549017
 10
103.2080835044977
 20
285.465262456468
 10
108.1639613085459
 20
285.465262456468
 10
109.6875892619715
 20
285.6922253473515
 10
111.1014564716712
 20
286.3052111964955
 10
112.3088246545772
 20
287.2632922664836
 10
113.2269081650189
 20
288.5004260753906
 10
113.5636318029024
 20
289.2157312615511
 10
114.7635585796302
 20
289.2157312615511
 97
        0
 92
        7
 72
     0
 73
     1
 93
       15
 10
114.7635585796266
 20
279.0154234842832
 10
113.5636318029024
 20
279.0154234842832
 10
112.8194911664246
 20
280.365108567825
 10
111.750719177016
 20
281.4757384681891
 10
110.4317298987185
 20
282.2719689475109
 10
108.9508900316646
 20
282.6998498118103
 10
108.1639613085459
 20
282.7658922937319
 10
104.1157374092541
 20
282.7658922937319
 10
104.3418689635033
 20
282.0933751953
 10
103.9632874146806
 20
281.7157238199891
 10
103.7456262786396
 20
282.09337519529
 10
103.5194947243322
 20
282.7658922937319
 10
102.7635585796339
 20
282.7658922937319
 10
102.7635585796339
 20
225.0995677425765
 10
114.7635585796302
 20
225.0995677425765
 97
        0
 92
        7
 72
     0
 73
     1
 93
        4
 10
114.7635585796302
 20
225.0995677425765
 10
102.7635585796339
 20
225.0995677425765
 10
102.7635585796339
 20
173.0416516263306
 10
114.7635585796302
 20
173.0416516263306
 97
        0
 92
        7
 72
     0
 73
     1
 93
        4
 10
114.7635585796339
 20
173.0416516263306
 10
102.7635585796339
 20
173.0416516263306
 10
102.7635585796339
 20
118.9754298847659
 10
114.7635585796339
 20
118.9754298847659
 97
        0
 92
        7
 72
     0
 73
     1
 93
        4
 10
114.7635585796302
 20
118.9754298847659
 10
102.7635585796339
 20
118.9754298847659
 10
102.7635585796339
 20
53.27185068996124
 10
114.7635585796339
 20
65.22406911242916
 97
        0
 92
        7
 72
     0
 73
     1
 93
       12
 10
114.7635585796339
 20
65.22406911242825
 10
102.7635585796302
 20
53.27185068996579
 10
102.763558579623
 20
36.51508895047419
 10
102.9819519502485
 20
36.13777955489814
 10
103.2080835044977
 20
35.46526245646811
 10
108.1639613085459
 20
35.46526245646811
 10
109.6875892619715
 20
35.69222534735064
 10
111.1014564716675
 20
36.30521119649376
 10
112.3088246545845
 20
37.26329226649369
 10
113.2269081650262
 20
38.50042607539609
 10
113.5636318029061
 20
39.21573126155118
 10
114.7635585796339
 20
39.21573126155118
 97
        0
 92
        7
 72
     0
 73
     1
 93
       16
 10
114.7635585796302
 20
29.0154234842833
 10
113.5636318029061
 20
29.0154234842833
 10
112.8194911664246
 20
30.36510856783235
 10
111.7507191770233
 20
31.47573846818551
 10
110.4317298987185
 20
32.27196894750915
 10
108.9508900316646
 20
32.69984981181124
 10
108.1639613085495
 20
32.76589229373195
 10
104.1157374092578
 20
32.76589229373195
 10
104.3418689635105
 20
32.09337519530373
 10
103.9632874146806
 20
31.71572381998913
 10
103.7456262786396
 20
32.09337519529464
 10
103.5194947243359
 20
32.76589229373195
 10
102.7635585796339
 20
32.76589229373195
 10
102.7635585796339
 20
3.185629302270456
 10
110.6177195545457
 20
3.185629302273184
 10
114.7635585796339
 20
6.511236989209749
 97
        0
 92
        7
 72
     0
 73
     1
 93
       15
 10
51.53130429488704
 20
32.76589229373195
 10
50.77536815018504
 20
32.76589229373195
 10
50.54923659589952
 20
32.09337519530919
 10
50.33157545983306
 20
31.71572381999277
 10
49.95299391100672
 20
32.09337519530919
 10
50.17912546526315
 20
32.76589229373195
 10
46.13090156597865
 20
32.76589229373195
 10
45.34397284284534
 20
32.69984981181034
 10
43.86313297580602
 20
32.2719689475137
 10
42.54414369749395
 20
31.4757384681946
 10
41.47537170808175
 20
30.36510856783417
 10
40.73123107161848
 20
29.0154234842833
 10
39.53130429488339
 20
29.0154234842833
 10
39.53130429488339
 20
19.50082981380029
 10
51.53130429488339
 20
9.766223836141136
 97
        0
 92
        7
 72
     0
 73
     1
 93
        4
 10
39.53130429489067
 20
19.50082981379665
 10
39.53130429488339
 20
3.185629302270456
 10
51.53130429488704
 20
3.185629302270456
 10
51.53130429488339
 20
9.766223836137498
 97
        0
 92
        7
 72
     0
 73
     1
 93
       12
 10
51.53130429489431
 20
118.9754298847659
 10
39.53130429488703
 20
118.9754298847659
 10
39.53130429488339
 20
39.21573126155118
 10
40.73123107161484
 20
39.21573126155118
 10
41.06795470949475
 20
38.50042607539336
 10
41.98603821994732
 20
37.26329226647186
 10
43.19340640283883
 20
36.30521119649739
 10
44.60727361254214
 20
35.69222534735155
 10
46.13090156596411
 20
35.46526245646811
 10
51.0867793700196
 20
35.46526245646811
 10
51.31291092427966
 20
36.1377795549036
 10
51.53130429488339
 20
36.51508895046601
 97
        0
 92
        7
 72
     0
 73
     1
 93
       15
 10
51.53130429488704
 20
282.7658922937319
 10
50.77536815018504
 20
282.7658922937319
 10
50.54923659589952
 20
282.0933751953146
 10
50.33157545983669
 20
281.7157238199909
 10
49.95299391100672
 20
282.0933751953055
 10
50.17912546525588
 20
282.7658922937319
 10
46.13090156597865
 20
282.7658922937319
 10
45.34397284284534
 20
282.6998498118103
 10
43.86313297579874
 20
282.2719689475127
 10
42.54414369751214
 20
281.4757384681982
 10
41.47537170807447
 20
280.3651085678178
 10
40.73123107161484
 20
279.0154234842832
 10
39.53130429488703
 20
279.0154234842832
 10
39.53130429488703
 20
118.9754298847659
 10
51.53130429489067
 20
118.9754298847659
 97
        0
 92
        7
 72
     0
 73
     1
 93
       12
 10
51.53130429488704
 20
333.5017407181406
 10
39.53130429488703
 20
331.2915794398407
 10
39.53130429488703
 20
289.2157312615511
 10
40.73123107161484
 20
289.2157312615511
 10
41.06795470950203
 20
288.500426075376
 10
41.98603821994004
 20
287.2632922664836
 10
43.19340640283519
 20
286.3052111964992
 10
44.60727361254214
 20
285.6922253473515
 10
46.13090156596775
 20
285.465262456468
 10
51.08677937001232
 20
285.465262456468
 10
51.31291092426875
 20
286.137779554909
 10
51.53130429489067
 20
286.515088950466
 97
        0
 75
     0
 76
     1
 52
90.0
 41
1.0
 77
     0
 78
     1
 53
135.0
 43
-26457.64456150951
 44
-2152.601626456472
 45
-2.245064030267288
 46
-2.245064030267287
 79
     0
 47
0.6660490626292731
 98
       12
 10
110.3032746976347
 20
304.3945417520284
 10
113.6355682123099
 20
234.4593888759848
 10
113.6355682123099
 20
186.5038577172948
 10
112.9691019412708
 20
158.5297988089026
 10
113.6355682123099
 20
105.2458690713995
 10
112.9691019412708
 20
52.62798915624654
 10
108.9703610758148
 20
20.65763131374325
 10
48.32266830140326
 20
25.31998007020621
 10
43.65746116490811
 20
13.3310944780008
 10
46.32328840854427
 20
51.29588951154284
 10
46.32328840854427
 20
130.5557399005122
 10
48.98913457244237
 20
296.4019550939358
  0
HATCH
  5
1D30
330
1F
100
AcDbEntity
  8
STAVBA OBRYS
100
AcDbHatch
 10
0.0
 20
0.0
 30
0.0
210
0.0
220
0.0
230
1.0
  2
AR-CONC
 70
     0
 71
     0
 91
        1
 92
        7
 72
     0
 73
     1
 93
        7
 10
326.1912384714775
 20
-51.21396522709773
 10
78.92946640753473
 20
-51.21396522709773
 10
77.50361080207915
 20
-53.49885046210847
 10
76.07775519661629
 20
-51.21396522709773
 10
-73.08154928885085
 20
-51.21396522709773
 10
-73.08154928884722
 20
-103.6393612664503
 10
326.1912384714738
 20
-103.6393612664503
 97
        0
 75
     0
 76
     1
 52
0.0
 41
0.25
 77
     0
 78
    13
 53
50.0
 43
-26457.64456150951
 44
-2152.601626456472
 45
45.546167249001
 46
-3.984771384725771
 79
     2
 49
4.7625
 49
-52.3875
 53
355.0
 43
-26457.64456150951
 44
-2152.601626456472
 45
-8.810706493916747
 46
47.76416072054499
 79
     2
 49
3.81
 49
-41.90999999999999
 53
100.451
 43
-26453.84906150951
 44
-2152.933688956472
 45
36.73562541648981
 46
43.77917195507296
 79
     2
 49
4.0475
 49
-44.5225
 53
46.1842
 43
-26457.64456150951
 44
-2139.901626456472
 45
67.76976022303248
 46
-10.51058198318178
 79
     2
 49
7.143749999999999
 49
-78.58125
 53
96.63559999999998
 43
-26451.99708650951
 44
-2140.777501456472
 45
59.35105861655928
 46
61.8563889725123
 79
     2
 49
6.071249999999992
 49
-66.78374999999987
 53
351.184
 43
-26457.64456150951
 44
-2139.901626456472
 45
59.35115145348348
 46
61.85627946514942
 79
     2
 49
5.714999999999999
 49
-62.865
 53
21.0
 43
-26451.29456150951
 44
-2143.076626456473
 45
37.90371995884582
 46
-25.56637962919062
 79
     2
 49
4.7625
 49
-52.3875
 53
326.0
 43
-26451.29456150951
 44
-2143.076626456473
 45
15.45050708691176
 46
46.04699153057981
 79
     2
 49
3.81
 49
-41.90999999999999
 53
71.45140000000001
 43
-26448.13593650951
 44
-2145.207151456472
 45
53.35412269253112
 46
20.48071442901436
 79
     2
 49
4.0475
 49
-44.5225
 53
37.5
 43
-26457.64456150951
 44
-2152.601626456472
 45
0.7721508126479542
 46
21.13875971828827
 79
     6
 49
0.0
 49
-41.402
 49
0.0
 49
-42.545
 49
0.0
 49
-42.06875
 53
7.499999999999999
 43
-26457.64456150951
 44
-2152.601626456472
 45
16.70491562757643
 46
25.04514370452987
 79
     6
 49
0.0
 49
-24.25699999999999
 49
0.0
 49
-40.4495
 49
0.0
 49
-16.03375
 53
327.4999999999999
 43
-26471.80506150951
 44
-2152.601626456472
 45
33.89764879171784
 46
-1.432185998168366
 79
     6
 49
0.0
 49
-15.875
 49
0.0
 49
-49.53
 49
0.0
 49
-65.7225
 53
317.5
 43
-26478.15506150951
 44
-2152.601626456472
 45
37.03229534650451
 46
6.356622758333253
 79
     6
 49
0.0
 49
-20.6375
 49
0.0
 49
-32.893
 49
0.0
 49
-46.6725
 47
2.548257043184555
 98
        1
 10
130.7388996123441
 20
-81.04444919145288
  0
ENDSEC
  0
SECTION
  2
OBJECTS
  0
DICTIONARY
  5
C
330
0
100
AcDbDictionary
281
     1
  3
ACAD_GROUP
350
D
  3
ACAD_LAYOUT
350
1A
  3
ACAD_MLINESTYLE
350
17
  3
ACAD_PLOTSETTINGS
350
19
  3
ACAD_PLOTSTYLENAME
350
E
  0
DICTIONARY
  5
D
102
{ACAD_REACTORS
330
C
102
}
330
C
100
AcDbDictionary
281
     1
  0
DICTIONARY
  5
1A
102
{ACAD_REACTORS
330
C
102
}
330
C
100
AcDbDictionary
281
     1
  3
Model
350
22
  3
Rozvržení1
350
1E
  3
Rozvržení2
350
26
  0
DICTIONARY
  5
17
102
{ACAD_REACTORS
330
C
102
}
330
C
100
AcDbDictionary
281
     1
  3
Standard
350
18
  0
DICTIONARY
  5
19
102
{ACAD_REACTORS
330
C
102
}
330
C
100
AcDbDictionary
281
     1
  0
ACDBDICTIONARYWDFLT
  5
E
102
{ACAD_REACTORS
330
C
102
}
330
C
100
AcDbDictionary
281
     1
  3
Normal
350
F
100
AcDbDictionaryWithDefault
340
F
  0
LAYOUT
  5
22
102
{ACAD_REACTORS
330
1A
102
}
330
1A
100
AcDbPlotSettings
  1

  2
HP DeskJet 690C
  4

  6

 40
0.0
 41
0.0
 42
0.0
 43
0.0
 44
0.0
 45
0.0
 46
0.0
 47
0.0
 48
0.0
 49
0.0
140
0.0
141
0.0
142
1.0
143
1.0
 70
  1712
 72
     0
 73
     0
 74
     0
  7
monochrome.ctb
 75
     0
147
1.0
148
0.0
149
0.0
100
AcDbLayout
  1
Model
 70
     1
 71
     0
 10
0.0
 20
0.0
 11
12.0
 21
9.0
 12
0.0
 22
0.0
 32
0.0
 14
0.0
 24
0.0
 34
0.0
 15
0.0
 25
0.0
 35
0.0
146
0.0
 13
0.0
 23
0.0
 33
0.0
 16
1.0
 26
0.0
 36
0.0
 17
0.0
 27
1.0
 37
0.0
 76
     0
330
1F
  0
LAYOUT
  5
1E
102
{ACAD_REACTORS
330
1A
102
}
330
1A
100
AcDbPlotSettings
  1

  2
HP DeskJet 690C
  4

  6

 40
0.0
 41
0.0
 42
0.0
 43
0.0
 44
0.0
 45
0.0
 46
0.0
 47
0.0
 48
0.0
 49
0.0
140
0.0
141
0.0
142
1.0
143
1.0
 70
   688
 72
     0
 73
     0
 74
     5
  7
monochrome.ctb
 75
    16
147
1.0
148
0.0
149
0.0
100
AcDbLayout
  1
Rozvržení1
 70
     1
 71
     1
 10
0.0
 20
0.0
 11
420.0
 21
297.0
 12
0.0
 22
0.0
 32
0.0
 14
1.000000000000000E+20
 24
1.000000000000000E+20
 34
1.000000000000000E+20
 15
-1.000000000000000E+20
 25
-1.000000000000000E+20
 35
-1.000000000000000E+20
146
0.0
 13
0.0
 23
0.0
 33
0.0
 16
1.0
 26
0.0
 36
0.0
 17
0.0
 27
1.0
 37
0.0
 76
     0
330
1B
  0
LAYOUT
  5
26
102
{ACAD_REACTORS
330
1A
102
}
330
1A
100
AcDbPlotSettings
  1

  2
HP DeskJet 690C
  4

  6

 40
0.0
 41
0.0
 42
0.0
 43
0.0
 44
0.0
 45
0.0
 46
0.0
 47
0.0
 48
0.0
 49
0.0
140
0.0
141
0.0
142
1.0
143
1.0
 70
   688
 72
     0
 73
     0
 74
     5
  7
monochrome.ctb
 75
    16
147
1.0
148
0.0
149
0.0
100
AcDbLayout
  1
Rozvržení2
 70
     1
 71
     2
 10
0.0
 20
0.0
 11
12.0
 21
9.0
 12
0.0
 22
0.0
 32
0.0
 14
0.0
 24
0.0
 34
0.0
 15
0.0
 25
0.0
 35
0.0
146
0.0
 13
0.0
 23
0.0
 33
0.0
 16
1.0
 26
0.0
 36
0.0
 17
0.0
 27
1.0
 37
0.0
 76
     0
330
23
  0
MLINESTYLE
  5
18
102
{ACAD_REACTORS
330
17
102
}
330
17
100
AcDbMlineStyle
  2
STANDARD
 70
     0
  3

 62
   256
 51
90.0
 52
90.0
 71
     2
 49
0.5
 62
   256
  6
BYLAYER
 49
-0.5
 62
   256
  6
BYLAYER
  0
ACDBPLACEHOLDER
  5
F
102
{ACAD_REACTORS
330
E
102
}
330
E
  0
ENDSEC
  0
EOF
