  0
SECTION
  2
HEADER
  9
$ACADVER
  1
AC1015
  9
$ACADMAINTVER
 70
    10
  9
$DWGCODEPAGE
  3
ANSI_1250
  9
$INSBASE
 10
0.0
 20
0.0
 30
0.0
  9
$EXTMIN
 10
-138.9317472303935
 20
-90.83272676208219
 30
0.0
  9
$EXTMAX
 10
1196.277565798422
 20
474.4086057484303
 30
0.0
  9
$LIMMIN
 10
0.0
 20
0.0
  9
$LIMMAX
 10
420.0
 20
297.0
  9
$ORTHOMODE
 70
     0
  9
$REGENMODE
 70
     1
  9
$FILLMODE
 70
     1
  9
$QTEXTMODE
 70
     0
  9
$MIRRTEXT
 70
     1
  9
$LTSCALE
 40
1.0
  9
$ATTMODE
 70
     1
  9
$TEXTSIZE
 40
2.5
  9
$TRACEWID
 40
1.0
  9
$TEXTSTYLE
  7
Standard
  9
$CLAYER
  8
0
  9
$CELTYPE
  6
ByLayer
  9
$CECOLOR
 62
   256
  9
$CELTSCALE
 40
1.0
  9
$DISPSILH
 70
     0
  9
$DIMSCALE
 40
1.0
  9
$DIMASZ
 40
2.5
  9
$DIMEXO
 40
0.625
  9
$DIMDLI
 40
3.75
  9
$DIMRND
 40
0.0
  9
$DIMDLE
 40
0.0
  9
$DIMEXE
 40
1.25
  9
$DIMTP
 40
0.0
  9
$DIMTM
 40
0.0
  9
$DIMTXT
 40
2.5
  9
$DIMCEN
 40
2.5
  9
$DIMTSZ
 40
0.0
  9
$DIMTOL
 70
     0
  9
$DIMLIM
 70
     0
  9
$DIMTIH
 70
     0
  9
$DIMTOH
 70
     0
  9
$DIMSE1
 70
     0
  9
$DIMSE2
 70
     0
  9
$DIMTAD
 70
     1
  9
$DIMZIN
 70
     8
  9
$DIMBLK
  1

  9
$DIMASO
 70
     1
  9
$DIMSHO
 70
     1
  9
$DIMPOST
  1

  9
$DIMAPOST
  1

  9
$DIMALT
 70
     0
  9
$DIMALTD
 70
     3
  9
$DIMALTF
 40
0.03937007874016
  9
$DIMLFAC
 40
1.0
  9
$DIMTOFL
 70
     1
  9
$DIMTVP
 40
0.0
  9
$DIMTIX
 70
     0
  9
$DIMSOXD
 70
     0
  9
$DIMSAH
 70
     0
  9
$DIMBLK1
  1

  9
$DIMBLK2
  1

  9
$DIMSTYLE
  2
ISO-25
  9
$DIMCLRD
 70
     0
  9
$DIMCLRE
 70
     0
  9
$DIMCLRT
 70
     0
  9
$DIMTFAC
 40
1.0
  9
$DIMGAP
 40
0.625
  9
$DIMJUST
 70
     0
  9
$DIMSD1
 70
     0
  9
$DIMSD2
 70
     0
  9
$DIMTOLJ
 70
     0
  9
$DIMTZIN
 70
     8
  9
$DIMALTZ
 70
     0
  9
$DIMALTTZ
 70
     0
  9
$DIMUPT
 70
     0
  9
$DIMDEC
 70
     2
  9
$DIMTDEC
 70
     2
  9
$DIMALTU
 70
     2
  9
$DIMALTTD
 70
     3
  9
$DIMTXSTY
  7
Standard
  9
$DIMAUNIT
 70
     0
  9
$DIMADEC
 70
     0
  9
$DIMALTRND
 40
0.0
  9
$DIMAZIN
 70
     0
  9
$DIMDSEP
 70
    44
  9
$DIMATFIT
 70
     3
  9
$DIMFRAC
 70
     0
  9
$DIMLDRBLK
  1

  9
$DIMLUNIT
 70
     2
  9
$DIMLWD
 70
    -2
  9
$DIMLWE
 70
    -2
  9
$DIMTMOVE
 70
     0
  9
$LUNITS
 70
     2
  9
$LUPREC
 70
     4
  9
$SKETCHINC
 40
1.0
  9
$FILLETRAD
 40
10.0
  9
$AUNITS
 70
     0
  9
$AUPREC
 70
     0
  9
$MENU
  1
.
  9
$ELEVATION
 40
0.0
  9
$PELEVATION
 40
0.0
  9
$THICKNESS
 40
0.0
  9
$LIMCHECK
 70
     0
  9
$CHAMFERA
 40
10.0
  9
$CHAMFERB
 40
10.0
  9
$CHAMFERC
 40
20.0
  9
$CHAMFERD
 40
0.0
  9
$SKPOLY
 70
     0
  9
$TDCREATE
 40
2452333.440837384
  9
$TDUCREATE
 40
2452333.399170718
  9
$TDUPDATE
 40
2452653.352670347
  9
$TDUUPDATE
 40
2452653.311003680
  9
$TDINDWG
 40
0.0028482407
  9
$TDUSRTIMER
 40
0.0028469676
  9
$USRTIMER
 70
     1
  9
$ANGBASE
 50
0.0
  9
$ANGDIR
 70
     0
  9
$PDMODE
 70
     0
  9
$PDSIZE
 40
0.0
  9
$PLINEWID
 40
0.0
  9
$SPLFRAME
 70
     0
  9
$SPLINETYPE
 70
     6
  9
$SPLINESEGS
 70
     8
  9
$HANDSEED
  5
1314
  9
$SURFTAB1
 70
     6
  9
$SURFTAB2
 70
     6
  9
$SURFTYPE
 70
     6
  9
$SURFU
 70
     6
  9
$SURFV
 70
     6
  9
$UCSBASE
  2

  9
$UCSNAME
  2

  9
$UCSORG
 10
0.0
 20
0.0
 30
0.0
  9
$UCSXDIR
 10
1.0
 20
0.0
 30
0.0
  9
$UCSYDIR
 10
0.0
 20
1.0
 30
0.0
  9
$UCSORTHOREF
  2

  9
$UCSORTHOVIEW
 70
     0
  9
$UCSORGTOP
 10
0.0
 20
0.0
 30
0.0
  9
$UCSORGBOTTOM
 10
0.0
 20
0.0
 30
0.0
  9
$UCSORGLEFT
 10
0.0
 20
0.0
 30
0.0
  9
$UCSORGRIGHT
 10
0.0
 20
0.0
 30
0.0
  9
$UCSORGFRONT
 10
0.0
 20
0.0
 30
0.0
  9
$UCSORGBACK
 10
0.0
 20
0.0
 30
0.0
  9
$PUCSBASE
  2

  9
$PUCSNAME
  2

  9
$PUCSORG
 10
0.0
 20
0.0
 30
0.0
  9
$PUCSXDIR
 10
1.0
 20
0.0
 30
0.0
  9
$PUCSYDIR
 10
0.0
 20
1.0
 30
0.0
  9
$PUCSORTHOREF
  2

  9
$PUCSORTHOVIEW
 70
     0
  9
$PUCSORGTOP
 10
0.0
 20
0.0
 30
0.0
  9
$PUCSORGBOTTOM
 10
0.0
 20
0.0
 30
0.0
  9
$PUCSORGLEFT
 10
0.0
 20
0.0
 30
0.0
  9
$PUCSORGRIGHT
 10
0.0
 20
0.0
 30
0.0
  9
$PUCSORGFRONT
 10
0.0
 20
0.0
 30
0.0
  9
$PUCSORGBACK
 10
0.0
 20
0.0
 30
0.0
  9
$USERI1
 70
     0
  9
$USERI2
 70
     0
  9
$USERI3
 70
     0
  9
$USERI4
 70
     0
  9
$USERI5
 70
     0
  9
$USERR1
 40
0.0
  9
$USERR2
 40
0.0
  9
$USERR3
 40
0.0
  9
$USERR4
 40
0.0
  9
$USERR5
 40
0.0
  9
$WORLDVIEW
 70
     1
  9
$SHADEDGE
 70
     3
  9
$SHADEDIF
 70
    70
  9
$TILEMODE
 70
     1
  9
$MAXACTVP
 70
    64
  9
$PINSBASE
 10
0.0
 20
0.0
 30
0.0
  9
$PLIMCHECK
 70
     0
  9
$PEXTMIN
 10
1.000000000000000E+20
 20
1.000000000000000E+20
 30
1.000000000000000E+20
  9
$PEXTMAX
 10
-1.000000000000000E+20
 20
-1.000000000000000E+20
 30
-1.000000000000000E+20
  9
$PLIMMIN
 10
0.0
 20
0.0
  9
$PLIMMAX
 10
420.0
 20
297.0
  9
$UNITMODE
 70
     0
  9
$VISRETAIN
 70
     1
  9
$PLINEGEN
 70
     0
  9
$PSLTSCALE
 70
     1
  9
$TREEDEPTH
 70
  3020
  9
$CMLSTYLE
  2
Standard
  9
$CMLJUST
 70
     0
  9
$CMLSCALE
 40
20.0
  9
$PROXYGRAPHICS
 70
     1
  9
$MEASUREMENT
 70
     1
  9
$CELWEIGHT
370
    -1
  9
$ENDCAPS
280
     0
  9
$JOINSTYLE
280
     0
  9
$LWDISPLAY
290
     0
  9
$INSUNITS
 70
     4
  9
$HYPERLINKBASE
  1

  9
$STYLESHEET
  1

  9
$XEDIT
290
     1
  9
$CEPSNTYPE
380
     0
  9
$PSTYLEMODE
290
     1
  9
$FINGERPRINTGUID
  2
{E0A79919-1611-4D48-A6CF-929FE36A9D62}
  9
$VERSIONGUID
  2
{DFF394C5-3C81-4E43-99AF-99369ACC92E0}
  9
$EXTNAMES
290
     1
  9
$PSVPSCALE
 40
0.0
  9
$OLESTARTUP
290
     0
  0
ENDSEC
  0
SECTION
  2
CLASSES
  0
CLASS
  1
ACDBDICTIONARYWDFLT
  2
AcDbDictionaryWithDefault
  3
AutoCAD 2000
 90
        0
280
     0
281
     0
  0
CLASS
  1
ACDBPLACEHOLDER
  2
AcDbPlaceHolder
  3
AutoCAD 2000
 90
        0
280
     0
281
     0
  0
CLASS
  1
LAYOUT
  2
AcDbLayout
  3
AutoCAD 2000
 90
        0
280
     0
281
     0
  0
ENDSEC
  0
SECTION
  2
TABLES
  0
TABLE
  2
VPORT
  5
8
330
0
100
AcDbSymbolTable
 70
     2
  0
VPORT
  5
1313
330
8
100
AcDbSymbolTableRecord
100
AcDbViewportTableRecord
  2
*Active
 70
     0
 10
0.0
 20
0.0
 11
1.0
 21
1.0
 12
527.5000608309035
 22
199.1888689773081
 13
0.0
 23
0.0
 14
10.0
 24
10.0
 15
10.0
 25
10.0
 16
0.0
 26
0.0
 36
1.0
 17
0.0
 27
0.0
 37
0.0
 40
698.5762249813674
 41
1.974409448818897
 42
50.0
 43
0.0
 44
0.0
 50
0.0
 51
0.0
 71
     0
 72
   100
 73
     1
 74
     3
 75
     0
 76
     0
 77
     0
 78
     0
281
     0
 65
     1
110
0.0
120
0.0
130
0.0
111
1.0
121
0.0
131
0.0
112
0.0
122
1.0
132
0.0
 79
     0
146
0.0
  0
ENDTAB
  0
TABLE
  2
LTYPE
  5
5
330
0
100
AcDbSymbolTable
 70
     5
  0
LTYPE
  5
14
330
5
100
AcDbSymbolTableRecord
100
AcDbLinetypeTableRecord
  2
ByBlock
 70
     0
  3

 72
    65
 73
     0
 40
0.0
  0
LTYPE
  5
15
330
5
100
AcDbSymbolTableRecord
100
AcDbLinetypeTableRecord
  2
ByLayer
 70
     0
  3

 72
    65
 73
     0
 40
0.0
  0
LTYPE
  5
16
330
5
100
AcDbSymbolTableRecord
100
AcDbLinetypeTableRecord
  2
Continuous
 70
     0
  3
Solid line
 72
    65
 73
     0
 40
0.0
  0
LTYPE
  5
33
330
5
100
AcDbSymbolTableRecord
100
AcDbLinetypeTableRecord
  2
DASHED
 70
     0
  3
Dashed __ __ __ __ __ __ __ __ __ __ __ __ __ _
 72
    65
 73
     2
 40
19.04999999999999
 49
12.7
 74
     0
 49
-6.349999999999999
 74
     0
  0
LTYPE
  5
34
330
5
100
AcDbSymbolTableRecord
100
AcDbLinetypeTableRecord
  2
DASHDOT2
 70
     0
  3
Dash dot (.5x) _._._._._._._._._._._._._._._.
 72
    65
 73
     4
 40
12.7
 49
6.349999999999999
 74
     0
 49
-3.174999999999999
 74
     0
 49
0.0
 74
     0
 49
-3.174999999999999
 74
     0
  0
LTYPE
  5
35
330
5
100
AcDbSymbolTableRecord
100
AcDbLinetypeTableRecord
  2
CIKCAK
 70
     0
  3
Cik-cak /\/\/\/\/\/\/\/\/\/\/\/\/\/\/\/\/\/\/\/
 72
    65
 73
     4
 40
20.32254
 49
0.00254
 74
     0
 49
-5.08
 74
     4
 75
   131
340
3E
 46
5.08
 50
0.0
 44
-5.08
 45
0.0
 49
-10.16
 74
     4
 75
   131
340
3E
 46
5.08
 50
180.0
 44
5.08
 45
0.0
 49
-5.08
 74
     0
  0
LTYPE
  5
36
330
5
100
AcDbSymbolTableRecord
100
AcDbLinetypeTableRecord
  2
IZOLACE
 70
     0
  3
Izolace SSSSSSSSSSSSSSSSSSSSSSSSSSSSSSSSSSSSSSS
 72
    65
 73
     4
 40
10.16253999999999
 49
0.00254
 74
     0
 49
-2.54
 74
     4
 75
   134
340
3E
 46
2.54
 50
0.0
 44
-2.54
 45
0.0
 49
-5.08
 74
     4
 75
   134
340
3E
 46
2.54
 50
180.0
 44
2.54
 45
0.0
 49
-2.54
 74
     0
  0
ENDTAB
  0
TABLE
  2
LAYER
  5
2
330
0
100
AcDbSymbolTable
 70
     7
  0
LAYER
  5
10
330
2
100
AcDbSymbolTableRecord
100
AcDbLayerTableRecord
  2
0
 70
     0
 62
     7
  6
Continuous
370
    -3
390
F
  0
LAYER
  5
37
330
2
100
AcDbSymbolTableRecord
100
AcDbLayerTableRecord
  2
POPIS
 70
     0
 62
    30
  6
Continuous
370
    -3
390
F
  0
LAYER
  5
38
330
2
100
AcDbSymbolTableRecord
100
AcDbLayerTableRecord
  2
SPOJOVACÍ
 70
     0
 62
   180
  6
Continuous
370
    -3
390
F
  0
LAYER
  5
39
330
2
100
AcDbSymbolTableRecord
100
AcDbLayerTableRecord
  2
CETRIS
 70
     0
 62
     1
  6
Continuous
370
    -3
390
F
  0
LAYER
  5
3A
330
2
100
AcDbSymbolTableRecord
100
AcDbLayerTableRecord
  2
NOSNÉ KONSTRUKCE
 70
     0
 62
    33
  6
Continuous
370
    -3
390
F
  0
LAYER
  5
3B
330
2
100
AcDbSymbolTableRecord
100
AcDbLayerTableRecord
  2
izolace
 70
     0
 62
    73
  6
Continuous
370
    -3
390
F
  0
LAYER
  5
3C
330
2
100
AcDbSymbolTableRecord
100
AcDbLayerTableRecord
  2
STAVBA OBRYS
 70
     0
 62
     6
  6
Continuous
370
    -3
390
F
  0
ENDTAB
  0
TABLE
  2
STYLE
  5
3
330
0
100
AcDbSymbolTable
 70
     3
  0
STYLE
  5
11
330
3
100
AcDbSymbolTableRecord
100
AcDbTextStyleTableRecord
  2
Standard
 70
     0
 40
0.0
 41
1.0
 50
0.0
 71
     0
 42
2.5
  3
txt
  4

  0
STYLE
  5
3D
330
3
100
AcDbSymbolTableRecord
100
AcDbTextStyleTableRecord
  2
SIMPLEX7
 70
     0
 40
0.0
 41
0.85
 50
0.0
 71
     0
 42
102.0
  3

  4

1001
ACAD
1000
Arial CE
1071
    60962
  0
STYLE
  5
3E
330
3
100
AcDbSymbolTableRecord
100
AcDbTextStyleTableRecord
  2

 70
     1
 40
0.0
 41
1.0
 50
0.0
 71
     0
 42
2.5
  3
ltypeshp.shx
  4

  0
ENDTAB
  0
TABLE
  2
VIEW
  5
6
330
0
100
AcDbSymbolTable
 70
     0
  0
ENDTAB
  0
TABLE
  2
UCS
  5
7
330
0
100
AcDbSymbolTable
 70
     0
  0
ENDTAB
  0
TABLE
  2
APPID
  5
9
330
0
100
AcDbSymbolTable
 70
     1
  0
APPID
  5
12
330
9
100
AcDbSymbolTableRecord
100
AcDbRegAppTableRecord
  2
ACAD
 70
     0
  0
ENDTAB
  0
TABLE
  2
DIMSTYLE
  5
A
330
0
100
AcDbSymbolTable
 70
     1
100
AcDbDimStyleTable
 71
     0
  0
DIMSTYLE
105
27
330
A
100
AcDbSymbolTableRecord
100
AcDbDimStyleTableRecord
  2
ISO-25
 70
     0
 41
2.5
 42
0.625
 43
3.75
 44
1.25
 73
     0
 74
     0
 77
     1
 78
     8
140
2.5
141
2.5
143
0.03937007874016
147
0.625
171
     3
172
     1
271
     2
272
     2
274
     3
278
    44
283
     0
284
     8
340
11
  0
ENDTAB
  0
TABLE
  2
BLOCK_RECORD
  5
1
330
0
100
AcDbSymbolTable
 70
     2
  0
BLOCK_RECORD
  5
1F
330
1
100
AcDbSymbolTableRecord
100
AcDbBlockTableRecord
  2
*Model_Space
340
22
  0
BLOCK_RECORD
  5
1B
330
1
100
AcDbSymbolTableRecord
100
AcDbBlockTableRecord
  2
*Paper_Space
340
1E
  0
BLOCK_RECORD
  5
23
330
1
100
AcDbSymbolTableRecord
100
AcDbBlockTableRecord
  2
*Paper_Space0
340
26
  0
BLOCK_RECORD
  5
2B
330
1
100
AcDbSymbolTableRecord
100
AcDbBlockTableRecord
  2
E_PUNKT
340
0
102
{BLKREFS
331
10AB
331
10B2
331
10B7
331
10BD
331
10BF
331
103F
102
}
  0
ENDTAB
  0
ENDSEC
  0
SECTION
  2
BLOCKS
  0
BLOCK
  5
20
330
1F
100
AcDbEntity
  8
0
100
AcDbBlockBegin
  2
*Model_Space
 70
     0
 10
0.0
 20
0.0
 30
0.0
  3
*Model_Space
  1

  0
ENDBLK
  5
21
330
1F
100
AcDbEntity
  8
0
100
AcDbBlockEnd
  0
BLOCK
  5
1C
330
1B
100
AcDbEntity
 67
     1
  8
0
100
AcDbBlockBegin
  2
*Paper_Space
 70
     0
 10
0.0
 20
0.0
 30
0.0
  3
*Paper_Space
  1

  0
ENDBLK
  5
1D
330
1B
100
AcDbEntity
 67
     1
  8
0
100
AcDbBlockEnd
  0
BLOCK
  5
24
330
23
100
AcDbEntity
  8
0
100
AcDbBlockBegin
  2
*Paper_Space0
 70
     0
 10
0.0
 20
0.0
 30
0.0
  3
*Paper_Space0
  1

  0
ENDBLK
  5
25
330
23
100
AcDbEntity
  8
0
100
AcDbBlockEnd
  0
BLOCK
  5
2D
330
2B
100
AcDbEntity
  8
0
100
AcDbBlockBegin
  2
E_PUNKT
 70
     0
 10
0.0
 20
0.0
 30
0.0
  3
E_PUNKT
  1

  0
LWPOLYLINE
  5
2C
330
2B
100
AcDbEntity
  8
POPIS
100
AcDbPolyline
 90
        2
 70
     1
 43
2.5
 10
1.27761037562675
 20
0.0290683308725193
 42
-1.0
 10
-1.222389624373249
 20
0.0290683308725193
 42
-1.0
  0
ENDBLK
  5
2E
330
2B
100
AcDbEntity
  8
0
100
AcDbBlockEnd
  0
ENDSEC
  0
SECTION
  2
ENTITIES
  0
HATCH
  5
103E
330
1F
100
AcDbEntity
  8
STAVBA OBRYS
100
AcDbHatch
 10
0.0
 20
0.0
 30
0.0
210
0.0
220
0.0
230
1.0
  2
AR-CONC
 70
     0
 71
     0
 91
        3
 92
        7
 72
     0
 73
     1
 93
        4
 10
110.3161437810579
 20
90.53548554174756
 10
97.90208121700766
 20
90.53548554174666
 10
97.90208121700766
 20
61.87638115416518
 10
110.3161437810579
 20
61.87638115416428
 97
        0
 92
        7
 72
     0
 73
     1
 93
        6
 10
110.3161437810579
 20
54.82544830721725
 10
97.9020812170113
 20
54.82544830721542
 10
97.9020812170113
 20
32.54374467672494
 10
102.409735505664
 20
26.37860822349955
 10
110.3161437810615
 20
26.37860822349773
 10
110.3161437810615
 20
32.37860822349864
 97
        0
 92
       22
 72
     0
 73
     1
 93
        3
 10
97.9020812170113
 20
32.54374467672767
 10
97.9020812170113
 20
26.37860822349864
 10
102.4097355056567
 20
26.37860822349955
 97
        0
 75
     0
 76
     1
 52
90.0
 41
0.1
 77
     0
 78
    13
 53
140.0
 43
-27127.58086247478
 44
-6967.423492343269
 45
1.593908553890309
 46
18.2184668996004
 79
     2
 49
1.905
 49
-20.955
 53
85.00000000000001
 43
-27127.58086247478
 44
-6967.423492343269
 45
-19.10566428821799
 46
-3.524282597566697
 79
     2
 49
1.524
 49
-16.764
 53
190.4509999999999
 43
-27127.44803747479
 44
-6965.905292343268
 45
-17.51166878202918
 46
14.69425016659592
 79
     2
 49
1.619
 49
-17.809
 53
136.1841999999999
 43
-27132.66086247478
 44
-6967.423492343269
 45
4.204232793272717
 46
27.10790408921299
 79
     2
 49
2.857499999999999
 49
-31.4325
 53
186.6355999999999
 43
-27132.31051247479
 44
-6965.164502343269
 45
-24.74255558900492
 46
23.74042344662371
 79
     2
 49
2.4285
 49
-26.7135
 53
81.18400000000004
 43
-27132.66086247478
 44
-6967.423492343269
 45
-24.74251178605976
 46
23.74046058139339
 79
     2
 49
2.286
 49
-25.146
 53
111.0
 43
-27131.39086247478
 44
-6964.883492343268
 45
10.22655185167625
 46
15.16148798353833
 79
     2
 49
1.905
 49
-20.955
 53
56.00000000000004
 43
-27131.39086247478
 44
-6964.883492343268
 45
-18.41879661223192
 46
6.180202834764708
 79
     2
 49
1.524
 49
-16.764
 53
161.4514
 43
-27130.53865247478
 44
-6963.620042343269
 45
-8.192285771605742
 46
21.34164907701245
 79
     2
 49
1.618999999999999
 49
-17.80899999999999
 53
127.5
 43
-27127.58086247478
 44
-6967.423492343269
 45
-8.455503887315311
 46
0.3088603250591822
 79
     6
 49
0.0
 49
-16.5608
 49
0.0
 49
-17.018
 49
0.0
 49
-16.8275
 53
97.5
 43
-27127.58086247478
 44
-6967.423492343269
 45
-10.01805748181195
 46
6.681966251030575
 79
     6
 49
0.0
 49
-9.702799999999999
 49
0.0
 49
-16.1798
 49
0.0
 49
-6.4135
 53
57.5
 43
-27127.58086247478
 44
-6973.087692343269
 45
0.5728743992673473
 46
13.55905951668713
 79
     6
 49
0.0
 49
-6.35
 49
0.0
 49
-19.812
 49
0.0
 49
-26.289
 53
47.5
 43
-27127.58086247478
 44
-6975.62769234327
 45
-2.5426491033333
 46
14.8129181386018
 79
     6
 49
0.0
 49
-8.255
 49
0.0
 49
-13.1572
 49
0.0
 49
-18.669
 47
0.3459110219491153
 98
        3
 10
106.416933119219
 20
74.01381536956648
 10
105.0325313306841
 20
45.64911450223042
 10
99.49492417653733
 20
28.00765484313558
  0
INSERT
  5
103F
330
1F
100
AcDbEntity
  8
POPIS
100
AcDbBlockReference
  2
E_PUNKT
 10
79.005496625776
 20
58.32184639981767
 30
0.0
  0
LINE
  5
1040
330
1F
100
AcDbEntity
  8
SPOJOVACÍ
  6
CIKCAK
 48
0.25
100
AcDbLine
 10
117.532576145297
 20
54.82544830721725
 30
0.0
 11
74.22588681401089
 21
54.82544830721451
 31
0.0
  0
LINE
  5
1041
330
1F
100
AcDbEntity
  8
SPOJOVACÍ
  6
CIKCAK
 48
0.25
100
AcDbLine
 10
117.532576145297
 20
61.87638115416518
 30
0.0
 11
74.22588681400725
 21
61.87638115416518
 31
0.0
  0
LINE
  5
1042
330
1F
100
AcDbEntity
  8
SPOJOVACÍ
  6
Continuous
100
AcDbLine
 10
107.8899054796222
 20
61.19699105361121
 30
0.0
 11
106.4668673181643
 21
55.50483840776848
 31
0.0
  0
LINE
  5
1043
330
1F
100
AcDbEntity
  8
SPOJOVACÍ
  6
Continuous
100
AcDbLine
 10
107.8899054796222
 20
61.19699105361121
 30
0.0
 11
107.6317729760869
 21
60.74912012570383
 31
0.0
  0
LINE
  5
1044
330
1F
100
AcDbEntity
  8
SPOJOVACÍ
  6
Continuous
100
AcDbLine
 10
107.8899054796222
 20
61.19699105361121
 30
0.0
 11
108.3388795355115
 21
60.74912012570383
 31
0.0
  0
LINE
  5
1045
330
1F
100
AcDbEntity
  8
SPOJOVACÍ
  6
Continuous
100
AcDbLine
 10
106.4668673181643
 20
55.50483840776848
 30
0.0
 11
106.0189963928444
 21
55.95270933049903
 31
0.0
  0
LINE
  5
1046
330
1F
100
AcDbEntity
  8
SPOJOVACÍ
  6
Continuous
100
AcDbLine
 10
106.4668673181643
 20
55.50483840776848
 30
0.0
 11
106.7261029522653
 21
55.95270933049903
 31
0.0
  0
LINE
  5
1047
330
1F
100
AcDbEntity
  8
SPOJOVACÍ
  6
Continuous
100
AcDbLine
 10
107.6317729760869
 20
60.74912012570383
 30
0.0
 11
106.0189963928444
 21
55.95270933049903
 31
0.0
  0
LINE
  5
1048
330
1F
100
AcDbEntity
  8
SPOJOVACÍ
  6
Continuous
100
AcDbLine
 10
108.3388795355115
 20
60.74912012570383
 30
0.0
 11
106.7261029522653
 21
55.95270933049903
 31
0.0
  0
LINE
  5
1049
330
1F
100
AcDbEntity
  8
SPOJOVACÍ
  6
Continuous
100
AcDbLine
 10
111.2858953938723
 20
61.19699105361121
 30
0.0
 11
109.8628572324144
 21
55.50483840776848
 31
0.0
  0
LINE
  5
104A
330
1F
100
AcDbEntity
  8
SPOJOVACÍ
  6
Continuous
100
AcDbLine
 10
111.2858953938723
 20
61.19699105361121
 30
0.0
 11
111.027762890337
 21
60.74912012570383
 31
0.0
  0
LINE
  5
104B
330
1F
100
AcDbEntity
  8
SPOJOVACÍ
  6
Continuous
100
AcDbLine
 10
111.2858953938723
 20
61.19699105361121
 30
0.0
 11
111.7348694497616
 21
60.74912012570383
 31
0.0
  0
LINE
  5
104C
330
1F
100
AcDbEntity
  8
SPOJOVACÍ
  6
Continuous
100
AcDbLine
 10
109.8628572324144
 20
55.50483840776848
 30
0.0
 11
109.4149863070945
 21
55.95270933049903
 31
0.0
  0
LINE
  5
104D
330
1F
100
AcDbEntity
  8
SPOJOVACÍ
  6
Continuous
100
AcDbLine
 10
109.8628572324144
 20
55.50483840776848
 30
0.0
 11
110.1220928665154
 21
55.95270933049903
 31
0.0
  0
LINE
  5
104E
330
1F
100
AcDbEntity
  8
SPOJOVACÍ
  6
Continuous
100
AcDbLine
 10
111.027762890337
 20
60.74912012570383
 30
0.0
 11
109.4149863070945
 21
55.95270933049903
 31
0.0
  0
LINE
  5
104F
330
1F
100
AcDbEntity
  8
SPOJOVACÍ
  6
Continuous
100
AcDbLine
 10
111.7348694497616
 20
60.74912012570383
 30
0.0
 11
110.1220928665154
 21
55.95270933049903
 31
0.0
  0
LINE
  5
1050
330
1F
100
AcDbEntity
  8
SPOJOVACÍ
  6
Continuous
100
AcDbLine
 10
104.9428896212614
 20
60.74912012570383
 30
0.0
 11
103.3301130380152
 21
55.95270933049903
 31
0.0
  0
LINE
  5
1051
330
1F
100
AcDbEntity
  8
SPOJOVACÍ
  6
Continuous
100
AcDbLine
 10
104.2357830618368
 20
60.74912012570383
 30
0.0
 11
102.6230064785943
 21
55.95270933049903
 31
0.0
  0
LINE
  5
1052
330
1F
100
AcDbEntity
  8
SPOJOVACÍ
  6
Continuous
100
AcDbLine
 10
103.0708774039142
 20
55.50483840776848
 30
0.0
 11
103.3301130380152
 21
55.95270933049903
 31
0.0
  0
LINE
  5
1053
330
1F
100
AcDbEntity
  8
SPOJOVACÍ
  6
Continuous
100
AcDbLine
 10
103.0708774039142
 20
55.50483840776848
 30
0.0
 11
102.6230064785943
 21
55.95270933049903
 31
0.0
  0
LINE
  5
1054
330
1F
100
AcDbEntity
  8
SPOJOVACÍ
  6
Continuous
100
AcDbLine
 10
104.4939155653721
 20
61.19699105361121
 30
0.0
 11
104.9428896212614
 21
60.74912012570383
 31
0.0
  0
LINE
  5
1055
330
1F
100
AcDbEntity
  8
SPOJOVACÍ
  6
Continuous
100
AcDbLine
 10
104.4939155653721
 20
61.19699105361121
 30
0.0
 11
104.2357830618368
 21
60.74912012570383
 31
0.0
  0
LINE
  5
1056
330
1F
100
AcDbEntity
  8
SPOJOVACÍ
  6
Continuous
100
AcDbLine
 10
104.4939155653721
 20
61.19699105361121
 30
0.0
 11
103.0708774039142
 21
55.50483840776848
 31
0.0
  0
LINE
  5
1057
330
1F
100
AcDbEntity
  8
SPOJOVACÍ
  6
Continuous
100
AcDbLine
 10
101.5468997070113
 20
60.74912012570383
 30
0.0
 11
99.93412312376518
 21
55.95270933049903
 31
0.0
  0
LINE
  5
1058
330
1F
100
AcDbEntity
  8
SPOJOVACÍ
  6
Continuous
100
AcDbLine
 10
100.8397931475867
 20
60.74912012570383
 30
0.0
 11
99.22701656434425
 21
55.95270933049903
 31
0.0
  0
LINE
  5
1059
330
1F
100
AcDbEntity
  8
SPOJOVACÍ
  6
Continuous
100
AcDbLine
 10
99.67488748966411
 20
55.50483840776848
 30
0.0
 11
99.93412312376518
 21
55.95270933049903
 31
0.0
  0
LINE
  5
105A
330
1F
100
AcDbEntity
  8
SPOJOVACÍ
  6
Continuous
100
AcDbLine
 10
99.67488748966411
 20
55.50483840776848
 30
0.0
 11
99.22701656434425
 21
55.95270933049903
 31
0.0
  0
LINE
  5
105B
330
1F
100
AcDbEntity
  8
SPOJOVACÍ
  6
Continuous
100
AcDbLine
 10
101.097925651122
 20
61.19699105361121
 30
0.0
 11
101.5468997070113
 21
60.74912012570383
 31
0.0
  0
LINE
  5
105C
330
1F
100
AcDbEntity
  8
SPOJOVACÍ
  6
Continuous
100
AcDbLine
 10
101.097925651122
 20
61.19699105361121
 30
0.0
 11
100.8397931475867
 21
60.74912012570383
 31
0.0
  0
LINE
  5
105D
330
1F
100
AcDbEntity
  8
SPOJOVACÍ
  6
Continuous
100
AcDbLine
 10
101.097925651122
 20
61.19699105361121
 30
0.0
 11
99.67488748966411
 21
55.50483840776848
 31
0.0
  0
LINE
  5
105E
330
1F
100
AcDbEntity
  8
SPOJOVACÍ
  6
Continuous
100
AcDbLine
 10
98.15090979276124
 20
60.74912012570383
 30
0.0
 11
96.53813320951508
 21
55.95270933049903
 31
0.0
  0
LINE
  5
105F
330
1F
100
AcDbEntity
  8
SPOJOVACÍ
  6
Continuous
100
AcDbLine
 10
97.44380323333666
 20
60.74912012570383
 30
0.0
 11
95.83102665009414
 21
55.95270933049903
 31
0.0
  0
LINE
  5
1060
330
1F
100
AcDbEntity
  8
SPOJOVACÍ
  6
Continuous
100
AcDbLine
 10
96.27889757541403
 20
55.50483840776848
 30
0.0
 11
96.53813320951508
 21
55.95270933049903
 31
0.0
  0
LINE
  5
1061
330
1F
100
AcDbEntity
  8
SPOJOVACÍ
  6
Continuous
100
AcDbLine
 10
96.27889757541403
 20
55.50483840776848
 30
0.0
 11
95.83102665009414
 21
55.95270933049903
 31
0.0
  0
LINE
  5
1062
330
1F
100
AcDbEntity
  8
SPOJOVACÍ
  6
Continuous
100
AcDbLine
 10
97.70193573687198
 20
61.19699105361121
 30
0.0
 11
98.15090979276124
 21
60.74912012570383
 31
0.0
  0
LINE
  5
1063
330
1F
100
AcDbEntity
  8
SPOJOVACÍ
  6
Continuous
100
AcDbLine
 10
97.70193573687198
 20
61.19699105361121
 30
0.0
 11
97.44380323333666
 21
60.74912012570383
 31
0.0
  0
LINE
  5
1064
330
1F
100
AcDbEntity
  8
SPOJOVACÍ
  6
Continuous
100
AcDbLine
 10
97.70193573687198
 20
61.19699105361121
 30
0.0
 11
96.27889757541403
 21
55.50483840776848
 31
0.0
  0
LINE
  5
1065
330
1F
100
AcDbEntity
  8
SPOJOVACÍ
  6
Continuous
100
AcDbLine
 10
94.75491987851114
 20
60.74912012570383
 30
0.0
 11
93.14214329526498
 21
55.95270933049903
 31
0.0
  0
LINE
  5
1066
330
1F
100
AcDbEntity
  8
SPOJOVACÍ
  6
Continuous
100
AcDbLine
 10
94.04781331908656
 20
60.74912012570383
 30
0.0
 11
92.43503673584404
 21
55.95270933049903
 31
0.0
  0
LINE
  5
1067
330
1F
100
AcDbEntity
  8
SPOJOVACÍ
  6
Continuous
100
AcDbLine
 10
92.88290766116393
 20
55.50483840776848
 30
0.0
 11
93.14214329526498
 21
55.95270933049903
 31
0.0
  0
LINE
  5
1068
330
1F
100
AcDbEntity
  8
SPOJOVACÍ
  6
Continuous
100
AcDbLine
 10
92.88290766116393
 20
55.50483840776848
 30
0.0
 11
92.43503673584404
 21
55.95270933049903
 31
0.0
  0
LINE
  5
1069
330
1F
100
AcDbEntity
  8
SPOJOVACÍ
  6
Continuous
100
AcDbLine
 10
94.30594582262187
 20
61.19699105361121
 30
0.0
 11
94.75491987851114
 21
60.74912012570383
 31
0.0
  0
LINE
  5
106A
330
1F
100
AcDbEntity
  8
SPOJOVACÍ
  6
Continuous
100
AcDbLine
 10
94.30594582262187
 20
61.19699105361121
 30
0.0
 11
94.04781331908656
 21
60.74912012570383
 31
0.0
  0
LINE
  5
106B
330
1F
100
AcDbEntity
  8
SPOJOVACÍ
  6
Continuous
100
AcDbLine
 10
94.30594582262187
 20
61.19699105361121
 30
0.0
 11
92.88290766116393
 21
55.50483840776848
 31
0.0
  0
LINE
  5
106C
330
1F
100
AcDbEntity
  8
SPOJOVACÍ
  6
Continuous
100
AcDbLine
 10
91.35892996426106
 20
60.74912012570383
 30
0.0
 11
89.74615338101489
 21
55.95270933049903
 31
0.0
  0
LINE
  5
106D
330
1F
100
AcDbEntity
  8
SPOJOVACÍ
  6
Continuous
100
AcDbLine
 10
90.65182340483648
 20
60.74912012570383
 30
0.0
 11
89.03904682159396
 21
55.95270933049903
 31
0.0
  0
LINE
  5
106E
330
1F
100
AcDbEntity
  8
SPOJOVACÍ
  6
Continuous
100
AcDbLine
 10
89.48691774691383
 20
55.50483840776848
 30
0.0
 11
89.74615338101489
 21
55.95270933049903
 31
0.0
  0
LINE
  5
106F
330
1F
100
AcDbEntity
  8
SPOJOVACÍ
  6
Continuous
100
AcDbLine
 10
89.48691774691383
 20
55.50483840776848
 30
0.0
 11
89.03904682159396
 21
55.95270933049903
 31
0.0
  0
LINE
  5
1070
330
1F
100
AcDbEntity
  8
SPOJOVACÍ
  6
Continuous
100
AcDbLine
 10
90.90995590837179
 20
61.19699105361121
 30
0.0
 11
91.35892996426106
 21
60.74912012570383
 31
0.0
  0
LINE
  5
1071
330
1F
100
AcDbEntity
  8
SPOJOVACÍ
  6
Continuous
100
AcDbLine
 10
90.90995590837179
 20
61.19699105361121
 30
0.0
 11
90.65182340483648
 21
60.74912012570383
 31
0.0
  0
LINE
  5
1072
330
1F
100
AcDbEntity
  8
SPOJOVACÍ
  6
Continuous
100
AcDbLine
 10
90.90995590837179
 20
61.19699105361121
 30
0.0
 11
89.48691774691383
 21
55.50483840776848
 31
0.0
  0
LINE
  5
1073
330
1F
100
AcDbEntity
  8
SPOJOVACÍ
  6
Continuous
100
AcDbLine
 10
87.96294005001096
 20
60.74912012570383
 30
0.0
 11
86.35016346676479
 21
55.95270933049903
 31
0.0
  0
LINE
  5
1074
330
1F
100
AcDbEntity
  8
SPOJOVACÍ
  6
Continuous
100
AcDbLine
 10
87.25583349058638
 20
60.74912012570383
 30
0.0
 11
85.64305690734386
 21
55.95270933049903
 31
0.0
  0
LINE
  5
1075
330
1F
100
AcDbEntity
  8
SPOJOVACÍ
  6
Continuous
100
AcDbLine
 10
86.09092783266374
 20
55.50483840776848
 30
0.0
 11
86.35016346676479
 21
55.95270933049903
 31
0.0
  0
LINE
  5
1076
330
1F
100
AcDbEntity
  8
SPOJOVACÍ
  6
Continuous
100
AcDbLine
 10
86.09092783266374
 20
55.50483840776848
 30
0.0
 11
85.64305690734386
 21
55.95270933049903
 31
0.0
  0
LINE
  5
1077
330
1F
100
AcDbEntity
  8
SPOJOVACÍ
  6
Continuous
100
AcDbLine
 10
87.51396599412169
 20
61.19699105361121
 30
0.0
 11
87.96294005001096
 21
60.74912012570383
 31
0.0
  0
LINE
  5
1078
330
1F
100
AcDbEntity
  8
SPOJOVACÍ
  6
Continuous
100
AcDbLine
 10
87.51396599412169
 20
61.19699105361121
 30
0.0
 11
87.25583349058638
 21
60.74912012570383
 31
0.0
  0
LINE
  5
1079
330
1F
100
AcDbEntity
  8
SPOJOVACÍ
  6
Continuous
100
AcDbLine
 10
87.51396599412169
 20
61.19699105361121
 30
0.0
 11
86.09092783266374
 21
55.50483840776848
 31
0.0
  0
LINE
  5
107A
330
1F
100
AcDbEntity
  8
SPOJOVACÍ
  6
Continuous
100
AcDbLine
 10
84.11797607987159
 20
61.19699105361121
 30
0.0
 11
82.69493791841364
 21
55.50483840776848
 31
0.0
  0
LINE
  5
107B
330
1F
100
AcDbEntity
  8
SPOJOVACÍ
  6
Continuous
100
AcDbLine
 10
84.11797607987159
 20
61.19699105361121
 30
0.0
 11
83.85984357633629
 21
60.74912012570383
 31
0.0
  0
LINE
  5
107C
330
1F
100
AcDbEntity
  8
SPOJOVACÍ
  6
Continuous
100
AcDbLine
 10
84.11797607987159
 20
61.19699105361121
 30
0.0
 11
84.56695013576085
 21
60.74912012570383
 31
0.0
  0
LINE
  5
107D
330
1F
100
AcDbEntity
  8
SPOJOVACÍ
  6
Continuous
100
AcDbLine
 10
82.69493791841364
 20
55.50483840776848
 30
0.0
 11
82.24706699309377
 21
55.95270933049903
 31
0.0
  0
LINE
  5
107E
330
1F
100
AcDbEntity
  8
SPOJOVACÍ
  6
Continuous
100
AcDbLine
 10
82.69493791841364
 20
55.50483840776848
 30
0.0
 11
82.95417355251471
 21
55.95270933049903
 31
0.0
  0
LINE
  5
107F
330
1F
100
AcDbEntity
  8
SPOJOVACÍ
  6
Continuous
100
AcDbLine
 10
83.85984357633629
 20
60.74912012570383
 30
0.0
 11
82.24706699309377
 21
55.95270933049903
 31
0.0
  0
LINE
  5
1080
330
1F
100
AcDbEntity
  8
SPOJOVACÍ
  6
Continuous
100
AcDbLine
 10
84.56695013576085
 20
60.74912012570383
 30
0.0
 11
82.95417355251471
 21
55.95270933049903
 31
0.0
  0
LINE
  5
1081
330
1F
100
AcDbEntity
  8
SPOJOVACÍ
  6
Continuous
100
AcDbLine
 10
81.17096022151077
 20
60.74912012570383
 30
0.0
 11
79.55818363826461
 21
55.95270933049903
 31
0.0
  0
LINE
  5
1082
330
1F
100
AcDbEntity
  8
SPOJOVACÍ
  6
Continuous
100
AcDbLine
 10
80.46385366208619
 20
60.74912012570383
 30
0.0
 11
78.85107707884367
 21
55.95270933049903
 31
0.0
  0
LINE
  5
1083
330
1F
100
AcDbEntity
  8
SPOJOVACÍ
  6
Continuous
100
AcDbLine
 10
79.29894800416355
 20
55.50483840776848
 30
0.0
 11
79.55818363826461
 21
55.95270933049903
 31
0.0
  0
LINE
  5
1084
330
1F
100
AcDbEntity
  8
SPOJOVACÍ
  6
Continuous
100
AcDbLine
 10
79.29894800416355
 20
55.50483840776848
 30
0.0
 11
78.85107707884367
 21
55.95270933049903
 31
0.0
  0
LINE
  5
1085
330
1F
100
AcDbEntity
  8
SPOJOVACÍ
  6
Continuous
100
AcDbLine
 10
80.7219861656215
 20
61.19699105361121
 30
0.0
 11
81.17096022151077
 21
60.74912012570383
 31
0.0
  0
LINE
  5
1086
330
1F
100
AcDbEntity
  8
SPOJOVACÍ
  6
Continuous
100
AcDbLine
 10
80.7219861656215
 20
61.19699105361121
 30
0.0
 11
80.46385366208619
 21
60.74912012570383
 31
0.0
  0
LINE
  5
1087
330
1F
100
AcDbEntity
  8
SPOJOVACÍ
  6
Continuous
100
AcDbLine
 10
80.7219861656215
 20
61.19699105361121
 30
0.0
 11
79.29894800416355
 21
55.50483840776848
 31
0.0
  0
LINE
  5
1088
330
1F
100
AcDbEntity
  8
SPOJOVACÍ
  6
Continuous
100
AcDbLine
 10
71.23914187454488
 20
59.39936818955118
 30
0.0
 11
70.91875444890161
 21
57.17775957492392
 31
0.0
  0
LINE
  5
1089
330
1F
100
AcDbEntity
  8
SPOJOVACÍ
  6
Continuous
100
AcDbLine
 10
71.62859485308058
 20
59.00991521326375
 30
0.0
 11
71.14321749573196
 21
57.56721255121135
 31
0.0
  0
LINE
  5
108A
330
1F
100
AcDbEntity
  8
SPOJOVACÍ
  6
Continuous
100
AcDbLine
 10
71.01371958402364
 20
59.00991521326375
 30
0.0
 11
70.52834222666774
 21
57.56721255121135
 31
0.0
  0
LINE
  5
108B
330
1F
100
AcDbEntity
  8
SPOJOVACÍ
  6
Continuous
100
AcDbLine
 10
70.91875444890161
 20
57.17775957492392
 30
0.0
 11
71.14321749573196
 21
57.56721255121135
 31
0.0
  0
LINE
  5
108C
330
1F
100
AcDbEntity
  8
SPOJOVACÍ
  6
Continuous
100
AcDbLine
 10
70.91875444890161
 20
57.17775957492392
 30
0.0
 11
70.52834222666774
 21
57.56721255121135
 31
0.0
  0
LINE
  5
108D
330
1F
100
AcDbEntity
  8
SPOJOVACÍ
  6
Continuous
100
AcDbLine
 10
71.23914187454488
 20
59.39936818955118
 30
0.0
 11
71.62859485308058
 21
59.00991521326375
 31
0.0
  0
LINE
  5
108E
330
1F
100
AcDbEntity
  8
SPOJOVACÍ
  6
Continuous
100
AcDbLine
 10
71.23914187454488
 20
59.39936818955118
 30
0.0
 11
71.01371958402364
 21
59.00991521326375
 31
0.0
  0
LINE
  5
108F
330
1F
100
AcDbEntity
  8
SPOJOVACÍ
  6
Continuous
100
AcDbLine
 10
74.34709175218654
 20
59.98162917222487
 30
0.0
 11
73.69384673176887
 21
56.76816247715521
 31
0.0
  0
LINE
  5
1090
330
1F
100
AcDbEntity
  8
SPOJOVACÍ
  6
Continuous
100
AcDbLine
 10
74.73750397470053
 20
59.59217619143544
 30
0.0
 11
73.91830977831546
 21
57.15761545344264
 31
0.0
  0
LINE
  5
1091
330
1F
100
AcDbEntity
  8
SPOJOVACÍ
  6
Continuous
100
AcDbLine
 10
74.12262870563631
 20
59.59217619143544
 30
0.0
 11
73.30343450953865
 21
57.15761545344264
 31
0.0
  0
LINE
  5
1092
330
1F
100
AcDbEntity
  8
SPOJOVACÍ
  6
Continuous
100
AcDbLine
 10
73.69384673176887
 20
56.76816247715521
 30
0.0
 11
73.91830977831546
 21
57.15761545344264
 31
0.0
  0
LINE
  5
1093
330
1F
100
AcDbEntity
  8
SPOJOVACÍ
  6
Continuous
100
AcDbLine
 10
73.69384673176887
 20
56.76816247715521
 30
0.0
 11
73.30343450953865
 21
57.15761545344264
 31
0.0
  0
LINE
  5
1094
330
1F
100
AcDbEntity
  8
SPOJOVACÍ
  6
Continuous
100
AcDbLine
 10
74.34709175218654
 20
59.98162917222487
 30
0.0
 11
74.73750397470053
 21
59.59217619143544
 31
0.0
  0
LINE
  5
1095
330
1F
100
AcDbEntity
  8
SPOJOVACÍ
  6
Continuous
100
AcDbLine
 10
74.34709175218654
 20
59.98162917222487
 30
0.0
 11
74.12262870563631
 21
59.59217619143544
 31
0.0
  0
LINE
  5
1096
330
1F
100
AcDbEntity
  8
SPOJOVACÍ
  6
Continuous
100
AcDbLine
 10
77.45600087380648
 20
60.56389015039655
 30
0.0
 11
76.45263187017758
 21
56.30964394600539
 31
0.0
  0
LINE
  5
1097
330
1F
100
AcDbEntity
  8
SPOJOVACÍ
  6
Continuous
100
AcDbLine
 10
77.84545385234583
 20
60.1734779287284
 30
0.0
 11
76.67709491672781
 21
56.69909692229282
 31
0.0
  0
LINE
  5
1098
330
1F
100
AcDbEntity
  8
SPOJOVACÍ
  6
Continuous
100
AcDbLine
 10
77.23057858327798
 20
60.1734779287284
 30
0.0
 11
76.06221964766359
 21
56.69909692229282
 31
0.0
  0
LINE
  5
1099
330
1F
100
AcDbEntity
  8
SPOJOVACÍ
  6
Continuous
100
AcDbLine
 10
76.45263187017758
 20
56.30964394600539
 30
0.0
 11
76.67709491672781
 21
56.69909692229282
 31
0.0
  0
LINE
  5
109A
330
1F
100
AcDbEntity
  8
SPOJOVACÍ
  6
Continuous
100
AcDbLine
 10
76.45263187017758
 20
56.30964394600539
 30
0.0
 11
76.06221964766359
 21
56.69909692229282
 31
0.0
  0
LINE
  5
109B
330
1F
100
AcDbEntity
  8
SPOJOVACÍ
  6
Continuous
100
AcDbLine
 10
77.45600087380648
 20
60.56389015039655
 30
0.0
 11
77.84545385234583
 21
60.1734779287284
 31
0.0
  0
LINE
  5
109C
330
1F
100
AcDbEntity
  8
SPOJOVACÍ
  6
Continuous
100
AcDbLine
 10
77.45600087380648
 20
60.56389015039655
 30
0.0
 11
77.23057858327798
 21
60.1734779287284
 31
0.0
  0
LINE
  5
109D
330
1F
100
AcDbEntity
  8
SPOJOVACÍ
  6
Continuous
100
AcDbLine
 10
114.6818853081224
 20
61.19699105361121
 30
0.0
 11
113.2588471466644
 21
55.50483840776848
 31
0.0
  0
LINE
  5
109E
330
1F
100
AcDbEntity
  8
SPOJOVACÍ
  6
Continuous
100
AcDbLine
 10
114.6818853081224
 20
61.19699105361121
 30
0.0
 11
114.4237528045871
 21
60.74912012570383
 31
0.0
  0
LINE
  5
109F
330
1F
100
AcDbEntity
  8
SPOJOVACÍ
  6
Continuous
100
AcDbLine
 10
114.6818853081224
 20
61.19699105361121
 30
0.0
 11
115.1308593640117
 21
60.74912012570383
 31
0.0
  0
LINE
  5
10A0
330
1F
100
AcDbEntity
  8
SPOJOVACÍ
  6
Continuous
100
AcDbLine
 10
113.2588471466644
 20
55.50483840776848
 30
0.0
 11
112.8109762213446
 21
55.95270933049903
 31
0.0
  0
LINE
  5
10A1
330
1F
100
AcDbEntity
  8
SPOJOVACÍ
  6
Continuous
100
AcDbLine
 10
113.2588471466644
 20
55.50483840776848
 30
0.0
 11
113.5180827807655
 21
55.95270933049903
 31
0.0
  0
LINE
  5
10A2
330
1F
100
AcDbEntity
  8
SPOJOVACÍ
  6
Continuous
100
AcDbLine
 10
114.4237528045871
 20
60.74912012570383
 30
0.0
 11
112.8109762213446
 21
55.95270933049903
 31
0.0
  0
LINE
  5
10A3
330
1F
100
AcDbEntity
  8
SPOJOVACÍ
  6
Continuous
100
AcDbLine
 10
115.1308593640117
 20
60.74912012570383
 30
0.0
 11
113.5180827807655
 21
55.95270933049903
 31
0.0
  0
LINE
  5
10A4
330
1F
100
AcDbEntity
  8
SPOJOVACÍ
  6
Continuous
100
AcDbLine
 10
118.0778752223725
 20
61.19699105361121
 30
0.0
 11
116.6548370609145
 21
55.50483840776848
 31
0.0
  0
LINE
  5
10A5
330
1F
100
AcDbEntity
  8
SPOJOVACÍ
  6
Continuous
100
AcDbLine
 10
118.0778752223725
 20
61.19699105361121
 30
0.0
 11
117.8197427188372
 21
60.74912012570383
 31
0.0
  0
LINE
  5
10A6
330
1F
100
AcDbEntity
  8
SPOJOVACÍ
  6
Continuous
100
AcDbLine
 10
118.0778752223725
 20
61.19699105361121
 30
0.0
 11
118.5268492782618
 21
60.74912012570383
 31
0.0
  0
LINE
  5
10A7
330
1F
100
AcDbEntity
  8
SPOJOVACÍ
  6
Continuous
100
AcDbLine
 10
116.6548370609145
 20
55.50483840776848
 30
0.0
 11
116.2069661355947
 21
55.95270933049903
 31
0.0
  0
LINE
  5
10A8
330
1F
100
AcDbEntity
  8
SPOJOVACÍ
  6
Continuous
100
AcDbLine
 10
116.6548370609145
 20
55.50483840776848
 30
0.0
 11
116.9140726950156
 21
55.95270933049903
 31
0.0
  0
LINE
  5
10A9
330
1F
100
AcDbEntity
  8
SPOJOVACÍ
  6
Continuous
100
AcDbLine
 10
117.8197427188372
 20
60.74912012570383
 30
0.0
 11
116.2069661355947
 21
55.95270933049903
 31
0.0
  0
LINE
  5
10AA
330
1F
100
AcDbEntity
  8
SPOJOVACÍ
  6
Continuous
100
AcDbLine
 10
118.5268492782618
 20
60.74912012570383
 30
0.0
 11
116.9140726950156
 21
55.95270933049903
 31
0.0
  0
INSERT
  5
10AB
330
1F
100
AcDbEntity
  8
POPIS
100
AcDbBlockReference
  2
E_PUNKT
 10
112.0212593803209
 20
42.47684790702294
 30
0.0
  0
TEXT
  5
10AC
330
1F
100
AcDbEntity
  8
POPIS
100
AcDbText
 10
731.5314069770159
 20
-55.02661296446024
 30
0.0
 40
25.0
  1
07
 41
0.85
  7
SIMPLEX7
100
AcDbText
  0
TEXT
  5
10AD
330
1F
100
AcDbEntity
  8
POPIS
100
AcDbText
 10
785.8751101367581
 20
-55.02661296446024
 30
0.0
 40
25.0
  1
Těsnící podložka
 41
0.7
  7
SIMPLEX7
100
AcDbText
  0
LINE
  5
10AE
330
1F
100
AcDbEntity
  8
POPIS
100
AcDbLine
 10
112.0488697559469
 20
42.50591623789512
 30
0.0
 11
173.4133697969648
 21
-38.99981164900021
 31
0.0
  0
TEXT
  5
10AF
330
1F
100
AcDbEntity
  8
POPIS
100
AcDbText
 10
174.8946161258629
 20
-69.84385322743367
 30
0.0
 40
25.0
  1
07
 41
0.85
  7
SIMPLEX7
100
AcDbText
  0
TEXT
  5
10B0
330
1F
100
AcDbEntity
  8
POPIS
100
AcDbText
 10
128.6535339862368
 20
-69.84385322743458
 30
0.0
 40
25.0
  1
06
 41
0.85
  7
SIMPLEX7
100
AcDbText
  0
LINE
  5
10B1
330
1F
100
AcDbEntity
  8
POPIS
100
AcDbLine
 10
79.03310700140195
 20
58.35091473068985
 30
0.0
 11
150.2113238337026
 21
-38.99981164900202
 31
0.0
  0
INSERT
  5
10B2
330
1F
100
AcDbEntity
  8
POPIS
100
AcDbBlockReference
  2
E_PUNKT
 10
157.1736536988812
 20
71.75144247457263
 30
0.0
  0
TEXT
  5
10B3
330
1F
100
AcDbEntity
  8
POPIS
100
AcDbText
 10
196.8434630626381
 20
159.9725889785071
 30
0.0
 40
25.0
  1
03
 41
0.85
  7
SIMPLEX7
100
AcDbText
  0
LINE
  5
10B4
330
1F
100
AcDbEntity
  8
POPIS
100
AcDbLine
 10
157.2012640745072
 20
71.78051080544481
 30
0.0
 11
214.499910551089
 21
155.2715258419833
 31
0.0
  0
LINE
  5
10B5
330
1F
100
AcDbEntity
  8
POPIS
100
AcDbLine
 10
113.2026423657173
 20
91.78433928902212
 30
0.0
 11
159.6214509210315
 21
155.2715258419833
 31
0.0
  0
TEXT
  5
10B6
330
1F
100
AcDbEntity
  8
POPIS
100
AcDbText
 10
141.9650034325807
 20
159.9725889785071
 30
0.0
 40
25.0
  1
05
 41
0.85
  7
SIMPLEX7
100
AcDbText
  0
INSERT
  5
10B7
330
1F
100
AcDbEntity
  8
POPIS
100
AcDbBlockReference
  2
E_PUNKT
 10
604.2425301691057
 20
58.10678876561758
 30
0.0
  0
TEXT
  5
10B8
330
1F
100
AcDbEntity
  8
POPIS
100
AcDbText
 10
586.6136930562809
 20
159.9725889785071
 30
0.0
 40
25.0
  1
04
 41
0.85
  7
SIMPLEX7
100
AcDbText
  0
LINE
  5
10B9
330
1F
100
AcDbEntity
  8
POPIS
100
AcDbLine
 10
604.2701405447317
 20
58.13585709649067
 30
0.0
 11
604.2701405447317
 21
155.2715258419833
 31
0.0
  0
TEXT
  5
10BA
330
1F
100
AcDbEntity
  8
POPIS
100
AcDbText
 10
316.2392520026862
 20
159.9725889785098
 30
0.0
 40
25.0
  1
01
 41
0.85
  7
SIMPLEX7
100
AcDbText
  0
LINE
  5
10BB
330
1F
100
AcDbEntity
  8
POPIS
100
AcDbLine
 10
333.895699491137
 20
95.61086250825098
 30
0.0
 11
333.895699491137
 21
155.271525841987
 31
0.0
  0
LINE
  5
10BC
330
1F
100
AcDbEntity
  8
POPIS
100
AcDbLine
 10
521.329803009163
 20
95.61086250824734
 30
0.0
 11
521.329803009163
 21
155.2715258419833
 31
0.0
  0
INSERT
  5
10BD
330
1F
100
AcDbEntity
  8
POPIS
100
AcDbBlockReference
  2
E_PUNKT
 10
521.302192633537
 20
95.58179417737518
 30
0.0
  0
TEXT
  5
10BE
330
1F
100
AcDbEntity
  8
POPIS
100
AcDbText
 10
503.6733555207121
 20
159.9725889785071
 30
0.0
 40
25.0
  1
02
 41
0.85
  7
SIMPLEX7
100
AcDbText
  0
INSERT
  5
10BF
330
1F
100
AcDbEntity
  8
POPIS
100
AcDbBlockReference
  2
E_PUNKT
 10
333.7729669923958
 20
95.58179417737518
 30
0.0
  0
TEXT
  5
10C0
330
1F
100
AcDbEntity
  8
POPIS
100
AcDbText
 10
731.5314069770159
 20
154.4481605042377
 30
0.0
 40
25.0
  1
01
 41
0.85
  7
SIMPLEX7
100
AcDbText
  0
TEXT
  5
10C1
330
1F
100
AcDbEntity
  8
POPIS
100
AcDbText
 10
785.8751101367581
 20
154.4481605042377
 30
0.0
 40
25.0
  1
Deska CETRIS   
 41
0.7
  7
SIMPLEX7
100
AcDbText
  0
TEXT
  5
10C2
330
1F
100
AcDbEntity
  8
POPIS
100
AcDbText
 10
731.5314069770159
 20
117.8531488886104
 30
0.0
 40
25.0
  1
02
 41
0.85
  7
SIMPLEX7
100
AcDbText
  0
TEXT
  5
10C3
330
1F
100
AcDbEntity
  8
POPIS
100
AcDbText
 10
785.8751101367581
 20
117.8531488886104
 30
0.0
 40
25.0
  1
Vrut Bűhnen 4,2x35 (45,55) mm
 41
0.7
  7
SIMPLEX7
100
AcDbText
  0
TEXT
  5
10C4
330
1F
100
AcDbEntity
  8
POPIS
100
AcDbText
 10
731.5314069770159
 20
83.90296064388838
 30
0.0
 40
25.0
  1
03
 41
0.85
  7
SIMPLEX7
100
AcDbText
  0
TEXT
  5
10C5
330
1F
100
AcDbEntity
  8
POPIS
100
AcDbText
 10
785.8751101367581
 20
83.90296064388838
 30
0.0
 40
25.0
  1
Svislý dřevěný hranolek 80/50 (50/50)
 41
0.7
  7
SIMPLEX7
100
AcDbText
  0
TEXT
  5
10C6
330
1F
100
AcDbEntity
  8
POPIS
100
AcDbText
 10
731.5314069770159
 20
48.49879942572568
 30
0.0
 40
25.0
  1
04
 41
0.85
  7
SIMPLEX7
100
AcDbText
  0
TEXT
  5
10C7
330
1F
100
AcDbEntity
  8
POPIS
100
AcDbText
 10
785.8751101367581
 20
48.49879942572568
 30
0.0
 40
25.0
  1
Tepelná izolace
 41
0.7
  7
SIMPLEX7
100
AcDbText
  0
TEXT
  5
10C8
330
1F
100
AcDbEntity
  8
POPIS
100
AcDbText
 10
785.8751101367581
 20
12.39197793853725
 30
0.0
 40
25.0
  1
Trvale pružný tmel
 41
0.7
  7
SIMPLEX7
100
AcDbText
  0
TEXT
  5
10C9
330
1F
100
AcDbEntity
  8
POPIS
100
AcDbText
 10
731.5314069770159
 20
12.39197793853725
 30
0.0
 40
25.0
  1
05
 41
0.85
  7
SIMPLEX7
100
AcDbText
  0
TEXT
  5
10CA
330
1F
100
AcDbEntity
  8
POPIS
100
AcDbText
 10
953.5012953758034
 20
179.4234706125183
 30
0.0
 40
12.0
  1
R
 41
0.85
  7
SIMPLEX7
100
AcDbText
  0
CIRCLE
  5
10CB
330
1F
100
AcDbEntity
  8
POPIS
100
AcDbCircle
 10
958.2603244309851
 20
184.9688163575059
 30
0.0
 40
11.13656048292026
  0
TEXT
  5
10CC
330
1F
100
AcDbEntity
  8
POPIS
100
AcDbText
 10
731.5314069770159
 20
-21.86141460066085
 30
0.0
 40
25.0
  1
06
 41
0.85
  7
SIMPLEX7
100
AcDbText
  0
TEXT
  5
10CD
330
1F
100
AcDbEntity
  8
POPIS
100
AcDbText
 10
785.8751101367581
 20
-21.86141460066085
 30
0.0
 40
25.0
  1
Přikotvení - hmoždinka
 41
0.7
  7
SIMPLEX7
100
AcDbText
  0
HATCH
  5
10CE
330
1F
100
AcDbEntity
  8
izolace
100
AcDbHatch
 10
0.0
 20
0.0
 30
0.0
210
0.0
220
0.0
230
1.0
  2
AR-SAND
 70
     0
 71
     0
 91
        1
 92
        7
 72
     0
 73
     1
 93
        4
 10
541.4405219962921
 20
95.61086250824734
 10
536.4405219962921
 20
95.61086250824734
 10
536.4405219962921
 20
83.61086250824826
 10
541.4405219962921
 20
83.61086250824735
 97
        0
 75
     0
 76
     1
 52
90.0
 41
0.05
 77
     0
 78
     4
 53
127.5
 43
-25021.98989370235
 44
-1400.780342429843
 45
-2.447066186646711
 46
-0.0800015647992021
 79
     6
 49
0.0
 49
-1.9304
 49
0.0
 49
-2.159
 49
0.0
 49
-2.06375
 53
97.49999999999992
 43
-25021.98989370235
 44
-1400.780342429843
 45
-3.584125502841771
 46
2.247616415690013
 79
     6
 49
0.0
 49
-1.0414
 49
0.0
 49
-1.7399
 49
0.0
 49
-0.6667500000000001
 53
57.5
 43
-25021.98989370235
 44
-1402.342442429843
 45
-0.0071859233927282
 46
3.95496185120729
 79
     6
 49
0.0
 49
-0.635
 49
0.0
 49
-2.286
 49
0.0
 49
-2.9845
 53
47.5
 43
-25021.98989370235
 44
-1402.342442429843
 45
-1.11464661628608
 46
3.817782262361486
 79
     6
 49
0.0
 49
-0.3175
 49
0.0
 49
-1.498599999999999
 49
0.0
 49
-1.7145
 47
0.2359071171925059
 98
        1
 10
538.4646740934861
 20
89.44432840746356
  0
HATCH
  5
10CF
330
1F
100
AcDbEntity
  8
CETRIS
100
AcDbHatch
 10
0.0
 20
0.0
 30
0.0
210
0.0
220
0.0
230
1.0
  2
ANSI31
 70
     0
 71
     0
 91
        8
 92
        7
 72
     0
 73
     1
 93
       23
 10
519.8849958068624
 20
89.01126523716664
 10
519.8189533249481
 20
89.79819396028176
 10
519.3910724606487
 20
91.27903382734109
 10
518.5948419813232
 20
92.59802310563316
 10
517.4842120809719
 20
93.66679509503899
 10
516.1345269974174
 20
94.41093573151499
 10
516.1345269974174
 20
95.61086250824827
 10
151.0851047991548
 20
95.61086250824734
 10
151.0851047991584
 20
94.41093573151773
 10
150.3697996129906
 20
94.07421209363235
 10
149.1326658040945
 20
93.15612858319344
 10
148.1745847341101
 20
91.94876040029646
 10
147.5615988849624
 20
90.53489319058678
 10
147.3346359940753
 20
89.01126523718847
 10
147.3346359940753
 20
84.05538743311296
 10
148.0071530924999
 20
83.82925587885655
 10
148.3844624880678
 20
83.61086250824735
 10
519.8849958068624
 20
83.61086250824826
 10
519.8849958068697
 20
84.3667986529457
 10
519.2124787084269
 20
84.59293020724942
 10
518.8348273331305
 20
84.81059134329404
 10
519.2124787084378
 20
85.18917289212401
 10
519.8849958068624
 20
84.96304133787033
 97
        0
 92
        7
 72
     0
 73
     1
 93
       12
 10
536.4405219962921
 20
95.61086250824827
 10
526.3348347746853
 20
95.61086250824734
 10
526.3348347746853
 20
94.41093573151499
 10
525.6195295885174
 20
94.07421209363418
 10
524.3823957796214
 20
93.15612858319525
 10
523.4243147096369
 20
91.9487604002901
 10
522.8113288604856
 20
90.53489319058133
 10
522.5843659696022
 20
89.01126523714754
 10
522.5843659696022
 20
84.05538743311115
 10
523.2568830680304
 20
83.82925587885836
 10
523.6341924635946
 20
83.61086250824826
 10
536.4405219962921
 20
83.61086250824735
 97
        0
 92
        7
 72
     0
 73
     1
 93
       12
 10
555.0697151321021
 20
90.53489319058769
 10
554.4567292829545
 20
91.94876040028646
 10
553.4986482129664
 20
93.15612858319616
 10
552.2615144040594
 20
94.07421209363509
 10
551.5462092178952
 20
94.41093573151773
 10
551.5462092179025
 20
95.61086250824734
 10
541.4405219962957
 20
95.61086250824827
 10
541.4405219962884
 20
83.61086250824826
 10
554.2468515289895
 20
83.61086250824735
 10
554.6241609245428
 20
83.82925587885564
 10
555.2966780229819
 20
84.05538743311296
 10
555.2966780229819
 20
89.01126523715118
 97
        0
 92
        7
 72
     0
 73
     1
 93
       15
 10
641.4326630447451
 20
95.61086250824734
 10
561.7465169951668
 20
95.61086250824734
 10
561.7465169951668
 20
94.41093573151409
 10
560.3968319116159
 20
93.66679509503809
 10
559.2862020112609
 20
92.59802310562315
 10
558.4899715319391
 20
91.27903382733018
 10
558.0620906676361
 20
89.7981939602563
 10
557.9960481857145
 20
89.01126523714754
 10
557.9960481857181
 20
84.96304133787123
 10
558.6685652841427
 20
85.18917289212401
 10
559.0462166594609
 20
84.81059134329678
 10
558.6685652841427
 20
84.59293020724397
 10
557.9960481857181
 20
84.3667986529457
 10
557.9960481857181
 20
83.61086250824826
 10
639.2225017664443
 20
83.61086250824735
 97
        0
 92
        7
 72
     0
 73
     1
 93
       12
 10
629.7865397147636
 20
32.37860822349864
 10
535.7512821833754
 20
32.37860822349864
 10
535.3739727878112
 20
32.16021485288581
 10
534.701455689383
 20
31.93408329863121
 10
534.7014556893793
 20
26.97820549460846
 10
534.9284185802591
 20
25.45457754115102
 10
535.5414044294104
 20
24.04071033145771
 10
536.4994854993949
 20
22.83334214855802
 10
537.7366193082946
 20
21.91525863810909
 10
538.4519244944661
 20
21.57853500022645
 10
538.4519244944661
 20
20.37860822349864
 10
627.5763784364665
 20
20.37860822349864
 97
        0
 92
        7
 72
     0
 73
     1
 93
       23
 10
532.0020855266468
 20
31.02642939387385
 10
531.3295684282186
 20
30.80029783962197
 10
530.9519170529076
 20
31.17887938845012
 10
531.3295684282222
 20
31.39654052450385
 10
532.0020855266468
 20
31.6226720788012
 10
532.0020855266505
 20
32.37860822349864
 10
148.3844624880678
 20
32.37860822349864
 10
148.0071530925108
 20
32.16021485288854
 10
147.3346359940753
 20
31.93408329863393
 10
147.3346359940753
 20
26.9782054945457
 10
147.5615988849624
 20
25.45457754114647
 10
148.1745847341028
 20
24.04071033145408
 10
149.1326658040873
 20
22.83334214855892
 10
150.3697996129833
 20
21.91525863811364
 10
151.0851047991584
 20
21.57853500022917
 10
151.0851047991584
 20
20.37860822349864
 10
528.2516167171982
 20
20.37860822349864
 10
528.2516167172018
 20
21.578535000231
 10
529.6013018007563
 20
22.32267563670427
 10
530.7119317011077
 20
23.39144762611647
 10
531.5081621804222
 20
24.71043690440672
 10
531.9360430447216
 20
26.19127677145695
 10
532.0020855266432
 20
26.97820549454843
 97
        0
 92
        7
 72
     0
 73
     1
 93
       15
 10
144.6352658313392
 20
31.02642939387476
 10
143.9627487329073
 20
30.80029783962197
 10
143.5850973576
 20
31.17887938845012
 10
143.9627487329182
 20
31.39654052450111
 10
144.6352658313392
 20
31.62267207879847
 10
144.6352658313392
 20
32.37860822349864
 10
115.5341887622473
 20
32.37860822349864
 10
115.5341887622473
 20
20.37860822349864
 10
140.8847970218942
 20
20.37860822349864
 10
140.8847970218905
 20
21.57853500023009
 10
142.2344821054341
 20
22.32267563670245
 10
143.3451120058
 20
23.39144762611465
 10
144.1413424851073
 20
24.71043690440308
 10
144.5692233494176
 20
26.19127677146059
 10
144.6352658313392
 20
26.97820549466666
 97
        0
 92
        7
 72
     0
 73
     1
 93
       15
 10
144.6352658313392
 20
89.011265237143
 10
144.5692233494212
 20
89.79819396028995
 10
144.1413424851145
 20
91.27903382734292
 10
143.3451120057964
 20
92.59802310563225
 10
142.2344821054414
 20
93.66679509504535
 10
140.8847970218905
 20
94.41093573151681
 10
140.8847970218905
 20
95.61086250824734
 10
115.5341887622473
 20
95.61086250824734
 10
115.5341887622473
 20
83.61086250824735
 10
144.6352658313428
 20
83.61086250824826
 10
144.6352658313355
 20
84.36679865294753
 10
143.9627487329109
 20
84.59293020724942
 10
143.5850973576
 20
84.81059134329223
 10
143.9627487329109
 20
85.18917289212584
 10
144.6352658313392
 20
84.96304133787214
 97
        0
 75
     0
 76
     1
 52
90.0
 41
1.0
 77
     0
 78
     1
 53
135.0
 43
-21722.07618687618
 44
-989.5760128416728
 45
-2.245064030267288
 46
-2.245064030267287
 79
     0
 47
0.7084555761931278
 98
        8
 10
484.1217093133475
 20
87.95523957664807
 10
525.2345663414255
 20
89.37214459319092
 10
544.3733068699422
 20
89.37214459319092
 10
574.1446954708537
 20
87.95523957664807
 10
572.0181634925777
 20
28.44496591713175
 10
500.4250856898236
 20
28.44496591713175
 10
130.4093606181725
 20
27.73650975657199
 10
135.3712567484892
 20
88.66369573720783
  0
LINE
  5
10D0
330
1F
100
AcDbEntity
  8
SPOJOVACÍ
  6
Continuous
100
AcDbLine
 10
558.6685652841463
 20
72.70900424029093
 30
0.0
 11
554.6241609245537
 21
71.34908722674879
 31
0.0
  0
LINE
  5
10D1
330
1F
100
AcDbEntity
  8
SPOJOVACÍ
  6
Continuous
100
AcDbLine
 10
558.6685652841463
 20
72.11276155513622
 30
0.0
 11
554.6241609245537
 21
70.75284454159407
 31
0.0
  0
LINE
  5
10D2
330
1F
100
AcDbEntity
  8
SPOJOVACÍ
  6
Continuous
100
AcDbLine
 10
554.2465095536083
 20
71.13049591472225
 30
0.0
 11
554.6241609245537
 21
71.34908722674879
 31
0.0
  0
LINE
  5
10D3
330
1F
100
AcDbEntity
  8
SPOJOVACÍ
  6
Continuous
100
AcDbLine
 10
554.2465095536083
 20
71.13049591472225
 30
0.0
 11
554.6241609245537
 21
70.75284454159407
 31
0.0
  0
LINE
  5
10D4
330
1F
100
AcDbEntity
  8
SPOJOVACÍ
  6
Continuous
100
AcDbLine
 10
559.0462166594573
 20
72.33042269118448
 30
0.0
 11
558.6685652841463
 21
72.70900424029093
 31
0.0
  0
LINE
  5
10D5
330
1F
100
AcDbEntity
  8
SPOJOVACÍ
  6
Continuous
100
AcDbLine
 10
559.0462166594573
 20
72.33042269118448
 30
0.0
 11
558.6685652841463
 21
72.11276155513622
 31
0.0
  0
LINE
  5
10D6
330
1F
100
AcDbEntity
  8
SPOJOVACÍ
  6
Continuous
100
AcDbLine
 10
559.0462166594573
 20
72.33042269118448
 30
0.0
 11
554.2465095536083
 21
71.13049591472225
 31
0.0
  0
LINE
  5
10D7
330
1F
100
AcDbEntity
  8
SPOJOVACÍ
  6
Continuous
100
AcDbLine
 10
558.6685652841463
 20
75.82881385925282
 30
0.0
 11
554.6241609245537
 21
74.46889684571067
 31
0.0
  0
LINE
  5
10D8
330
1F
100
AcDbEntity
  8
SPOJOVACÍ
  6
Continuous
100
AcDbLine
 10
558.6685652841463
 20
75.23257117410537
 30
0.0
 11
554.6241609245537
 21
73.87265416083244
 31
0.0
  0
LINE
  5
10D9
330
1F
100
AcDbEntity
  8
SPOJOVACÍ
  6
Continuous
100
AcDbLine
 10
554.2465095536083
 20
74.25123570966241
 30
0.0
 11
554.6241609245537
 21
74.46889684571067
 31
0.0
  0
LINE
  5
10DA
330
1F
100
AcDbEntity
  8
SPOJOVACÍ
  6
Continuous
100
AcDbLine
 10
554.2465095536083
 20
74.25123570966241
 30
0.0
 11
554.6241609245537
 21
73.87265416083244
 31
0.0
  0
LINE
  5
10DB
330
1F
100
AcDbEntity
  8
SPOJOVACÍ
  6
Continuous
100
AcDbLine
 10
559.0462166594573
 20
75.45116248612464
 30
0.0
 11
558.6685652841463
 21
75.82881385925282
 31
0.0
  0
LINE
  5
10DC
330
1F
100
AcDbEntity
  8
SPOJOVACÍ
  6
Continuous
100
AcDbLine
 10
559.0462166594573
 20
75.45116248612464
 30
0.0
 11
558.6685652841463
 21
75.23257117410537
 31
0.0
  0
LINE
  5
10DD
330
1F
100
AcDbEntity
  8
SPOJOVACÍ
  6
Continuous
100
AcDbLine
 10
559.0462166594573
 20
75.45116248612464
 30
0.0
 11
554.2465095536083
 21
74.25123570966241
 31
0.0
  0
LINE
  5
10DE
330
1F
100
AcDbEntity
  8
SPOJOVACÍ
  6
Continuous
100
AcDbLine
 10
558.6685652841463
 20
78.94862347822197
 30
0.0
 11
554.6241609245537
 21
77.58870646494904
 31
0.0
  0
LINE
  5
10DF
330
1F
100
AcDbEntity
  8
SPOJOVACÍ
  6
Continuous
100
AcDbLine
 10
558.6685652841463
 20
78.35238079306726
 30
0.0
 11
554.6241609245537
 21
76.99246377980159
 31
0.0
  0
LINE
  5
10E0
330
1F
100
AcDbEntity
  8
SPOJOVACÍ
  6
Continuous
100
AcDbLine
 10
554.2465095536083
 20
77.37104532863156
 30
0.0
 11
554.6241609245537
 21
77.58870646494904
 31
0.0
  0
LINE
  5
10E1
330
1F
100
AcDbEntity
  8
SPOJOVACÍ
  6
Continuous
100
AcDbLine
 10
554.2465095536083
 20
77.37104532863156
 30
0.0
 11
554.6241609245537
 21
76.99246377980159
 31
0.0
  0
LINE
  5
10E2
330
1F
100
AcDbEntity
  8
SPOJOVACÍ
  6
Continuous
100
AcDbLine
 10
559.0462166594573
 20
78.5709721050938
 30
0.0
 11
558.6685652841463
 21
78.94862347822197
 31
0.0
  0
LINE
  5
10E3
330
1F
100
AcDbEntity
  8
SPOJOVACÍ
  6
Continuous
100
AcDbLine
 10
559.0462166594573
 20
78.5709721050938
 30
0.0
 11
558.6685652841463
 21
78.35238079306726
 31
0.0
  0
LINE
  5
10E4
330
1F
100
AcDbEntity
  8
SPOJOVACÍ
  6
Continuous
100
AcDbLine
 10
559.0462166594573
 20
78.5709721050938
 30
0.0
 11
554.2465095536083
 21
77.37104532863156
 31
0.0
  0
LINE
  5
10E5
330
1F
100
AcDbEntity
  8
SPOJOVACÍ
  6
Continuous
100
AcDbLine
 10
557.6630452484589
 20
63.22493182625328
 30
0.0
 11
555.5087581070022
 21
62.9142531104793
 31
0.0
  0
LINE
  5
10E6
330
1F
100
AcDbEntity
  8
SPOJOVACÍ
  6
Continuous
100
AcDbLine
 10
557.2853938775136
 20
63.60258319938146
 30
0.0
 11
555.8864094779476
 21
63.13191424679678
 31
0.0
  0
LINE
  5
10E7
330
1F
100
AcDbEntity
  8
SPOJOVACÍ
  6
Continuous
100
AcDbLine
 10
557.2853938775136
 20
63.00634051423401
 30
0.0
 11
555.8864094779476
 21
62.53567156164933
 31
0.0
  0
LINE
  5
10E8
330
1F
100
AcDbEntity
  8
SPOJOVACÍ
  6
Continuous
100
AcDbLine
 10
555.5087581070022
 20
62.9142531104793
 30
0.0
 11
555.8864094779476
 21
63.13191424679678
 31
0.0
  0
LINE
  5
10E9
330
1F
100
AcDbEntity
  8
SPOJOVACÍ
  6
Continuous
100
AcDbLine
 10
555.5087581070022
 20
62.9142531104793
 30
0.0
 11
555.8864094779476
 21
62.53567156164933
 31
0.0
  0
LINE
  5
10EA
330
1F
100
AcDbEntity
  8
SPOJOVACÍ
  6
Continuous
100
AcDbLine
 10
557.6630452484589
 20
63.22493182625328
 30
0.0
 11
557.2853938775136
 21
63.60258319938146
 31
0.0
  0
LINE
  5
10EB
330
1F
100
AcDbEntity
  8
SPOJOVACÍ
  6
Continuous
100
AcDbLine
 10
557.6630452484589
 20
63.22493182625328
 30
0.0
 11
557.2853938775136
 21
63.00634051423401
 31
0.0
  0
LINE
  5
10EC
330
1F
100
AcDbEntity
  8
SPOJOVACÍ
  6
Continuous
100
AcDbLine
 10
558.2276619589304
 20
66.23870140457291
 30
0.0
 11
555.1115730424992
 21
65.60525168780293
 31
0.0
  0
LINE
  5
10ED
330
1F
100
AcDbEntity
  8
SPOJOVACÍ
  6
Continuous
100
AcDbLine
 10
557.8500105836194
 20
66.61728295367936
 30
0.0
 11
555.4892244134446
 21
65.8229128238512
 31
0.0
  0
LINE
  5
10EE
330
1F
100
AcDbEntity
  8
SPOJOVACÍ
  6
Continuous
100
AcDbLine
 10
557.8500105836194
 20
66.02104026852464
 30
0.0
 11
555.4892244134446
 21
65.22667013897296
 31
0.0
  0
LINE
  5
10EF
330
1F
100
AcDbEntity
  8
SPOJOVACÍ
  6
Continuous
100
AcDbLine
 10
555.1115730424992
 20
65.60525168780293
 30
0.0
 11
555.4892244134446
 21
65.8229128238512
 31
0.0
  0
LINE
  5
10F0
330
1F
100
AcDbEntity
  8
SPOJOVACÍ
  6
Continuous
100
AcDbLine
 10
555.1115730424992
 20
65.60525168780293
 30
0.0
 11
555.4892244134446
 21
65.22667013897296
 31
0.0
  0
LINE
  5
10F1
330
1F
100
AcDbEntity
  8
SPOJOVACÍ
  6
Continuous
100
AcDbLine
 10
558.2276619589304
 20
66.23870140457291
 30
0.0
 11
557.8500105836194
 21
66.61728295367936
 31
0.0
  0
LINE
  5
10F2
330
1F
100
AcDbEntity
  8
SPOJOVACÍ
  6
Continuous
100
AcDbLine
 10
558.2276619589304
 20
66.23870140457291
 30
0.0
 11
557.8500105836194
 21
66.02104026852464
 31
0.0
  0
LINE
  5
10F3
330
1F
100
AcDbEntity
  8
SPOJOVACÍ
  6
Continuous
100
AcDbLine
 10
558.7922786650363
 20
69.25340115887081
 30
0.0
 11
554.6669490122933
 21
68.2804372765662
 31
0.0
  0
LINE
  5
10F4
330
1F
100
AcDbEntity
  8
SPOJOVACÍ
  6
Continuous
100
AcDbLine
 10
558.413697116752
 20
69.63105253199898
 30
0.0
 11
555.0446003832387
 21
68.49809841261446
 31
0.0
  0
LINE
  5
10F5
330
1F
100
AcDbEntity
  8
SPOJOVACÍ
  6
Continuous
100
AcDbLine
 10
558.413697116752
 20
69.03480984684427
 30
0.0
 11
555.0446003832387
 21
67.90185572745975
 31
0.0
  0
LINE
  5
10F6
330
1F
100
AcDbEntity
  8
SPOJOVACÍ
  6
Continuous
100
AcDbLine
 10
554.6669490122933
 20
68.2804372765662
 30
0.0
 11
555.0446003832387
 21
68.49809841261446
 31
0.0
  0
LINE
  5
10F7
330
1F
100
AcDbEntity
  8
SPOJOVACÍ
  6
Continuous
100
AcDbLine
 10
554.6669490122933
 20
68.2804372765662
 30
0.0
 11
555.0446003832387
 21
67.90185572745975
 31
0.0
  0
LINE
  5
10F8
330
1F
100
AcDbEntity
  8
SPOJOVACÍ
  6
Continuous
100
AcDbLine
 10
558.7922786650363
 20
69.25340115887081
 30
0.0
 11
558.413697116752
 21
69.63105253199898
 31
0.0
  0
LINE
  5
10F9
330
1F
100
AcDbEntity
  8
SPOJOVACÍ
  6
Continuous
100
AcDbLine
 10
558.7922786650363
 20
69.25340115887081
 30
0.0
 11
558.413697116752
 21
69.03480984684427
 31
0.0
  0
LINE
  5
10FA
330
1F
100
AcDbEntity
  8
SPOJOVACÍ
  6
Continuous
100
AcDbLine
 10
558.6685652841463
 20
82.06843309746034
 30
0.0
 11
554.6241609245537
 21
80.70944625961999
 31
0.0
  0
LINE
  5
10FB
330
1F
100
AcDbEntity
  8
SPOJOVACÍ
  6
Continuous
100
AcDbLine
 10
558.6685652841463
 20
81.47219041230561
 30
0.0
 11
554.6241609245537
 21
80.11320357474176
 31
0.0
  0
LINE
  5
10FC
330
1F
100
AcDbEntity
  8
SPOJOVACÍ
  6
Continuous
100
AcDbLine
 10
554.2465095536083
 20
80.49085494759344
 30
0.0
 11
554.6241609245537
 21
80.70944625961999
 31
0.0
  0
LINE
  5
10FD
330
1F
100
AcDbEntity
  8
SPOJOVACÍ
  6
Continuous
100
AcDbLine
 10
554.2465095536083
 20
80.49085494759344
 30
0.0
 11
554.6241609245537
 21
80.11320357474176
 31
0.0
  0
LINE
  5
10FE
330
1F
100
AcDbEntity
  8
SPOJOVACÍ
  6
Continuous
100
AcDbLine
 10
559.0462166594573
 20
81.69078172433216
 30
0.0
 11
558.6685652841463
 21
82.06843309746034
 31
0.0
  0
LINE
  5
10FF
330
1F
100
AcDbEntity
  8
SPOJOVACÍ
  6
Continuous
100
AcDbLine
 10
559.0462166594573
 20
81.69078172433216
 30
0.0
 11
558.6685652841463
 21
81.47219041230561
 31
0.0
  0
LINE
  5
1100
330
1F
100
AcDbEntity
  8
SPOJOVACÍ
  6
Continuous
100
AcDbLine
 10
559.0462166594573
 20
81.69078172433216
 30
0.0
 11
554.2465095536083
 21
80.49085494759344
 31
0.0
  0
LINE
  5
1101
330
1F
100
AcDbEntity
  8
SPOJOVACÍ
  6
Continuous
100
AcDbLine
 10
558.6685652841463
 20
85.18917289212401
 30
0.0
 11
554.6241609245537
 21
83.82925587885836
 31
0.0
  0
LINE
  5
1102
330
1F
100
AcDbEntity
  8
SPOJOVACÍ
  6
Continuous
100
AcDbLine
 10
558.6685652841463
 20
84.59293020724578
 30
0.0
 11
554.6241609245537
 21
83.23301319370363
 31
0.0
  0
LINE
  5
1103
330
1F
100
AcDbEntity
  8
SPOJOVACÍ
  6
Continuous
100
AcDbLine
 10
554.2465095536083
 20
83.61066456683181
 30
0.0
 11
554.6241609245537
 21
83.82925587885836
 31
0.0
  0
LINE
  5
1104
330
1F
100
AcDbEntity
  8
SPOJOVACÍ
  6
Continuous
100
AcDbLine
 10
554.2465095536083
 20
83.61066456683181
 30
0.0
 11
554.6241609245537
 21
83.23301319370363
 31
0.0
  0
LINE
  5
1105
330
1F
100
AcDbEntity
  8
SPOJOVACÍ
  6
Continuous
100
AcDbLine
 10
559.0462166594573
 20
84.81059134329404
 30
0.0
 11
558.6685652841463
 21
85.18917289212401
 31
0.0
  0
LINE
  5
1106
330
1F
100
AcDbEntity
  8
SPOJOVACÍ
  6
Continuous
100
AcDbLine
 10
559.0462166594573
 20
84.81059134329404
 30
0.0
 11
558.6685652841463
 21
84.59293020724578
 31
0.0
  0
LINE
  5
1107
330
1F
100
AcDbEntity
  8
SPOJOVACÍ
  6
Continuous
100
AcDbLine
 10
559.0462166594573
 20
84.81059134329404
 30
0.0
 11
554.2465095536083
 21
83.61066456683181
 31
0.0
  0
LINE
  5
1108
330
1F
100
AcDbEntity
  8
SPOJOVACÍ
  6
Continuous
100
AcDbLine
 10
555.5422444344497
 20
68.6748318139638
 30
0.0
 11
555.2966780229819
 21
70.64587432525001
 31
0.0
  0
LINE
  5
1109
330
1F
100
AcDbEntity
  8
SPOJOVACÍ
  6
Continuous
100
AcDbLine
 10
555.880828427011
 20
65.96802024806527
 30
0.0
 11
555.6138679716735
 21
68.10463405091866
 31
0.0
  0
LINE
  5
110A
330
1F
100
AcDbEntity
  8
SPOJOVACÍ
  6
Continuous
100
AcDbLine
 10
556.2203425881801
 20
63.25097674863207
 30
0.0
 11
555.9524519598692
 21
65.39596213361654
 31
0.0
  0
LINE
  5
110B
330
1F
100
AcDbEntity
  8
SPOJOVACÍ
  6
Continuous
100
AcDbLine
 10
557.0323860604315
 20
62.93471697810161
 30
0.0
 11
556.6463631065328
 21
59.84560316029671
 31
0.0
  0
LINE
  5
110C
330
1F
100
AcDbEntity
  8
SPOJOVACÍ
  6
Continuous
100
AcDbLine
 10
557.3998054981114
 20
65.87593284431057
 30
0.0
 11
557.1095906529574
 21
63.55514423395504
 31
0.0
  0
LINE
  5
110D
330
1F
100
AcDbEntity
  8
SPOJOVACÍ
  6
Continuous
100
AcDbLine
 10
557.7690852904691
 20
68.82831082003974
 30
0.0
 11
557.4788704409495
 21
66.50659203397515
 31
0.0
  0
LINE
  5
110E
330
1F
100
AcDbEntity
  8
SPOJOVACÍ
  6
Continuous
100
AcDbLine
 10
556.6463631065328
 20
59.84560316029671
 30
0.0
 11
556.2919661254039
 21
62.6817091615652
 31
0.0
  0
LINE
  5
110F
330
1F
100
AcDbEntity
  8
SPOJOVACÍ
  6
Continuous
100
AcDbLine
 10
557.9960481857181
 20
70.64587432525001
 30
0.0
 11
557.846289882995
 21
69.44873807589317
 31
0.0
  0
LINE
  5
1110
330
1F
100
AcDbEntity
  8
SPOJOVACÍ
  6
Continuous
100
AcDbLine
 10
555.2966780229819
 20
70.98259796313357
 30
0.0
 11
555.2966780229819
 21
70.64587432525001
 31
0.0
  0
LINE
  5
1111
330
1F
100
AcDbEntity
  8
SPOJOVACÍ
  6
Continuous
100
AcDbLine
 10
555.2966780229819
 20
74.10519810974654
 30
0.0
 11
555.2966780229819
 21
71.58628205471757
 31
0.0
  0
LINE
  5
1112
330
1F
100
AcDbEntity
  8
SPOJOVACÍ
  6
Continuous
100
AcDbLine
 10
557.9960481857181
 20
71.89324006713866
 30
0.0
 11
557.9960481857181
 21
70.64587432525001
 31
0.0
  0
LINE
  5
1113
330
1F
100
AcDbEntity
  8
SPOJOVACÍ
  6
Continuous
100
AcDbLine
 10
557.9960481857181
 20
75.00746863162055
 30
0.0
 11
557.9960481857181
 21
72.48948275229338
 31
0.0
  0
LINE
  5
1114
330
1F
100
AcDbEntity
  8
SPOJOVACÍ
  6
Continuous
100
AcDbLine
 10
555.2966780229819
 20
77.2268680803885
 30
0.0
 11
555.2966780229819
 21
74.70609167367945
 31
0.0
  0
LINE
  5
1115
330
1F
100
AcDbEntity
  8
SPOJOVACÍ
  6
Continuous
100
AcDbLine
 10
555.2966780229819
 20
80.34946822673225
 30
0.0
 11
555.2966780229819
 21
77.82125041386314
 31
0.0
  0
LINE
  5
1116
330
1F
100
AcDbEntity
  8
SPOJOVACÍ
  6
Continuous
100
AcDbLine
 10
555.2966780229819
 20
83.46462696691594
 30
0.0
 11
555.2966780229819
 21
80.94571091188697
 31
0.0
  0
LINE
  5
1117
330
1F
100
AcDbEntity
  8
SPOJOVACÍ
  6
Continuous
100
AcDbLine
 10
557.9960481857181
 20
78.14030071177547
 30
0.0
 11
557.9960481857181
 21
75.61208289890635
 31
0.0
  0
LINE
  5
1118
330
1F
100
AcDbEntity
  8
SPOJOVACÍ
  6
Continuous
100
AcDbLine
 10
557.9960481857181
 20
81.25545945195915
 30
0.0
 11
557.9960481857181
 21
78.73468304525011
 31
0.0
  0
LINE
  5
1119
330
1F
100
AcDbEntity
  8
SPOJOVACÍ
  6
Continuous
100
AcDbLine
 10
557.9960481857181
 20
84.3780595983029
 30
0.0
 11
557.9960481857181
 21
81.85914354327394
 31
0.0
  0
LINE
  5
111A
330
1F
100
AcDbEntity
  8
SPOJOVACÍ
  6
Continuous
100
AcDbLine
 10
557.9960481857181
 20
89.01126523715936
 30
0.0
 11
557.9960481857181
 21
84.97337210747934
 31
0.0
  0
LINE
  5
111B
330
1F
100
AcDbEntity
  8
SPOJOVACÍ
  6
Continuous
100
AcDbLine
 10
555.2966780229819
 20
89.01126523715936
 30
0.0
 11
555.2966780229819
 21
84.06831105823073
 31
0.0
  0
LINE
  5
111C
330
1F
100
AcDbEntity
  8
SPOJOVACÍ
  6
Continuous
100
AcDbLine
 10
561.7465169951668
 20
94.4109357315159
 30
0.0
 11
560.3968319116159
 21
93.66679509504171
 31
0.0
  0
LINE
  5
111D
330
1F
100
AcDbEntity
  8
SPOJOVACÍ
  6
Continuous
100
AcDbLine
 10
560.3968319116159
 20
93.66679509504171
 30
0.0
 11
559.2862020112573
 21
92.59802310562951
 31
0.0
  0
LINE
  5
111E
330
1F
100
AcDbEntity
  8
SPOJOVACÍ
  6
Continuous
100
AcDbLine
 10
559.2862020112573
 20
92.59802310562951
 30
0.0
 11
558.4899715319391
 21
91.27903382733199
 31
0.0
  0
LINE
  5
111F
330
1F
100
AcDbEntity
  8
SPOJOVACÍ
  6
Continuous
100
AcDbLine
 10
558.4899715319391
 20
91.27903382733199
 30
0.0
 11
558.0620906676397
 21
89.79819396028176
 31
0.0
  0
LINE
  5
1120
330
1F
100
AcDbEntity
  8
SPOJOVACÍ
  6
Continuous
100
AcDbLine
 10
558.0620906676397
 20
89.79819396028176
 30
0.0
 11
557.9960481857181
 21
89.01126523715936
 31
0.0
  0
LINE
  5
1121
330
1F
100
AcDbEntity
  8
SPOJOVACÍ
  6
Continuous
100
AcDbLine
 10
553.4986482129664
 20
93.1561285831907
 30
0.0
 11
552.2615144040667
 21
94.07421209363235
 31
0.0
  0
LINE
  5
1122
330
1F
100
AcDbEntity
  8
SPOJOVACÍ
  6
Continuous
100
AcDbLine
 10
552.2615144040667
 20
94.07421209363235
 30
0.0
 11
551.5462092178989
 21
94.4109357315159
 31
0.0
  0
LINE
  5
1123
330
1F
100
AcDbEntity
  8
SPOJOVACÍ
  6
Continuous
100
AcDbLine
 10
561.7465169951668
 20
94.4109357315159
 30
0.0
 11
551.5462092178989
 21
94.4109357315159
 31
0.0
  0
LINE
  5
1124
330
1F
100
AcDbEntity
  8
SPOJOVACÍ
  6
Continuous
100
AcDbLine
 10
561.7465169951668
 20
95.61086250824734
 30
0.0
 11
561.7465169951668
 21
94.4109357315159
 31
0.0
  0
LINE
  5
1125
330
1F
100
AcDbEntity
  8
SPOJOVACÍ
  6
Continuous
100
AcDbLine
 10
561.7465169951668
 20
95.61086250824734
 30
0.0
 11
551.5462092178989
 21
95.61086250824734
 31
0.0
  0
LINE
  5
1126
330
1F
100
AcDbEntity
  8
SPOJOVACÍ
  6
Continuous
100
AcDbLine
 10
551.5462092178989
 20
95.61086250824734
 30
0.0
 11
551.5462092178989
 21
94.4109357315159
 31
0.0
  0
LINE
  5
1127
330
1F
100
AcDbEntity
  8
SPOJOVACÍ
  6
Continuous
100
AcDbLine
 10
555.2966780229819
 20
89.01126523715936
 30
0.0
 11
555.0697151320985
 21
90.5348931905886
 31
0.0
  0
LINE
  5
1128
330
1F
100
AcDbEntity
  8
SPOJOVACÍ
  6
Continuous
100
AcDbLine
 10
555.0697151320985
 20
90.5348931905886
 30
0.0
 11
554.4567292829508
 21
91.94876040029191
 31
0.0
  0
LINE
  5
1129
330
1F
100
AcDbEntity
  8
SPOJOVACÍ
  6
Continuous
100
AcDbLine
 10
554.4567292829508
 20
91.94876040029191
 30
0.0
 11
553.4986482129664
 21
93.1561285831907
 31
0.0
  0
LWPOLYLINE
  5
112A
330
1F
100
AcDbEntity
  8
izolace
100
AcDbPolyline
 90
        4
 70
     1
 43
0.0
 10
541.4405219962921
 20
95.61086250824734
 10
536.4405219962921
 20
95.61086250824734
 10
536.4405219962921
 20
83.61086250824826
 10
541.4405219962921
 20
83.61086250824735
  0
LINE
  5
112B
330
1F
100
AcDbEntity
  8
CETRIS
100
AcDbLine
 10
541.4405219962921
 20
95.61086250824827
 30
0.0
 11
641.4326630447451
 21
95.61086250824734
 31
0.0
  0
LINE
  5
112C
330
1F
100
AcDbEntity
  8
CETRIS
100
AcDbLine
 10
541.4405219962921
 20
83.61086250824826
 30
0.0
 11
639.2225017664443
 21
83.61086250824735
 31
0.0
  0
LINE
  5
112D
330
1F
100
AcDbEntity
  8
CETRIS
100
AcDbLine
 10
541.4405219962921
 20
83.61086250824826
 30
0.0
 11
541.4405219962921
 21
95.61086250824734
 31
0.0
  0
LINE
  5
112E
330
1F
100
AcDbEntity
  8
CETRIS
100
AcDbLine
 10
536.4405219962921
 20
83.61086250824826
 30
0.0
 11
536.4405219962921
 21
95.61086250824734
 31
0.0
  0
LINE
  5
112F
330
1F
100
AcDbEntity
  8
izolace
  6
IZOLACE
 48
1.5
100
AcDbLine
 10
163.571833660759
 20
57.97430055782786
 30
0.0
 11
493.3839031165355
 21
58.08743850121516
 31
0.0
  0
LINE
  5
1130
330
1F
100
AcDbEntity
  8
SPOJOVACÍ
  6
Continuous
100
AcDbLine
 10
531.3295684282186
 20
43.28046649145505
 30
0.0
 11
535.3739727878112
 21
44.6403835049972
 31
0.0
  0
LINE
  5
1131
330
1F
100
AcDbEntity
  8
SPOJOVACÍ
  6
Continuous
100
AcDbLine
 10
531.3295684282186
 20
43.87670917660978
 30
0.0
 11
535.3739727878112
 21
45.23662619015192
 31
0.0
  0
LINE
  5
1132
330
1F
100
AcDbEntity
  8
SPOJOVACÍ
  6
Continuous
100
AcDbLine
 10
535.7516241587566
 20
44.85897481702375
 30
0.0
 11
535.3739727878112
 21
44.6403835049972
 31
0.0
  0
LINE
  5
1133
330
1F
100
AcDbEntity
  8
SPOJOVACÍ
  6
Continuous
100
AcDbLine
 10
535.7516241587566
 20
44.85897481702375
 30
0.0
 11
535.3739727878112
 21
45.23662619015192
 31
0.0
  0
LINE
  5
1134
330
1F
100
AcDbEntity
  8
SPOJOVACÍ
  6
Continuous
100
AcDbLine
 10
530.9519170529076
 20
43.65904804056151
 30
0.0
 11
531.3295684282186
 21
43.28046649145505
 31
0.0
  0
LINE
  5
1135
330
1F
100
AcDbEntity
  8
SPOJOVACÍ
  6
Continuous
100
AcDbLine
 10
530.9519170529076
 20
43.65904804056151
 30
0.0
 11
531.3295684282186
 21
43.87670917660978
 31
0.0
  0
LINE
  5
1136
330
1F
100
AcDbEntity
  8
SPOJOVACÍ
  6
Continuous
100
AcDbLine
 10
530.9519170529076
 20
43.65904804056151
 30
0.0
 11
535.7516241587566
 21
44.85897481702375
 31
0.0
  0
LINE
  5
1137
330
1F
100
AcDbEntity
  8
SPOJOVACÍ
  6
Continuous
100
AcDbLine
 10
531.3295684282186
 20
40.16065687249318
 30
0.0
 11
535.3739727878112
 21
41.52057388603532
 31
0.0
  0
LINE
  5
1138
330
1F
100
AcDbEntity
  8
SPOJOVACÍ
  6
Continuous
100
AcDbLine
 10
531.3295684282186
 20
40.75689955764062
 30
0.0
 11
535.3739727878112
 21
42.11681657091356
 31
0.0
  0
LINE
  5
1139
330
1F
100
AcDbEntity
  8
SPOJOVACÍ
  6
Continuous
100
AcDbLine
 10
535.7516241587566
 20
41.73823502208358
 30
0.0
 11
535.3739727878112
 21
41.52057388603532
 31
0.0
  0
LINE
  5
113A
330
1F
100
AcDbEntity
  8
SPOJOVACÍ
  6
Continuous
100
AcDbLine
 10
535.7516241587566
 20
41.73823502208358
 30
0.0
 11
535.3739727878112
 21
42.11681657091356
 31
0.0
  0
LINE
  5
113B
330
1F
100
AcDbEntity
  8
SPOJOVACÍ
  6
Continuous
100
AcDbLine
 10
530.9519170529076
 20
40.53830824562135
 30
0.0
 11
531.3295684282186
 21
40.16065687249318
 31
0.0
  0
LINE
  5
113C
330
1F
100
AcDbEntity
  8
SPOJOVACÍ
  6
Continuous
100
AcDbLine
 10
530.9519170529076
 20
40.53830824562135
 30
0.0
 11
531.3295684282186
 21
40.75689955764062
 31
0.0
  0
LINE
  5
113D
330
1F
100
AcDbEntity
  8
SPOJOVACÍ
  6
Continuous
100
AcDbLine
 10
530.9519170529076
 20
40.53830824562135
 30
0.0
 11
535.7516241587566
 21
41.73823502208358
 31
0.0
  0
LINE
  5
113E
330
1F
100
AcDbEntity
  8
SPOJOVACÍ
  6
Continuous
100
AcDbLine
 10
531.3295684282186
 20
37.04084725352402
 30
0.0
 11
535.3739727878112
 21
38.40076426679695
 31
0.0
  0
LINE
  5
113F
330
1F
100
AcDbEntity
  8
SPOJOVACÍ
  6
Continuous
100
AcDbLine
 10
531.3295684282186
 20
37.63708993867874
 30
0.0
 11
535.3739727878112
 21
38.99700695194439
 31
0.0
  0
LINE
  5
1140
330
1F
100
AcDbEntity
  8
SPOJOVACÍ
  6
Continuous
100
AcDbLine
 10
535.7516241587566
 20
38.61842540311442
 30
0.0
 11
535.3739727878112
 21
38.40076426679695
 31
0.0
  0
LINE
  5
1141
330
1F
100
AcDbEntity
  8
SPOJOVACÍ
  6
Continuous
100
AcDbLine
 10
535.7516241587566
 20
38.61842540311442
 30
0.0
 11
535.3739727878112
 21
38.99700695194439
 31
0.0
  0
LINE
  5
1142
330
1F
100
AcDbEntity
  8
SPOJOVACÍ
  6
Continuous
100
AcDbLine
 10
530.9519170529076
 20
37.41849862665219
 30
0.0
 11
531.3295684282186
 21
37.04084725352402
 31
0.0
  0
LINE
  5
1143
330
1F
100
AcDbEntity
  8
SPOJOVACÍ
  6
Continuous
100
AcDbLine
 10
530.9519170529076
 20
37.41849862665219
 30
0.0
 11
531.3295684282186
 21
37.63708993867874
 31
0.0
  0
LINE
  5
1144
330
1F
100
AcDbEntity
  8
SPOJOVACÍ
  6
Continuous
100
AcDbLine
 10
530.9519170529076
 20
37.41849862665219
 30
0.0
 11
535.7516241587566
 21
38.61842540311442
 31
0.0
  0
LINE
  5
1145
330
1F
100
AcDbEntity
  8
SPOJOVACÍ
  6
Continuous
100
AcDbLine
 10
532.335088463906
 20
52.76453890549271
 30
0.0
 11
534.4893756053627
 21
53.07521762126668
 31
0.0
  0
LINE
  5
1146
330
1F
100
AcDbEntity
  8
SPOJOVACÍ
  6
Continuous
100
AcDbLine
 10
532.7127398348514
 20
52.38688753236454
 30
0.0
 11
534.1117242344173
 21
52.85755648494921
 31
0.0
  0
LINE
  5
1147
330
1F
100
AcDbEntity
  8
SPOJOVACÍ
  6
Continuous
100
AcDbLine
 10
532.7127398348514
 20
52.98313021751198
 30
0.0
 11
534.1117242344173
 21
53.45379917009665
 31
0.0
  0
LINE
  5
1148
330
1F
100
AcDbEntity
  8
SPOJOVACÍ
  6
Continuous
100
AcDbLine
 10
534.4893756053627
 20
53.07521762126668
 30
0.0
 11
534.1117242344173
 21
52.85755648494921
 31
0.0
  0
LINE
  5
1149
330
1F
100
AcDbEntity
  8
SPOJOVACÍ
  6
Continuous
100
AcDbLine
 10
534.4893756053627
 20
53.07521762126668
 30
0.0
 11
534.1117242344173
 21
53.45379917009665
 31
0.0
  0
LINE
  5
114A
330
1F
100
AcDbEntity
  8
SPOJOVACÍ
  6
Continuous
100
AcDbLine
 10
532.335088463906
 20
52.76453890549271
 30
0.0
 11
532.7127398348514
 21
52.38688753236454
 31
0.0
  0
LINE
  5
114B
330
1F
100
AcDbEntity
  8
SPOJOVACÍ
  6
Continuous
100
AcDbLine
 10
532.335088463906
 20
52.76453890549271
 30
0.0
 11
532.7127398348514
 21
52.98313021751198
 31
0.0
  0
LINE
  5
114C
330
1F
100
AcDbEntity
  8
SPOJOVACÍ
  6
Continuous
100
AcDbLine
 10
531.7704717534345
 20
49.75076932717309
 30
0.0
 11
534.8865606698657
 21
50.38421904394306
 31
0.0
  0
LINE
  5
114D
330
1F
100
AcDbEntity
  8
SPOJOVACÍ
  6
Continuous
100
AcDbLine
 10
532.1481231287455
 20
49.37218777806663
 30
0.0
 11
534.5089092989203
 21
50.1665579078948
 31
0.0
  0
LINE
  5
114E
330
1F
100
AcDbEntity
  8
SPOJOVACÍ
  6
Continuous
100
AcDbLine
 10
532.1481231287455
 20
49.96843046322135
 30
0.0
 11
534.5089092989203
 21
50.76280059277303
 31
0.0
  0
LINE
  5
114F
330
1F
100
AcDbEntity
  8
SPOJOVACÍ
  6
Continuous
100
AcDbLine
 10
534.8865606698657
 20
50.38421904394306
 30
0.0
 11
534.5089092989203
 21
50.1665579078948
 31
0.0
  0
LINE
  5
1150
330
1F
100
AcDbEntity
  8
SPOJOVACÍ
  6
Continuous
100
AcDbLine
 10
534.8865606698657
 20
50.38421904394306
 30
0.0
 11
534.5089092989203
 21
50.76280059277303
 31
0.0
  0
LINE
  5
1151
330
1F
100
AcDbEntity
  8
SPOJOVACÍ
  6
Continuous
100
AcDbLine
 10
531.7704717534345
 20
49.75076932717309
 30
0.0
 11
532.1481231287455
 21
49.37218777806663
 31
0.0
  0
LINE
  5
1152
330
1F
100
AcDbEntity
  8
SPOJOVACÍ
  6
Continuous
100
AcDbLine
 10
531.7704717534345
 20
49.75076932717309
 30
0.0
 11
532.1481231287455
 21
49.96843046322135
 31
0.0
  0
LINE
  5
1153
330
1F
100
AcDbEntity
  8
SPOJOVACÍ
  6
Continuous
100
AcDbLine
 10
531.2058550473286
 20
46.73606957287518
 30
0.0
 11
535.3311847000716
 21
47.70903345517979
 31
0.0
  0
LINE
  5
1154
330
1F
100
AcDbEntity
  8
SPOJOVACÍ
  6
Continuous
100
AcDbLine
 10
531.5844365956129
 20
46.358418199747
 30
0.0
 11
534.9535333291262
 21
47.49137231913152
 31
0.0
  0
LINE
  5
1155
330
1F
100
AcDbEntity
  8
SPOJOVACÍ
  6
Continuous
100
AcDbLine
 10
531.5844365956129
 20
46.95466088490173
 30
0.0
 11
534.9535333291262
 21
48.08761500428625
 31
0.0
  0
LINE
  5
1156
330
1F
100
AcDbEntity
  8
SPOJOVACÍ
  6
Continuous
100
AcDbLine
 10
535.3311847000716
 20
47.70903345517979
 30
0.0
 11
534.9535333291262
 21
47.49137231913152
 31
0.0
  0
LINE
  5
1157
330
1F
100
AcDbEntity
  8
SPOJOVACÍ
  6
Continuous
100
AcDbLine
 10
535.3311847000716
 20
47.70903345517979
 30
0.0
 11
534.9535333291262
 21
48.08761500428625
 31
0.0
  0
LINE
  5
1158
330
1F
100
AcDbEntity
  8
SPOJOVACÍ
  6
Continuous
100
AcDbLine
 10
531.2058550473286
 20
46.73606957287518
 30
0.0
 11
531.5844365956129
 21
46.358418199747
 31
0.0
  0
LINE
  5
1159
330
1F
100
AcDbEntity
  8
SPOJOVACÍ
  6
Continuous
100
AcDbLine
 10
531.2058550473286
 20
46.73606957287518
 30
0.0
 11
531.5844365956129
 21
46.95466088490173
 31
0.0
  0
LINE
  5
115A
330
1F
100
AcDbEntity
  8
SPOJOVACÍ
  6
Continuous
100
AcDbLine
 10
531.3295684282186
 20
33.92103763428565
 30
0.0
 11
535.3739727878112
 21
35.280024472126
 31
0.0
  0
LINE
  5
115B
330
1F
100
AcDbEntity
  8
SPOJOVACÍ
  6
Continuous
100
AcDbLine
 10
531.3295684282186
 20
34.51728031944037
 30
0.0
 11
535.3739727878112
 21
35.87626715700423
 31
0.0
  0
LINE
  5
115C
330
1F
100
AcDbEntity
  8
SPOJOVACÍ
  6
Continuous
100
AcDbLine
 10
535.7516241587566
 20
35.49861578415255
 30
0.0
 11
535.3739727878112
 21
35.280024472126
 31
0.0
  0
LINE
  5
115D
330
1F
100
AcDbEntity
  8
SPOJOVACÍ
  6
Continuous
100
AcDbLine
 10
535.7516241587566
 20
35.49861578415255
 30
0.0
 11
535.3739727878112
 21
35.87626715700423
 31
0.0
  0
LINE
  5
115E
330
1F
100
AcDbEntity
  8
SPOJOVACÍ
  6
Continuous
100
AcDbLine
 10
530.9519170529076
 20
34.29868900741382
 30
0.0
 11
531.3295684282186
 21
33.92103763428565
 31
0.0
  0
LINE
  5
115F
330
1F
100
AcDbEntity
  8
SPOJOVACÍ
  6
Continuous
100
AcDbLine
 10
530.9519170529076
 20
34.29868900741382
 30
0.0
 11
531.3295684282186
 21
34.51728031944037
 31
0.0
  0
LINE
  5
1160
330
1F
100
AcDbEntity
  8
SPOJOVACÍ
  6
Continuous
100
AcDbLine
 10
530.9519170529076
 20
34.29868900741382
 30
0.0
 11
535.7516241587566
 21
35.49861578415255
 31
0.0
  0
LINE
  5
1161
330
1F
100
AcDbEntity
  8
SPOJOVACÍ
  6
Continuous
100
AcDbLine
 10
531.3295684282186
 20
30.80029783962197
 30
0.0
 11
535.3739727878112
 21
32.16021485288763
 31
0.0
  0
LINE
  5
1162
330
1F
100
AcDbEntity
  8
SPOJOVACÍ
  6
Continuous
100
AcDbLine
 10
531.3295684282186
 20
31.39654052450021
 30
0.0
 11
535.3739727878112
 21
32.75645753804235
 31
0.0
  0
LINE
  5
1163
330
1F
100
AcDbEntity
  8
SPOJOVACÍ
  6
Continuous
100
AcDbLine
 10
535.7516241587566
 20
32.37880616491418
 30
0.0
 11
535.3739727878112
 21
32.16021485288763
 31
0.0
  0
LINE
  5
1164
330
1F
100
AcDbEntity
  8
SPOJOVACÍ
  6
Continuous
100
AcDbLine
 10
535.7516241587566
 20
32.37880616491418
 30
0.0
 11
535.3739727878112
 21
32.75645753804235
 31
0.0
  0
LINE
  5
1165
330
1F
100
AcDbEntity
  8
SPOJOVACÍ
  6
Continuous
100
AcDbLine
 10
530.9519170529076
 20
31.17887938845194
 30
0.0
 11
531.3295684282186
 21
30.80029783962197
 31
0.0
  0
LINE
  5
1166
330
1F
100
AcDbEntity
  8
SPOJOVACÍ
  6
Continuous
100
AcDbLine
 10
530.9519170529076
 20
31.17887938845194
 30
0.0
 11
531.3295684282186
 21
31.39654052450021
 31
0.0
  0
LINE
  5
1167
330
1F
100
AcDbEntity
  8
SPOJOVACÍ
  6
Continuous
100
AcDbLine
 10
530.9519170529076
 20
31.17887938845194
 30
0.0
 11
535.7516241587566
 21
32.37880616491418
 31
0.0
  0
LINE
  5
1168
330
1F
100
AcDbEntity
  8
SPOJOVACÍ
  6
Continuous
100
AcDbLine
 10
534.4558892779152
 20
47.31463891778219
 30
0.0
 11
534.701455689383
 21
45.34359640649597
 31
0.0
  0
LINE
  5
1169
330
1F
100
AcDbEntity
  8
SPOJOVACÍ
  6
Continuous
100
AcDbLine
 10
534.1173052853539
 20
50.02145048368072
 30
0.0
 11
534.3842657406915
 21
47.88483668082733
 31
0.0
  0
LINE
  5
116A
330
1F
100
AcDbEntity
  8
SPOJOVACÍ
  6
Continuous
100
AcDbLine
 10
533.7777911241849
 20
52.73849398311392
 30
0.0
 11
534.0456817524957
 21
50.59350859812946
 31
0.0
  0
LINE
  5
116B
330
1F
100
AcDbEntity
  8
SPOJOVACÍ
  6
Continuous
100
AcDbLine
 10
532.9657476519335
 20
53.05475375364437
 30
0.0
 11
533.3517706058321
 21
56.14386757144927
 31
0.0
  0
LINE
  5
116C
330
1F
100
AcDbEntity
  8
SPOJOVACÍ
  6
Continuous
100
AcDbLine
 10
532.5983282142535
 20
50.11353788743543
 30
0.0
 11
532.8885430594075
 21
52.43432649779094
 31
0.0
  0
LINE
  5
116D
330
1F
100
AcDbEntity
  8
SPOJOVACÍ
  6
Continuous
100
AcDbLine
 10
532.2290484218958
 20
47.16115991170624
 30
0.0
 11
532.5192632714154
 21
49.48287869777084
 31
0.0
  0
LINE
  5
116E
330
1F
100
AcDbEntity
  8
SPOJOVACÍ
  6
Continuous
100
AcDbLine
 10
533.3517706058321
 20
56.14386757144927
 30
0.0
 11
533.7061675869611
 21
53.30776157018078
 31
0.0
  0
LINE
  5
116F
330
1F
100
AcDbEntity
  8
SPOJOVACÍ
  6
Continuous
100
AcDbLine
 10
532.0020855266468
 20
45.34359640649597
 30
0.0
 11
532.1518438293699
 21
46.54073265585282
 31
0.0
  0
LINE
  5
1170
330
1F
100
AcDbEntity
  8
SPOJOVACÍ
  6
Continuous
100
AcDbLine
 10
534.701455689383
 20
45.00687276861242
 30
0.0
 11
534.701455689383
 21
45.34359640649597
 31
0.0
  0
LINE
  5
1171
330
1F
100
AcDbEntity
  8
SPOJOVACÍ
  6
Continuous
100
AcDbLine
 10
534.701455689383
 20
41.88427262199946
 30
0.0
 11
534.701455689383
 21
44.40318867702842
 31
0.0
  0
LINE
  5
1172
330
1F
100
AcDbEntity
  8
SPOJOVACÍ
  6
Continuous
100
AcDbLine
 10
532.0020855266468
 20
44.09623066460733
 30
0.0
 11
532.0020855266468
 21
45.34359640649597
 31
0.0
  0
LINE
  5
1173
330
1F
100
AcDbEntity
  8
SPOJOVACÍ
  6
Continuous
100
AcDbLine
 10
532.0020855266468
 20
40.98200210012544
 30
0.0
 11
532.0020855266468
 21
43.49998797945261
 31
0.0
  0
LINE
  5
1174
330
1F
100
AcDbEntity
  8
SPOJOVACÍ
  6
Continuous
100
AcDbLine
 10
534.701455689383
 20
38.7626026513575
 30
0.0
 11
534.701455689383
 21
41.28337905806654
 31
0.0
  0
LINE
  5
1175
330
1F
100
AcDbEntity
  8
SPOJOVACÍ
  6
Continuous
100
AcDbLine
 10
534.701455689383
 20
35.64000250501374
 30
0.0
 11
534.701455689383
 21
38.16822031788285
 31
0.0
  0
LINE
  5
1176
330
1F
100
AcDbEntity
  8
SPOJOVACÍ
  6
Continuous
100
AcDbLine
 10
534.701455689383
 20
32.52484376483005
 30
0.0
 11
534.701455689383
 21
35.04375981985901
 31
0.0
  0
LINE
  5
1177
330
1F
100
AcDbEntity
  8
SPOJOVACÍ
  6
Continuous
100
AcDbLine
 10
532.0020855266468
 20
37.84917001997053
 30
0.0
 11
532.0020855266468
 21
40.37738783283964
 31
0.0
  0
LINE
  5
1178
330
1F
100
AcDbEntity
  8
SPOJOVACÍ
  6
Continuous
100
AcDbLine
 10
532.0020855266468
 20
34.73401127978684
 30
0.0
 11
532.0020855266468
 21
37.25478768649589
 31
0.0
  0
LINE
  5
1179
330
1F
100
AcDbEntity
  8
SPOJOVACÍ
  6
Continuous
100
AcDbLine
 10
532.0020855266468
 20
31.61141113344308
 30
0.0
 11
532.0020855266468
 21
34.13032718847205
 31
0.0
  0
LINE
  5
117A
330
1F
100
AcDbEntity
  8
SPOJOVACÍ
  6
Continuous
100
AcDbLine
 10
532.0020855266468
 20
26.97820549458663
 30
0.0
 11
532.0020855266468
 21
31.01609862426665
 31
0.0
  0
LINE
  5
117B
330
1F
100
AcDbEntity
  8
SPOJOVACÍ
  6
Continuous
100
AcDbLine
 10
534.701455689383
 20
26.97820549458663
 30
0.0
 11
534.701455689383
 21
31.92115967351526
 31
0.0
  0
LINE
  5
117C
330
1F
100
AcDbEntity
  8
SPOJOVACÍ
  6
Continuous
100
AcDbLine
 10
528.2516167171982
 20
21.57853500023009
 30
0.0
 11
529.601301800749
 21
22.32267563670427
 31
0.0
  0
LINE
  5
117D
330
1F
100
AcDbEntity
  8
SPOJOVACÍ
  6
Continuous
100
AcDbLine
 10
529.601301800749
 20
22.32267563670427
 30
0.0
 11
530.7119317011077
 21
23.39144762611647
 31
0.0
  0
LINE
  5
117E
330
1F
100
AcDbEntity
  8
SPOJOVACÍ
  6
Continuous
100
AcDbLine
 10
530.7119317011077
 20
23.39144762611647
 30
0.0
 11
531.5081621804258
 21
24.71043690441399
 31
0.0
  0
LINE
  5
117F
330
1F
100
AcDbEntity
  8
SPOJOVACÍ
  6
Continuous
100
AcDbLine
 10
531.5081621804258
 20
24.71043690441399
 30
0.0
 11
531.9360430447252
 21
26.19127677146423
 31
0.0
  0
LINE
  5
1180
330
1F
100
AcDbEntity
  8
SPOJOVACÍ
  6
Continuous
100
AcDbLine
 10
531.9360430447252
 20
26.19127677146423
 30
0.0
 11
532.0020855266468
 21
26.97820549458663
 31
0.0
  0
LINE
  5
1181
330
1F
100
AcDbEntity
  8
SPOJOVACÍ
  6
Continuous
100
AcDbLine
 10
536.4994854993986
 20
22.83334214855528
 30
0.0
 11
537.7366193082982
 21
21.91525863811364
 31
0.0
  0
LINE
  5
1182
330
1F
100
AcDbEntity
  8
SPOJOVACÍ
  6
Continuous
100
AcDbLine
 10
537.7366193082982
 20
21.91525863811364
 30
0.0
 11
538.4519244944661
 21
21.57853500023009
 31
0.0
  0
LINE
  5
1183
330
1F
100
AcDbEntity
  8
SPOJOVACÍ
  6
Continuous
100
AcDbLine
 10
528.2516167171982
 20
21.57853500023009
 30
0.0
 11
538.4519244944661
 21
21.57853500023009
 31
0.0
  0
LINE
  5
1184
330
1F
100
AcDbEntity
  8
SPOJOVACÍ
  6
Continuous
100
AcDbLine
 10
528.2516167171982
 20
20.37860822349864
 30
0.0
 11
528.2516167171982
 21
21.57853500023009
 31
0.0
  0
LINE
  5
1185
330
1F
100
AcDbEntity
  8
SPOJOVACÍ
  6
Continuous
100
AcDbLine
 10
528.2516167171982
 20
20.37860822349864
 30
0.0
 11
538.4519244944661
 21
20.37860822349864
 31
0.0
  0
LINE
  5
1186
330
1F
100
AcDbEntity
  8
SPOJOVACÍ
  6
Continuous
100
AcDbLine
 10
538.4519244944661
 20
20.37860822349864
 30
0.0
 11
538.4519244944661
 21
21.57853500023009
 31
0.0
  0
LINE
  5
1187
330
1F
100
AcDbEntity
  8
SPOJOVACÍ
  6
Continuous
100
AcDbLine
 10
534.701455689383
 20
26.97820549458663
 30
0.0
 11
534.9284185802664
 21
25.45457754115739
 31
0.0
  0
LINE
  5
1188
330
1F
100
AcDbEntity
  8
SPOJOVACÍ
  6
Continuous
100
AcDbLine
 10
534.9284185802664
 20
25.45457754115739
 30
0.0
 11
535.5414044294141
 21
24.04071033145408
 31
0.0
  0
LINE
  5
1189
330
1F
100
AcDbEntity
  8
SPOJOVACÍ
  6
Continuous
100
AcDbLine
 10
535.5414044294141
 20
24.04071033145408
 30
0.0
 11
536.4994854993986
 21
22.83334214855528
 31
0.0
  0
LINE
  5
118A
330
1F
100
AcDbEntity
  8
SPOJOVACÍ
  6
Continuous
100
AcDbLine
 10
523.4243147096333
 20
91.94876040029191
 30
0.0
 11
524.3823957796178
 21
93.1561285831907
 31
0.0
  0
LINE
  5
118B
330
1F
100
AcDbEntity
  8
SPOJOVACÍ
  6
Continuous
100
AcDbLine
 10
522.8113288604856
 20
90.5348931905886
 30
0.0
 11
523.4243147096333
 21
91.94876040029191
 31
0.0
  0
LINE
  5
118C
330
1F
100
AcDbEntity
  8
SPOJOVACÍ
  6
Continuous
100
AcDbLine
 10
522.5843659696022
 20
89.01126523715936
 30
0.0
 11
522.8113288604856
 21
90.5348931905886
 31
0.0
  0
LINE
  5
118D
330
1F
100
AcDbEntity
  8
SPOJOVACÍ
  6
Continuous
100
AcDbLine
 10
526.3348347746853
 20
95.61086250824734
 30
0.0
 11
526.3348347746853
 21
94.4109357315159
 31
0.0
  0
LINE
  5
118E
330
1F
100
AcDbEntity
  8
SPOJOVACÍ
  6
Continuous
100
AcDbLine
 10
516.1345269974174
 20
95.61086250824734
 30
0.0
 11
526.3348347746853
 21
95.61086250824734
 31
0.0
  0
LINE
  5
118F
330
1F
100
AcDbEntity
  8
SPOJOVACÍ
  6
Continuous
100
AcDbLine
 10
516.1345269974174
 20
95.61086250824734
 30
0.0
 11
516.1345269974174
 21
94.4109357315159
 31
0.0
  0
LINE
  5
1190
330
1F
100
AcDbEntity
  8
SPOJOVACÍ
  6
Continuous
100
AcDbLine
 10
516.1345269974174
 20
94.4109357315159
 30
0.0
 11
526.3348347746853
 21
94.4109357315159
 31
0.0
  0
LINE
  5
1191
330
1F
100
AcDbEntity
  8
SPOJOVACÍ
  6
Continuous
100
AcDbLine
 10
525.6195295885174
 20
94.07421209363235
 30
0.0
 11
526.3348347746853
 21
94.4109357315159
 31
0.0
  0
LINE
  5
1192
330
1F
100
AcDbEntity
  8
SPOJOVACÍ
  6
Continuous
100
AcDbLine
 10
524.3823957796178
 20
93.1561285831907
 30
0.0
 11
525.6195295885174
 21
94.07421209363235
 31
0.0
  0
LINE
  5
1193
330
1F
100
AcDbEntity
  8
SPOJOVACÍ
  6
Continuous
100
AcDbLine
 10
519.8189533249444
 20
89.79819396028176
 30
0.0
 11
519.884995806866
 21
89.01126523715936
 31
0.0
  0
LINE
  5
1194
330
1F
100
AcDbEntity
  8
SPOJOVACÍ
  6
Continuous
100
AcDbLine
 10
519.3910724606451
 20
91.27903382733199
 30
0.0
 11
519.8189533249444
 21
89.79819396028176
 31
0.0
  0
LINE
  5
1195
330
1F
100
AcDbEntity
  8
SPOJOVACÍ
  6
Continuous
100
AcDbLine
 10
518.5948419813269
 20
92.59802310562951
 30
0.0
 11
519.3910724606451
 21
91.27903382733199
 31
0.0
  0
LINE
  5
1196
330
1F
100
AcDbEntity
  8
SPOJOVACÍ
  6
Continuous
100
AcDbLine
 10
517.4842120809683
 20
93.66679509504171
 30
0.0
 11
518.5948419813269
 21
92.59802310562951
 31
0.0
  0
LINE
  5
1197
330
1F
100
AcDbEntity
  8
SPOJOVACÍ
  6
Continuous
100
AcDbLine
 10
516.1345269974174
 20
94.4109357315159
 30
0.0
 11
517.4842120809683
 21
93.66679509504171
 31
0.0
  0
LINE
  5
1198
330
1F
100
AcDbEntity
  8
SPOJOVACÍ
  6
Continuous
100
AcDbLine
 10
522.5843659696022
 20
89.01126523715936
 30
0.0
 11
522.5843659696022
 21
84.06831105823073
 31
0.0
  0
LINE
  5
1199
330
1F
100
AcDbEntity
  8
SPOJOVACÍ
  6
Continuous
100
AcDbLine
 10
519.884995806866
 20
89.01126523715936
 30
0.0
 11
519.884995806866
 21
84.97337210747934
 31
0.0
  0
LINE
  5
119A
330
1F
100
AcDbEntity
  8
SPOJOVACÍ
  6
Continuous
100
AcDbLine
 10
519.884995806866
 20
84.3780595983029
 30
0.0
 11
519.884995806866
 21
81.85914354327394
 31
0.0
  0
LINE
  5
119B
330
1F
100
AcDbEntity
  8
SPOJOVACÍ
  6
Continuous
100
AcDbLine
 10
519.884995806866
 20
81.25545945195915
 30
0.0
 11
519.884995806866
 21
78.73468304525011
 31
0.0
  0
LINE
  5
119C
330
1F
100
AcDbEntity
  8
SPOJOVACÍ
  6
Continuous
100
AcDbLine
 10
519.884995806866
 20
78.14030071177547
 30
0.0
 11
519.884995806866
 21
75.61208289890635
 31
0.0
  0
LINE
  5
119D
330
1F
100
AcDbEntity
  8
SPOJOVACÍ
  6
Continuous
100
AcDbLine
 10
522.5843659696022
 20
83.46462696691594
 30
0.0
 11
522.5843659696022
 21
80.94571091188697
 31
0.0
  0
LINE
  5
119E
330
1F
100
AcDbEntity
  8
SPOJOVACÍ
  6
Continuous
100
AcDbLine
 10
522.5843659696022
 20
80.34946822673225
 30
0.0
 11
522.5843659696022
 21
77.82125041386314
 31
0.0
  0
LINE
  5
119F
330
1F
100
AcDbEntity
  8
SPOJOVACÍ
  6
Continuous
100
AcDbLine
 10
522.5843659696022
 20
77.2268680803885
 30
0.0
 11
522.5843659696022
 21
74.70609167367945
 31
0.0
  0
LINE
  5
11A0
330
1F
100
AcDbEntity
  8
SPOJOVACÍ
  6
Continuous
100
AcDbLine
 10
519.884995806866
 20
75.00746863162055
 30
0.0
 11
519.884995806866
 21
72.48948275229338
 31
0.0
  0
LINE
  5
11A1
330
1F
100
AcDbEntity
  8
SPOJOVACÍ
  6
Continuous
100
AcDbLine
 10
519.884995806866
 20
71.89324006713866
 30
0.0
 11
519.884995806866
 21
70.64587432525001
 31
0.0
  0
LINE
  5
11A2
330
1F
100
AcDbEntity
  8
SPOJOVACÍ
  6
Continuous
100
AcDbLine
 10
522.5843659696022
 20
74.10519810974654
 30
0.0
 11
522.5843659696022
 21
71.58628205471757
 31
0.0
  0
LINE
  5
11A3
330
1F
100
AcDbEntity
  8
SPOJOVACÍ
  6
Continuous
100
AcDbLine
 10
522.5843659696022
 20
70.98259796313357
 30
0.0
 11
522.5843659696022
 21
70.64587432525001
 31
0.0
  0
LINE
  5
11A4
330
1F
100
AcDbEntity
  8
SPOJOVACÍ
  6
Continuous
100
AcDbLine
 10
519.884995806866
 20
70.64587432525001
 30
0.0
 11
520.0347541095891
 21
69.44873807589317
 31
0.0
  0
LINE
  5
11A5
330
1F
100
AcDbEntity
  8
SPOJOVACÍ
  6
Continuous
100
AcDbLine
 10
521.2346808860513
 20
59.84560316029671
 30
0.0
 11
521.5890778671803
 21
62.6817091615652
 31
0.0
  0
LINE
  5
11A6
330
1F
100
AcDbEntity
  8
SPOJOVACÍ
  6
Continuous
100
AcDbLine
 10
520.1119587021151
 20
68.82831082003974
 30
0.0
 11
520.4021735516346
 21
66.50659203397515
 31
0.0
  0
LINE
  5
11A7
330
1F
100
AcDbEntity
  8
SPOJOVACÍ
  6
Continuous
100
AcDbLine
 10
520.4812384944728
 20
65.87593284431057
 30
0.0
 11
520.7714533396267
 21
63.55514423395504
 31
0.0
  0
LINE
  5
11A8
330
1F
100
AcDbEntity
  8
SPOJOVACÍ
  6
Continuous
100
AcDbLine
 10
520.8486579321527
 20
62.93471697810161
 30
0.0
 11
521.2346808860513
 21
59.84560316029671
 31
0.0
  0
LINE
  5
11A9
330
1F
100
AcDbEntity
  8
SPOJOVACÍ
  6
Continuous
100
AcDbLine
 10
521.6607014044041
 20
63.25097674863207
 30
0.0
 11
521.9285920327149
 21
65.39596213361654
 31
0.0
  0
LINE
  5
11AA
330
1F
100
AcDbEntity
  8
SPOJOVACÍ
  6
Continuous
100
AcDbLine
 10
522.0002155655731
 20
65.96802024806527
 30
0.0
 11
522.2671760209107
 21
68.10463405091866
 31
0.0
  0
LINE
  5
11AB
330
1F
100
AcDbEntity
  8
SPOJOVACÍ
  6
Continuous
100
AcDbLine
 10
522.3387995581345
 20
68.6748318139638
 30
0.0
 11
522.5843659696022
 21
70.64587432525001
 31
0.0
  0
LINE
  5
11AC
330
1F
100
AcDbEntity
  8
SPOJOVACÍ
  6
Continuous
100
AcDbLine
 10
518.8348273331269
 20
84.81059134329404
 30
0.0
 11
523.6345344389758
 21
83.61066456683181
 31
0.0
  0
LINE
  5
11AD
330
1F
100
AcDbEntity
  8
SPOJOVACÍ
  6
Continuous
100
AcDbLine
 10
518.8348273331269
 20
84.81059134329404
 30
0.0
 11
519.2124787084378
 21
84.59293020724578
 31
0.0
  0
LINE
  5
11AE
330
1F
100
AcDbEntity
  8
SPOJOVACÍ
  6
Continuous
100
AcDbLine
 10
518.8348273331269
 20
84.81059134329404
 30
0.0
 11
519.2124787084378
 21
85.18917289212401
 31
0.0
  0
LINE
  5
11AF
330
1F
100
AcDbEntity
  8
SPOJOVACÍ
  6
Continuous
100
AcDbLine
 10
523.6345344389758
 20
83.61066456683181
 30
0.0
 11
523.2568830680304
 21
83.23301319370363
 31
0.0
  0
LINE
  5
11B0
330
1F
100
AcDbEntity
  8
SPOJOVACÍ
  6
Continuous
100
AcDbLine
 10
523.6345344389758
 20
83.61066456683181
 30
0.0
 11
523.2568830680304
 21
83.82925587885836
 31
0.0
  0
LINE
  5
11B1
330
1F
100
AcDbEntity
  8
SPOJOVACÍ
  6
Continuous
100
AcDbLine
 10
519.2124787084378
 20
84.59293020724578
 30
0.0
 11
523.2568830680304
 21
83.23301319370363
 31
0.0
  0
LINE
  5
11B2
330
1F
100
AcDbEntity
  8
SPOJOVACÍ
  6
Continuous
100
AcDbLine
 10
519.2124787084378
 20
85.18917289212401
 30
0.0
 11
523.2568830680304
 21
83.82925587885836
 31
0.0
  0
LINE
  5
11B3
330
1F
100
AcDbEntity
  8
SPOJOVACÍ
  6
Continuous
100
AcDbLine
 10
518.8348273331269
 20
81.69078172433216
 30
0.0
 11
523.6345344389758
 21
80.49085494759344
 31
0.0
  0
LINE
  5
11B4
330
1F
100
AcDbEntity
  8
SPOJOVACÍ
  6
Continuous
100
AcDbLine
 10
518.8348273331269
 20
81.69078172433216
 30
0.0
 11
519.2124787084378
 21
81.47219041230561
 31
0.0
  0
LINE
  5
11B5
330
1F
100
AcDbEntity
  8
SPOJOVACÍ
  6
Continuous
100
AcDbLine
 10
518.8348273331269
 20
81.69078172433216
 30
0.0
 11
519.2124787084378
 21
82.06843309746034
 31
0.0
  0
LINE
  5
11B6
330
1F
100
AcDbEntity
  8
SPOJOVACÍ
  6
Continuous
100
AcDbLine
 10
523.6345344389758
 20
80.49085494759344
 30
0.0
 11
523.2568830680304
 21
80.11320357474176
 31
0.0
  0
LINE
  5
11B7
330
1F
100
AcDbEntity
  8
SPOJOVACÍ
  6
Continuous
100
AcDbLine
 10
523.6345344389758
 20
80.49085494759344
 30
0.0
 11
523.2568830680304
 21
80.70944625961999
 31
0.0
  0
LINE
  5
11B8
330
1F
100
AcDbEntity
  8
SPOJOVACÍ
  6
Continuous
100
AcDbLine
 10
519.2124787084378
 20
81.47219041230561
 30
0.0
 11
523.2568830680304
 21
80.11320357474176
 31
0.0
  0
LINE
  5
11B9
330
1F
100
AcDbEntity
  8
SPOJOVACÍ
  6
Continuous
100
AcDbLine
 10
519.2124787084378
 20
82.06843309746034
 30
0.0
 11
523.2568830680304
 21
80.70944625961999
 31
0.0
  0
LINE
  5
11BA
330
1F
100
AcDbEntity
  8
SPOJOVACÍ
  6
Continuous
100
AcDbLine
 10
519.0887653275479
 20
69.25340115887081
 30
0.0
 11
519.4673468758321
 21
69.03480984684427
 31
0.0
  0
LINE
  5
11BB
330
1F
100
AcDbEntity
  8
SPOJOVACÍ
  6
Continuous
100
AcDbLine
 10
519.0887653275479
 20
69.25340115887081
 30
0.0
 11
519.4673468758321
 21
69.63105253199898
 31
0.0
  0
LINE
  5
11BC
330
1F
100
AcDbEntity
  8
SPOJOVACÍ
  6
Continuous
100
AcDbLine
 10
523.2140949802908
 20
68.2804372765662
 30
0.0
 11
522.8364436093454
 21
67.90185572745975
 31
0.0
  0
LINE
  5
11BD
330
1F
100
AcDbEntity
  8
SPOJOVACÍ
  6
Continuous
100
AcDbLine
 10
523.2140949802908
 20
68.2804372765662
 30
0.0
 11
522.8364436093454
 21
68.49809841261446
 31
0.0
  0
LINE
  5
11BE
330
1F
100
AcDbEntity
  8
SPOJOVACÍ
  6
Continuous
100
AcDbLine
 10
519.4673468758321
 20
69.03480984684427
 30
0.0
 11
522.8364436093454
 21
67.90185572745975
 31
0.0
  0
LINE
  5
11BF
330
1F
100
AcDbEntity
  8
SPOJOVACÍ
  6
Continuous
100
AcDbLine
 10
519.4673468758321
 20
69.63105253199898
 30
0.0
 11
522.8364436093454
 21
68.49809841261446
 31
0.0
  0
LINE
  5
11C0
330
1F
100
AcDbEntity
  8
SPOJOVACÍ
  6
Continuous
100
AcDbLine
 10
519.0887653275479
 20
69.25340115887081
 30
0.0
 11
523.2140949802908
 21
68.2804372765662
 31
0.0
  0
LINE
  5
11C1
330
1F
100
AcDbEntity
  8
SPOJOVACÍ
  6
Continuous
100
AcDbLine
 10
519.6533820336537
 20
66.23870140457291
 30
0.0
 11
520.0310334089647
 21
66.02104026852464
 31
0.0
  0
LINE
  5
11C2
330
1F
100
AcDbEntity
  8
SPOJOVACÍ
  6
Continuous
100
AcDbLine
 10
519.6533820336537
 20
66.23870140457291
 30
0.0
 11
520.0310334089647
 21
66.61728295367936
 31
0.0
  0
LINE
  5
11C3
330
1F
100
AcDbEntity
  8
SPOJOVACÍ
  6
Continuous
100
AcDbLine
 10
522.7694709500849
 20
65.60525168780293
 30
0.0
 11
522.3918195791395
 21
65.22667013897296
 31
0.0
  0
LINE
  5
11C4
330
1F
100
AcDbEntity
  8
SPOJOVACÍ
  6
Continuous
100
AcDbLine
 10
522.7694709500849
 20
65.60525168780293
 30
0.0
 11
522.3918195791395
 21
65.8229128238512
 31
0.0
  0
LINE
  5
11C5
330
1F
100
AcDbEntity
  8
SPOJOVACÍ
  6
Continuous
100
AcDbLine
 10
520.0310334089647
 20
66.02104026852464
 30
0.0
 11
522.3918195791395
 21
65.22667013897296
 31
0.0
  0
LINE
  5
11C6
330
1F
100
AcDbEntity
  8
SPOJOVACÍ
  6
Continuous
100
AcDbLine
 10
520.0310334089647
 20
66.61728295367936
 30
0.0
 11
522.3918195791395
 21
65.8229128238512
 31
0.0
  0
LINE
  5
11C7
330
1F
100
AcDbEntity
  8
SPOJOVACÍ
  6
Continuous
100
AcDbLine
 10
519.6533820336537
 20
66.23870140457291
 30
0.0
 11
522.7694709500849
 21
65.60525168780293
 31
0.0
  0
LINE
  5
11C8
330
1F
100
AcDbEntity
  8
SPOJOVACÍ
  6
Continuous
100
AcDbLine
 10
520.2179987441252
 20
63.22493182625328
 30
0.0
 11
520.5956501150706
 21
63.00634051423401
 31
0.0
  0
LINE
  5
11C9
330
1F
100
AcDbEntity
  8
SPOJOVACÍ
  6
Continuous
100
AcDbLine
 10
520.2179987441252
 20
63.22493182625328
 30
0.0
 11
520.5956501150706
 21
63.60258319938146
 31
0.0
  0
LINE
  5
11CA
330
1F
100
AcDbEntity
  8
SPOJOVACÍ
  6
Continuous
100
AcDbLine
 10
522.3722858855819
 20
62.9142531104793
 30
0.0
 11
521.9946345146365
 21
62.53567156164933
 31
0.0
  0
LINE
  5
11CB
330
1F
100
AcDbEntity
  8
SPOJOVACÍ
  6
Continuous
100
AcDbLine
 10
522.3722858855819
 20
62.9142531104793
 30
0.0
 11
521.9946345146365
 21
63.13191424679678
 31
0.0
  0
LINE
  5
11CC
330
1F
100
AcDbEntity
  8
SPOJOVACÍ
  6
Continuous
100
AcDbLine
 10
520.5956501150706
 20
63.00634051423401
 30
0.0
 11
521.9946345146365
 21
62.53567156164933
 31
0.0
  0
LINE
  5
11CD
330
1F
100
AcDbEntity
  8
SPOJOVACÍ
  6
Continuous
100
AcDbLine
 10
520.5956501150706
 20
63.60258319938146
 30
0.0
 11
521.9946345146365
 21
63.13191424679678
 31
0.0
  0
LINE
  5
11CE
330
1F
100
AcDbEntity
  8
SPOJOVACÍ
  6
Continuous
100
AcDbLine
 10
520.2179987441252
 20
63.22493182625328
 30
0.0
 11
522.3722858855819
 21
62.9142531104793
 31
0.0
  0
LINE
  5
11CF
330
1F
100
AcDbEntity
  8
SPOJOVACÍ
  6
Continuous
100
AcDbLine
 10
518.8348273331269
 20
78.5709721050938
 30
0.0
 11
523.6345344389758
 21
77.37104532863156
 31
0.0
  0
LINE
  5
11D0
330
1F
100
AcDbEntity
  8
SPOJOVACÍ
  6
Continuous
100
AcDbLine
 10
518.8348273331269
 20
78.5709721050938
 30
0.0
 11
519.2124787084378
 21
78.35238079306726
 31
0.0
  0
LINE
  5
11D1
330
1F
100
AcDbEntity
  8
SPOJOVACÍ
  6
Continuous
100
AcDbLine
 10
518.8348273331269
 20
78.5709721050938
 30
0.0
 11
519.2124787084378
 21
78.94862347822197
 31
0.0
  0
LINE
  5
11D2
330
1F
100
AcDbEntity
  8
SPOJOVACÍ
  6
Continuous
100
AcDbLine
 10
523.6345344389758
 20
77.37104532863156
 30
0.0
 11
523.2568830680304
 21
76.99246377980159
 31
0.0
  0
LINE
  5
11D3
330
1F
100
AcDbEntity
  8
SPOJOVACÍ
  6
Continuous
100
AcDbLine
 10
523.6345344389758
 20
77.37104532863156
 30
0.0
 11
523.2568830680304
 21
77.58870646494904
 31
0.0
  0
LINE
  5
11D4
330
1F
100
AcDbEntity
  8
SPOJOVACÍ
  6
Continuous
100
AcDbLine
 10
519.2124787084378
 20
78.35238079306726
 30
0.0
 11
523.2568830680304
 21
76.99246377980159
 31
0.0
  0
LINE
  5
11D5
330
1F
100
AcDbEntity
  8
SPOJOVACÍ
  6
Continuous
100
AcDbLine
 10
519.2124787084378
 20
78.94862347822197
 30
0.0
 11
523.2568830680304
 21
77.58870646494904
 31
0.0
  0
LINE
  5
11D6
330
1F
100
AcDbEntity
  8
SPOJOVACÍ
  6
Continuous
100
AcDbLine
 10
518.8348273331269
 20
75.45116248612464
 30
0.0
 11
523.6345344389758
 21
74.25123570966241
 31
0.0
  0
LINE
  5
11D7
330
1F
100
AcDbEntity
  8
SPOJOVACÍ
  6
Continuous
100
AcDbLine
 10
518.8348273331269
 20
75.45116248612464
 30
0.0
 11
519.2124787084378
 21
75.23257117410537
 31
0.0
  0
LINE
  5
11D8
330
1F
100
AcDbEntity
  8
SPOJOVACÍ
  6
Continuous
100
AcDbLine
 10
518.8348273331269
 20
75.45116248612464
 30
0.0
 11
519.2124787084378
 21
75.82881385925282
 31
0.0
  0
LINE
  5
11D9
330
1F
100
AcDbEntity
  8
SPOJOVACÍ
  6
Continuous
100
AcDbLine
 10
523.6345344389758
 20
74.25123570966241
 30
0.0
 11
523.2568830680304
 21
73.87265416083244
 31
0.0
  0
LINE
  5
11DA
330
1F
100
AcDbEntity
  8
SPOJOVACÍ
  6
Continuous
100
AcDbLine
 10
523.6345344389758
 20
74.25123570966241
 30
0.0
 11
523.2568830680304
 21
74.46889684571067
 31
0.0
  0
LINE
  5
11DB
330
1F
100
AcDbEntity
  8
SPOJOVACÍ
  6
Continuous
100
AcDbLine
 10
519.2124787084378
 20
75.23257117410537
 30
0.0
 11
523.2568830680304
 21
73.87265416083244
 31
0.0
  0
LINE
  5
11DC
330
1F
100
AcDbEntity
  8
SPOJOVACÍ
  6
Continuous
100
AcDbLine
 10
519.2124787084378
 20
75.82881385925282
 30
0.0
 11
523.2568830680304
 21
74.46889684571067
 31
0.0
  0
LINE
  5
11DD
330
1F
100
AcDbEntity
  8
SPOJOVACÍ
  6
Continuous
100
AcDbLine
 10
518.8348273331269
 20
72.33042269118448
 30
0.0
 11
523.6345344389758
 21
71.13049591472225
 31
0.0
  0
LINE
  5
11DE
330
1F
100
AcDbEntity
  8
SPOJOVACÍ
  6
Continuous
100
AcDbLine
 10
518.8348273331269
 20
72.33042269118448
 30
0.0
 11
519.2124787084378
 21
72.11276155513622
 31
0.0
  0
LINE
  5
11DF
330
1F
100
AcDbEntity
  8
SPOJOVACÍ
  6
Continuous
100
AcDbLine
 10
518.8348273331269
 20
72.33042269118448
 30
0.0
 11
519.2124787084378
 21
72.70900424029093
 31
0.0
  0
LINE
  5
11E0
330
1F
100
AcDbEntity
  8
SPOJOVACÍ
  6
Continuous
100
AcDbLine
 10
523.6345344389758
 20
71.13049591472225
 30
0.0
 11
523.2568830680304
 21
70.75284454159407
 31
0.0
  0
LINE
  5
11E1
330
1F
100
AcDbEntity
  8
SPOJOVACÍ
  6
Continuous
100
AcDbLine
 10
523.6345344389758
 20
71.13049591472225
 30
0.0
 11
523.2568830680304
 21
71.34908722674879
 31
0.0
  0
LINE
  5
11E2
330
1F
100
AcDbEntity
  8
SPOJOVACÍ
  6
Continuous
100
AcDbLine
 10
519.2124787084378
 20
72.11276155513622
 30
0.0
 11
523.2568830680304
 21
70.75284454159407
 31
0.0
  0
LINE
  5
11E3
330
1F
100
AcDbEntity
  8
SPOJOVACÍ
  6
Continuous
100
AcDbLine
 10
519.2124787084378
 20
72.70900424029093
 30
0.0
 11
523.2568830680304
 21
71.34908722674879
 31
0.0
  0
LINE
  5
11E4
330
1F
100
AcDbEntity
  8
SPOJOVACÍ
  6
Continuous
100
AcDbLine
 10
143.9627487329109
 20
72.70900424029093
 30
0.0
 11
148.0071530925035
 21
71.34908722674879
 31
0.0
  0
LINE
  5
11E5
330
1F
100
AcDbEntity
  8
SPOJOVACÍ
  6
Continuous
100
AcDbLine
 10
143.9627487329109
 20
72.11276155513622
 30
0.0
 11
148.0071530925035
 21
70.75284454159407
 31
0.0
  0
LINE
  5
11E6
330
1F
100
AcDbEntity
  8
SPOJOVACÍ
  6
Continuous
100
AcDbLine
 10
148.3848044634489
 20
71.13049591472225
 30
0.0
 11
148.0071530925035
 21
71.34908722674879
 31
0.0
  0
LINE
  5
11E7
330
1F
100
AcDbEntity
  8
SPOJOVACÍ
  6
Continuous
100
AcDbLine
 10
148.3848044634489
 20
71.13049591472225
 30
0.0
 11
148.0071530925035
 21
70.75284454159407
 31
0.0
  0
LINE
  5
11E8
330
1F
100
AcDbEntity
  8
SPOJOVACÍ
  6
Continuous
100
AcDbLine
 10
143.5850973576
 20
72.33042269118448
 30
0.0
 11
143.9627487329109
 21
72.70900424029093
 31
0.0
  0
LINE
  5
11E9
330
1F
100
AcDbEntity
  8
SPOJOVACÍ
  6
Continuous
100
AcDbLine
 10
143.5850973576
 20
72.33042269118448
 30
0.0
 11
143.9627487329109
 21
72.11276155513622
 31
0.0
  0
LINE
  5
11EA
330
1F
100
AcDbEntity
  8
SPOJOVACÍ
  6
Continuous
100
AcDbLine
 10
143.5850973576
 20
72.33042269118448
 30
0.0
 11
148.3848044634489
 21
71.13049591472225
 31
0.0
  0
LINE
  5
11EB
330
1F
100
AcDbEntity
  8
SPOJOVACÍ
  6
Continuous
100
AcDbLine
 10
143.9627487329109
 20
75.82881385925282
 30
0.0
 11
148.0071530925035
 21
74.46889684571067
 31
0.0
  0
LINE
  5
11EC
330
1F
100
AcDbEntity
  8
SPOJOVACÍ
  6
Continuous
100
AcDbLine
 10
143.9627487329109
 20
75.23257117410537
 30
0.0
 11
148.0071530925035
 21
73.87265416083244
 31
0.0
  0
LINE
  5
11ED
330
1F
100
AcDbEntity
  8
SPOJOVACÍ
  6
Continuous
100
AcDbLine
 10
148.3848044634489
 20
74.25123570966241
 30
0.0
 11
148.0071530925035
 21
74.46889684571067
 31
0.0
  0
LINE
  5
11EE
330
1F
100
AcDbEntity
  8
SPOJOVACÍ
  6
Continuous
100
AcDbLine
 10
148.3848044634489
 20
74.25123570966241
 30
0.0
 11
148.0071530925035
 21
73.87265416083244
 31
0.0
  0
LINE
  5
11EF
330
1F
100
AcDbEntity
  8
SPOJOVACÍ
  6
Continuous
100
AcDbLine
 10
143.5850973576
 20
75.45116248612464
 30
0.0
 11
143.9627487329109
 21
75.82881385925282
 31
0.0
  0
LINE
  5
11F0
330
1F
100
AcDbEntity
  8
SPOJOVACÍ
  6
Continuous
100
AcDbLine
 10
143.5850973576
 20
75.45116248612464
 30
0.0
 11
143.9627487329109
 21
75.23257117410537
 31
0.0
  0
LINE
  5
11F1
330
1F
100
AcDbEntity
  8
SPOJOVACÍ
  6
Continuous
100
AcDbLine
 10
143.5850973576
 20
75.45116248612464
 30
0.0
 11
148.3848044634489
 21
74.25123570966241
 31
0.0
  0
LINE
  5
11F2
330
1F
100
AcDbEntity
  8
SPOJOVACÍ
  6
Continuous
100
AcDbLine
 10
143.9627487329109
 20
78.94862347822197
 30
0.0
 11
148.0071530925035
 21
77.58870646494904
 31
0.0
  0
LINE
  5
11F3
330
1F
100
AcDbEntity
  8
SPOJOVACÍ
  6
Continuous
100
AcDbLine
 10
143.9627487329109
 20
78.35238079306726
 30
0.0
 11
148.0071530925035
 21
76.99246377980159
 31
0.0
  0
LINE
  5
11F4
330
1F
100
AcDbEntity
  8
SPOJOVACÍ
  6
Continuous
100
AcDbLine
 10
148.3848044634489
 20
77.37104532863156
 30
0.0
 11
148.0071530925035
 21
77.58870646494904
 31
0.0
  0
LINE
  5
11F5
330
1F
100
AcDbEntity
  8
SPOJOVACÍ
  6
Continuous
100
AcDbLine
 10
148.3848044634489
 20
77.37104532863156
 30
0.0
 11
148.0071530925035
 21
76.99246377980159
 31
0.0
  0
LINE
  5
11F6
330
1F
100
AcDbEntity
  8
SPOJOVACÍ
  6
Continuous
100
AcDbLine
 10
143.5850973576
 20
78.5709721050938
 30
0.0
 11
143.9627487329109
 21
78.94862347822197
 31
0.0
  0
LINE
  5
11F7
330
1F
100
AcDbEntity
  8
SPOJOVACÍ
  6
Continuous
100
AcDbLine
 10
143.5850973576
 20
78.5709721050938
 30
0.0
 11
143.9627487329109
 21
78.35238079306726
 31
0.0
  0
LINE
  5
11F8
330
1F
100
AcDbEntity
  8
SPOJOVACÍ
  6
Continuous
100
AcDbLine
 10
143.5850973576
 20
78.5709721050938
 30
0.0
 11
148.3848044634489
 21
77.37104532863156
 31
0.0
  0
LINE
  5
11F9
330
1F
100
AcDbEntity
  8
SPOJOVACÍ
  6
Continuous
100
AcDbLine
 10
144.9682687685983
 20
63.22493182625328
 30
0.0
 11
147.1225559100551
 21
62.9142531104793
 31
0.0
  0
LINE
  5
11FA
330
1F
100
AcDbEntity
  8
SPOJOVACÍ
  6
Continuous
100
AcDbLine
 10
145.3459201395437
 20
63.60258319938146
 30
0.0
 11
146.7449045391097
 21
63.13191424679678
 31
0.0
  0
LINE
  5
11FB
330
1F
100
AcDbEntity
  8
SPOJOVACÍ
  6
Continuous
100
AcDbLine
 10
145.3459201395437
 20
63.00634051423401
 30
0.0
 11
146.7449045391097
 21
62.53567156164933
 31
0.0
  0
LINE
  5
11FC
330
1F
100
AcDbEntity
  8
SPOJOVACÍ
  6
Continuous
100
AcDbLine
 10
147.1225559100551
 20
62.9142531104793
 30
0.0
 11
146.7449045391097
 21
63.13191424679678
 31
0.0
  0
LINE
  5
11FD
330
1F
100
AcDbEntity
  8
SPOJOVACÍ
  6
Continuous
100
AcDbLine
 10
147.1225559100551
 20
62.9142531104793
 30
0.0
 11
146.7449045391097
 21
62.53567156164933
 31
0.0
  0
LINE
  5
11FE
330
1F
100
AcDbEntity
  8
SPOJOVACÍ
  6
Continuous
100
AcDbLine
 10
144.9682687685983
 20
63.22493182625328
 30
0.0
 11
145.3459201395437
 21
63.60258319938146
 31
0.0
  0
LINE
  5
11FF
330
1F
100
AcDbEntity
  8
SPOJOVACÍ
  6
Continuous
100
AcDbLine
 10
144.9682687685983
 20
63.22493182625328
 30
0.0
 11
145.3459201395437
 21
63.00634051423401
 31
0.0
  0
LINE
  5
1200
330
1F
100
AcDbEntity
  8
SPOJOVACÍ
  6
Continuous
100
AcDbLine
 10
144.4036520581269
 20
66.23870140457291
 30
0.0
 11
147.519740974558
 21
65.60525168780293
 31
0.0
  0
LINE
  5
1201
330
1F
100
AcDbEntity
  8
SPOJOVACÍ
  6
Continuous
100
AcDbLine
 10
144.7813034334378
 20
66.61728295367936
 30
0.0
 11
147.1420896036127
 21
65.8229128238512
 31
0.0
  0
LINE
  5
1202
330
1F
100
AcDbEntity
  8
SPOJOVACÍ
  6
Continuous
100
AcDbLine
 10
144.7813034334378
 20
66.02104026852464
 30
0.0
 11
147.1420896036127
 21
65.22667013897296
 31
0.0
  0
LINE
  5
1203
330
1F
100
AcDbEntity
  8
SPOJOVACÍ
  6
Continuous
100
AcDbLine
 10
147.519740974558
 20
65.60525168780293
 30
0.0
 11
147.1420896036127
 21
65.8229128238512
 31
0.0
  0
LINE
  5
1204
330
1F
100
AcDbEntity
  8
SPOJOVACÍ
  6
Continuous
100
AcDbLine
 10
147.519740974558
 20
65.60525168780293
 30
0.0
 11
147.1420896036127
 21
65.22667013897296
 31
0.0
  0
LINE
  5
1205
330
1F
100
AcDbEntity
  8
SPOJOVACÍ
  6
Continuous
100
AcDbLine
 10
144.4036520581269
 20
66.23870140457291
 30
0.0
 11
144.7813034334378
 21
66.61728295367936
 31
0.0
  0
LINE
  5
1206
330
1F
100
AcDbEntity
  8
SPOJOVACÍ
  6
Continuous
100
AcDbLine
 10
144.4036520581269
 20
66.23870140457291
 30
0.0
 11
144.7813034334378
 21
66.02104026852464
 31
0.0
  0
LINE
  5
1207
330
1F
100
AcDbEntity
  8
SPOJOVACÍ
  6
Continuous
100
AcDbLine
 10
143.839035352021
 20
69.25340115887081
 30
0.0
 11
147.9643650047639
 21
68.2804372765662
 31
0.0
  0
LINE
  5
1208
330
1F
100
AcDbEntity
  8
SPOJOVACÍ
  6
Continuous
100
AcDbLine
 10
144.2176169003053
 20
69.63105253199898
 30
0.0
 11
147.5867136338185
 21
68.49809841261446
 31
0.0
  0
LINE
  5
1209
330
1F
100
AcDbEntity
  8
SPOJOVACÍ
  6
Continuous
100
AcDbLine
 10
144.2176169003053
 20
69.03480984684427
 30
0.0
 11
147.5867136338185
 21
67.90185572745975
 31
0.0
  0
LINE
  5
120A
330
1F
100
AcDbEntity
  8
SPOJOVACÍ
  6
Continuous
100
AcDbLine
 10
147.9643650047639
 20
68.2804372765662
 30
0.0
 11
147.5867136338185
 21
68.49809841261446
 31
0.0
  0
LINE
  5
120B
330
1F
100
AcDbEntity
  8
SPOJOVACÍ
  6
Continuous
100
AcDbLine
 10
147.9643650047639
 20
68.2804372765662
 30
0.0
 11
147.5867136338185
 21
67.90185572745975
 31
0.0
  0
LINE
  5
120C
330
1F
100
AcDbEntity
  8
SPOJOVACÍ
  6
Continuous
100
AcDbLine
 10
143.839035352021
 20
69.25340115887081
 30
0.0
 11
144.2176169003053
 21
69.63105253199898
 31
0.0
  0
LINE
  5
120D
330
1F
100
AcDbEntity
  8
SPOJOVACÍ
  6
Continuous
100
AcDbLine
 10
143.839035352021
 20
69.25340115887081
 30
0.0
 11
144.2176169003053
 21
69.03480984684427
 31
0.0
  0
LINE
  5
120E
330
1F
100
AcDbEntity
  8
SPOJOVACÍ
  6
Continuous
100
AcDbLine
 10
143.9627487329109
 20
82.06843309746034
 30
0.0
 11
148.0071530925035
 21
80.70944625961999
 31
0.0
  0
LINE
  5
120F
330
1F
100
AcDbEntity
  8
SPOJOVACÍ
  6
Continuous
100
AcDbLine
 10
143.9627487329109
 20
81.47219041230561
 30
0.0
 11
148.0071530925035
 21
80.11320357474176
 31
0.0
  0
LINE
  5
1210
330
1F
100
AcDbEntity
  8
SPOJOVACÍ
  6
Continuous
100
AcDbLine
 10
148.3848044634489
 20
80.49085494759344
 30
0.0
 11
148.0071530925035
 21
80.70944625961999
 31
0.0
  0
LINE
  5
1211
330
1F
100
AcDbEntity
  8
SPOJOVACÍ
  6
Continuous
100
AcDbLine
 10
148.3848044634489
 20
80.49085494759344
 30
0.0
 11
148.0071530925035
 21
80.11320357474176
 31
0.0
  0
LINE
  5
1212
330
1F
100
AcDbEntity
  8
SPOJOVACÍ
  6
Continuous
100
AcDbLine
 10
143.5850973576
 20
81.69078172433216
 30
0.0
 11
143.9627487329109
 21
82.06843309746034
 31
0.0
  0
LINE
  5
1213
330
1F
100
AcDbEntity
  8
SPOJOVACÍ
  6
Continuous
100
AcDbLine
 10
143.5850973576
 20
81.69078172433216
 30
0.0
 11
143.9627487329109
 21
81.47219041230561
 31
0.0
  0
LINE
  5
1214
330
1F
100
AcDbEntity
  8
SPOJOVACÍ
  6
Continuous
100
AcDbLine
 10
143.5850973576
 20
81.69078172433216
 30
0.0
 11
148.3848044634489
 21
80.49085494759344
 31
0.0
  0
LINE
  5
1215
330
1F
100
AcDbEntity
  8
SPOJOVACÍ
  6
Continuous
100
AcDbLine
 10
143.9627487329109
 20
85.18917289212401
 30
0.0
 11
148.0071530925035
 21
83.82925587885836
 31
0.0
  0
LINE
  5
1216
330
1F
100
AcDbEntity
  8
SPOJOVACÍ
  6
Continuous
100
AcDbLine
 10
143.9627487329109
 20
84.59293020724578
 30
0.0
 11
148.0071530925035
 21
83.23301319370363
 31
0.0
  0
LINE
  5
1217
330
1F
100
AcDbEntity
  8
SPOJOVACÍ
  6
Continuous
100
AcDbLine
 10
148.3848044634489
 20
83.61066456683181
 30
0.0
 11
148.0071530925035
 21
83.82925587885836
 31
0.0
  0
LINE
  5
1218
330
1F
100
AcDbEntity
  8
SPOJOVACÍ
  6
Continuous
100
AcDbLine
 10
148.3848044634489
 20
83.61066456683181
 30
0.0
 11
148.0071530925035
 21
83.23301319370363
 31
0.0
  0
LINE
  5
1219
330
1F
100
AcDbEntity
  8
SPOJOVACÍ
  6
Continuous
100
AcDbLine
 10
143.5850973576
 20
84.81059134329404
 30
0.0
 11
143.9627487329109
 21
85.18917289212401
 31
0.0
  0
LINE
  5
121A
330
1F
100
AcDbEntity
  8
SPOJOVACÍ
  6
Continuous
100
AcDbLine
 10
143.5850973576
 20
84.81059134329404
 30
0.0
 11
143.9627487329109
 21
84.59293020724578
 31
0.0
  0
LINE
  5
121B
330
1F
100
AcDbEntity
  8
SPOJOVACÍ
  6
Continuous
100
AcDbLine
 10
143.5850973576
 20
84.81059134329404
 30
0.0
 11
148.3848044634489
 21
83.61066456683181
 31
0.0
  0
LINE
  5
121C
330
1F
100
AcDbEntity
  8
SPOJOVACÍ
  6
Continuous
100
AcDbLine
 10
147.0890695826076
 20
68.6748318139638
 30
0.0
 11
147.3346359940753
 21
70.64587432525001
 31
0.0
  0
LINE
  5
121D
330
1F
100
AcDbEntity
  8
SPOJOVACÍ
  6
Continuous
100
AcDbLine
 10
146.7504855900463
 20
65.96802024806527
 30
0.0
 11
147.0174460453838
 21
68.10463405091866
 31
0.0
  0
LINE
  5
121E
330
1F
100
AcDbEntity
  8
SPOJOVACÍ
  6
Continuous
100
AcDbLine
 10
146.4109714288772
 20
63.25097674863207
 30
0.0
 11
146.6788620571881
 21
65.39596213361654
 31
0.0
  0
LINE
  5
121F
330
1F
100
AcDbEntity
  8
SPOJOVACÍ
  6
Continuous
100
AcDbLine
 10
145.5989279566258
 20
62.93471697810161
 30
0.0
 11
145.9849509105245
 21
59.84560316029671
 31
0.0
  0
LINE
  5
1220
330
1F
100
AcDbEntity
  8
SPOJOVACÍ
  6
Continuous
100
AcDbLine
 10
145.2315085189459
 20
65.87593284431057
 30
0.0
 11
145.5217233640999
 21
63.55514423395504
 31
0.0
  0
LINE
  5
1221
330
1F
100
AcDbEntity
  8
SPOJOVACÍ
  6
Continuous
100
AcDbLine
 10
144.8622287265882
 20
68.82831082003974
 30
0.0
 11
145.1524435761077
 21
66.50659203397515
 31
0.0
  0
LINE
  5
1222
330
1F
100
AcDbEntity
  8
SPOJOVACÍ
  6
Continuous
100
AcDbLine
 10
145.9849509105245
 20
59.84560316029671
 30
0.0
 11
146.3393478916534
 21
62.6817091615652
 31
0.0
  0
LINE
  5
1223
330
1F
100
AcDbEntity
  8
SPOJOVACÍ
  6
Continuous
100
AcDbLine
 10
144.6352658313392
 20
70.64587432525001
 30
0.0
 11
144.7850241340622
 21
69.44873807589317
 31
0.0
  0
LINE
  5
1224
330
1F
100
AcDbEntity
  8
SPOJOVACÍ
  6
Continuous
100
AcDbLine
 10
147.3346359940753
 20
70.98259796313357
 30
0.0
 11
147.3346359940753
 21
70.64587432525001
 31
0.0
  0
LINE
  5
1225
330
1F
100
AcDbEntity
  8
SPOJOVACÍ
  6
Continuous
100
AcDbLine
 10
147.3346359940753
 20
74.10519810974654
 30
0.0
 11
147.3346359940753
 21
71.58628205471757
 31
0.0
  0
LINE
  5
1226
330
1F
100
AcDbEntity
  8
SPOJOVACÍ
  6
Continuous
100
AcDbLine
 10
144.6352658313392
 20
71.89324006713866
 30
0.0
 11
144.6352658313392
 21
70.64587432525001
 31
0.0
  0
LINE
  5
1227
330
1F
100
AcDbEntity
  8
SPOJOVACÍ
  6
Continuous
100
AcDbLine
 10
144.6352658313392
 20
75.00746863162055
 30
0.0
 11
144.6352658313392
 21
72.48948275229338
 31
0.0
  0
LINE
  5
1228
330
1F
100
AcDbEntity
  8
SPOJOVACÍ
  6
Continuous
100
AcDbLine
 10
147.3346359940753
 20
77.2268680803885
 30
0.0
 11
147.3346359940753
 21
74.70609167367945
 31
0.0
  0
LINE
  5
1229
330
1F
100
AcDbEntity
  8
SPOJOVACÍ
  6
Continuous
100
AcDbLine
 10
147.3346359940753
 20
80.34946822673225
 30
0.0
 11
147.3346359940753
 21
77.82125041386314
 31
0.0
  0
LINE
  5
122A
330
1F
100
AcDbEntity
  8
SPOJOVACÍ
  6
Continuous
100
AcDbLine
 10
147.3346359940753
 20
83.46462696691594
 30
0.0
 11
147.3346359940753
 21
80.94571091188697
 31
0.0
  0
LINE
  5
122B
330
1F
100
AcDbEntity
  8
SPOJOVACÍ
  6
Continuous
100
AcDbLine
 10
144.6352658313392
 20
78.14030071177547
 30
0.0
 11
144.6352658313392
 21
75.61208289890635
 31
0.0
  0
LINE
  5
122C
330
1F
100
AcDbEntity
  8
SPOJOVACÍ
  6
Continuous
100
AcDbLine
 10
144.6352658313392
 20
81.25545945195915
 30
0.0
 11
144.6352658313392
 21
78.73468304525011
 31
0.0
  0
LINE
  5
122D
330
1F
100
AcDbEntity
  8
SPOJOVACÍ
  6
Continuous
100
AcDbLine
 10
144.6352658313392
 20
84.3780595983029
 30
0.0
 11
144.6352658313392
 21
81.85914354327394
 31
0.0
  0
LINE
  5
122E
330
1F
100
AcDbEntity
  8
SPOJOVACÍ
  6
Continuous
100
AcDbLine
 10
144.6352658313392
 20
89.01126523715936
 30
0.0
 11
144.6352658313392
 21
84.97337210747934
 31
0.0
  0
LINE
  5
122F
330
1F
100
AcDbEntity
  8
SPOJOVACÍ
  6
Continuous
100
AcDbLine
 10
147.3346359940753
 20
89.01126523715936
 30
0.0
 11
147.3346359940753
 21
84.06831105823073
 31
0.0
  0
LINE
  5
1230
330
1F
100
AcDbEntity
  8
SPOJOVACÍ
  6
Continuous
100
AcDbLine
 10
140.8847970218905
 20
94.4109357315159
 30
0.0
 11
142.2344821054414
 21
93.66679509504171
 31
0.0
  0
LINE
  5
1231
330
1F
100
AcDbEntity
  8
SPOJOVACÍ
  6
Continuous
100
AcDbLine
 10
142.2344821054414
 20
93.66679509504171
 30
0.0
 11
143.3451120058
 21
92.59802310562951
 31
0.0
  0
LINE
  5
1232
330
1F
100
AcDbEntity
  8
SPOJOVACÍ
  6
Continuous
100
AcDbLine
 10
143.3451120058
 20
92.59802310562951
 30
0.0
 11
144.1413424851182
 21
91.27903382733199
 31
0.0
  0
LINE
  5
1233
330
1F
100
AcDbEntity
  8
SPOJOVACÍ
  6
Continuous
100
AcDbLine
 10
144.1413424851182
 20
91.27903382733199
 30
0.0
 11
144.5692233494176
 21
89.79819396028176
 31
0.0
  0
LINE
  5
1234
330
1F
100
AcDbEntity
  8
SPOJOVACÍ
  6
Continuous
100
AcDbLine
 10
144.5692233494176
 20
89.79819396028176
 30
0.0
 11
144.6352658313392
 21
89.01126523715936
 31
0.0
  0
LINE
  5
1235
330
1F
100
AcDbEntity
  8
SPOJOVACÍ
  6
Continuous
100
AcDbLine
 10
149.1326658040909
 20
93.1561285831907
 30
0.0
 11
150.3697996129906
 21
94.07421209363235
 31
0.0
  0
LINE
  5
1236
330
1F
100
AcDbEntity
  8
SPOJOVACÍ
  6
Continuous
100
AcDbLine
 10
150.3697996129906
 20
94.07421209363235
 30
0.0
 11
151.0851047991584
 21
94.4109357315159
 31
0.0
  0
LINE
  5
1237
330
1F
100
AcDbEntity
  8
SPOJOVACÍ
  6
Continuous
100
AcDbLine
 10
140.8847970218905
 20
94.4109357315159
 30
0.0
 11
151.0851047991584
 21
94.4109357315159
 31
0.0
  0
LINE
  5
1238
330
1F
100
AcDbEntity
  8
SPOJOVACÍ
  6
Continuous
100
AcDbLine
 10
140.8847970218905
 20
95.61086250824734
 30
0.0
 11
140.8847970218905
 21
94.4109357315159
 31
0.0
  0
LINE
  5
1239
330
1F
100
AcDbEntity
  8
SPOJOVACÍ
  6
Continuous
100
AcDbLine
 10
140.8847970218905
 20
95.61086250824734
 30
0.0
 11
151.0851047991584
 21
95.61086250824734
 31
0.0
  0
LINE
  5
123A
330
1F
100
AcDbEntity
  8
SPOJOVACÍ
  6
Continuous
100
AcDbLine
 10
151.0851047991584
 20
95.61086250824734
 30
0.0
 11
151.0851047991584
 21
94.4109357315159
 31
0.0
  0
LINE
  5
123B
330
1F
100
AcDbEntity
  8
SPOJOVACÍ
  6
Continuous
100
AcDbLine
 10
147.3346359940753
 20
89.01126523715936
 30
0.0
 11
147.5615988849588
 21
90.5348931905886
 31
0.0
  0
LINE
  5
123C
330
1F
100
AcDbEntity
  8
SPOJOVACÍ
  6
Continuous
100
AcDbLine
 10
147.5615988849588
 20
90.5348931905886
 30
0.0
 11
148.1745847341064
 21
91.94876040029191
 31
0.0
  0
LINE
  5
123D
330
1F
100
AcDbEntity
  8
SPOJOVACÍ
  6
Continuous
100
AcDbLine
 10
148.1745847341064
 20
91.94876040029191
 30
0.0
 11
149.1326658040909
 21
93.1561285831907
 31
0.0
  0
LINE
  5
123E
330
1F
100
AcDbEntity
  8
SPOJOVACÍ
  6
Continuous
100
AcDbLine
 10
148.1745847341064
 20
24.04071033145408
 30
0.0
 11
149.1326658040909
 21
22.83334214855528
 31
0.0
  0
LINE
  5
123F
330
1F
100
AcDbEntity
  8
SPOJOVACÍ
  6
Continuous
100
AcDbLine
 10
147.5615988849588
 20
25.45457754115739
 30
0.0
 11
148.1745847341064
 21
24.04071033145408
 31
0.0
  0
LINE
  5
1240
330
1F
100
AcDbEntity
  8
SPOJOVACÍ
  6
Continuous
100
AcDbLine
 10
147.3346359940753
 20
26.97820549458663
 30
0.0
 11
147.5615988849588
 21
25.45457754115739
 31
0.0
  0
LINE
  5
1241
330
1F
100
AcDbEntity
  8
SPOJOVACÍ
  6
Continuous
100
AcDbLine
 10
151.0851047991584
 20
20.37860822349864
 30
0.0
 11
151.0851047991584
 21
21.57853500023009
 31
0.0
  0
LINE
  5
1242
330
1F
100
AcDbEntity
  8
SPOJOVACÍ
  6
Continuous
100
AcDbLine
 10
140.8847970218905
 20
20.37860822349864
 30
0.0
 11
151.0851047991584
 21
20.37860822349864
 31
0.0
  0
LINE
  5
1243
330
1F
100
AcDbEntity
  8
SPOJOVACÍ
  6
Continuous
100
AcDbLine
 10
140.8847970218905
 20
20.37860822349864
 30
0.0
 11
140.8847970218905
 21
21.57853500023009
 31
0.0
  0
LINE
  5
1244
330
1F
100
AcDbEntity
  8
SPOJOVACÍ
  6
Continuous
100
AcDbLine
 10
140.8847970218905
 20
21.57853500023009
 30
0.0
 11
151.0851047991584
 21
21.57853500023009
 31
0.0
  0
LINE
  5
1245
330
1F
100
AcDbEntity
  8
SPOJOVACÍ
  6
Continuous
100
AcDbLine
 10
150.3697996129906
 20
21.91525863811364
 30
0.0
 11
151.0851047991584
 21
21.57853500023009
 31
0.0
  0
LINE
  5
1246
330
1F
100
AcDbEntity
  8
SPOJOVACÍ
  6
Continuous
100
AcDbLine
 10
149.1326658040909
 20
22.83334214855528
 30
0.0
 11
150.3697996129906
 21
21.91525863811364
 31
0.0
  0
LINE
  5
1247
330
1F
100
AcDbEntity
  8
SPOJOVACÍ
  6
Continuous
100
AcDbLine
 10
144.5692233494176
 20
26.19127677146423
 30
0.0
 11
144.6352658313392
 21
26.97820549458663
 31
0.0
  0
LINE
  5
1248
330
1F
100
AcDbEntity
  8
SPOJOVACÍ
  6
Continuous
100
AcDbLine
 10
144.1413424851182
 20
24.71043690441399
 30
0.0
 11
144.5692233494176
 21
26.19127677146423
 31
0.0
  0
LINE
  5
1249
330
1F
100
AcDbEntity
  8
SPOJOVACÍ
  6
Continuous
100
AcDbLine
 10
143.3451120058
 20
23.39144762611647
 30
0.0
 11
144.1413424851182
 21
24.71043690441399
 31
0.0
  0
LINE
  5
124A
330
1F
100
AcDbEntity
  8
SPOJOVACÍ
  6
Continuous
100
AcDbLine
 10
142.2344821054414
 20
22.32267563670427
 30
0.0
 11
143.3451120058
 21
23.39144762611647
 31
0.0
  0
LINE
  5
124B
330
1F
100
AcDbEntity
  8
SPOJOVACÍ
  6
Continuous
100
AcDbLine
 10
140.8847970218905
 20
21.57853500023009
 30
0.0
 11
142.2344821054414
 21
22.32267563670427
 31
0.0
  0
LINE
  5
124C
330
1F
100
AcDbEntity
  8
SPOJOVACÍ
  6
Continuous
100
AcDbLine
 10
147.3346359940753
 20
26.97820549458663
 30
0.0
 11
147.3346359940753
 21
31.92115967351526
 31
0.0
  0
LINE
  5
124D
330
1F
100
AcDbEntity
  8
SPOJOVACÍ
  6
Continuous
100
AcDbLine
 10
144.6352658313392
 20
26.97820549458663
 30
0.0
 11
144.6352658313392
 21
31.01609862426665
 31
0.0
  0
LINE
  5
124E
330
1F
100
AcDbEntity
  8
SPOJOVACÍ
  6
Continuous
100
AcDbLine
 10
144.6352658313392
 20
31.61141113344308
 30
0.0
 11
144.6352658313392
 21
34.13032718847205
 31
0.0
  0
LINE
  5
124F
330
1F
100
AcDbEntity
  8
SPOJOVACÍ
  6
Continuous
100
AcDbLine
 10
144.6352658313392
 20
34.73401127978684
 30
0.0
 11
144.6352658313392
 21
37.25478768649589
 31
0.0
  0
LINE
  5
1250
330
1F
100
AcDbEntity
  8
SPOJOVACÍ
  6
Continuous
100
AcDbLine
 10
144.6352658313392
 20
37.84917001997053
 30
0.0
 11
144.6352658313392
 21
40.37738783283964
 31
0.0
  0
LINE
  5
1251
330
1F
100
AcDbEntity
  8
SPOJOVACÍ
  6
Continuous
100
AcDbLine
 10
147.3346359940753
 20
32.52484376483005
 30
0.0
 11
147.3346359940753
 21
35.04375981985901
 31
0.0
  0
LINE
  5
1252
330
1F
100
AcDbEntity
  8
SPOJOVACÍ
  6
Continuous
100
AcDbLine
 10
147.3346359940753
 20
35.64000250501374
 30
0.0
 11
147.3346359940753
 21
38.16822031788285
 31
0.0
  0
LINE
  5
1253
330
1F
100
AcDbEntity
  8
SPOJOVACÍ
  6
Continuous
100
AcDbLine
 10
147.3346359940753
 20
38.7626026513575
 30
0.0
 11
147.3346359940753
 21
41.28337905806654
 31
0.0
  0
LINE
  5
1254
330
1F
100
AcDbEntity
  8
SPOJOVACÍ
  6
Continuous
100
AcDbLine
 10
144.6352658313392
 20
40.98200210012544
 30
0.0
 11
144.6352658313392
 21
43.49998797945261
 31
0.0
  0
LINE
  5
1255
330
1F
100
AcDbEntity
  8
SPOJOVACÍ
  6
Continuous
100
AcDbLine
 10
144.6352658313392
 20
44.09623066460733
 30
0.0
 11
144.6352658313392
 21
45.34359640649597
 31
0.0
  0
LINE
  5
1256
330
1F
100
AcDbEntity
  8
SPOJOVACÍ
  6
Continuous
100
AcDbLine
 10
147.3346359940753
 20
41.88427262199946
 30
0.0
 11
147.3346359940753
 21
44.40318867702842
 31
0.0
  0
LINE
  5
1257
330
1F
100
AcDbEntity
  8
SPOJOVACÍ
  6
Continuous
100
AcDbLine
 10
147.3346359940753
 20
45.00687276861242
 30
0.0
 11
147.3346359940753
 21
45.34359640649597
 31
0.0
  0
LINE
  5
1258
330
1F
100
AcDbEntity
  8
SPOJOVACÍ
  6
Continuous
100
AcDbLine
 10
144.6352658313392
 20
45.34359640649597
 30
0.0
 11
144.7850241340622
 21
46.54073265585282
 31
0.0
  0
LINE
  5
1259
330
1F
100
AcDbEntity
  8
SPOJOVACÍ
  6
Continuous
100
AcDbLine
 10
145.9849509105245
 20
56.14386757144927
 30
0.0
 11
146.3393478916534
 21
53.30776157018078
 31
0.0
  0
LINE
  5
125A
330
1F
100
AcDbEntity
  8
SPOJOVACÍ
  6
Continuous
100
AcDbLine
 10
144.8622287265882
 20
47.16115991170624
 30
0.0
 11
145.1524435761077
 21
49.48287869777084
 31
0.0
  0
LINE
  5
125B
330
1F
100
AcDbEntity
  8
SPOJOVACÍ
  6
Continuous
100
AcDbLine
 10
145.2315085189459
 20
50.11353788743543
 30
0.0
 11
145.5217233640999
 21
52.43432649779094
 31
0.0
  0
LINE
  5
125C
330
1F
100
AcDbEntity
  8
SPOJOVACÍ
  6
Continuous
100
AcDbLine
 10
145.5989279566258
 20
53.05475375364437
 30
0.0
 11
145.9849509105245
 21
56.14386757144927
 31
0.0
  0
LINE
  5
125D
330
1F
100
AcDbEntity
  8
SPOJOVACÍ
  6
Continuous
100
AcDbLine
 10
146.4109714288772
 20
52.73849398311392
 30
0.0
 11
146.6788620571881
 21
50.59350859812946
 31
0.0
  0
LINE
  5
125E
330
1F
100
AcDbEntity
  8
SPOJOVACÍ
  6
Continuous
100
AcDbLine
 10
146.7504855900463
 20
50.02145048368072
 30
0.0
 11
147.0174460453838
 21
47.88483668082733
 31
0.0
  0
LINE
  5
125F
330
1F
100
AcDbEntity
  8
SPOJOVACÍ
  6
Continuous
100
AcDbLine
 10
147.0890695826076
 20
47.31463891778219
 30
0.0
 11
147.3346359940753
 21
45.34359640649597
 31
0.0
  0
LINE
  5
1260
330
1F
100
AcDbEntity
  8
SPOJOVACÍ
  6
Continuous
100
AcDbLine
 10
143.5850973576
 20
31.17887938845194
 30
0.0
 11
148.3848044634489
 21
32.37880616491418
 31
0.0
  0
LINE
  5
1261
330
1F
100
AcDbEntity
  8
SPOJOVACÍ
  6
Continuous
100
AcDbLine
 10
143.5850973576
 20
31.17887938845194
 30
0.0
 11
143.9627487329109
 21
31.39654052450021
 31
0.0
  0
LINE
  5
1262
330
1F
100
AcDbEntity
  8
SPOJOVACÍ
  6
Continuous
100
AcDbLine
 10
143.5850973576
 20
31.17887938845194
 30
0.0
 11
143.9627487329109
 21
30.80029783962197
 31
0.0
  0
LINE
  5
1263
330
1F
100
AcDbEntity
  8
SPOJOVACÍ
  6
Continuous
100
AcDbLine
 10
148.3848044634489
 20
32.37880616491418
 30
0.0
 11
148.0071530925035
 21
32.75645753804235
 31
0.0
  0
LINE
  5
1264
330
1F
100
AcDbEntity
  8
SPOJOVACÍ
  6
Continuous
100
AcDbLine
 10
148.3848044634489
 20
32.37880616491418
 30
0.0
 11
148.0071530925035
 21
32.16021485288763
 31
0.0
  0
LINE
  5
1265
330
1F
100
AcDbEntity
  8
SPOJOVACÍ
  6
Continuous
100
AcDbLine
 10
143.9627487329109
 20
31.39654052450021
 30
0.0
 11
148.0071530925035
 21
32.75645753804235
 31
0.0
  0
LINE
  5
1266
330
1F
100
AcDbEntity
  8
SPOJOVACÍ
  6
Continuous
100
AcDbLine
 10
143.9627487329109
 20
30.80029783962197
 30
0.0
 11
148.0071530925035
 21
32.16021485288763
 31
0.0
  0
LINE
  5
1267
330
1F
100
AcDbEntity
  8
SPOJOVACÍ
  6
Continuous
100
AcDbLine
 10
143.5850973576
 20
34.29868900741382
 30
0.0
 11
148.3848044634489
 21
35.49861578415255
 31
0.0
  0
LINE
  5
1268
330
1F
100
AcDbEntity
  8
SPOJOVACÍ
  6
Continuous
100
AcDbLine
 10
143.5850973576
 20
34.29868900741382
 30
0.0
 11
143.9627487329109
 21
34.51728031944037
 31
0.0
  0
LINE
  5
1269
330
1F
100
AcDbEntity
  8
SPOJOVACÍ
  6
Continuous
100
AcDbLine
 10
143.5850973576
 20
34.29868900741382
 30
0.0
 11
143.9627487329109
 21
33.92103763428565
 31
0.0
  0
LINE
  5
126A
330
1F
100
AcDbEntity
  8
SPOJOVACÍ
  6
Continuous
100
AcDbLine
 10
148.3848044634489
 20
35.49861578415255
 30
0.0
 11
148.0071530925035
 21
35.87626715700423
 31
0.0
  0
LINE
  5
126B
330
1F
100
AcDbEntity
  8
SPOJOVACÍ
  6
Continuous
100
AcDbLine
 10
148.3848044634489
 20
35.49861578415255
 30
0.0
 11
148.0071530925035
 21
35.280024472126
 31
0.0
  0
LINE
  5
126C
330
1F
100
AcDbEntity
  8
SPOJOVACÍ
  6
Continuous
100
AcDbLine
 10
143.9627487329109
 20
34.51728031944037
 30
0.0
 11
148.0071530925035
 21
35.87626715700423
 31
0.0
  0
LINE
  5
126D
330
1F
100
AcDbEntity
  8
SPOJOVACÍ
  6
Continuous
100
AcDbLine
 10
143.9627487329109
 20
33.92103763428565
 30
0.0
 11
148.0071530925035
 21
35.280024472126
 31
0.0
  0
LINE
  5
126E
330
1F
100
AcDbEntity
  8
SPOJOVACÍ
  6
Continuous
100
AcDbLine
 10
143.839035352021
 20
46.73606957287518
 30
0.0
 11
144.2176169003053
 21
46.95466088490173
 31
0.0
  0
LINE
  5
126F
330
1F
100
AcDbEntity
  8
SPOJOVACÍ
  6
Continuous
100
AcDbLine
 10
143.839035352021
 20
46.73606957287518
 30
0.0
 11
144.2176169003053
 21
46.358418199747
 31
0.0
  0
LINE
  5
1270
330
1F
100
AcDbEntity
  8
SPOJOVACÍ
  6
Continuous
100
AcDbLine
 10
147.9643650047639
 20
47.70903345517979
 30
0.0
 11
147.5867136338185
 21
48.08761500428625
 31
0.0
  0
LINE
  5
1271
330
1F
100
AcDbEntity
  8
SPOJOVACÍ
  6
Continuous
100
AcDbLine
 10
147.9643650047639
 20
47.70903345517979
 30
0.0
 11
147.5867136338185
 21
47.49137231913152
 31
0.0
  0
LINE
  5
1272
330
1F
100
AcDbEntity
  8
SPOJOVACÍ
  6
Continuous
100
AcDbLine
 10
144.2176169003053
 20
46.95466088490173
 30
0.0
 11
147.5867136338185
 21
48.08761500428625
 31
0.0
  0
LINE
  5
1273
330
1F
100
AcDbEntity
  8
SPOJOVACÍ
  6
Continuous
100
AcDbLine
 10
144.2176169003053
 20
46.358418199747
 30
0.0
 11
147.5867136338185
 21
47.49137231913152
 31
0.0
  0
LINE
  5
1274
330
1F
100
AcDbEntity
  8
SPOJOVACÍ
  6
Continuous
100
AcDbLine
 10
143.839035352021
 20
46.73606957287518
 30
0.0
 11
147.9643650047639
 21
47.70903345517979
 31
0.0
  0
LINE
  5
1275
330
1F
100
AcDbEntity
  8
SPOJOVACÍ
  6
Continuous
100
AcDbLine
 10
144.4036520581269
 20
49.75076932717309
 30
0.0
 11
144.7813034334378
 21
49.96843046322135
 31
0.0
  0
LINE
  5
1276
330
1F
100
AcDbEntity
  8
SPOJOVACÍ
  6
Continuous
100
AcDbLine
 10
144.4036520581269
 20
49.75076932717309
 30
0.0
 11
144.7813034334378
 21
49.37218777806663
 31
0.0
  0
LINE
  5
1277
330
1F
100
AcDbEntity
  8
SPOJOVACÍ
  6
Continuous
100
AcDbLine
 10
147.519740974558
 20
50.38421904394306
 30
0.0
 11
147.1420896036127
 21
50.76280059277303
 31
0.0
  0
LINE
  5
1278
330
1F
100
AcDbEntity
  8
SPOJOVACÍ
  6
Continuous
100
AcDbLine
 10
147.519740974558
 20
50.38421904394306
 30
0.0
 11
147.1420896036127
 21
50.1665579078948
 31
0.0
  0
LINE
  5
1279
330
1F
100
AcDbEntity
  8
SPOJOVACÍ
  6
Continuous
100
AcDbLine
 10
144.7813034334378
 20
49.96843046322135
 30
0.0
 11
147.1420896036127
 21
50.76280059277303
 31
0.0
  0
LINE
  5
127A
330
1F
100
AcDbEntity
  8
SPOJOVACÍ
  6
Continuous
100
AcDbLine
 10
144.7813034334378
 20
49.37218777806663
 30
0.0
 11
147.1420896036127
 21
50.1665579078948
 31
0.0
  0
LINE
  5
127B
330
1F
100
AcDbEntity
  8
SPOJOVACÍ
  6
Continuous
100
AcDbLine
 10
144.4036520581269
 20
49.75076932717309
 30
0.0
 11
147.519740974558
 21
50.38421904394306
 31
0.0
  0
LINE
  5
127C
330
1F
100
AcDbEntity
  8
SPOJOVACÍ
  6
Continuous
100
AcDbLine
 10
144.9682687685983
 20
52.76453890549271
 30
0.0
 11
145.3459201395437
 21
52.98313021751198
 31
0.0
  0
LINE
  5
127D
330
1F
100
AcDbEntity
  8
SPOJOVACÍ
  6
Continuous
100
AcDbLine
 10
144.9682687685983
 20
52.76453890549271
 30
0.0
 11
145.3459201395437
 21
52.38688753236454
 31
0.0
  0
LINE
  5
127E
330
1F
100
AcDbEntity
  8
SPOJOVACÍ
  6
Continuous
100
AcDbLine
 10
147.1225559100551
 20
53.07521762126668
 30
0.0
 11
146.7449045391097
 21
53.45379917009665
 31
0.0
  0
LINE
  5
127F
330
1F
100
AcDbEntity
  8
SPOJOVACÍ
  6
Continuous
100
AcDbLine
 10
147.1225559100551
 20
53.07521762126668
 30
0.0
 11
146.7449045391097
 21
52.85755648494921
 31
0.0
  0
LINE
  5
1280
330
1F
100
AcDbEntity
  8
SPOJOVACÍ
  6
Continuous
100
AcDbLine
 10
145.3459201395437
 20
52.98313021751198
 30
0.0
 11
146.7449045391097
 21
53.45379917009665
 31
0.0
  0
LINE
  5
1281
330
1F
100
AcDbEntity
  8
SPOJOVACÍ
  6
Continuous
100
AcDbLine
 10
145.3459201395437
 20
52.38688753236454
 30
0.0
 11
146.7449045391097
 21
52.85755648494921
 31
0.0
  0
LINE
  5
1282
330
1F
100
AcDbEntity
  8
SPOJOVACÍ
  6
Continuous
100
AcDbLine
 10
144.9682687685983
 20
52.76453890549271
 30
0.0
 11
147.1225559100551
 21
53.07521762126668
 31
0.0
  0
LINE
  5
1283
330
1F
100
AcDbEntity
  8
SPOJOVACÍ
  6
Continuous
100
AcDbLine
 10
143.5850973576
 20
37.41849862665219
 30
0.0
 11
148.3848044634489
 21
38.61842540311442
 31
0.0
  0
LINE
  5
1284
330
1F
100
AcDbEntity
  8
SPOJOVACÍ
  6
Continuous
100
AcDbLine
 10
143.5850973576
 20
37.41849862665219
 30
0.0
 11
143.9627487329109
 21
37.63708993867874
 31
0.0
  0
LINE
  5
1285
330
1F
100
AcDbEntity
  8
SPOJOVACÍ
  6
Continuous
100
AcDbLine
 10
143.5850973576
 20
37.41849862665219
 30
0.0
 11
143.9627487329109
 21
37.04084725352402
 31
0.0
  0
LINE
  5
1286
330
1F
100
AcDbEntity
  8
SPOJOVACÍ
  6
Continuous
100
AcDbLine
 10
148.3848044634489
 20
38.61842540311442
 30
0.0
 11
148.0071530925035
 21
38.99700695194439
 31
0.0
  0
LINE
  5
1287
330
1F
100
AcDbEntity
  8
SPOJOVACÍ
  6
Continuous
100
AcDbLine
 10
148.3848044634489
 20
38.61842540311442
 30
0.0
 11
148.0071530925035
 21
38.40076426679695
 31
0.0
  0
LINE
  5
1288
330
1F
100
AcDbEntity
  8
SPOJOVACÍ
  6
Continuous
100
AcDbLine
 10
143.9627487329109
 20
37.63708993867874
 30
0.0
 11
148.0071530925035
 21
38.99700695194439
 31
0.0
  0
LINE
  5
1289
330
1F
100
AcDbEntity
  8
SPOJOVACÍ
  6
Continuous
100
AcDbLine
 10
143.9627487329109
 20
37.04084725352402
 30
0.0
 11
148.0071530925035
 21
38.40076426679695
 31
0.0
  0
LINE
  5
128A
330
1F
100
AcDbEntity
  8
SPOJOVACÍ
  6
Continuous
100
AcDbLine
 10
143.5850973576
 20
40.53830824562135
 30
0.0
 11
148.3848044634489
 21
41.73823502208358
 31
0.0
  0
LINE
  5
128B
330
1F
100
AcDbEntity
  8
SPOJOVACÍ
  6
Continuous
100
AcDbLine
 10
143.5850973576
 20
40.53830824562135
 30
0.0
 11
143.9627487329109
 21
40.75689955764062
 31
0.0
  0
LINE
  5
128C
330
1F
100
AcDbEntity
  8
SPOJOVACÍ
  6
Continuous
100
AcDbLine
 10
143.5850973576
 20
40.53830824562135
 30
0.0
 11
143.9627487329109
 21
40.16065687249318
 31
0.0
  0
LINE
  5
128D
330
1F
100
AcDbEntity
  8
SPOJOVACÍ
  6
Continuous
100
AcDbLine
 10
148.3848044634489
 20
41.73823502208358
 30
0.0
 11
148.0071530925035
 21
42.11681657091356
 31
0.0
  0
LINE
  5
128E
330
1F
100
AcDbEntity
  8
SPOJOVACÍ
  6
Continuous
100
AcDbLine
 10
148.3848044634489
 20
41.73823502208358
 30
0.0
 11
148.0071530925035
 21
41.52057388603532
 31
0.0
  0
LINE
  5
128F
330
1F
100
AcDbEntity
  8
SPOJOVACÍ
  6
Continuous
100
AcDbLine
 10
143.9627487329109
 20
40.75689955764062
 30
0.0
 11
148.0071530925035
 21
42.11681657091356
 31
0.0
  0
LINE
  5
1290
330
1F
100
AcDbEntity
  8
SPOJOVACÍ
  6
Continuous
100
AcDbLine
 10
143.9627487329109
 20
40.16065687249318
 30
0.0
 11
148.0071530925035
 21
41.52057388603532
 31
0.0
  0
LINE
  5
1291
330
1F
100
AcDbEntity
  8
SPOJOVACÍ
  6
Continuous
100
AcDbLine
 10
143.5850973576
 20
43.65904804056151
 30
0.0
 11
148.3848044634489
 21
44.85897481702375
 31
0.0
  0
LINE
  5
1292
330
1F
100
AcDbEntity
  8
SPOJOVACÍ
  6
Continuous
100
AcDbLine
 10
143.5850973576
 20
43.65904804056151
 30
0.0
 11
143.9627487329109
 21
43.87670917660978
 31
0.0
  0
LINE
  5
1293
330
1F
100
AcDbEntity
  8
SPOJOVACÍ
  6
Continuous
100
AcDbLine
 10
143.5850973576
 20
43.65904804056151
 30
0.0
 11
143.9627487329109
 21
43.28046649145505
 31
0.0
  0
LINE
  5
1294
330
1F
100
AcDbEntity
  8
SPOJOVACÍ
  6
Continuous
100
AcDbLine
 10
148.3848044634489
 20
44.85897481702375
 30
0.0
 11
148.0071530925035
 21
45.23662619015192
 31
0.0
  0
LINE
  5
1295
330
1F
100
AcDbEntity
  8
SPOJOVACÍ
  6
Continuous
100
AcDbLine
 10
148.3848044634489
 20
44.85897481702375
 30
0.0
 11
148.0071530925035
 21
44.6403835049972
 31
0.0
  0
LINE
  5
1296
330
1F
100
AcDbEntity
  8
SPOJOVACÍ
  6
Continuous
100
AcDbLine
 10
143.9627487329109
 20
43.87670917660978
 30
0.0
 11
148.0071530925035
 21
45.23662619015192
 31
0.0
  0
LINE
  5
1297
330
1F
100
AcDbEntity
  8
SPOJOVACÍ
  6
Continuous
100
AcDbLine
 10
143.9627487329109
 20
43.28046649145505
 30
0.0
 11
148.0071530925035
 21
44.6403835049972
 31
0.0
  0
LINE
  5
1298
330
1F
100
AcDbEntity
  8
SPOJOVACÍ
100
AcDbLine
 10
162.1543716004073
 20
65.10091473069076
 30
0.0
 11
162.1543716004073
 21
51.60091473069076
 31
0.0
  0
LINE
  5
1299
330
1F
100
AcDbEntity
  8
SPOJOVACÍ
  6
DASHED
100
AcDbLine
 10
80.45946931148341
 20
56.63997723068985
 30
0.0
 11
158.9717372978286
 21
56.63997723068985
 31
0.0
  0
LINE
  5
129A
330
1F
100
AcDbEntity
  8
SPOJOVACÍ
  6
DASHED
100
AcDbLine
 10
80.45946931147614
 20
60.06185223068985
 30
0.0
 11
158.9717372978323
 21
60.06185223068985
 31
0.0
  0
LINE
  5
129B
330
1F
100
AcDbEntity
  8
SPOJOVACÍ
  6
DASHDOT2
100
AcDbLine
 10
127.1933178759556
 20
58.35091473069076
 30
0.0
 11
58.78756266698679
 21
58.35091473068985
 31
0.0
  0
LINE
  5
129C
330
1F
100
AcDbEntity
  8
SPOJOVACÍ
100
AcDbLine
 10
163.5959599668769
 20
65.10091473069076
 30
0.0
 11
163.5959599668769
 21
51.60091473069076
 31
0.0
  0
LINE
  5
129D
330
1F
100
AcDbEntity
  8
SPOJOVACÍ
100
AcDbLine
 10
163.5959599668769
 20
51.60091473069076
 30
0.0
 11
162.1543716004073
 21
51.60091473069076
 31
0.0
  0
LINE
  5
129E
330
1F
100
AcDbEntity
  8
SPOJOVACÍ
100
AcDbLine
 10
163.5959599668769
 20
65.10091473069076
 30
0.0
 11
162.1543716004073
 21
65.10091473069076
 31
0.0
  0
LINE
  5
129F
330
1F
100
AcDbEntity
  8
SPOJOVACÍ
100
AcDbLine
 10
162.1543716004073
 20
51.60091473069076
 30
0.0
 11
163.0312822225407
 21
51.60091473069076
 31
0.0
  0
LINE
  5
12A0
330
1F
100
AcDbEntity
  8
SPOJOVACÍ
100
AcDbLine
 10
162.1543716004073
 20
51.60091473069076
 30
0.0
 11
158.9717372978286
 21
56.63997723068985
 31
0.0
  0
LINE
  5
12A1
330
1F
100
AcDbEntity
  8
SPOJOVACÍ
  6
DASHED
100
AcDbLine
 10
162.1543716004073
 20
65.10091473069076
 30
0.0
 11
158.9717372978323
 21
60.06185223068985
 31
0.0
  0
LINE
  5
12A2
330
1F
100
AcDbEntity
  8
SPOJOVACÍ
100
AcDbLine
 10
162.1543716004073
 20
65.10091473069076
 30
0.0
 11
163.0312822225407
 21
65.10091473069076
 31
0.0
  0
LINE
  5
12A3
330
1F
100
AcDbEntity
  8
SPOJOVACÍ
100
AcDbLine
 10
163.0312822225407
 20
65.10091473069076
 30
0.0
 11
162.1543716004073
 21
65.10091473069076
 31
0.0
  0
LINE
  5
12A4
330
1F
100
AcDbEntity
  8
CETRIS
100
AcDbLine
 10
115.5341887622473
 20
83.61086250824735
 30
0.0
 11
536.4405219962921
 21
83.61086250824826
 31
0.0
  0
LINE
  5
12A5
330
1F
100
AcDbEntity
  8
CETRIS
100
AcDbLine
 10
115.5341887622473
 20
95.61086250824734
 30
0.0
 11
536.4405219962921
 21
95.61086250824827
 31
0.0
  0
LINE
  5
12A6
330
1F
100
AcDbEntity
  8
CETRIS
100
AcDbLine
 10
115.5341887622473
 20
20.37860822349864
 30
0.0
 11
627.5763784364628
 21
20.37860822349864
 31
0.0
  0
LINE
  5
12A7
330
1F
100
AcDbEntity
  8
CETRIS
100
AcDbLine
 10
115.5341887622473
 20
32.37860822349864
 30
0.0
 11
629.7865397147636
 21
32.37860822349864
 31
0.0
  0
LWPOLYLINE
  5
12A8
330
1F
100
AcDbEntity
  8
NOSNÉ KONSTRUKCE
100
AcDbPolyline
 90
        4
 70
     0
 43
0.0
 10
570.7747164066152
 20
82.89755103490131
 42
-0.0135911980674875
 10
565.1960193707766
 20
52.4045112612024
 42
-0.0219777111230329
 10
563.8368506177996
 20
47.12734137744917
 42
-0.0418563612866048
 10
553.721434516998
 20
32.97430055782695
 42
-0.0418563612866048
  0
LWPOLYLINE
  5
12A9
330
1F
100
AcDbEntity
  8
NOSNÉ KONSTRUKCE
100
AcDbPolyline
 90
        6
 70
     0
 43
0.0
 10
555.4901220006124
 20
82.89755103490131
 42
-0.0128837512779301
 10
555.0629340602738
 20
77.89780380228183
 42
-0.0351641677647434
 10
554.1212944779893
 20
72.49223962077337
 42
-0.0187319685742942
 10
549.0452706565031
 20
54.85488360755915
 42
-0.0582629403736403
 10
546.5560208543813
 20
49.48513230916103
 42
-0.0636293101863209
 10
533.2945512608587
 20
33.00382400893556
 42
-0.0636293101863209
  0
LWPOLYLINE
  5
12AA
330
1F
100
AcDbEntity
  8
NOSNÉ KONSTRUKCE
100
AcDbPolyline
 90
        3
 70
     0
 43
0.0
 10
540.5980501084107
 20
51.97133050870377
 10
557.3532677281384
 20
43.58758964073547
 10
565.5203723772631
 20
35.40628793963822
  0
LWPOLYLINE
  5
12AB
330
1F
100
AcDbEntity
  8
NOSNÉ KONSTRUKCE
100
AcDbPolyline
 90
        4
 70
     1
 43
0.0
 10
573.3839031165355
 20
32.97430055782786
 10
573.3839031165355
 20
82.97430055782786
 10
493.3839031165355
 20
82.97430055782786
 10
493.3839031165355
 20
32.97430055782786
  0
LWPOLYLINE
  5
12AC
330
1F
100
AcDbEntity
  8
NOSNÉ KONSTRUKCE
100
AcDbPolyline
 90
        4
 70
     0
 43
0.0
 10
545.107191182715
 20
82.97430055782786
 42
-0.0135911980674875
 10
541.3880598254893
 20
62.64560737536192
 42
-0.0219777111230329
 10
540.4819473235058
 20
59.12749411952643
 42
-0.1401208794308004
 10
512.7159924362733
 20
32.97430055782786
 42
-0.1401208794308004
  0
LWPOLYLINE
  5
12AD
330
1F
100
AcDbEntity
  8
NOSNÉ KONSTRUKCE
100
AcDbPolyline
 90
        6
 70
     0
 43
0.0
 10
534.9174615787108
 20
82.97430055782786
 42
-0.0128837512779302
 10
534.6326696184863
 20
79.64113573608154
 42
-0.0351641677647434
 10
534.0049098969632
 20
76.03742628174257
 42
-0.0187319685742942
 10
530.6208940159724
 20
64.27918893959975
 42
-0.0582629403736403
 10
528.9613941478912
 20
60.69935474066767
 42
-0.2042445348716764
 10
493.3839031165355
 20
35.44100655113322
  0
LWPOLYLINE
  5
12AE
330
1F
100
AcDbEntity
  8
NOSNÉ KONSTRUKCE
100
AcDbPolyline
 90
        3
 70
     0
 43
0.0
 10
519.3848781994841
 20
76.47513098857269
 10
539.3811306314766
 20
67.25910193805282
 10
543.3810682651913
 20
66.61370446271064
  0
LWPOLYLINE
  5
12AF
330
1F
100
AcDbEntity
  8
NOSNÉ KONSTRUKCE
100
AcDbPolyline
 90
        8
 70
     0
 43
0.0
 10
526.2932461986695
 20
82.97430055782786
 42
-0.0120721047703132
 10
526.2242635086315
 20
81.24041241908377
 42
-0.044358077361292
 10
525.8286357739582
 20
78.54461240066701
 42
-0.0188067511131767
 10
523.8088123255749
 20
71.30238322536058
 42
-0.0457786284636091
 10
522.6007894359593
 20
68.45377284248058
 42
-0.0295006114745606
 10
520.1847289816599
 20
64.52687362907852
 42
-0.0258674098621065
 10
516.9520536676957
 20
60.38109355032464
 42
-0.2409478365688615
 10
493.3839031165355
 20
45.95654610535109
 42
-0.0884720560394402
  0
LWPOLYLINE
  5
12B0
330
1F
100
AcDbEntity
  8
NOSNÉ KONSTRUKCE
100
AcDbPolyline
 90
        3
 70
     0
 43
0.0
 10
500.092300574239
 20
77.45696986230939
 10
516.8475181939668
 20
69.0732289943411
 10
525.0146228430915
 20
60.89192729324384
  0
POLYLINE
  5
12B1
330
1F
100
AcDbEntity
  8
NOSNÉ KONSTRUKCE
100
AcDb2dPolyline
 66
     1
 10
0.0
 20
0.0
 30
0.0
  0
VERTEX
  5
12B2
330
12B1
100
AcDbEntity
  8
NOSNÉ KONSTRUKCE
100
AcDbVertex
100
AcDb2dVertex
 10
510.4764089514739
 20
82.97430055782603
 30
0.0
 42
-0.0072417954699014
  0
VERTEX
  5
12B3
330
12B1
100
AcDbEntity
  8
NOSNÉ KONSTRUKCE
100
AcDbVertex
100
AcDb2dVertex
 10
510.4208385836302
 20
82.56289534655151
 30
0.0
 42
-0.0707158694326265
  0
VERTEX
  5
12B4
330
12B1
100
AcDbEntity
  8
NOSNÉ KONSTRUKCE
100
AcDbVertex
100
AcDb2dVertex
 10
509.8897120672102
 20
80.62679189395783
 30
0.0
 42
-0.033952657250207
  0
VERTEX
  5
12B5
330
12B1
100
AcDbEntity
  8
NOSNÉ KONSTRUKCE
100
AcDbVertex
100
AcDb2dVertex
 10
507.6410562278018
 20
76.27375416878419
 30
0.0
 42
-0.0571374688189033
  0
VERTEX
  5
12B6
330
12B1
100
AcDbEntity
  8
NOSNÉ KONSTRUKCE
100
AcDbVertex
100
AcDb2dVertex
 10
505.8548994679497
 20
73.9668298850978
 30
0.0
 42
-0.0274923553235744
  0
VERTEX
  5
12B7
330
12B1
100
AcDbEntity
  8
NOSNÉ KONSTRUKCE
100
AcDbVertex
100
AcDb2dVertex
 10
503.257593737397
 20
71.58175456196329
 30
0.0
 42
-0.0255412025538677
  0
VERTEX
  5
12B8
330
12B1
100
AcDbEntity
  8
NOSNÉ KONSTRUKCE
100
AcDbVertex
100
AcDb2dVertex
 10
500.2061636996861
 20
69.32504088494386
 30
0.0
 42
-0.0272796991712396
  0
VERTEX
  5
12B9
330
12B1
100
AcDbEntity
  8
NOSNÉ KONSTRUKCE
100
AcDbVertex
100
AcDb2dVertex
 10
496.0931645465008
 20
66.90870500328163
 30
0.0
 42
-0.056967459841729
  0
VERTEX
  5
12BA
330
12B1
100
AcDbEntity
  8
NOSNÉ KONSTRUKCE
100
AcDbVertex
100
AcDb2dVertex
 10
493.9522172657691
 20
66.09596916808221
 30
0.0
 42
-0.0373408083348504
  0
VERTEX
  5
12BB
330
12B1
100
AcDbEntity
  8
NOSNÉ KONSTRUKCE
100
AcDbVertex
100
AcDb2dVertex
 10
493.7298628902956
 20
66.05680362713099
 30
0.0
 42
-0.0052305969362967
  0
VERTEX
  5
12BC
330
12B1
100
AcDbEntity
  8
NOSNÉ KONSTRUKCE
100
AcDbVertex
100
AcDb2dVertex
 10
493.3839031165355
 20
66.02584666022664
 30
0.0
  0
SEQEND
  5
12BD
330
12B1
100
AcDbEntity
  8
NOSNÉ KONSTRUKCE
  0
POLYLINE
  5
12BE
330
1F
100
AcDbEntity
  8
NOSNÉ KONSTRUKCE
100
AcDb2dPolyline
 66
     1
 10
0.0
 20
0.0
 30
0.0
  0
VERTEX
  5
12BF
330
12BE
100
AcDbEntity
  8
NOSNÉ KONSTRUKCE
100
AcDbVertex
100
AcDb2dVertex
 10
503.2483579307356
 20
82.97430055782603
 30
0.0
 42
-0.0064239028828688
  0
VERTEX
  5
12C0
330
12BE
100
AcDbEntity
  8
NOSNÉ KONSTRUKCE
100
AcDbVertex
100
AcDb2dVertex
 10
503.2094894905551
 20
82.75518689847592
 30
0.0
 42
-0.0832048017309575
  0
VERTEX
  5
12C1
330
12BE
100
AcDbEntity
  8
NOSNÉ KONSTRUKCE
100
AcDbVertex
100
AcDb2dVertex
 10
502.4253068878736
 20
80.42497331882112
 30
0.0
 42
-0.0336767237692336
  0
VERTEX
  5
12C2
330
12BE
100
AcDbEntity
  8
NOSNÉ KONSTRUKCE
100
AcDbVertex
100
AcDb2dVertex
 10
500.7224903289518
 20
77.69669879936043
 30
0.0
 42
-0.0844635135812105
  0
VERTEX
  5
12C3
330
12BE
100
AcDbEntity
  8
NOSNÉ KONSTRUKCE
100
AcDbVertex
100
AcDb2dVertex
 10
499.802680569059
 20
76.79227719436529
 30
0.0
 42
-0.0495829410719565
  0
VERTEX
  5
12C4
330
12BE
100
AcDbEntity
  8
NOSNÉ KONSTRUKCE
100
AcDbVertex
100
AcDb2dVertex
 10
498.0540021317048
 20
75.8156276870526
 30
0.0
 42
-0.0322692699774654
  0
VERTEX
  5
12C5
330
12BE
100
AcDbEntity
  8
NOSNÉ KONSTRUKCE
100
AcDbVertex
100
AcDb2dVertex
 10
495.1626479506142
 20
74.77410418565193
 30
0.0
 42
-0.0276160659512937
  0
VERTEX
  5
12C6
330
12BE
100
AcDbEntity
  8
NOSNÉ KONSTRUKCE
100
AcDbVertex
100
AcDb2dVertex
 10
494.3070715123269
 20
74.57736875670741
 30
0.0
 42
-0.0126891984598699
  0
VERTEX
  5
12C7
330
12BE
100
AcDbEntity
  8
NOSNÉ KONSTRUKCE
100
AcDbVertex
100
AcDb2dVertex
 10
493.3839031165355
 20
74.44216636716589
 30
0.0
  0
SEQEND
  5
12C8
330
12BE
100
AcDbEntity
  8
NOSNÉ KONSTRUKCE
  0
LWPOLYLINE
  5
12C9
330
1F
100
AcDbEntity
  8
NOSNÉ KONSTRUKCE
100
AcDbPolyline
 90
       10
 70
     0
 43
0.0
 10
517.4261869751592
 20
82.97430055782786
 42
-0.0168162630274194
 10
517.2911613960953
 20
81.28326240570856
 42
-0.0575155827655532
 10
516.6111291157524
 20
78.18363774499118
 42
-0.0310289133982999
 10
513.6083277709242
 20
70.9386102203465
 42
-0.0882970623535771
 10
511.9711058508312
 20
68.69824116954657
 42
-0.0171636441953577
 10
509.1577417889732
 20
66.18432381430136
 42
-0.0157521173632038
 10
505.9188869519369
 20
63.65282776179481
 42
-0.0073640874174249
 10
501.2852375956156
 20
60.36442633605872
 42
-0.0194185739168057
 10
499.463194275939
 20
59.21285733677757
 42
-0.0567960585128809
 10
493.3839031165355
 20
56.56099313140146
 42
-0.0229547400386702
  0
LWPOLYLINE
  5
12CA
330
1F
100
AcDbEntity
  8
NOSNÉ KONSTRUKCE
100
AcDbPolyline
 90
        7
 70
     0
 43
0.0
 10
497.8986715962185
 20
82.97430055782786
 42
-0.0203924744732807
 10
496.9965876118096
 20
81.96117052867373
 42
-0.0273961979096945
 10
496.1467232616143
 20
81.17299415464765
 42
-0.0243529190212958
 10
494.9836027691946
 20
80.29923480998002
 42
-0.0398020282482987
 10
494.2086442316342
 20
79.8596060665335
 42
-0.104168275620852
 10
493.8222330952942
 20
79.76958960635636
 42
-0.007272956268647
 10
493.3839031165355
 20
79.75113625506162
 42
-0.007272956268647
  0
LWPOLYLINE
  5
12CB
330
1F
100
AcDbEntity
  8
NOSNÉ KONSTRUKCE
100
AcDbPolyline
 90
        4
 70
     0
 43
0.0
 10
163.571833660759
 20
72.77447038693151
 42
-0.006788460145482
 10
161.5759903697128
 20
62.64560737536192
 42
-0.0219777111230329
 10
160.6698778677293
 20
59.12749411952643
 42
-0.1401208794308004
 10
132.9039229804968
 20
32.97430055782786
  0
LWPOLYLINE
  5
12CC
330
1F
100
AcDbEntity
  8
NOSNÉ KONSTRUKCE
100
AcDbPolyline
 90
        6
 70
     0
 43
0.0
 10
155.1053921229343
 20
82.97430055782786
 42
-0.0128837512779302
 10
154.8206001627097
 20
79.64113573608154
 42
-0.0351641677647434
 10
154.1928404411867
 20
76.03742628174257
 42
-0.0187319685742942
 10
150.8088245601959
 20
64.27918893959975
 42
-0.0582629403736403
 10
149.1493246921147
 20
60.69935474066767
 42
-0.2042445348716764
 10
113.571833660759
 20
35.44100655113322
  0
LWPOLYLINE
  5
12CD
330
1F
100
AcDbEntity
  8
NOSNÉ KONSTRUKCE
100
AcDbPolyline
 90
        3
 70
     0
 43
0.0
 10
120.2802311184625
 20
77.45696986230939
 10
137.0354487381903
 20
69.0732289943411
 10
145.202553387315
 20
60.89192729324384
  0
LWPOLYLINE
  5
12CE
330
1F
100
AcDbEntity
  8
NOSNÉ KONSTRUKCE
100
AcDbPolyline
 90
        8
 70
     0
 43
0.0
 10
146.481176742893
 20
82.97430055782786
 42
-0.0120721047703132
 10
146.412194052855
 20
81.24041241908377
 42
-0.044358077361292
 10
146.0165663181817
 20
78.54461240066701
 42
-0.0188067511131767
 10
143.9967428697984
 20
71.30238322536058
 42
-0.0457786284636091
 10
142.7887199801828
 20
68.45377284248058
 42
-0.0295006114745606
 10
140.3726595258833
 20
64.52687362907852
 42
-0.0258674098621065
 10
137.1399842119192
 20
60.38109355032464
 42
-0.2409478365688615
 10
113.571833660759
 20
45.95654610535109
 42
-0.0884720560394402
  0
LWPOLYLINE
  5
12CF
330
1F
100
AcDbEntity
  8
NOSNÉ KONSTRUKCE
100
AcDbPolyline
 90
       10
 70
     0
 43
0.0
 10
137.6141175193827
 20
82.97430055782786
 42
-0.0168162630274194
 10
137.4790919403187
 20
81.28326240570856
 42
-0.0575155827655532
 10
136.7990596599759
 20
78.18363774499118
 42
-0.0310289133982999
 10
133.7962583151477
 20
70.9386102203465
 42
-0.0882970623535771
 10
132.1590363950547
 20
68.69824116954657
 42
-0.0171636441953577
 10
129.3456723331967
 20
66.18432381430136
 42
-0.0157521173632038
 10
126.1068174961603
 20
63.65282776179481
 42
-0.0073640874174249
 10
121.4731681398391
 20
60.36442633605872
 42
-0.0194185739168057
 10
119.6511248201625
 20
59.21285733677757
 42
-0.0567960585128809
 10
113.571833660759
 20
56.56099313140146
 42
-0.0229547400386702
  0
POLYLINE
  5
12D0
330
1F
100
AcDbEntity
  8
NOSNÉ KONSTRUKCE
100
AcDb2dPolyline
 66
     1
 10
0.0
 20
0.0
 30
0.0
  0
VERTEX
  5
12D1
330
12D0
100
AcDbEntity
  8
NOSNÉ KONSTRUKCE
100
AcDbVertex
100
AcDb2dVertex
 10
123.4362884749591
 20
82.97430055782603
 30
0.0
 42
-0.0064239028828688
  0
VERTEX
  5
12D2
330
12D0
100
AcDbEntity
  8
NOSNÉ KONSTRUKCE
100
AcDbVertex
100
AcDb2dVertex
 10
123.3974200347786
 20
82.75518689847592
 30
0.0
 42
-0.0832048017309575
  0
VERTEX
  5
12D3
330
12D0
100
AcDbEntity
  8
NOSNÉ KONSTRUKCE
100
AcDbVertex
100
AcDb2dVertex
 10
122.613237432097
 20
80.42497331882112
 30
0.0
 42
-0.0336767237692336
  0
VERTEX
  5
12D4
330
12D0
100
AcDbEntity
  8
NOSNÉ KONSTRUKCE
100
AcDbVertex
100
AcDb2dVertex
 10
120.9104208731753
 20
77.69669879936043
 30
0.0
 42
-0.0844635135812105
  0
VERTEX
  5
12D5
330
12D0
100
AcDbEntity
  8
NOSNÉ KONSTRUKCE
100
AcDbVertex
100
AcDb2dVertex
 10
119.9906111132825
 20
76.79227719436529
 30
0.0
 42
-0.0495829410719565
  0
VERTEX
  5
12D6
330
12D0
100
AcDbEntity
  8
NOSNÉ KONSTRUKCE
100
AcDbVertex
100
AcDb2dVertex
 10
118.2419326759284
 20
75.8156276870526
 30
0.0
 42
-0.0322692699774654
  0
VERTEX
  5
12D7
330
12D0
100
AcDbEntity
  8
NOSNÉ KONSTRUKCE
100
AcDbVertex
100
AcDb2dVertex
 10
115.3505784948376
 20
74.77410418565193
 30
0.0
 42
-0.0276160659512937
  0
VERTEX
  5
12D8
330
12D0
100
AcDbEntity
  8
NOSNÉ KONSTRUKCE
100
AcDbVertex
100
AcDb2dVertex
 10
114.4950020565504
 20
74.57736875670741
 30
0.0
 42
-0.0126891984598699
  0
VERTEX
  5
12D9
330
12D0
100
AcDbEntity
  8
NOSNÉ KONSTRUKCE
100
AcDbVertex
100
AcDb2dVertex
 10
113.571833660759
 20
74.44216636716589
 30
0.0
  0
SEQEND
  5
12DA
330
12D0
100
AcDbEntity
  8
NOSNÉ KONSTRUKCE
  0
POLYLINE
  5
12DB
330
1F
100
AcDbEntity
  8
NOSNÉ KONSTRUKCE
100
AcDb2dPolyline
 66
     1
 10
0.0
 20
0.0
 30
0.0
  0
VERTEX
  5
12DC
330
12DB
100
AcDbEntity
  8
NOSNÉ KONSTRUKCE
100
AcDbVertex
100
AcDb2dVertex
 10
130.6643394956975
 20
82.97430055782603
 30
0.0
 42
-0.0072417954699014
  0
VERTEX
  5
12DD
330
12DB
100
AcDbEntity
  8
NOSNÉ KONSTRUKCE
100
AcDbVertex
100
AcDb2dVertex
 10
130.6087691278537
 20
82.56289534655151
 30
0.0
 42
-0.0707158694326265
  0
VERTEX
  5
12DE
330
12DB
100
AcDbEntity
  8
NOSNÉ KONSTRUKCE
100
AcDbVertex
100
AcDb2dVertex
 10
130.0776426114337
 20
80.62679189395783
 30
0.0
 42
-0.033952657250207
  0
VERTEX
  5
12DF
330
12DB
100
AcDbEntity
  8
NOSNÉ KONSTRUKCE
100
AcDbVertex
100
AcDb2dVertex
 10
127.8289867720252
 20
76.27375416878419
 30
0.0
 42
-0.0571374688189033
  0
VERTEX
  5
12E0
330
12DB
100
AcDbEntity
  8
NOSNÉ KONSTRUKCE
100
AcDbVertex
100
AcDb2dVertex
 10
126.0428300121732
 20
73.9668298850978
 30
0.0
 42
-0.0274923553235744
  0
VERTEX
  5
12E1
330
12DB
100
AcDbEntity
  8
NOSNÉ KONSTRUKCE
100
AcDbVertex
100
AcDb2dVertex
 10
123.4455242816204
 20
71.58175456196329
 30
0.0
 42
-0.0255412025538677
  0
VERTEX
  5
12E2
330
12DB
100
AcDbEntity
  8
NOSNÉ KONSTRUKCE
100
AcDbVertex
100
AcDb2dVertex
 10
120.3940942439096
 20
69.32504088494386
 30
0.0
 42
-0.0272796991712396
  0
VERTEX
  5
12E3
330
12DB
100
AcDbEntity
  8
NOSNÉ KONSTRUKCE
100
AcDbVertex
100
AcDb2dVertex
 10
116.2810950907244
 20
66.90870500328163
 30
0.0
 42
-0.056967459841729
  0
VERTEX
  5
12E4
330
12DB
100
AcDbEntity
  8
NOSNÉ KONSTRUKCE
100
AcDbVertex
100
AcDb2dVertex
 10
114.1401478099926
 20
66.09596916808221
 30
0.0
 42
-0.0373408083348504
  0
VERTEX
  5
12E5
330
12DB
100
AcDbEntity
  8
NOSNÉ KONSTRUKCE
100
AcDbVertex
100
AcDb2dVertex
 10
113.9177934345191
 20
66.05680362713099
 30
0.0
 42
-0.0052305969362967
  0
VERTEX
  5
12E6
330
12DB
100
AcDbEntity
  8
NOSNÉ KONSTRUKCE
100
AcDbVertex
100
AcDb2dVertex
 10
113.571833660759
 20
66.02584666022664
 30
0.0
  0
SEQEND
  5
12E7
330
12DB
100
AcDbEntity
  8
NOSNÉ KONSTRUKCE
  0
LWPOLYLINE
  5
12E8
330
1F
100
AcDbEntity
  8
NOSNÉ KONSTRUKCE
100
AcDbPolyline
 90
        3
 70
     0
 43
0.0
 10
139.5728087437075
 20
76.47513098857269
 10
159.5690611757001
 20
67.25910193805282
 10
163.5689988094147
 20
66.61370446271064
  0
LWPOLYLINE
  5
12E9
330
1F
100
AcDbEntity
  8
NOSNÉ KONSTRUKCE
100
AcDbPolyline
 90
        2
 70
     0
 43
0.0
 10
160.7859806526341
 20
51.97133050870377
 10
163.571833660759
 20
50.57738444089079
  0
LWPOLYLINE
  5
12EA
330
1F
100
AcDbEntity
  8
NOSNÉ KONSTRUKCE
100
AcDbPolyline
 90
        2
 70
     0
 43
0.0
 10
163.571833660759
 20
44.69486912078752
 42
-0.0463617997943816
 10
153.4824818050822
 20
33.00382400893556
  0
LWPOLYLINE
  5
12EB
330
1F
100
AcDbEntity
  8
NOSNÉ KONSTRUKCE
100
AcDbPolyline
 90
        4
 70
     1
 43
0.0
 10
163.571833660759
 20
32.97430055782786
 10
163.571833660759
 20
82.97430055782786
 10
113.571833660759
 20
82.97430055782786
 10
113.571833660759
 20
32.97430055782786
  0
LINE
  5
12EC
330
1F
100
AcDbEntity
  8
SPOJOVACÍ
  6
DASHED
100
AcDbLine
 10
117.532576145297
 20
61.8763811541661
 30
0.0
 11
160.1177802363474
 21
61.8763811541661
 31
0.0
  0
LINE
  5
12ED
330
1F
100
AcDbEntity
  8
SPOJOVACÍ
  6
DASHED
100
AcDbLine
 10
117.5325761453007
 20
54.82544830721725
 30
0.0
 11
160.1177802363474
 21
54.82544830721815
 31
0.0
  0
LINE
  5
12EE
330
1F
100
AcDbEntity
  8
izolace
  6
IZOLACE
 48
1.5
100
AcDbLine
 10
573.3839031165355
 20
58.11488150985258
 30
0.0
 11
634.530512555981
 21
58.13585709649067
 31
0.0
  0
TEXT
  5
12EF
330
1F
100
AcDbEntity
  8
POPIS
100
AcDbText
 10
-130.2706321164639
 20
411.175317890313
 30
0.0
 40
50.0
  1
Napojení příčky na zděnou (betonovou) stěnu
 41
0.85
  7
SIMPLEX7
100
AcDbText
  0
TEXT
  5
12F0
330
1F
100
AcDbEntity
  8
POPIS
100
AcDbText
 10
-130.2706321164639
 20
356.5505748645122
 30
0.0
 40
35.0
  1
PŮDORYS
 41
0.85
  7
SIMPLEX7
100
AcDbText
  0
HATCH
  5
12F1
330
1F
100
AcDbEntity
  8
izolace
100
AcDbHatch
 10
0.0
 20
0.0
 30
0.0
210
0.0
220
0.0
230
1.0
  2
AR-SAND
 70
     0
 71
     0
 91
        2
 92
        7
 72
     0
 73
     1
 93
        4
 10
115.534188762251
 20
95.61086250824827
 10
110.3161437810615
 20
95.61086250824827
 10
110.3161437810615
 20
83.61086250824826
 10
115.534188762251
 20
83.61086250824826
 97
        0
 92
        7
 72
     0
 73
     1
 93
        4
 10
115.534188762251
 20
32.37860822349864
 10
110.3161437810615
 20
32.37860822349864
 10
110.3161437810615
 20
20.37860822349864
 10
115.5341887622546
 20
20.37860822349864
 97
        0
 75
     0
 76
     1
 52
90.0
 41
0.05
 77
     0
 78
     4
 53
127.5
 43
-23431.18725415482
 44
-1392.886414749378
 45
-2.447066186646711
 46
-0.0800015647992021
 79
     6
 49
0.0
 49
-1.9304
 49
0.0
 49
-2.159
 49
0.0
 49
-2.06375
 53
97.49999999999992
 43
-23431.18725415482
 44
-1392.886414749378
 45
-3.584125502841771
 46
2.247616415690013
 79
     6
 49
0.0
 49
-1.0414
 49
0.0
 49
-1.7399
 49
0.0
 49
-0.6667500000000001
 53
57.5
 43
-23431.18725415482
 44
-1394.448514749378
 45
-0.0071859233927282
 46
3.95496185120729
 79
     6
 49
0.0
 49
-0.635
 49
0.0
 49
-2.286
 49
0.0
 49
-2.9845
 53
47.5
 43
-23431.18725415482
 44
-1394.448514749378
 45
-1.11464661628608
 46
3.817782262361486
 79
     6
 49
0.0
 49
-0.3175
 49
0.0
 49
-1.498599999999999
 49
0.0
 49
-1.7145
 47
0.4414942775221867
 98
        2
 10
112.8820331587105
 20
91.12556409462683
 10
113.32376795203
 20
25.78440580378935
  0
LWPOLYLINE
  5
12F2
330
1F
100
AcDbEntity
  8
izolace
100
AcDbPolyline
 90
        4
 70
     1
 43
0.0
 10
115.534188762251
 20
95.61086250824827
 10
110.3161437810615
 20
95.61086250824827
 10
110.3161437810615
 20
83.61086250824826
 10
115.534188762251
 20
83.61086250824826
  0
LWPOLYLINE
  5
12F3
330
1F
100
AcDbEntity
  8
izolace
100
AcDbPolyline
 90
        4
 70
     1
 43
0.0
 10
115.534188762251
 20
20.37860822349864
 10
110.3161437810615
 20
20.37860822349864
 10
110.3161437810615
 20
32.37860822349864
 10
115.534188762251
 20
32.37860822349864
  0
LINE
  5
12F4
330
1F
100
AcDbEntity
  8
STAVBA OBRYS
100
AcDbLine
 10
-126.4317472303935
 20
260.0858891661067
 30
0.0
 11
-126.4317472303935
 21
-90.83272676208219
 31
0.0
  0
LINE
  5
12F5
330
1F
100
AcDbEntity
  8
STAVBA OBRYS
100
AcDbLine
 10
-138.9317472303898
 20
260.0884408567802
 30
0.0
 11
-138.9317472303935
 21
-90.83272676208219
 31
0.0
  0
LINE
  5
12F6
330
1F
100
AcDbEntity
  8
STAVBA OBRYS
100
AcDbLine
 10
110.3161437810615
 20
26.37860822349864
 30
0.0
 11
110.3161437810615
 21
-90.83272676208219
 31
0.0
  0
LINE
  5
12F7
330
1F
100
AcDbEntity
  8
STAVBA OBRYS
100
AcDbLine
 10
97.9020812170113
 20
260.0858891661067
 30
0.0
 11
97.9020812170113
 21
-90.83272676208219
 31
0.0
  0
LINE
  5
12F8
330
1F
100
AcDbEntity
  8
SPOJOVACÍ
 48
0.25
100
AcDbLine
 10
74.22588681401089
 20
54.82544830721542
 30
0.0
 11
68.5764464732913
 21
58.35091473069076
 31
0.0
  0
LINE
  5
12F9
330
1F
100
AcDbEntity
  8
SPOJOVACÍ
 48
0.25
100
AcDbLine
 10
74.22588681400725
 20
61.87638115416518
 30
0.0
 11
68.5764464732913
 21
58.35091473069076
 31
0.0
  0
LINE
  5
12FA
330
1F
100
AcDbEntity
  8
CETRIS
100
AcDbLine
 10
115.5341887622473
 20
83.61086250824826
 30
0.0
 11
115.534188762251
 21
95.61086250824827
 31
0.0
  0
LINE
  5
12FB
330
1F
100
AcDbEntity
  8
CETRIS
100
AcDbLine
 10
115.5341887622473
 20
20.37860822349864
 30
0.0
 11
115.5341887622473
 21
32.37860822349864
 31
0.0
  0
HATCH
  5
12FC
330
1F
100
AcDbEntity
  8
izolace
100
AcDbHatch
 10
0.0
 20
0.0
 30
0.0
210
0.0
220
0.0
230
1.0
  2
SOLID
 70
     1
 71
     0
 91
        3
 92
        7
 72
     0
 73
     1
 93
        4
 10
113.3383902412226
 20
82.84562694655267
 10
111.3383902412263
 20
82.84562694655267
 10
111.3383902412226
 20
76.14490200902435
 10
113.3383902412226
 20
76.14490200902435
 97
        0
 92
        7
 72
     0
 73
     1
 93
        4
 10
113.3383902412226
 20
63.64382500204863
 10
111.3383902412226
 20
63.64382500204863
 10
111.3383902412226
 20
51.14274799507291
 10
113.3383902412226
 20
51.14274799507291
 97
        0
 92
        7
 72
     0
 73
     1
 93
        4
 10
113.3383902412263
 20
38.6416709880981
 10
111.338390241219
 20
38.6416709880981
 10
111.3383902412226
 20
32.8413189186507
 10
113.3383902412263
 20
32.8413189186507
 97
        0
 75
     0
 76
     1
 47
0.0846398039763049
 98
        3
 10
112.6320881961821
 20
77.97595095346366
 10
112.8014739118318
 20
61.3018975479066
 10
112.5474540305824
 20
38.11050088440277
  0
LWPOLYLINE
  5
12FD
330
1F
100
AcDbEntity
  8
izolace
100
AcDbPolyline
 90
        4
 70
     1
 43
0.0
 10
111.3383902412226
 20
63.64382500204863
 10
113.3383902412263
 20
63.64382500204863
 10
113.3383902412263
 20
76.14490200902435
 10
111.3383902412226
 20
76.14490200902435
  0
LWPOLYLINE
  5
12FE
330
1F
100
AcDbEntity
  8
izolace
100
AcDbPolyline
 90
        4
 70
     1
 43
0.0
 10
111.3383902412226
 20
38.6416709880981
 10
113.3383902412263
 20
38.6416709880981
 10
113.3383902412263
 20
51.14274799507291
 10
111.3383902412226
 20
51.14274799507291
  0
LINE
  5
12FF
330
1F
100
AcDbEntity
  8
izolace
100
AcDbLine
 10
111.3383902412299
 20
82.84562694655267
 30
0.0
 11
111.3383902412226
 21
32.8413189186507
 31
0.0
  0
LINE
  5
1300
330
1F
100
AcDbEntity
  8
izolace
100
AcDbLine
 10
113.3383902412263
 20
82.84562694655267
 30
0.0
 11
113.3383902412263
 21
32.8413189186507
 31
0.0
  0
LINE
  5
1301
330
1F
100
AcDbEntity
  8
STAVBA OBRYS
  6
IZOLACE
 48
3.0
100
AcDbLine
 10
-96.43174723039351
 20
260.0858891661067
 30
0.0
 11
-96.43174723039351
 21
-90.83272676208219
 31
0.0
  0
LINE
  5
1302
330
1F
100
AcDbEntity
  8
STAVBA OBRYS
100
AcDbLine
 10
-66.43174723039351
 20
260.0858891661067
 30
0.0
 11
-66.43174723039351
 21
-90.83272676208219
 31
0.0
  0
HATCH
  5
1303
330
1F
100
AcDbEntity
  8
STAVBA OBRYS
100
AcDbHatch
 10
0.0
 20
0.0
 30
0.0
210
0.0
220
0.0
230
1.0
  2
AR-CONC
 70
     0
 71
     0
 91
        1
 92
        7
 72
     0
 73
     1
 93
        4
 10
-126.4317472303935
 20
260.0877378935414
 10
-138.9317472303898
 20
260.0884408567802
 10
-138.9317472303898
 20
-90.83272676208128
 10
-126.4317472303935
 20
-90.83272676208219
 97
        0
 75
     0
 76
     1
 52
90.0
 41
0.1
 77
     0
 78
    13
 53
140.0
 43
-21721.99024944022
 44
-1804.090744337548
 45
1.593908553890309
 46
18.2184668996004
 79
     2
 49
1.905
 49
-20.955
 53
85.00000000000001
 43
-21721.99024944022
 44
-1804.090744337548
 45
-19.10566428821799
 46
-3.524282597566697
 79
     2
 49
1.524
 49
-16.764
 53
190.4509999999999
 43
-21721.85742444022
 44
-1802.572544337548
 45
-17.51166878202918
 46
14.69425016659592
 79
     2
 49
1.619
 49
-17.809
 53
136.1841999999999
 43
-21727.07024944022
 44
-1804.090744337548
 45
4.204232793272717
 46
27.10790408921299
 79
     2
 49
2.857499999999999
 49
-31.4325
 53
186.6355999999999
 43
-21726.71989944022
 44
-1801.831754337548
 45
-24.74255558900492
 46
23.74042344662371
 79
     2
 49
2.4285
 49
-26.7135
 53
81.18400000000004
 43
-21727.07024944022
 44
-1804.090744337548
 45
-24.74251178605976
 46
23.74046058139339
 79
     2
 49
2.286
 49
-25.146
 53
111.0
 43
-21725.80024944022
 44
-1801.550744337548
 45
10.22655185167625
 46
15.16148798353833
 79
     2
 49
1.905
 49
-20.955
 53
56.00000000000004
 43
-21725.80024944022
 44
-1801.550744337548
 45
-18.41879661223192
 46
6.180202834764708
 79
     2
 49
1.524
 49
-16.764
 53
161.4514
 43
-21724.94803944022
 44
-1800.287294337549
 45
-8.192285771605742
 46
21.34164907701245
 79
     2
 49
1.618999999999998
 49
-17.80899999999997
 53
127.5
 43
-21721.99024944022
 44
-1804.090744337548
 45
-8.455503887315311
 46
0.3088603250591822
 79
     6
 49
0.0
 49
-16.5608
 49
0.0
 49
-17.018
 49
0.0
 49
-16.8275
 53
97.49999999999992
 43
-21721.99024944022
 44
-1804.090744337548
 45
-10.01805748181195
 46
6.681966251030575
 79
     6
 49
0.0
 49
-9.702799999999999
 49
0.0
 49
-16.1798
 49
0.0
 49
-6.4135
 53
57.5
 43
-21721.99024944022
 44
-1809.754944337548
 45
0.5728743992673473
 46
13.55905951668713
 79
     6
 49
0.0
 49
-6.35
 49
0.0
 49
-19.812
 49
0.0
 49
-26.289
 53
47.5
 43
-21721.99024944022
 44
-1812.294944337548
 45
-2.5426491033333
 46
14.8129181386018
 79
     6
 49
0.0
 49
-8.255
 49
0.0
 49
-13.1572
 49
0.0
 49
-18.669
 47
1.012476867815381
 98
        3
 10
106.0214294745294
 20
-55.97110495792879
 10
101.9693120050926
 20
38.18924760989137
 10
-131.0275015823369
 20
18.95218806055925
  0
LINE
  5
1304
330
1F
100
AcDbEntity
  8
STAVBA OBRYS
100
AcDbLine
 10
110.3161437810615
 20
26.37860822349864
 30
0.0
 11
110.3161437810615
 21
260.0744190555273
 31
0.0
  0
HATCH
  5
1305
330
1F
100
AcDbEntity
  8
STAVBA OBRYS
100
AcDbHatch
 10
0.0
 20
0.0
 30
0.0
210
0.0
220
0.0
230
1.0
  2
AR-CONC
 70
     0
 71
     0
 91
        3
 92
        7
 72
     0
 73
     1
 93
        4
 10
110.4020812170112
 20
260.0744190555273
 10
97.90208121700766
 20
260.075122018767
 10
97.90208121700766
 20
84.63338551496816
 10
110.4020812170112
 20
89.8931059694827
 97
        0
 92
        7
 72
     0
 73
     1
 93
        4
 10
110.4020812170112
 20
26.37860822349773
 10
97.9020812170113
 20
31.638328678015
 10
97.9020812170113
 20
15.56863396598998
 10
110.4020812170076
 20
-1.527665069051749
 97
        0
 92
        7
 72
     0
 73
     1
 93
        4
 10
110.4020812170076
 20
-1.52766506904993
 10
97.9020812170113
 20
15.56863396598544
 10
97.9020812170113
 20
-90.83272676208128
 10
110.4020812170076
 20
-90.83272676208219
 97
        0
 75
     0
 76
     1
 52
90.0
 41
0.1
 77
     0
 78
    13
 53
140.0
 43
-21734.4875797425
 44
-1804.090744337548
 45
1.593908553890309
 46
18.2184668996004
 79
     2
 49
1.905
 49
-20.955
 53
85.00000000000001
 43
-21734.4875797425
 44
-1804.090744337548
 45
-19.10566428821799
 46
-3.524282597566697
 79
     2
 49
1.524
 49
-16.764
 53
190.4509999999999
 43
-21734.35475474251
 44
-1802.572544337548
 45
-17.51166878202918
 46
14.69425016659592
 79
     2
 49
1.619
 49
-17.809
 53
136.1841999999999
 43
-21739.5675797425
 44
-1804.090744337548
 45
4.204232793272717
 46
27.10790408921299
 79
     2
 49
2.857499999999999
 49
-31.4325
 53
186.6355999999999
 43
-21739.21722974251
 44
-1801.831754337548
 45
-24.74255558900492
 46
23.74042344662371
 79
     2
 49
2.4285
 49
-26.7135
 53
81.18400000000004
 43
-21739.5675797425
 44
-1804.090744337548
 45
-24.74251178605976
 46
23.74046058139339
 79
     2
 49
2.286
 49
-25.146
 53
111.0
 43
-21738.2975797425
 44
-1801.550744337548
 45
10.22655185167625
 46
15.16148798353833
 79
     2
 49
1.905
 49
-20.955
 53
56.00000000000004
 43
-21738.2975797425
 44
-1801.550744337548
 45
-18.41879661223192
 46
6.180202834764708
 79
     2
 49
1.524
 49
-16.764
 53
161.4514
 43
-21737.4453697425
 44
-1800.287294337549
 45
-8.192285771605742
 46
21.34164907701245
 79
     2
 49
1.618999999999999
 49
-17.80899999999998
 53
127.5
 43
-21734.4875797425
 44
-1804.090744337548
 45
-8.455503887315311
 46
0.3088603250591822
 79
     6
 49
0.0
 49
-16.5608
 49
0.0
 49
-17.018
 49
0.0
 49
-16.8275
 53
97.49999999999996
 43
-21734.4875797425
 44
-1804.090744337548
 45
-10.01805748181195
 46
6.681966251030575
 79
     6
 49
0.0
 49
-9.702799999999999
 49
0.0
 49
-16.1798
 49
0.0
 49
-6.4135
 53
57.5
 43
-21734.4875797425
 44
-1809.754944337548
 45
0.5728743992673473
 46
13.55905951668713
 79
     6
 49
0.0
 49
-6.35
 49
0.0
 49
-19.812
 49
0.0
 49
-26.289
 53
47.5
 43
-21734.4875797425
 44
-1812.294944337548
 45
-2.5426491033333
 46
14.8129181386018
 79
     6
 49
0.0
 49
-8.255
 49
0.0
 49
-13.1572
 49
0.0
 49
-18.669
 47
0.7649822313258392
 98
        3
 10
104.6810849669329
 20
114.8535423516062
 10
104.6810849669329
 20
19.23076265324323
 10
101.619481686763
 20
-18.25336733913502
  0
HATCH
  5
1306
330
1F
100
AcDbEntity
  8
STAVBA OBRYS
100
AcDbHatch
 10
0.0
 20
0.0
 30
0.0
210
0.0
220
0.0
230
1.0
  2
BRICK
 70
     0
 71
     0
 91
        1
 92
        7
 72
     0
 73
     1
 93
       10
 10
97.9020812170113
 20
260.075122018767
 10
-66.43174723039351
 20
260.0843636699941
 10
-66.43174723039351
 20
-90.83272676208219
 10
97.9020812170113
 20
-90.83272676208128
 10
97.90208121701494
 20
15.56863396598544
 10
69.19936735716169
 20
54.82544830721542
 10
51.6085705498865
 20
54.82544830721542
 10
45.95913020916691
 20
58.35091473069258
 10
51.60857054988287
 20
61.87638115416518
 10
97.90208121700766
 20
61.87638115416518
 97
        0
 75
     0
 76
     1
 52
0.0
 41
10.0
 77
     0
 78
     3
 53
0.0
 43
-21734.4875797425
 44
-1804.090744337548
 45
0.0
 46
63.5
 79
     0
 53
90.0
 43
-21734.4875797425
 44
-1804.090744337548
 45
-127.0
 46
0.0000000000000078
 79
     2
 49
63.5
 49
-63.5
 53
90.0
 43
-21670.98757974251
 44
-1804.090744337548
 45
-127.0
 46
0.0000000000000078
 79
     2
 49
-63.5
 49
63.5
 47
1.934738201277294
 98
        1
 10
15.8223285302613
 20
75.97274832116579
  0
ENDSEC
  0
SECTION
  2
OBJECTS
  0
DICTIONARY
  5
C
330
0
100
AcDbDictionary
281
     1
  3
ACAD_GROUP
350
D
  3
ACAD_LAYOUT
350
1A
  3
ACAD_MLINESTYLE
350
17
  3
ACAD_PLOTSETTINGS
350
19
  3
ACAD_PLOTSTYLENAME
350
E
  0
DICTIONARY
  5
D
102
{ACAD_REACTORS
330
C
102
}
330
C
100
AcDbDictionary
281
     1
  0
DICTIONARY
  5
1A
102
{ACAD_REACTORS
330
C
102
}
330
C
100
AcDbDictionary
281
     1
  3
Model
350
22
  3
Rozvržení1
350
1E
  3
Rozvržení2
350
26
  0
DICTIONARY
  5
17
102
{ACAD_REACTORS
330
C
102
}
330
C
100
AcDbDictionary
281
     1
  3
Standard
350
18
  0
DICTIONARY
  5
19
102
{ACAD_REACTORS
330
C
102
}
330
C
100
AcDbDictionary
281
     1
  0
ACDBDICTIONARYWDFLT
  5
E
102
{ACAD_REACTORS
330
C
102
}
330
C
100
AcDbDictionary
281
     1
  3
Normal
350
F
100
AcDbDictionaryWithDefault
340
F
  0
LAYOUT
  5
22
102
{ACAD_REACTORS
330
1A
102
}
330
1A
100
AcDbPlotSettings
  1

  2
HP DeskJet 690C
  4

  6

 40
0.0
 41
0.0
 42
0.0
 43
0.0
 44
0.0
 45
0.0
 46
0.0
 47
0.0
 48
0.0
 49
0.0
140
0.0
141
0.0
142
1.0
143
1.0
 70
  1712
 72
     0
 73
     0
 74
     0
  7
monochrome.ctb
 75
     0
147
1.0
148
0.0
149
0.0
100
AcDbLayout
  1
Model
 70
     1
 71
     0
 10
0.0
 20
0.0
 11
12.0
 21
9.0
 12
0.0
 22
0.0
 32
0.0
 14
0.0
 24
0.0
 34
0.0
 15
0.0
 25
0.0
 35
0.0
146
0.0
 13
0.0
 23
0.0
 33
0.0
 16
1.0
 26
0.0
 36
0.0
 17
0.0
 27
1.0
 37
0.0
 76
     0
330
1F
  0
LAYOUT
  5
1E
102
{ACAD_REACTORS
330
1A
102
}
330
1A
100
AcDbPlotSettings
  1

  2
HP DeskJet 690C
  4

  6

 40
0.0
 41
0.0
 42
0.0
 43
0.0
 44
0.0
 45
0.0
 46
0.0
 47
0.0
 48
0.0
 49
0.0
140
0.0
141
0.0
142
1.0
143
1.0
 70
   688
 72
     0
 73
     0
 74
     5
  7
monochrome.ctb
 75
    16
147
1.0
148
0.0
149
0.0
100
AcDbLayout
  1
Rozvržení1
 70
     1
 71
     1
 10
0.0
 20
0.0
 11
420.0
 21
297.0
 12
0.0
 22
0.0
 32
0.0
 14
1.000000000000000E+20
 24
1.000000000000000E+20
 34
1.000000000000000E+20
 15
-1.000000000000000E+20
 25
-1.000000000000000E+20
 35
-1.000000000000000E+20
146
0.0
 13
0.0
 23
0.0
 33
0.0
 16
1.0
 26
0.0
 36
0.0
 17
0.0
 27
1.0
 37
0.0
 76
     0
330
1B
  0
LAYOUT
  5
26
102
{ACAD_REACTORS
330
1A
102
}
330
1A
100
AcDbPlotSettings
  1

  2
HP DeskJet 690C
  4

  6

 40
0.0
 41
0.0
 42
0.0
 43
0.0
 44
0.0
 45
0.0
 46
0.0
 47
0.0
 48
0.0
 49
0.0
140
0.0
141
0.0
142
1.0
143
1.0
 70
   688
 72
     0
 73
     0
 74
     5
  7
monochrome.ctb
 75
    16
147
1.0
148
0.0
149
0.0
100
AcDbLayout
  1
Rozvržení2
 70
     1
 71
     2
 10
0.0
 20
0.0
 11
12.0
 21
9.0
 12
0.0
 22
0.0
 32
0.0
 14
0.0
 24
0.0
 34
0.0
 15
0.0
 25
0.0
 35
0.0
146
0.0
 13
0.0
 23
0.0
 33
0.0
 16
1.0
 26
0.0
 36
0.0
 17
0.0
 27
1.0
 37
0.0
 76
     0
330
23
  0
MLINESTYLE
  5
18
102
{ACAD_REACTORS
330
17
102
}
330
17
100
AcDbMlineStyle
  2
STANDARD
 70
     0
  3

 62
   256
 51
90.0
 52
90.0
 71
     2
 49
0.5
 62
   256
  6
BYLAYER
 49
-0.5
 62
   256
  6
BYLAYER
  0
ACDBPLACEHOLDER
  5
F
102
{ACAD_REACTORS
330
E
102
}
330
E
  0
ENDSEC
  0
EOF
