  0
SECTION
  2
HEADER
  9
$ACADVER
  1
AC1014
  9
$ACADMAINTVER
 70
     9
  9
$DWGCODEPAGE
  3
ANSI_1250
  9
$INSBASE
 10
0.0
 20
0.0
 30
0.0
  9
$EXTMIN
 10
10.72873036400074
 20
105.9293576852135
 30
0.0
  9
$EXTMAX
 10
1275.782246041599
 20
759.9120610855882
 30
0.0
  9
$LIMMIN
 10
0.0
 20
0.0
  9
$LIMMAX
 10
420.0
 20
297.0
  9
$ORTHOMODE
 70
     1
  9
$REGENMODE
 70
     1
  9
$FILLMODE
 70
     1
  9
$QTEXTMODE
 70
     0
  9
$MIRRTEXT
 70
     1
  9
$DRAGMODE
 70
     2
  9
$LTSCALE
 40
1.0
  9
$OSMODE
 70
   167
  9
$ATTMODE
 70
     1
  9
$TEXTSIZE
 40
2.5
  9
$TRACEWID
 40
1.0
  9
$TEXTSTYLE
  7
STANDARD
  9
$CLAYER
  8
0
  9
$CELTYPE
  6
BYLAYER
  9
$CECOLOR
 62
   256
  9
$CELTSCALE
 40
1.0
  9
$DELOBJ
 70
     1
  9
$DISPSILH
 70
     0
  9
$DIMSCALE
 40
1.0
  9
$DIMASZ
 40
2.5
  9
$DIMEXO
 40
0.625
  9
$DIMDLI
 40
3.75
  9
$DIMRND
 40
0.0
  9
$DIMDLE
 40
0.0
  9
$DIMEXE
 40
1.25
  9
$DIMTP
 40
0.0
  9
$DIMTM
 40
0.0
  9
$DIMTXT
 40
2.5
  9
$DIMCEN
 40
2.5
  9
$DIMTSZ
 40
0.0
  9
$DIMTOL
 70
     0
  9
$DIMLIM
 70
     0
  9
$DIMTIH
 70
     0
  9
$DIMTOH
 70
     0
  9
$DIMSE1
 70
     0
  9
$DIMSE2
 70
     0
  9
$DIMTAD
 70
     1
  9
$DIMZIN
 70
     8
  9
$DIMBLK
  1

  9
$DIMASO
 70
     1
  9
$DIMSHO
 70
     1
  9
$DIMPOST
  1

  9
$DIMAPOST
  1

  9
$DIMALT
 70
     0
  9
$DIMALTD
 70
     3
  9
$DIMALTF
 40
0.03937007874016
  9
$DIMLFAC
 40
1.0
  9
$DIMTOFL
 70
     1
  9
$DIMTVP
 40
0.0
  9
$DIMTIX
 70
     0
  9
$DIMSOXD
 70
     0
  9
$DIMSAH
 70
     0
  9
$DIMBLK1
  1

  9
$DIMBLK2
  1

  9
$DIMSTYLE
  2
ISO-25
  9
$DIMCLRD
 70
     0
  9
$DIMCLRE
 70
     0
  9
$DIMCLRT
 70
     0
  9
$DIMTFAC
 40
1.0
  9
$DIMGAP
 40
0.625
  9
$DIMJUST
 70
     0
  9
$DIMSD1
 70
     0
  9
$DIMSD2
 70
     0
  9
$DIMTOLJ
 70
     0
  9
$DIMTZIN
 70
     8
  9
$DIMALTZ
 70
     0
  9
$DIMALTTZ
 70
     0
  9
$DIMFIT
 70
     3
  9
$DIMUPT
 70
     0
  9
$DIMUNIT
 70
     2
  9
$DIMDEC
 70
     2
  9
$DIMTDEC
 70
     2
  9
$DIMALTU
 70
     2
  9
$DIMALTTD
 70
     3
  9
$DIMTXSTY
  7
STANDARD
  9
$DIMAUNIT
 70
     0
  9
$LUNITS
 70
     2
  9
$LUPREC
 70
     4
  9
$SKETCHINC
 40
1.0
  9
$FILLETRAD
 40
10.0
  9
$AUNITS
 70
     0
  9
$AUPREC
 70
     0
  9
$MENU
  1
.
  9
$ELEVATION
 40
0.0
  9
$PELEVATION
 40
0.0
  9
$THICKNESS
 40
0.0
  9
$LIMCHECK
 70
     0
  9
$BLIPMODE
 70
     0
  9
$CHAMFERA
 40
10.0
  9
$CHAMFERB
 40
10.0
  9
$CHAMFERC
 40
20.0
  9
$CHAMFERD
 40
0.0
  9
$SKPOLY
 70
     0
  9
$TDCREATE
 40
2452333.440837384
  9
$TDUPDATE
 40
2452653.350406527
  9
$TDINDWG
 40
0.0027219213
  9
$TDUSRTIMER
 40
0.0027206481
  9
$USRTIMER
 70
     1
  9
$ANGBASE
 50
0.0
  9
$ANGDIR
 70
     0
  9
$PDMODE
 70
     0
  9
$PDSIZE
 40
0.0
  9
$PLINEWID
 40
0.0
  9
$COORDS
 70
     1
  9
$SPLFRAME
 70
     0
  9
$SPLINETYPE
 70
     6
  9
$SPLINESEGS
 70
     8
  9
$ATTDIA
 70
     0
  9
$ATTREQ
 70
     1
  9
$HANDLING
 70
-16383
  9
$HANDSEED
  5
7DA
  9
$SURFTAB1
 70
     6
  9
$SURFTAB2
 70
     6
  9
$SURFTYPE
 70
     6
  9
$SURFU
 70
     6
  9
$SURFV
 70
     6
  9
$UCSNAME
  2

  9
$UCSORG
 10
0.0
 20
0.0
 30
0.0
  9
$UCSXDIR
 10
1.0
 20
0.0
 30
0.0
  9
$UCSYDIR
 10
0.0
 20
1.0
 30
0.0
  9
$PUCSNAME
  2

  9
$PUCSORG
 10
0.0
 20
0.0
 30
0.0
  9
$PUCSXDIR
 10
1.0
 20
0.0
 30
0.0
  9
$PUCSYDIR
 10
0.0
 20
1.0
 30
0.0
  9
$USERI1
 70
     0
  9
$USERI2
 70
     0
  9
$USERI3
 70
     0
  9
$USERI4
 70
     0
  9
$USERI5
 70
     0
  9
$USERR1
 40
0.0
  9
$USERR2
 40
0.0
  9
$USERR3
 40
0.0
  9
$USERR4
 40
0.0
  9
$USERR5
 40
0.0
  9
$WORLDVIEW
 70
     1
  9
$SHADEDGE
 70
     3
  9
$SHADEDIF
 70
    70
  9
$TILEMODE
 70
     1
  9
$MAXACTVP
 70
    64
  9
$PINSBASE
 10
0.0
 20
0.0
 30
0.0
  9
$PLIMCHECK
 70
     0
  9
$PEXTMIN
 10
1.000000000000000E+20
 20
1.000000000000000E+20
 30
1.000000000000000E+20
  9
$PEXTMAX
 10
-1.000000000000000E+20
 20
-1.000000000000000E+20
 30
-1.000000000000000E+20
  9
$PLIMMIN
 10
0.0
 20
0.0
  9
$PLIMMAX
 10
420.0
 20
297.0
  9
$UNITMODE
 70
     0
  9
$VISRETAIN
 70
     1
  9
$PLINEGEN
 70
     0
  9
$PSLTSCALE
 70
     1
  9
$TREEDEPTH
 70
  3020
  9
$PICKSTYLE
 70
     1
  9
$CMLSTYLE
  2
STANDARD
  9
$CMLJUST
 70
     0
  9
$CMLSCALE
 40
20.0
  9
$PROXYGRAPHICS
 70
     1
  9
$MEASUREMENT
 70
     1
  0
ENDSEC
  0
SECTION
  2
CLASSES
  0
CLASS
  1
ACDBDICTIONARYWDFLT
  2
AcDbDictionaryWithDefault
  3
AutoCAD 2000
 90
        0
280
     0
281
     0
  0
CLASS
  1
ACDBPLACEHOLDER
  2
AcDbPlaceHolder
  3
AutoCAD 2000
 90
        0
280
     0
281
     0
  0
CLASS
  1
LAYOUT
  2
AcDbLayout
  3
AutoCAD 2000
 90
        0
280
     0
281
     0
  0
CLASS
  1
LONG_TRANSACTION
  2
AcDbLongTransaction
  3
AutoCAD 2000
 90
        0
280
     0
281
     0
  0
CLASS
  1
LWPOLYLINE
  2
AcDbPolyline
  3
AutoCAD 2000
 90
        0
280
     0
281
     1
  0
CLASS
  1
HATCH
  2
AcDbHatch
  3
AutoCAD 2000
 90
        0
280
     0
281
     1
  0
CLASS
  1
XRECORD
  2
AcDbXrecord
  3
AutoCAD 2000
 90
        0
280
     0
281
     0
  0
ENDSEC
  0
SECTION
  2
TABLES
  0
TABLE
  2
VPORT
  5
8
330
0
100
AcDbSymbolTable
 70
     2
  0
VPORT
  5
7B2
330
8
100
AcDbSymbolTableRecord
100
AcDbViewportTableRecord
  2
*ACTIVE
 70
     0
 10
0.0
 20
0.0
 11
1.0
 21
1.0
 12
634.8253202967093
 22
425.1482096929146
 13
0.0
 23
0.0
 14
10.0
 24
10.0
 15
10.0
 25
10.0
 16
0.0
 26
0.0
 36
1.0
 17
0.0
 27
0.0
 37
0.0
 40
656.5562315340927
 41
1.974409448818897
 42
50.0
 43
0.0
 44
0.0
 50
0.0
 51
0.0
 71
     0
 72
   100
 73
     1
 74
     3
 75
     0
 76
     0
 77
     0
 78
     0
  0
ENDTAB
  0
TABLE
  2
LTYPE
  5
5
330
0
100
AcDbSymbolTable
 70
     5
  0
LTYPE
  5
14
330
5
100
AcDbSymbolTableRecord
100
AcDbLinetypeTableRecord
  2
BYBLOCK
 70
     0
  3

 72
    65
 73
     0
 40
0.0
  0
LTYPE
  5
15
330
5
100
AcDbSymbolTableRecord
100
AcDbLinetypeTableRecord
  2
BYLAYER
 70
     0
  3

 72
    65
 73
     0
 40
0.0
  0
LTYPE
  5
16
330
5
100
AcDbSymbolTableRecord
100
AcDbLinetypeTableRecord
  2
CONTINUOUS
 70
     0
  3
Solid line
 72
    65
 73
     0
 40
0.0
  0
LTYPE
  5
33
330
5
100
AcDbSymbolTableRecord
100
AcDbLinetypeTableRecord
  2
DASHED
 70
     0
  3
Dashed __ __ __ __ __ __ __ __ __ __ __ __ __ _
 72
    65
 73
     2
 40
19.04999999999999
 49
12.7
 74
     0
 49
-6.349999999999999
 74
     0
  0
LTYPE
  5
34
330
5
100
AcDbSymbolTableRecord
100
AcDbLinetypeTableRecord
  2
DASHDOT2
 70
     0
  3
Dash dot (.5x) _._._._._._._._._._._._._._._.
 72
    65
 73
     4
 40
12.7
 49
6.349999999999999
 74
     0
 49
-3.174999999999999
 74
     0
 49
0.0
 74
     0
 49
-3.174999999999999
 74
     0
  0
LTYPE
  5
35
330
5
100
AcDbSymbolTableRecord
100
AcDbLinetypeTableRecord
  2
CIKCAK
 70
     0
  3
Cik-cak /\/\/\/\/\/\/\/\/\/\/\/\/\/\/\/\/\/\/\/
 72
    65
 73
     4
 40
20.32254
 49
0.00254
 74
     0
 49
-5.08
 74
     4
 75
   131
340
3E
 46
5.08
 50
0.0
 44
-5.08
 45
0.0
 49
-10.16
 74
     4
 75
   131
340
3E
 46
5.08
 50
180.0
 44
5.08
 45
0.0
 49
-5.08
 74
     0
  0
LTYPE
  5
36
330
5
100
AcDbSymbolTableRecord
100
AcDbLinetypeTableRecord
  2
IZOLACE
 70
     0
  3
Izolace SSSSSSSSSSSSSSSSSSSSSSSSSSSSSSSSSSSSSSS
 72
    65
 73
     4
 40
10.16253999999999
 49
0.00254
 74
     0
 49
-2.54
 74
     4
 75
   134
340
3E
 46
2.54
 50
0.0
 44
-2.54
 45
0.0
 49
-5.08
 74
     4
 75
   134
340
3E
 46
2.54
 50
180.0
 44
2.54
 45
0.0
 49
-2.54
 74
     0
  0
ENDTAB
  0
TABLE
  2
LAYER
  5
2
330
0
100
AcDbSymbolTable
 70
     7
  0
LAYER
  5
10
330
2
100
AcDbSymbolTableRecord
100
AcDbLayerTableRecord
  2
0
 70
     0
 62
     7
  6
CONTINUOUS
  0
LAYER
  5
37
330
2
100
AcDbSymbolTableRecord
100
AcDbLayerTableRecord
  2
POPIS
 70
     0
 62
    30
  6
CONTINUOUS
  0
LAYER
  5
38
330
2
100
AcDbSymbolTableRecord
100
AcDbLayerTableRecord
  2
SPOJOVACÍ
 70
     0
 62
   180
  6
CONTINUOUS
  0
LAYER
  5
39
330
2
100
AcDbSymbolTableRecord
100
AcDbLayerTableRecord
  2
CETRIS
 70
     0
 62
     1
  6
CONTINUOUS
  0
LAYER
  5
3A
330
2
100
AcDbSymbolTableRecord
100
AcDbLayerTableRecord
  2
NOSNÉ_KONSTRUKCE
 70
     0
 62
    33
  6
CONTINUOUS
  0
LAYER
  5
3B
330
2
100
AcDbSymbolTableRecord
100
AcDbLayerTableRecord
  2
IZOLACE
 70
     0
 62
    73
  6
CONTINUOUS
  0
LAYER
  5
3C
330
2
100
AcDbSymbolTableRecord
100
AcDbLayerTableRecord
  2
STAVBA_OBRYS
 70
     0
 62
     6
  6
CONTINUOUS
  0
ENDTAB
  0
TABLE
  2
STYLE
  5
3
330
0
100
AcDbSymbolTable
 70
     3
  0
STYLE
  5
11
330
3
100
AcDbSymbolTableRecord
100
AcDbTextStyleTableRecord
  2
STANDARD
 70
     0
 40
0.0
 41
1.0
 50
0.0
 71
     0
 42
2.5
  3
txt
  4

  0
STYLE
  5
3D
330
3
100
AcDbSymbolTableRecord
100
AcDbTextStyleTableRecord
  2
SIMPLEX7
 70
     0
 40
0.0
 41
0.85
 50
0.0
 71
     0
 42
102.0
  3

  4

1001
ACAD
1000
Arial CE
1071
    60962
  0
STYLE
  5
3E
330
3
100
AcDbSymbolTableRecord
100
AcDbTextStyleTableRecord
  2

 70
     1
 40
0.0
 41
1.0
 50
0.0
 71
     0
 42
2.5
  3
ltypeshp.shx
  4

  0
ENDTAB
  0
TABLE
  2
VIEW
  5
6
330
0
100
AcDbSymbolTable
 70
     0
  0
ENDTAB
  0
TABLE
  2
UCS
  5
7
330
0
100
AcDbSymbolTable
 70
     0
  0
ENDTAB
  0
TABLE
  2
APPID
  5
9
330
0
100
AcDbSymbolTable
 70
     1
  0
APPID
  5
12
330
9
100
AcDbSymbolTableRecord
100
AcDbRegAppTableRecord
  2
ACAD
 70
     0
  0
ENDTAB
  0
TABLE
  2
DIMSTYLE
  5
A
330
0
100
AcDbSymbolTable
 70
     1
  0
DIMSTYLE
105
27
330
A
100
AcDbSymbolTableRecord
100
AcDbDimStyleTableRecord
  2
ISO-25
 70
     0
  3

  4

  5

  6

  7

 40
1.0
 41
2.5
 42
0.625
 43
3.75
 44
1.25
 45
0.0
 46
0.0
 47
0.0
 48
0.0
140
2.5
141
2.5
142
0.0
143
0.03937007874016
144
1.0
145
0.0
146
1.0
147
0.625
 71
     0
 72
     0
 73
     0
 74
     0
 75
     0
 76
     0
 77
     1
 78
     8
170
     0
171
     3
172
     1
173
     0
174
     0
175
     0
176
     0
177
     0
178
     0
270
     2
271
     2
272
     2
273
     2
274
     3
340
11
275
     0
280
     0
281
     0
282
     0
283
     0
284
     8
285
     0
286
     0
287
     3
288
     0
  0
ENDTAB
  0
TABLE
  2
BLOCK_RECORD
  5
1
330
0
100
AcDbSymbolTable
 70
     2
  0
BLOCK_RECORD
  5
1F
102
{ACAD_XDICTIONARY
360
7D6
102
}
330
1
100
AcDbSymbolTableRecord
100
AcDbBlockTableRecord
  2
*MODEL_SPACE
  0
BLOCK_RECORD
  5
1B
102
{ACAD_XDICTIONARY
360
7D4
102
}
330
1
100
AcDbSymbolTableRecord
100
AcDbBlockTableRecord
  2
*PAPER_SPACE
  0
BLOCK_RECORD
  5
2B
330
1
100
AcDbSymbolTableRecord
100
AcDbBlockTableRecord
  2
E_PUNKT
  0
ENDTAB
  0
ENDSEC
  0
SECTION
  2
BLOCKS
  0
BLOCK
  5
20
330
1F
100
AcDbEntity
  8
0
100
AcDbBlockBegin
  2
*MODEL_SPACE
 70
     0
 10
0.0
 20
0.0
 30
0.0
  3
*MODEL_SPACE
  1

  0
ENDBLK
  5
21
330
1F
100
AcDbEntity
  8
0
100
AcDbBlockEnd
  0
BLOCK
  5
1C
330
1B
100
AcDbEntity
 67
     1
  8
0
100
AcDbBlockBegin
  2
*PAPER_SPACE
 70
     0
 10
0.0
 20
0.0
 30
0.0
  3
*PAPER_SPACE
  1

  0
ENDBLK
  5
1D
330
1B
100
AcDbEntity
 67
     1
  8
0
100
AcDbBlockEnd
  0
BLOCK
  5
2D
330
2B
100
AcDbEntity
  8
0
100
AcDbBlockBegin
  2
E_PUNKT
 70
     0
 10
0.0
 20
0.0
 30
0.0
  3
E_PUNKT
  1

  0
LWPOLYLINE
  5
2C
330
2B
100
AcDbEntity
  8
POPIS
100
AcDbPolyline
 90
        2
 70
     1
 43
2.5
 10
1.27761037562675
 20
0.0290683308725193
 42
-1.0
 10
-1.222389624373249
 20
0.0290683308725193
 42
-1.0
  0
ENDBLK
  5
2E
330
2B
100
AcDbEntity
  8
0
100
AcDbBlockEnd
  0
ENDSEC
  0
SECTION
  2
ENTITIES
  0
LINE
  5
3F4
330
1F
100
AcDbEntity
  8
SPOJOVACÍ
  6
CONTINUOUS
100
AcDbLine
 10
122.4467633846145
 20
305.0628875384247
 30
0.0
 11
121.0237252231565
 21
299.370734892582
 31
0.0
  0
LINE
  5
3F5
330
1F
100
AcDbEntity
  8
SPOJOVACÍ
  6
CONTINUOUS
100
AcDbLine
 10
122.4467633846145
 20
305.0628875384247
 30
0.0
 11
122.1886308810792
 21
304.6150166105173
 31
0.0
  0
LINE
  5
3F6
330
1F
100
AcDbEntity
  8
SPOJOVACÍ
  6
CONTINUOUS
100
AcDbLine
 10
122.4467633846145
 20
305.0628875384247
 30
0.0
 11
122.8957374405038
 21
304.6150166105173
 31
0.0
  0
LINE
  5
3F7
330
1F
100
AcDbEntity
  8
SPOJOVACÍ
  6
CONTINUOUS
100
AcDbLine
 10
121.0237252231565
 20
299.370734892582
 30
0.0
 11
120.5758542978367
 21
299.8186058153125
 31
0.0
  0
LINE
  5
3F8
330
1F
100
AcDbEntity
  8
SPOJOVACÍ
  6
CONTINUOUS
100
AcDbLine
 10
121.0237252231565
 20
299.370734892582
 30
0.0
 11
121.2829608572576
 21
299.8186058153125
 31
0.0
  0
LINE
  5
3F9
330
1F
100
AcDbEntity
  8
SPOJOVACÍ
  6
CONTINUOUS
100
AcDbLine
 10
122.1886308810792
 20
304.6150166105173
 30
0.0
 11
120.5758542978367
 21
299.8186058153125
 31
0.0
  0
LINE
  5
3FA
330
1F
100
AcDbEntity
  8
SPOJOVACÍ
  6
CONTINUOUS
100
AcDbLine
 10
122.8957374405038
 20
304.6150166105173
 30
0.0
 11
121.2829608572576
 21
299.8186058153125
 31
0.0
  0
LINE
  5
3FB
330
1F
100
AcDbEntity
  8
SPOJOVACÍ
  6
CONTINUOUS
100
AcDbLine
 10
125.8427532988646
 20
305.0628875384247
 30
0.0
 11
124.4197151374066
 21
299.370734892582
 31
0.0
  0
LINE
  5
3FC
330
1F
100
AcDbEntity
  8
SPOJOVACÍ
  6
CONTINUOUS
100
AcDbLine
 10
125.8427532988646
 20
305.0628875384247
 30
0.0
 11
125.5846207953293
 21
304.6150166105173
 31
0.0
  0
LINE
  5
3FD
330
1F
100
AcDbEntity
  8
SPOJOVACÍ
  6
CONTINUOUS
100
AcDbLine
 10
125.8427532988646
 20
305.0628875384247
 30
0.0
 11
126.2917273547539
 21
304.6150166105173
 31
0.0
  0
LINE
  5
3FE
330
1F
100
AcDbEntity
  8
SPOJOVACÍ
  6
CONTINUOUS
100
AcDbLine
 10
124.4197151374066
 20
299.370734892582
 30
0.0
 11
123.9718442120868
 21
299.8186058153125
 31
0.0
  0
LINE
  5
3FF
330
1F
100
AcDbEntity
  8
SPOJOVACÍ
  6
CONTINUOUS
100
AcDbLine
 10
124.4197151374066
 20
299.370734892582
 30
0.0
 11
124.6789507715077
 21
299.8186058153125
 31
0.0
  0
LINE
  5
400
330
1F
100
AcDbEntity
  8
SPOJOVACÍ
  6
CONTINUOUS
100
AcDbLine
 10
125.5846207953293
 20
304.6150166105173
 30
0.0
 11
123.9718442120868
 21
299.8186058153125
 31
0.0
  0
LINE
  5
401
330
1F
100
AcDbEntity
  8
SPOJOVACÍ
  6
CONTINUOUS
100
AcDbLine
 10
126.2917273547539
 20
304.6150166105173
 30
0.0
 11
124.6789507715077
 21
299.8186058153125
 31
0.0
  0
LINE
  5
402
330
1F
100
AcDbEntity
  8
SPOJOVACÍ
100
AcDbLine
 10
169.9192496768994
 20
308.9668112155043
 30
0.0
 11
169.9192496768994
 21
295.4668112155043
 31
0.0
  0
LINE
  5
403
330
1F
100
AcDbEntity
  8
SPOJOVACÍ
100
AcDbLine
 10
171.360838043369
 20
308.9668112155043
 30
0.0
 11
171.360838043369
 21
295.4668112155043
 31
0.0
  0
LINE
  5
404
330
1F
100
AcDbEntity
  8
SPOJOVACÍ
100
AcDbLine
 10
171.360838043369
 20
295.4668112155043
 30
0.0
 11
169.9192496768994
 21
295.4668112155043
 31
0.0
  0
LINE
  5
405
330
1F
100
AcDbEntity
  8
SPOJOVACÍ
100
AcDbLine
 10
171.360838043369
 20
308.9668112155043
 30
0.0
 11
169.9192496768994
 21
308.9668112155043
 31
0.0
  0
LINE
  5
406
330
1F
100
AcDbEntity
  8
SPOJOVACÍ
100
AcDbLine
 10
169.9192496768994
 20
295.4668112155043
 30
0.0
 11
170.7961602990328
 21
295.4668112155043
 31
0.0
  0
LINE
  5
407
330
1F
100
AcDbEntity
  8
SPOJOVACÍ
100
AcDbLine
 10
169.9192496768994
 20
295.4668112155043
 30
0.0
 11
166.7366153743207
 21
300.5058737155034
 31
0.0
  0
LINE
  5
408
330
1F
100
AcDbEntity
  8
SPOJOVACÍ
  6
DASHED
100
AcDbLine
 10
169.9192496768994
 20
308.9668112155043
 30
0.0
 11
166.7366153743244
 21
303.9277487155034
 31
0.0
  0
LINE
  5
409
330
1F
100
AcDbEntity
  8
SPOJOVACÍ
100
AcDbLine
 10
169.9192496768994
 20
308.9668112155043
 30
0.0
 11
170.7961602990328
 21
308.9668112155043
 31
0.0
  0
LINE
  5
40A
330
1F
100
AcDbEntity
  8
SPOJOVACÍ
100
AcDbLine
 10
170.7961602990328
 20
308.9668112155043
 30
0.0
 11
169.9192496768994
 21
308.9668112155043
 31
0.0
  0
LINE
  5
40B
330
1F
100
AcDbEntity
  8
SPOJOVACÍ
  6
DASHED
100
AcDbLine
 10
125.2974542217891
 20
305.7422776389796
 30
0.0
 11
167.8826583128395
 21
305.7422776389796
 31
0.0
  0
LINE
  5
40C
330
1F
100
AcDbEntity
  8
SPOJOVACÍ
  6
DASHED
100
AcDbLine
 10
88.22434738798278
 20
303.9277487155043
 30
0.0
 11
166.7366153743244
 21
303.9277487155034
 31
0.0
  0
LINE
  5
40D
330
1F
100
AcDbEntity
  8
SPOJOVACÍ
  6
DASHED
100
AcDbLine
 10
88.22434738797552
 20
300.5058737155034
 30
0.0
 11
166.7366153743207
 21
300.5058737155034
 31
0.0
  0
LINE
  5
40E
330
1F
100
AcDbEntity
  8
SPOJOVACÍ
  6
DASHED
100
AcDbLine
 10
125.2974542217928
 20
298.6913447920308
 30
0.0
 11
167.8826583128395
 21
298.6913447920317
 31
0.0
  0
LINE
  5
40F
330
1F
100
AcDbEntity
  8
SPOJOVACÍ
  6
CIKCAK
 48
0.25
100
AcDbLine
 10
125.2974542217891
 20
298.6913447920308
 30
0.0
 11
81.99076489050298
 21
298.691344792028
 31
0.0
  0
LINE
  5
410
330
1F
100
AcDbEntity
  8
SPOJOVACÍ
  6
CIKCAK
 48
0.25
100
AcDbLine
 10
125.2974542217891
 20
305.7422776389787
 30
0.0
 11
81.99076489049934
 21
305.7422776389787
 31
0.0
  0
LINE
  5
411
330
1F
100
AcDbEntity
  8
IZOLACE
  6
IZOLACE
 48
1.5
100
AcDbLine
 10
80.45789567792622
 20
342.3342459695989
 30
0.0
 11
80.32377298456072
 21
585.9156485483392
 31
0.0
  0
LWPOLYLINE
  5
412
330
1F
100
AcDbEntity
  8
NOSNÉ_KONSTRUKCE
100
AcDbPolyline
 90
        6
 70
     0
 43
0.0
 10
55.45799872538577
 20
303.8678044317741
 42
-0.0128837512779302
 10
58.7911635471321
 20
303.5830124715496
 42
-0.0351641677647434
 10
62.39487300147107
 20
302.9552527500265
 42
-0.0187319685742942
 10
74.15311034361389
 20
299.5712368690358
 42
-0.0582629403736403
 10
77.73294454254596
 20
297.9117370009546
 42
-0.2042445348716764
 10
102.9912927320804
 20
262.3342459695988
  0
LWPOLYLINE
  5
413
330
1F
100
AcDbEntity
  8
NOSNÉ_KONSTRUKCE
100
AcDbPolyline
 90
        3
 70
     0
 43
0.0
 10
61.95716829464095
 20
288.3352210525474
 10
71.17319734516081
 20
308.3314734845401
 10
71.81859482050299
 20
312.3314111182546
  0
LWPOLYLINE
  5
414
330
1F
100
AcDbEntity
  8
NOSNÉ_KONSTRUKCE
100
AcDbPolyline
 90
        4
 70
     0
 43
0.0
 10
55.45799872538577
 20
314.0575340357784
 42
-0.0135911980674875
 10
75.78669190785172
 20
310.3384026785527
 42
-0.0219777111230329
 10
79.30480516368721
 20
309.4322901765692
 42
-0.1401208794308004
 10
105.4579987253857
 20
281.6663352893367
 42
-0.1401208794308004
  0
LWPOLYLINE
  5
415
330
1F
100
AcDbEntity
  8
NOSNÉ_KONSTRUKCE
100
AcDbPolyline
 90
        8
 70
     0
 43
0.0
 10
55.45799872538577
 20
295.2435890517329
 42
-0.0120721047703132
 10
57.19188686412985
 20
295.1746063616949
 42
-0.044358077361292
 10
59.88768688254663
 20
294.7789786270216
 42
-0.0188067511131767
 10
67.12991605785305
 20
292.7591551786383
 42
-0.0457786284636091
 10
69.97852644073304
 20
291.5511322890226
 42
-0.0295006114745606
 10
73.90542565413511
 20
289.1350718347232
 42
-0.0258674098621065
 10
78.051205732889
 20
285.9023965207591
 42
-0.2409478365688615
 10
92.47575317786346
 20
262.3342459695988
 42
-0.0884720560394402
  0
LWPOLYLINE
  5
416
330
1F
100
AcDbEntity
  8
NOSNÉ_KONSTRUKCE
100
AcDbPolyline
 90
        3
 70
     0
 43
0.0
 10
60.97532942090424
 20
269.0426434273024
 10
69.35907028887254
 20
285.7978610470301
 10
77.5403719899698
 20
293.9649656961548
  0
POLYLINE
  5
417
330
1F
100
AcDbEntity
  8
NOSNÉ_KONSTRUKCE
100
AcDb2dPolyline
 66
     1
 10
0.0
 20
0.0
 30
0.0
  0
VERTEX
  5
418
330
417
100
AcDbEntity
  8
NOSNÉ_KONSTRUKCE
100
AcDbVertex
100
AcDb2dVertex
 10
55.45799872538577
 20
279.4267518045391
 30
0.0
 42
-0.0072417954699014
  0
VERTEX
  5
419
330
417
100
AcDbEntity
  8
NOSNÉ_KONSTRUKCE
100
AcDbVertex
100
AcDb2dVertex
 10
55.86940393666032
 20
279.3711814366954
 30
0.0
 42
-0.0707158694326265
  0
VERTEX
  5
41A
330
417
100
AcDbEntity
  8
NOSNÉ_KONSTRUKCE
100
AcDbVertex
100
AcDb2dVertex
 10
57.80550738925398
 20
278.8400549202754
 30
0.0
 42
-0.033952657250207
  0
VERTEX
  5
41B
330
417
100
AcDbEntity
  8
NOSNÉ_KONSTRUKCE
100
AcDbVertex
100
AcDb2dVertex
 10
62.15854511442763
 20
276.5913990808669
 30
0.0
 42
-0.0571374688189033
  0
VERTEX
  5
41C
330
417
100
AcDbEntity
  8
NOSNÉ_KONSTRUKCE
100
AcDbVertex
100
AcDb2dVertex
 10
64.46546939811401
 20
274.8052423210149
 30
0.0
 42
-0.0274923553235744
  0
VERTEX
  5
41D
330
417
100
AcDbEntity
  8
NOSNÉ_KONSTRUKCE
100
AcDbVertex
100
AcDb2dVertex
 10
66.85054472124853
 20
272.2079365904621
 30
0.0
 42
-0.0255412025538677
  0
VERTEX
  5
41E
330
417
100
AcDbEntity
  8
NOSNÉ_KONSTRUKCE
100
AcDbVertex
100
AcDb2dVertex
 10
69.10725839826795
 20
269.1565065527513
 30
0.0
 42
-0.0272796991712396
  0
VERTEX
  5
41F
330
417
100
AcDbEntity
  8
NOSNÉ_KONSTRUKCE
100
AcDbVertex
100
AcDb2dVertex
 10
71.52359427993019
 20
265.0435073995661
 30
0.0
 42
-0.056967459841729
  0
VERTEX
  5
420
330
417
100
AcDbEntity
  8
NOSNÉ_KONSTRUKCE
100
AcDbVertex
100
AcDb2dVertex
 10
72.33633011512961
 20
262.9025601188343
 30
0.0
 42
-0.0373408083348504
  0
VERTEX
  5
421
330
417
100
AcDbEntity
  8
NOSNÉ_KONSTRUKCE
100
AcDbVertex
100
AcDb2dVertex
 10
72.37549565608083
 20
262.6802057433608
 30
0.0
 42
-0.0052305969362967
  0
VERTEX
  5
422
330
417
100
AcDbEntity
  8
NOSNÉ_KONSTRUKCE
100
AcDbVertex
100
AcDb2dVertex
 10
72.40645262298517
 20
262.3342459696007
 30
0.0
  0
SEQEND
  5
423
330
417
100
AcDbEntity
  8
NOSNÉ_KONSTRUKCE
  0
POLYLINE
  5
424
330
1F
100
AcDbEntity
  8
NOSNÉ_KONSTRUKCE
100
AcDb2dPolyline
 66
     1
 10
0.0
 20
0.0
 30
0.0
  0
VERTEX
  5
425
330
424
100
AcDbEntity
  8
NOSNÉ_KONSTRUKCE
100
AcDbVertex
100
AcDb2dVertex
 10
55.45799872538577
 20
272.1987007838008
 30
0.0
 42
-0.0064239028828688
  0
VERTEX
  5
426
330
424
100
AcDbEntity
  8
NOSNÉ_KONSTRUKCE
100
AcDbVertex
100
AcDb2dVertex
 10
55.67711238473589
 20
272.1598323436203
 30
0.0
 42
-0.0832048017309575
  0
VERTEX
  5
427
330
424
100
AcDbEntity
  8
NOSNÉ_KONSTRUKCE
100
AcDbVertex
100
AcDb2dVertex
 10
58.0073259643907
 20
271.3756497409387
 30
0.0
 42
-0.0336767237692336
  0
VERTEX
  5
428
330
424
100
AcDbEntity
  8
NOSNÉ_KONSTRUKCE
100
AcDbVertex
100
AcDb2dVertex
 10
60.73560048385139
 20
269.672833182017
 30
0.0
 42
-0.0844635135812105
  0
VERTEX
  5
429
330
424
100
AcDbEntity
  8
NOSNÉ_KONSTRUKCE
100
AcDbVertex
100
AcDb2dVertex
 10
61.64002208884653
 20
268.7530234221242
 30
0.0
 42
-0.0495829410719565
  0
VERTEX
  5
42A
330
424
100
AcDbEntity
  8
NOSNÉ_KONSTRUKCE
100
AcDbVertex
100
AcDb2dVertex
 10
62.61667159615922
 20
267.0043449847701
 30
0.0
 42
-0.0322692699774654
  0
VERTEX
  5
42B
330
424
100
AcDbEntity
  8
NOSNÉ_KONSTRUKCE
100
AcDbVertex
100
AcDb2dVertex
 10
63.65819509755988
 20
264.1129908036794
 30
0.0
 42
-0.0276160659512937
  0
VERTEX
  5
42C
330
424
100
AcDbEntity
  8
NOSNÉ_KONSTRUKCE
100
AcDbVertex
100
AcDb2dVertex
 10
63.8549305265044
 20
263.2574143653921
 30
0.0
 42
-0.0126891984598699
  0
VERTEX
  5
42D
330
424
100
AcDbEntity
  8
NOSNÉ_KONSTRUKCE
100
AcDbVertex
100
AcDb2dVertex
 10
63.99013291604592
 20
262.3342459696007
 30
0.0
  0
SEQEND
  5
42E
330
424
100
AcDbEntity
  8
NOSNÉ_KONSTRUKCE
  0
LWPOLYLINE
  5
42F
330
1F
100
AcDbEntity
  8
NOSNÉ_KONSTRUKCE
100
AcDbPolyline
 90
       10
 70
     0
 43
0.0
 10
55.45799872538577
 20
286.3765298282226
 42
-0.0168162630274194
 10
57.14903687750506
 20
286.2415042491586
 42
-0.0575155827655532
 10
60.24866153822244
 20
285.5614719688158
 42
-0.0310289133982999
 10
67.49368906286713
 20
282.5586706239876
 42
-0.0882970623535771
 10
69.73405811366706
 20
280.9214487038946
 42
-0.0171636441953577
 10
72.24797546891227
 20
278.1080846420366
 42
-0.0157521173632038
 10
74.77947152141883
 20
274.8692298050002
 42
-0.0073640874174249
 10
78.06787294715491
 20
270.2355804486789
 42
-0.0194185739168057
 10
79.21944194643606
 20
268.4135371290023
 42
-0.0567960585128809
 10
81.871306151814
 20
262.3342459695988
 42
-0.0229547400386702
  0
LWPOLYLINE
  5
430
330
1F
100
AcDbEntity
  8
NOSNÉ_KONSTRUKCE
100
AcDbPolyline
 90
        4
 70
     0
 43
0.0
 10
55.53474824831233
 20
339.7250592596785
 42
-0.0135911980674875
 10
86.02778802201305
 20
334.14636222384
 42
-0.0219777111230329
 10
91.30495790576629
 20
332.787193470863
 42
-0.0418563612866048
 10
105.4579987253857
 20
322.6717773700613
 42
-0.0418563612866048
  0
LWPOLYLINE
  5
431
330
1F
100
AcDbEntity
  8
NOSNÉ_KONSTRUKCE
100
AcDbPolyline
 90
        6
 70
     0
 43
0.0
 10
55.53474824831233
 20
324.4404648536758
 42
-0.0128837512779301
 10
60.53449548093363
 20
324.0132769133372
 42
-0.0351641677647434
 10
65.94005966244026
 20
323.0716373310526
 42
-0.0187319685742942
 10
83.5774156756563
 20
317.9956135095665
 42
-0.0582629403736403
 10
88.94716697405261
 20
315.5063637074447
 42
-0.0636293101863209
 10
105.4284752742789
 20
302.2448941139221
 42
-0.0636293101863209
  0
LWPOLYLINE
  5
432
330
1F
100
AcDbEntity
  8
NOSNÉ_KONSTRUKCE
100
AcDbPolyline
 90
        3
 70
     0
 43
0.0
 10
86.46096877451077
 20
309.548392961474
 10
94.84470964247908
 20
326.3036105812018
 10
103.0260113435763
 20
334.4707152303265
  0
LWPOLYLINE
  5
433
330
1F
100
AcDbEntity
  8
NOSNÉ_KONSTRUKCE
100
AcDbPolyline
 90
        2
 70
     0
 43
0.0
 10
105.3141690353697
 20
243.2150064491117
 10
105.4579987253857
 20
243.5270773825952
  0
LWPOLYLINE
  5
434
330
1F
100
AcDbEntity
  8
NOSNÉ_KONSTRUKCE
100
AcDbPolyline
 90
        7
 70
     0
 43
0.0
 10
55.45799872538577
 20
266.8490144492818
 42
-0.0203924744732807
 10
56.4711287545399
 20
265.946930464873
 42
-0.0273961979096945
 10
57.25930512856598
 20
265.0970661146777
 42
-0.0243529190212958
 10
58.13306447323362
 20
263.933945622258
 42
-0.0398020282482987
 10
58.57269321668013
 20
263.1589870846976
 42
-0.104168275620852
 10
58.66270967685728
 20
262.7725759483575
 42
-0.007272956268647
 10
58.68116302815201
 20
262.3342459695988
 42
-0.007272956268647
  0
LINE
  5
435
330
1F
100
AcDbEntity
  8
NOSNÉ_KONSTRUKCE
100
AcDbLine
 10
55.45799872538577
 20
342.3342459695989
 30
0.0
 11
55.45799872538577
 21
262.3342459695988
 31
0.0
  0
LINE
  5
436
330
1F
100
AcDbEntity
  8
NOSNÉ_KONSTRUKCE
100
AcDbLine
 10
55.45799872538577
 20
262.3342459695988
 30
0.0
 11
92.47575317786346
 21
262.3342459695988
 31
0.0
  0
LWPOLYLINE
  5
437
330
1F
100
AcDbEntity
  8
NOSNÉ_KONSTRUKCE
100
AcDbPolyline
 90
        4
 70
     1
 43
0.0
 10
105.4579987253857
 20
342.3342459695989
 10
55.45799872538577
 20
342.3342459695989
 10
55.45799872538577
 20
262.3342459695988
 10
105.4579987253857
 20
262.3342459695988
  0
LWPOLYLINE
  5
438
330
1F
100
AcDbEntity
  8
NOSNÉ_KONSTRUKCE
100
AcDbPolyline
 90
        7
 70
     0
 43
0.0
 10
125.851480216934
 20
326.8401970426414
 42
-0.0203924744732807
 10
124.9493962325252
 20
325.8270670134872
 42
-0.0273961979096945
 10
124.0995318823299
 20
325.0388906394612
 42
-0.0243529190212958
 10
122.9364113899102
 20
324.1651312947936
 42
-0.0398020282482987
 10
122.1614528523498
 20
323.725502551347
 42
-0.104168275620852
 10
121.7750417160098
 20
323.6354860911699
 42
-0.007272956268647
 10
121.3367117372511
 20
323.6170327398752
 42
-0.007272956268647
  0
LWPOLYLINE
  5
439
330
1F
100
AcDbEntity
  8
NOSNÉ_KONSTRUKCE
100
AcDbPolyline
 90
        2
 70
     0
 43
0.0
 10
168.5508587291262
 20
295.8372269935173
 10
171.3367117372511
 20
294.4432809257043
  0
LWPOLYLINE
  5
43A
330
1F
100
AcDbEntity
  8
NOSNÉ_KONSTRUKCE
100
AcDbPolyline
 90
        2
 70
     0
 43
0.0
 10
171.3367117372511
 20
288.5607656056011
 42
-0.0463617997943816
 10
161.2473598815743
 20
276.8697204937491
  0
LWPOLYLINE
  5
43B
330
1F
100
AcDbEntity
  8
NOSNÉ_KONSTRUKCE
100
AcDbPolyline
 90
       10
 70
     0
 43
0.0
 10
145.3789955958748
 20
326.8401970426414
 42
-0.0168162630274194
 10
145.2439700168108
 20
325.1491588905221
 42
-0.0575155827655532
 10
144.563937736468
 20
322.0495342298047
 42
-0.0310289133982999
 10
141.5611363916398
 20
314.80450670516
 42
-0.0882970623535771
 10
139.9239144715468
 20
312.5641376543601
 42
-0.0171636441953577
 10
137.1105504096888
 20
310.0502202991149
 42
-0.0157521173632038
 10
133.8716955726524
 20
307.5187242466083
 42
-0.0073640874174249
 10
129.2380462163312
 20
304.2303228208723
 42
-0.0194185739168057
 10
127.4160028966546
 20
303.0787538215911
 42
-0.0567960585128809
 10
121.3367117372511
 20
300.426889616215
 42
-0.0229547400386702
  0
POLYLINE
  5
43C
330
1F
100
AcDbEntity
  8
NOSNÉ_KONSTRUKCE
100
AcDb2dPolyline
 66
     1
 10
0.0
 20
0.0
 30
0.0
  0
VERTEX
  5
43D
330
43C
100
AcDbEntity
  8
NOSNÉ_KONSTRUKCE
100
AcDbVertex
100
AcDb2dVertex
 10
131.2011665514512
 20
326.8401970426396
 30
0.0
 42
-0.0064239028828688
  0
VERTEX
  5
43E
330
43C
100
AcDbEntity
  8
NOSNÉ_KONSTRUKCE
100
AcDbVertex
100
AcDb2dVertex
 10
131.1622981112707
 20
326.6210833832894
 30
0.0
 42
-0.0832048017309575
  0
VERTEX
  5
43F
330
43C
100
AcDbEntity
  8
NOSNÉ_KONSTRUKCE
100
AcDbVertex
100
AcDb2dVertex
 10
130.3781155085891
 20
324.2908698036346
 30
0.0
 42
-0.0336767237692336
  0
VERTEX
  5
440
330
43C
100
AcDbEntity
  8
NOSNÉ_KONSTRUKCE
100
AcDbVertex
100
AcDb2dVertex
 10
128.6752989496674
 20
321.5625952841739
 30
0.0
 42
-0.0844635135812105
  0
VERTEX
  5
441
330
43C
100
AcDbEntity
  8
NOSNÉ_KONSTRUKCE
100
AcDbVertex
100
AcDb2dVertex
 10
127.7554891897746
 20
320.6581736791788
 30
0.0
 42
-0.0495829410719565
  0
VERTEX
  5
442
330
43C
100
AcDbEntity
  8
NOSNÉ_KONSTRUKCE
100
AcDbVertex
100
AcDb2dVertex
 10
126.0068107524205
 20
319.6815241718661
 30
0.0
 42
-0.0322692699774654
  0
VERTEX
  5
443
330
43C
100
AcDbEntity
  8
NOSNÉ_KONSTRUKCE
100
AcDbVertex
100
AcDb2dVertex
 10
123.1154565713297
 20
318.6400006704654
 30
0.0
 42
-0.0276160659512937
  0
VERTEX
  5
444
330
43C
100
AcDbEntity
  8
NOSNÉ_KONSTRUKCE
100
AcDbVertex
100
AcDb2dVertex
 10
122.2598801330425
 20
318.443265241521
 30
0.0
 42
-0.0126891984598699
  0
VERTEX
  5
445
330
43C
100
AcDbEntity
  8
NOSNÉ_KONSTRUKCE
100
AcDbVertex
100
AcDb2dVertex
 10
121.3367117372511
 20
318.3080628519794
 30
0.0
  0
SEQEND
  5
446
330
43C
100
AcDbEntity
  8
NOSNÉ_KONSTRUKCE
  0
POLYLINE
  5
447
330
1F
100
AcDbEntity
  8
NOSNÉ_KONSTRUKCE
100
AcDb2dPolyline
 66
     1
 10
0.0
 20
0.0
 30
0.0
  0
VERTEX
  5
448
330
447
100
AcDbEntity
  8
NOSNÉ_KONSTRUKCE
100
AcDbVertex
100
AcDb2dVertex
 10
138.4292175721896
 20
326.8401970426396
 30
0.0
 42
-0.0072417954699014
  0
VERTEX
  5
449
330
447
100
AcDbEntity
  8
NOSNÉ_KONSTRUKCE
100
AcDbVertex
100
AcDb2dVertex
 10
138.3736472043458
 20
326.428791831365
 30
0.0
 42
-0.0707158694326265
  0
VERTEX
  5
44A
330
447
100
AcDbEntity
  8
NOSNÉ_KONSTRUKCE
100
AcDbVertex
100
AcDb2dVertex
 10
137.8425206879257
 20
324.4926883787714
 30
0.0
 42
-0.033952657250207
  0
VERTEX
  5
44B
330
447
100
AcDbEntity
  8
NOSNÉ_KONSTRUKCE
100
AcDbVertex
100
AcDb2dVertex
 10
135.5938648485173
 20
320.1396506535977
 30
0.0
 42
-0.0571374688189033
  0
VERTEX
  5
44C
330
447
100
AcDbEntity
  8
NOSNÉ_KONSTRUKCE
100
AcDbVertex
100
AcDb2dVertex
 10
133.8077080886653
 20
317.8327263699113
 30
0.0
 42
-0.0274923553235744
  0
VERTEX
  5
44D
330
447
100
AcDbEntity
  8
NOSNÉ_KONSTRUKCE
100
AcDbVertex
100
AcDb2dVertex
 10
131.2104023581125
 20
315.4476510467768
 30
0.0
 42
-0.0255412025538677
  0
VERTEX
  5
44E
330
447
100
AcDbEntity
  8
NOSNÉ_KONSTRUKCE
100
AcDbVertex
100
AcDb2dVertex
 10
128.1589723204017
 20
313.1909373697574
 30
0.0
 42
-0.0272796991712396
  0
VERTEX
  5
44F
330
447
100
AcDbEntity
  8
NOSNÉ_KONSTRUKCE
100
AcDbVertex
100
AcDb2dVertex
 10
124.0459731672165
 20
310.7746014880952
 30
0.0
 42
-0.056967459841729
  0
VERTEX
  5
450
330
447
100
AcDbEntity
  8
NOSNÉ_KONSTRUKCE
100
AcDbVertex
100
AcDb2dVertex
 10
121.9050258864847
 20
309.9618656528957
 30
0.0
 42
-0.0373408083348504
  0
VERTEX
  5
451
330
447
100
AcDbEntity
  8
NOSNÉ_KONSTRUKCE
100
AcDbVertex
100
AcDb2dVertex
 10
121.6826715110112
 20
309.9227001119445
 30
0.0
 42
-0.0052305969362967
  0
VERTEX
  5
452
330
447
100
AcDbEntity
  8
NOSNÉ_KONSTRUKCE
100
AcDbVertex
100
AcDb2dVertex
 10
121.3367117372511
 20
309.8917431450402
 30
0.0
  0
SEQEND
  5
453
330
447
100
AcDbEntity
  8
NOSNÉ_KONSTRUKCE
  0
LWPOLYLINE
  5
454
330
1F
100
AcDbEntity
  8
NOSNÉ_KONSTRUKCE
100
AcDbPolyline
 90
        3
 70
     0
 43
0.0
 10
128.0451091949546
 20
321.3228663471229
 10
144.8003268146824
 20
312.9391254791546
 10
152.967431463807
 20
304.7578237780574
  0
LWPOLYLINE
  5
455
330
1F
100
AcDbEntity
  8
NOSNÉ_KONSTRUKCE
100
AcDbPolyline
 90
        8
 70
     0
 43
0.0
 10
154.2460548193851
 20
326.8401970426414
 42
-0.0120721047703132
 10
154.1770721293471
 20
325.1063089038973
 42
-0.044358077361292
 10
153.7814443946738
 20
322.4105088854805
 42
-0.0188067511131767
 10
151.7616209462905
 20
315.1682797101741
 42
-0.0457786284636091
 10
150.5535980566748
 20
312.3196693272941
 42
-0.0295006114745606
 10
148.1375376023754
 20
308.392770113892
 42
-0.0258674098621065
 10
144.9048622884113
 20
304.2469900351381
 42
-0.2409478365688615
 10
121.3367117372511
 20
289.8224425901646
 42
-0.0884720560394402
  0
LWPOLYLINE
  5
456
330
1F
100
AcDbEntity
  8
NOSNÉ_KONSTRUKCE
100
AcDbPolyline
 90
        4
 70
     0
 43
0.0
 10
171.3367117372511
 20
316.640366871745
 42
-0.006788460145482
 10
169.3408684462049
 20
306.5115038601754
 42
-0.0219777111230329
 10
168.4347559442214
 20
302.99339060434
 42
-0.1401208794308004
 10
140.6688010569889
 20
276.8401970426414
  0
LWPOLYLINE
  5
457
330
1F
100
AcDbEntity
  8
NOSNÉ_KONSTRUKCE
100
AcDbPolyline
 90
        3
 70
     0
 43
0.0
 10
147.3376868201996
 20
320.3410274733862
 10
167.3339392521922
 20
311.1249984228663
 10
171.3338768859068
 20
310.4796009475242
  0
LWPOLYLINE
  5
458
330
1F
100
AcDbEntity
  8
NOSNÉ_KONSTRUKCE
100
AcDbPolyline
 90
        6
 70
     0
 43
0.0
 10
162.8702701994263
 20
326.8401970426414
 42
-0.0128837512779302
 10
162.5854782392018
 20
323.507032220895
 42
-0.0351641677647434
 10
161.9577185176788
 20
319.9033227665561
 42
-0.0187319685742942
 10
158.573702636688
 20
308.1450854244133
 42
-0.0582629403736403
 10
156.9142027686068
 20
304.5652512254812
 42
-0.2042445348716764
 10
121.3367117372511
 20
279.3069030359467
  0
LWPOLYLINE
  5
459
330
1F
100
AcDbEntity
  8
NOSNÉ_KONSTRUKCE
100
AcDbPolyline
 90
        4
 70
     0
 43
0.0
 10
552.8720692592071
 20
326.8401970426414
 42
-0.0135911980674875
 10
549.1529379019814
 20
306.5115038601754
 42
-0.0219777111230329
 10
548.246825399998
 20
302.99339060434
 42
-0.1401208794308004
 10
520.4808705127654
 20
276.8401970426414
 42
-0.1401208794308004
  0
LWPOLYLINE
  5
45A
330
1F
100
AcDbEntity
  8
NOSNÉ_KONSTRUKCE
100
AcDbPolyline
 90
        4
 70
     0
 43
0.0
 10
578.5395944831073
 20
326.7634475197148
 42
-0.0135911980674875
 10
572.9608974472687
 20
296.2704077460159
 42
-0.0219777111230329
 10
571.6017286942917
 20
290.9932378622627
 42
-0.0418563612866048
 10
561.4863125934901
 20
276.8401970426405
 42
-0.0418563612866048
  0
LWPOLYLINE
  5
45B
330
1F
100
AcDbEntity
  8
NOSNÉ_KONSTRUKCE
100
AcDbPolyline
 90
        6
 70
     0
 43
0.0
 10
563.2550000771045
 20
326.7634475197148
 42
-0.0128837512779301
 10
562.8278121367659
 20
321.7637002870953
 42
-0.0351641677647434
 10
561.8861725544814
 20
316.3581361055869
 42
-0.0187319685742942
 10
556.8101487329952
 20
298.7207800923727
 42
-0.0582629403736403
 10
554.3208989308734
 20
293.3510287939745
 42
-0.0636293101863209
 10
541.0594293373508
 20
276.8697204937491
 42
-0.0636293101863209
  0
LWPOLYLINE
  5
45C
330
1F
100
AcDbEntity
  8
NOSNÉ_KONSTRUKCE
100
AcDbPolyline
 90
        2
 70
     0
 43
0.0
 10
506.7608372111865
 20
276.9840267326592
 10
507.07290814467
 20
276.8401970426414
  0
LWPOLYLINE
  5
45D
330
1F
100
AcDbEntity
  8
NOSNÉ_KONSTRUKCE
100
AcDbPolyline
 90
        6
 70
     0
 43
0.0
 10
542.6823396552029
 20
326.8401970426414
 42
-0.0128837512779302
 10
542.3975476949784
 20
323.507032220895
 42
-0.0351641677647434
 10
541.7697879734553
 20
319.9033227665561
 42
-0.0187319685742942
 10
538.3857720924645
 20
308.1450854244133
 42
-0.0582629403736403
 10
536.7262722243833
 20
304.5652512254812
 42
-0.2042445348716764
 10
501.1487811930276
 20
279.3069030359467
  0
LWPOLYLINE
  5
45E
330
1F
100
AcDbEntity
  8
NOSNÉ_KONSTRUKCE
100
AcDbPolyline
 90
        3
 70
     0
 43
0.0
 10
527.1497562759761
 20
320.3410274733862
 10
547.1460087079687
 20
311.1249984228663
 10
551.1459463416834
 20
310.4796009475242
  0
LWPOLYLINE
  5
45F
330
1F
100
AcDbEntity
  8
NOSNÉ_KONSTRUKCE
100
AcDbPolyline
 90
        8
 70
     0
 43
0.0
 10
534.0581242751616
 20
326.8401970426414
 42
-0.0120721047703132
 10
533.9891415851236
 20
325.1063089038973
 42
-0.044358077361292
 10
533.5935138504503
 20
322.4105088854805
 42
-0.0188067511131767
 10
531.5736904020671
 20
315.1682797101741
 42
-0.0457786284636091
 10
530.3656675124513
 20
312.3196693272941
 42
-0.0295006114745606
 10
527.949607058152
 20
308.392770113892
 42
-0.0258674098621065
 10
524.7169317441878
 20
304.2469900351381
 42
-0.2409478365688615
 10
501.1487811930276
 20
289.8224425901646
 42
-0.0884720560394402
  0
LWPOLYLINE
  5
460
330
1F
100
AcDbEntity
  8
NOSNÉ_KONSTRUKCE
100
AcDbPolyline
 90
        3
 70
     0
 43
0.0
 10
507.8571786507311
 20
321.3228663471229
 10
524.6123962704589
 20
312.9391254791546
 10
532.7795009195836
 20
304.7578237780574
  0
POLYLINE
  5
461
330
1F
100
AcDbEntity
  8
NOSNÉ_KONSTRUKCE
100
AcDb2dPolyline
 66
     1
 10
0.0
 20
0.0
 30
0.0
  0
VERTEX
  5
462
330
461
100
AcDbEntity
  8
NOSNÉ_KONSTRUKCE
100
AcDbVertex
100
AcDb2dVertex
 10
518.2412870279661
 20
326.8401970426396
 30
0.0
 42
-0.0072417954699014
  0
VERTEX
  5
463
330
461
100
AcDbEntity
  8
NOSNÉ_KONSTRUKCE
100
AcDbVertex
100
AcDb2dVertex
 10
518.1857166601223
 20
326.428791831365
 30
0.0
 42
-0.0707158694326265
  0
VERTEX
  5
464
330
461
100
AcDbEntity
  8
NOSNÉ_KONSTRUKCE
100
AcDbVertex
100
AcDb2dVertex
 10
517.6545901437022
 20
324.4926883787714
 30
0.0
 42
-0.033952657250207
  0
VERTEX
  5
465
330
461
100
AcDbEntity
  8
NOSNÉ_KONSTRUKCE
100
AcDbVertex
100
AcDb2dVertex
 10
515.4059343042938
 20
320.1396506535977
 30
0.0
 42
-0.0571374688189033
  0
VERTEX
  5
466
330
461
100
AcDbEntity
  8
NOSNÉ_KONSTRUKCE
100
AcDbVertex
100
AcDb2dVertex
 10
513.6197775444418
 20
317.8327263699113
 30
0.0
 42
-0.0274923553235744
  0
VERTEX
  5
467
330
461
100
AcDbEntity
  8
NOSNÉ_KONSTRUKCE
100
AcDbVertex
100
AcDb2dVertex
 10
511.0224718138891
 20
315.4476510467768
 30
0.0
 42
-0.0255412025538677
  0
VERTEX
  5
468
330
461
100
AcDbEntity
  8
NOSNÉ_KONSTRUKCE
100
AcDbVertex
100
AcDb2dVertex
 10
507.9710417761782
 20
313.1909373697574
 30
0.0
 42
-0.0272796991712396
  0
VERTEX
  5
469
330
461
100
AcDbEntity
  8
NOSNÉ_KONSTRUKCE
100
AcDbVertex
100
AcDb2dVertex
 10
503.858042622993
 20
310.7746014880952
 30
0.0
 42
-0.056967459841729
  0
VERTEX
  5
46A
330
461
100
AcDbEntity
  8
NOSNÉ_KONSTRUKCE
100
AcDbVertex
100
AcDb2dVertex
 10
501.7170953422612
 20
309.9618656528957
 30
0.0
 42
-0.0373408083348504
  0
VERTEX
  5
46B
330
461
100
AcDbEntity
  8
NOSNÉ_KONSTRUKCE
100
AcDbVertex
100
AcDb2dVertex
 10
501.4947409667877
 20
309.9227001119445
 30
0.0
 42
-0.0052305969362967
  0
VERTEX
  5
46C
330
461
100
AcDbEntity
  8
NOSNÉ_KONSTRUKCE
100
AcDbVertex
100
AcDb2dVertex
 10
501.1487811930276
 20
309.8917431450402
 30
0.0
  0
SEQEND
  5
46D
330
461
100
AcDbEntity
  8
NOSNÉ_KONSTRUKCE
  0
POLYLINE
  5
46E
330
1F
100
AcDbEntity
  8
NOSNÉ_KONSTRUKCE
100
AcDb2dPolyline
 66
     1
 10
0.0
 20
0.0
 30
0.0
  0
VERTEX
  5
46F
330
46E
100
AcDbEntity
  8
NOSNÉ_KONSTRUKCE
100
AcDbVertex
100
AcDb2dVertex
 10
511.0132360072277
 20
326.8401970426396
 30
0.0
 42
-0.0064239028828688
  0
VERTEX
  5
470
330
46E
100
AcDbEntity
  8
NOSNÉ_KONSTRUKCE
100
AcDbVertex
100
AcDb2dVertex
 10
510.9743675670472
 20
326.6210833832894
 30
0.0
 42
-0.0832048017309575
  0
VERTEX
  5
471
330
46E
100
AcDbEntity
  8
NOSNÉ_KONSTRUKCE
100
AcDbVertex
100
AcDb2dVertex
 10
510.1901849643657
 20
324.2908698036346
 30
0.0
 42
-0.0336767237692336
  0
VERTEX
  5
472
330
46E
100
AcDbEntity
  8
NOSNÉ_KONSTRUKCE
100
AcDbVertex
100
AcDb2dVertex
 10
508.4873684054439
 20
321.5625952841739
 30
0.0
 42
-0.0844635135812105
  0
VERTEX
  5
473
330
46E
100
AcDbEntity
  8
NOSNÉ_KONSTRUKCE
100
AcDbVertex
100
AcDb2dVertex
 10
507.5675586455511
 20
320.6581736791788
 30
0.0
 42
-0.0495829410719565
  0
VERTEX
  5
474
330
46E
100
AcDbEntity
  8
NOSNÉ_KONSTRUKCE
100
AcDbVertex
100
AcDb2dVertex
 10
505.818880208197
 20
319.6815241718661
 30
0.0
 42
-0.0322692699774654
  0
VERTEX
  5
475
330
46E
100
AcDbEntity
  8
NOSNÉ_KONSTRUKCE
100
AcDbVertex
100
AcDb2dVertex
 10
502.9275260271062
 20
318.6400006704654
 30
0.0
 42
-0.0276160659512937
  0
VERTEX
  5
476
330
46E
100
AcDbEntity
  8
NOSNÉ_KONSTRUKCE
100
AcDbVertex
100
AcDb2dVertex
 10
502.071949588819
 20
318.443265241521
 30
0.0
 42
-0.0126891984598699
  0
VERTEX
  5
477
330
46E
100
AcDbEntity
  8
NOSNÉ_KONSTRUKCE
100
AcDbVertex
100
AcDb2dVertex
 10
501.1487811930276
 20
318.3080628519794
 30
0.0
  0
SEQEND
  5
478
330
46E
100
AcDbEntity
  8
NOSNÉ_KONSTRUKCE
  0
LWPOLYLINE
  5
479
330
1F
100
AcDbEntity
  8
NOSNÉ_KONSTRUKCE
100
AcDbPolyline
 90
       10
 70
     0
 43
0.0
 10
525.1910650516513
 20
326.8401970426414
 42
-0.0168162630274194
 10
525.0560394725873
 20
325.1491588905221
 42
-0.0575155827655532
 10
524.3760071922444
 20
322.0495342298047
 42
-0.0310289133982999
 10
521.3732058474163
 20
314.80450670516
 42
-0.0882970623535771
 10
519.7359839273233
 20
312.5641376543601
 42
-0.0171636441953577
 10
516.9226198654653
 20
310.0502202991149
 42
-0.0157521173632038
 10
513.683765028429
 20
307.5187242466083
 42
-0.0073640874174249
 10
509.0501156721077
 20
304.2303228208723
 42
-0.0194185739168057
 10
507.2280723524311
 20
303.0787538215911
 42
-0.0567960585128809
 10
501.1487811930276
 20
300.426889616215
 42
-0.0229547400386702
  0
LWPOLYLINE
  5
47A
330
1F
100
AcDbEntity
  8
NOSNÉ_KONSTRUKCE
100
AcDbPolyline
 90
        2
 70
     0
 43
0.0
 10
579.2065567358151
 20
309.5017798848905
 10
581.1487811930276
 20
308.6066323025536
  0
LWPOLYLINE
  5
47B
330
1F
100
AcDbEntity
  8
NOSNÉ_KONSTRUKCE
100
AcDbPolyline
 90
        3
 70
     0
 43
0.0
 10
548.3629281849028
 20
295.8372269935173
 10
565.1181458046306
 20
287.453486125549
 10
573.2852504537552
 20
279.2721844244517
  0
LWPOLYLINE
  5
47C
330
1F
100
AcDbEntity
  8
NOSNÉ_KONSTRUKCE
100
AcDbPolyline
 90
        7
 70
     0
 43
0.0
 10
505.6635496727105
 20
326.8401970426414
 42
-0.0203924744732807
 10
504.7614656883017
 20
325.8270670134872
 42
-0.0273961979096945
 10
503.9116013381065
 20
325.0388906394612
 42
-0.0243529190212958
 10
502.7484808456867
 20
324.1651312947936
 42
-0.0398020282482987
 10
501.9735223081263
 20
323.725502551347
 42
-0.104168275620852
 10
501.5871111717863
 20
323.6354860911699
 42
-0.007272956268647
 10
501.1487811930276
 20
323.6170327398752
 42
-0.007272956268647
  0
LINE
  5
47D
330
1F
100
AcDbEntity
  8
NOSNÉ_KONSTRUKCE
100
AcDbLine
 10
581.1487811930276
 20
326.8401970426414
 30
0.0
 11
501.1487811930276
 21
326.8401970426414
 31
0.0
  0
LINE
  5
47E
330
1F
100
AcDbEntity
  8
NOSNÉ_KONSTRUKCE
100
AcDbLine
 10
501.1487811930276
 20
326.8401970426414
 30
0.0
 11
501.1487811930276
 21
289.8224425901646
 31
0.0
  0
LWPOLYLINE
  5
47F
330
1F
100
AcDbEntity
  8
NOSNÉ_KONSTRUKCE
100
AcDbPolyline
 90
        4
 70
     1
 43
0.0
 10
171.3367117372511
 20
276.8401970426414
 10
171.3367117372511
 20
326.8401970426414
 10
121.3367117372511
 20
326.8401970426414
 10
121.3367117372511
 20
276.8401970426414
  0
LINE
  5
480
330
1F
100
AcDbEntity
  8
IZOLACE
  6
IZOLACE
 48
1.5
100
AcDbLine
 10
581.1487811930276
 20
302.0017535813042
 30
0.0
 11
642.295390632473
 21
302.0017535813042
 31
0.0
  0
LWPOLYLINE
  5
481
330
1F
100
AcDbEntity
  8
NOSNÉ_KONSTRUKCE
100
AcDbPolyline
 90
        4
 70
     1
 43
0.0
 10
581.1487811930276
 20
276.8401970426414
 10
581.1487811930276
 20
326.8401970426414
 10
501.1487811930276
 20
326.8401970426414
 10
501.1487811930276
 20
276.8401970426414
  0
TEXT
  5
482
330
1F
100
AcDbEntity
  8
POPIS
100
AcDbText
 10
811.036087220193
 20
165.3282446734804
 30
0.0
 40
25.0
  1
07
 41
0.85
  7
SIMPLEX7
100
AcDbText
  0
TEXT
  5
483
330
1F
100
AcDbEntity
  8
POPIS
100
AcDbText
 10
865.3797903799352
 20
165.3282446734804
 30
0.0
 40
25.0
  1
Těsnící podložka
 41
0.7
  7
SIMPLEX7
100
AcDbText
  0
INSERT
  5
484
330
1F
100
AcDbEntity
  8
POPIS
100
AcDbBlockReference
  2
E_PUNKT
 10
119.7861374568131
 20
286.3427443918364
 30
0.0
  0
LINE
  5
485
330
1F
100
AcDbEntity
  8
POPIS
100
AcDbLine
 10
119.813747832439
 20
286.3718127227087
 30
0.0
 11
181.1782478734569
 21
204.8660848358133
 31
0.0
  0
TEXT
  5
486
330
1F
100
AcDbEntity
  8
POPIS
100
AcDbText
 10
182.659494202355
 20
174.0220432573798
 30
0.0
 40
25.0
  1
07
 41
0.85
  7
SIMPLEX7
100
AcDbText
  0
TEXT
  5
487
330
1F
100
AcDbEntity
  8
POPIS
100
AcDbText
 10
10.72873036400074
 20
696.6787732274708
 30
0.0
 40
50.0
  1
Napojení příčky na příčku
 41
0.85
  7
SIMPLEX7
100
AcDbText
  0
TEXT
  5
488
330
1F
100
AcDbEntity
  8
POPIS
100
AcDbText
 10
10.72873036400074
 20
642.05403020167
 30
0.0
 40
35.0
  1
PŮDORYS
 41
0.85
  7
SIMPLEX7
100
AcDbText
  0
TEXT
  5
489
330
1F
100
AcDbEntity
  8
POPIS
100
AcDbText
 10
136.4184120627289
 20
174.0220432573789
 30
0.0
 40
25.0
  1
06
 41
0.85
  7
SIMPLEX7
100
AcDbText
  0
LINE
  5
48A
330
1F
100
AcDbEntity
  8
POPIS
100
AcDbLine
 10
86.79798507789405
 20
302.2168112155034
 30
0.0
 11
157.9762019101947
 21
204.8660848358115
 31
0.0
  0
INSERT
  5
48B
330
1F
100
AcDbEntity
  8
POPIS
100
AcDbBlockReference
  2
E_PUNKT
 10
163.2220935271982
 20
318.8509300941388
 30
0.0
  0
INSERT
  5
48C
330
1F
100
AcDbEntity
  8
POPIS
100
AcDbBlockReference
  2
E_PUNKT
 10
120.9399100665834
 20
335.6211674429634
 30
0.0
  0
TEXT
  5
48D
330
1F
100
AcDbEntity
  8
POPIS
100
AcDbText
 10
204.6083411391303
 20
403.8384854633206
 30
0.0
 40
25.0
  1
03
 41
0.85
  7
SIMPLEX7
100
AcDbText
  0
LINE
  5
48E
330
1F
100
AcDbEntity
  8
POPIS
100
AcDbLine
 10
162.4826914492698
 20
317.8929868262478
 30
0.0
 11
222.264788627581
 21
399.1374223267969
 31
0.0
  0
LINE
  5
48F
330
1F
100
AcDbEntity
  8
POPIS
100
AcDbLine
 10
120.9675204422094
 20
335.6502357738357
 30
0.0
 11
167.3863289975236
 21
399.1374223267969
 31
0.0
  0
TEXT
  5
490
330
1F
100
AcDbEntity
  8
POPIS
100
AcDbText
 10
149.7298815090728
 20
403.8384854633206
 30
0.0
 40
25.0
  1
05
 41
0.85
  7
SIMPLEX7
100
AcDbText
  0
INSERT
  5
491
330
1F
100
AcDbEntity
  8
POPIS
100
AcDbBlockReference
  2
E_PUNKT
 10
612.0074082455978
 20
301.9726852504311
 30
0.0
  0
TEXT
  5
492
330
1F
100
AcDbEntity
  8
POPIS
100
AcDbText
 10
594.378571132773
 20
403.8384854633206
 30
0.0
 40
25.0
  1
04
 41
0.85
  7
SIMPLEX7
100
AcDbText
  0
LINE
  5
493
330
1F
100
AcDbEntity
  8
POPIS
100
AcDbLine
 10
612.0350186212237
 20
302.0017535813042
 30
0.0
 11
612.0350186212237
 21
399.1374223267969
 31
0.0
  0
TEXT
  5
494
330
1F
100
AcDbEntity
  8
POPIS
100
AcDbText
 10
324.0041300791783
 20
403.8384854633234
 30
0.0
 40
25.0
  1
01
 41
0.85
  7
SIMPLEX7
100
AcDbText
  0
LINE
  5
495
330
1F
100
AcDbEntity
  8
POPIS
100
AcDbLine
 10
341.6605775676291
 20
339.4767589930645
 30
0.0
 11
341.6605775676291
 21
399.1374223268005
 31
0.0
  0
LINE
  5
496
330
1F
100
AcDbEntity
  8
POPIS
100
AcDbLine
 10
529.0946810856551
 20
339.4767589930609
 30
0.0
 11
497.249440016777
 21
399.1374223267969
 31
0.0
  0
INSERT
  5
497
330
1F
100
AcDbEntity
  8
POPIS
100
AcDbBlockReference
  2
E_PUNKT
 10
529.0670707100291
 20
339.4476906621887
 30
0.0
  0
TEXT
  5
498
330
1F
100
AcDbEntity
  8
POPIS
100
AcDbText
 10
481.4645155527562
 20
403.8384854633206
 30
0.0
 40
25.0
  1
02
 41
0.85
  7
SIMPLEX7
100
AcDbText
  0
INSERT
  5
499
330
1F
100
AcDbEntity
  8
POPIS
100
AcDbBlockReference
  2
E_PUNKT
 10
341.5378450688879
 20
339.4476906621887
 30
0.0
  0
TEXT
  5
49A
330
1F
100
AcDbEntity
  8
POPIS
100
AcDbText
 10
811.036087220193
 20
374.8030181421784
 30
0.0
 40
25.0
  1
01
 41
0.85
  7
SIMPLEX7
100
AcDbText
  0
TEXT
  5
49B
330
1F
100
AcDbEntity
  8
POPIS
100
AcDbText
 10
865.3797903799352
 20
374.8030181421784
 30
0.0
 40
25.0
  1
Deska CETRIS   
 41
0.7
  7
SIMPLEX7
100
AcDbText
  0
TEXT
  5
49C
330
1F
100
AcDbEntity
  8
POPIS
100
AcDbText
 10
811.036087220193
 20
338.2080065265511
 30
0.0
 40
25.0
  1
02
 41
0.85
  7
SIMPLEX7
100
AcDbText
  0
TEXT
  5
49D
330
1F
100
AcDbEntity
  8
POPIS
100
AcDbText
 10
865.3797903799352
 20
338.2080065265511
 30
0.0
 40
25.0
  1
Vrut Bűhnen 4,2x35 (45,55) mm
 41
0.7
  7
SIMPLEX7
100
AcDbText
  0
TEXT
  5
49E
330
1F
100
AcDbEntity
  8
POPIS
100
AcDbText
 10
811.036087220193
 20
304.257818281829
 30
0.0
 40
25.0
  1
03
 41
0.85
  7
SIMPLEX7
100
AcDbText
  0
TEXT
  5
49F
330
1F
100
AcDbEntity
  8
POPIS
100
AcDbText
 10
865.3797903799352
 20
304.257818281829
 30
0.0
 40
25.0
  1
Svislý dřevěný hranolek 80/50 (50/50)
 41
0.7
  7
SIMPLEX7
100
AcDbText
  0
TEXT
  5
4A0
330
1F
100
AcDbEntity
  8
POPIS
100
AcDbText
 10
811.036087220193
 20
268.8536570636663
 30
0.0
 40
25.0
  1
04
 41
0.85
  7
SIMPLEX7
100
AcDbText
  0
TEXT
  5
4A1
330
1F
100
AcDbEntity
  8
POPIS
100
AcDbText
 10
865.3797903799352
 20
268.8536570636663
 30
0.0
 40
25.0
  1
Tepelná izolace
 41
0.7
  7
SIMPLEX7
100
AcDbText
  0
TEXT
  5
4A2
330
1F
100
AcDbEntity
  8
POPIS
100
AcDbText
 10
865.3797903799352
 20
232.7468355764779
 30
0.0
 40
25.0
  1
Trvale pružný tmel
 41
0.7
  7
SIMPLEX7
100
AcDbText
  0
TEXT
  5
4A3
330
1F
100
AcDbEntity
  8
POPIS
100
AcDbText
 10
811.036087220193
 20
232.7468355764779
 30
0.0
 40
25.0
  1
05
 41
0.85
  7
SIMPLEX7
100
AcDbText
  0
TEXT
  5
4A4
330
1F
100
AcDbEntity
  8
POPIS
100
AcDbText
 10
1033.00597561898
 20
399.778328250459
 30
0.0
 40
12.0
  1
R
 41
0.85
  7
SIMPLEX7
100
AcDbText
  0
CIRCLE
  5
4A5
330
1F
100
AcDbEntity
  8
POPIS
100
AcDbCircle
 10
1037.765004674162
 20
405.3236739954465
 30
0.0
 40
11.13656048292026
  0
TEXT
  5
4A6
330
1F
100
AcDbEntity
  8
POPIS
100
AcDbText
 10
811.036087220193
 20
198.4934430372797
 30
0.0
 40
25.0
  1
06
 41
0.85
  7
SIMPLEX7
100
AcDbText
  0
TEXT
  5
4A7
330
1F
100
AcDbEntity
  8
POPIS
100
AcDbText
 10
865.3797903799352
 20
198.4934430372797
 30
0.0
 40
25.0
  1
Přikotvení - vrut
 41
0.7
  7
SIMPLEX7
100
AcDbText
  0
HATCH
  5
4A8
330
1F
100
AcDbEntity
  8
IZOLACE
100
AcDbHatch
 10
0.0
 20
0.0
 30
0.0
210
0.0
220
0.0
230
1.0
  2
AR-SAND
 70
     0
 71
     0
 91
        1
 92
        7
 72
     0
 73
     1
 93
        4
 10
549.2054000727842
 20
339.4767589930609
 10
544.2054000727842
 20
339.4767589930609
 10
544.2054000727842
 20
327.4767589930618
 10
549.2054000727842
 20
327.4767589930609
 97
        0
 75
     0
 76
     1
 52
90.0
 41
0.1
 77
     0
 78
     4
 53
127.5
 43
-21714.31130879969
 44
-745.7101163568593
 45
-4.894132373293423
 46
-0.1600031295984043
 79
     6
 49
0.0
 49
-3.8608
 49
0.0
 49
-4.318
 49
0.0
 49
-4.1275
 53
97.49999999999985
 43
-21714.31130879969
 44
-745.7101163568593
 45
-7.168251005683543
 46
4.495232831380026
 79
     6
 49
0.0
 49
-2.082799999999999
 49
0.0
 49
-3.4798
 49
0.0
 49
-1.333499999999999
 53
57.5
 43
-21714.31130879969
 44
-748.8343163568595
 45
-0.0143718467854564
 46
7.909923702414579
 79
     6
 49
0.0
 49
-1.27
 49
0.0
 49
-4.572
 49
0.0
 49
-5.969
 53
47.5
 43
-21714.31130879969
 44
-748.8343163568595
 45
-2.229293232572161
 46
7.635564524722972
 79
     6
 49
0.0
 49
-0.635
 49
0.0
 49
-2.997199999999999
 49
0.0
 49
-3.429
 47
0.2359071171925059
 98
        1
 10
546.2295521699782
 20
333.3102248922771
  0
HATCH
  5
4A9
330
1F
100
AcDbEntity
  8
CETRIS
100
AcDbHatch
 10
0.0
 20
0.0
 30
0.0
210
0.0
220
0.0
230
1.0
  2
ANSI31
 70
     0
 71
     0
 91
        8
 92
        7
 72
     0
 73
     1
 93
       23
 10
527.6498738833545
 20
332.8771617219802
 10
527.5838314014402
 20
333.6640904450953
 10
527.1559505371408
 20
335.1449303121546
 10
526.3597200578153
 20
336.4639195904467
 10
525.249090157464
 20
337.5326915798525
 10
523.8994050739095
 20
338.2768322163285
 10
523.8994050739095
 20
339.4767589930618
 10
158.8499828756469
 20
339.4767589930609
 10
158.8499828756505
 20
338.2768322163312
 10
158.1346776894827
 20
337.9401085784459
 10
156.8975438805866
 20
337.022025068007
 10
155.9394628106022
 20
335.81465688511
 10
155.3264769614545
 20
334.4007896754003
 10
155.0995140705674
 20
332.877161722002
 10
155.0995140705674
 20
327.9212839179265
 10
155.772031168992
 20
327.6951523636701
 10
156.1493405645599
 20
327.4767589930609
 10
527.6498738833545
 20
327.4767589930618
 10
527.6498738833618
 20
328.2326951377592
 10
526.977356784919
 20
328.4588266920629
 10
526.5997054096226
 20
328.6764878281076
 10
526.9773567849299
 20
329.0550693769375
 10
527.6498738833545
 20
328.8289378226838
 97
        0
 92
        7
 72
     0
 73
     1
 93
       12
 10
544.2054000727842
 20
339.4767589930618
 10
534.0997128511774
 20
339.4767589930609
 10
534.0997128511774
 20
338.2768322163285
 10
533.3844076650096
 20
337.9401085784477
 10
532.1472738561135
 20
337.0220250680088
 10
531.1891927861291
 20
335.8146568851036
 10
530.5762069369778
 20
334.4007896753948
 10
530.3492440460943
 20
332.8771617219611
 10
530.3492440460943
 20
327.9212839179247
 10
531.0217611445225
 20
327.6951523636719
 10
531.3990705400867
 20
327.4767589930618
 10
544.2054000727842
 20
327.4767589930609
 97
        0
 92
        7
 72
     0
 73
     1
 93
       12
 10
562.8345932085942
 20
334.4007896754012
 10
562.2216073594465
 20
335.8146568851
 10
561.2635262894584
 20
337.0220250680097
 10
560.0263924805515
 20
337.9401085784486
 10
559.3110872943873
 20
338.2768322163312
 10
559.3110872943945
 20
339.4767589930609
 10
549.2054000727878
 20
339.4767589930618
 10
549.2054000727805
 20
327.4767589930618
 10
562.0117296054815
 20
327.4767589930609
 10
562.3890390010349
 20
327.6951523636692
 10
563.061556099474
 20
327.9212839179265
 10
563.061556099474
 20
332.8771617219647
 97
        0
 92
        7
 72
     0
 73
     1
 93
       15
 10
649.1975411212372
 20
339.4767589930609
 10
569.5113950716588
 20
339.4767589930609
 10
569.5113950716588
 20
338.2768322163276
 10
568.1617099881079
 20
337.5326915798516
 10
567.0510800877529
 20
336.4639195904367
 10
566.2548496084311
 20
335.1449303121437
 10
565.8269687441282
 20
333.6640904450698
 10
565.7609262622066
 20
332.8771617219611
 10
565.7609262622101
 20
328.8289378226847
 10
566.4334433606348
 20
329.0550693769375
 10
566.8110947359529
 20
328.6764878281103
 10
566.4334433606348
 20
328.4588266920575
 10
565.7609262622101
 20
328.2326951377592
 10
565.7609262622101
 20
327.4767589930618
 10
646.9873798429364
 20
327.4767589930609
 97
        0
 92
        7
 72
     0
 73
     1
 93
       12
 10
637.5514177912557
 20
276.2445047083122
 10
543.5161602598675
 20
276.2445047083122
 10
543.1388508643033
 20
276.0261113376993
 10
542.4663337658751
 20
275.7999797834447
 10
542.4663337658715
 20
270.844101979422
 10
542.6932966567513
 20
269.3204740259645
 10
543.3062825059026
 20
267.9066068162712
 10
544.264363575887
 20
266.6992386333715
 10
545.5014973847867
 20
265.7811551229226
 10
546.2168025709582
 20
265.44443148504
 10
546.2168025709582
 20
264.2445047083122
 10
635.3412565129586
 20
264.2445047083122
 97
        0
 92
        7
 72
     0
 73
     1
 93
       23
 10
539.7669636031389
 20
274.8923258786874
 10
539.0944465047107
 20
274.6661943244355
 10
538.7167951293998
 20
275.0447758732637
 10
539.0944465047144
 20
275.2624370093174
 10
539.7669636031389
 20
275.4885685636147
 10
539.7669636031426
 20
276.2445047083122
 10
156.1493405645599
 20
276.2445047083122
 10
155.7720311690029
 20
276.026111337702
 10
155.0995140705674
 20
275.7999797834475
 10
155.0995140705674
 20
270.8441019793592
 10
155.3264769614545
 20
269.32047402596
 10
155.9394628105949
 20
267.9066068162676
 10
156.8975438805794
 20
266.6992386333725
 10
158.1346776894754
 20
265.7811551229272
 10
158.8499828756505
 20
265.4444314850427
 10
158.8499828756505
 20
264.2445047083122
 10
536.0164947936903
 20
264.2445047083122
 10
536.0164947936939
 20
265.4444314850445
 10
537.3661798772484
 20
266.1885721215178
 10
538.4768097775998
 20
267.25734411093
 10
539.2730402569143
 20
268.5763333892202
 10
539.7009211212137
 20
270.0571732562705
 10
539.7669636031353
 20
270.844101979362
 97
        0
 92
        7
 72
     0
 73
     1
 93
       15
 10
152.4001439078313
 20
274.8923258786883
 10
151.7276268093994
 20
274.6661943244355
 10
151.3499754340921
 20
275.0447758732637
 10
151.7276268094103
 20
275.2624370093146
 10
152.4001439078313
 20
275.488568563612
 10
152.4001439078313
 20
276.2445047083122
 10
123.2990668387394
 20
276.2445047083122
 10
123.2990668387394
 20
264.2445047083122
 10
148.6496750983862
 20
264.2445047083122
 10
148.6496750983826
 20
265.4444314850436
 10
149.9993601819262
 20
266.188572121516
 10
151.1099900822921
 20
267.2573441109282
 10
151.9062205615994
 20
268.5763333892166
 10
152.3341014259097
 20
270.0571732562741
 10
152.4001439078313
 20
270.8441019794802
 97
        0
 92
        7
 72
     0
 73
     1
 93
       15
 10
152.4001439078313
 20
332.8771617219565
 10
152.3341014259133
 20
333.6640904451035
 10
151.9062205616067
 20
335.1449303121564
 10
151.1099900822885
 20
336.4639195904458
 10
149.9993601819335
 20
337.5326915798589
 10
148.6496750983826
 20
338.2768322163304
 10
148.6496750983826
 20
339.4767589930609
 10
123.2990668387394
 20
339.4767589930609
 10
123.2990668387394
 20
327.4767589930609
 10
152.4001439078349
 20
327.4767589930618
 10
152.4001439078276
 20
328.232695137761
 10
151.7276268094031
 20
328.4588266920629
 10
151.3499754340921
 20
328.6764878281057
 10
151.7276268094031
 20
329.0550693769394
 10
152.4001439078313
 20
328.8289378226857
 97
        0
 75
     0
 76
     1
 52
90.0
 41
1.0
 77
     0
 78
     1
 53
135.0
 43
-21714.31130879969
 44
-745.7101163568593
 45
-2.245064030267288
 46
-2.245064030267287
 79
     0
 47
0.7084555761931278
 98
        8
 10
491.8865873898396
 20
331.8211360614616
 10
532.9994444179176
 20
333.2380410780044
 10
552.1381849464344
 20
333.2380410780044
 10
581.9095735473458
 20
331.8211360614616
 10
579.7830415690698
 20
272.3108624019453
 10
508.1899637663156
 20
272.3108624019453
 10
138.1742386946646
 20
271.6024062413855
 10
143.1361348249813
 20
332.5295922220214
  0
LINE
  5
4AA
330
1F
100
AcDbEntity
  8
SPOJOVACÍ
  6
CONTINUOUS
100
AcDbLine
 10
566.4334433606383
 20
316.5749007251045
 30
0.0
 11
562.3890390010457
 21
315.2149837115623
 31
0.0
  0
LINE
  5
4AB
330
1F
100
AcDbEntity
  8
SPOJOVACÍ
  6
CONTINUOUS
100
AcDbLine
 10
566.4334433606383
 20
315.9786580399497
 30
0.0
 11
562.3890390010457
 21
314.6187410264076
 31
0.0
  0
LINE
  5
4AC
330
1F
100
AcDbEntity
  8
SPOJOVACÍ
  6
CONTINUOUS
100
AcDbLine
 10
562.0113876301004
 20
314.9963923995358
 30
0.0
 11
562.3890390010457
 21
315.2149837115623
 31
0.0
  0
LINE
  5
4AD
330
1F
100
AcDbEntity
  8
SPOJOVACÍ
  6
CONTINUOUS
100
AcDbLine
 10
562.0113876301004
 20
314.9963923995358
 30
0.0
 11
562.3890390010457
 21
314.6187410264076
 31
0.0
  0
LINE
  5
4AE
330
1F
100
AcDbEntity
  8
SPOJOVACÍ
  6
CONTINUOUS
100
AcDbLine
 10
566.8110947359493
 20
316.196319175998
 30
0.0
 11
566.4334433606383
 21
316.5749007251045
 31
0.0
  0
LINE
  5
4AF
330
1F
100
AcDbEntity
  8
SPOJOVACÍ
  6
CONTINUOUS
100
AcDbLine
 10
566.8110947359493
 20
316.196319175998
 30
0.0
 11
566.4334433606383
 21
315.9786580399497
 31
0.0
  0
LINE
  5
4B0
330
1F
100
AcDbEntity
  8
SPOJOVACÍ
  6
CONTINUOUS
100
AcDbLine
 10
566.8110947359493
 20
316.196319175998
 30
0.0
 11
562.0113876301004
 21
314.9963923995358
 31
0.0
  0
LINE
  5
4B1
330
1F
100
AcDbEntity
  8
SPOJOVACÍ
  6
CONTINUOUS
100
AcDbLine
 10
566.4334433606383
 20
319.6947103440663
 30
0.0
 11
562.3890390010457
 21
318.3347933305242
 31
0.0
  0
LINE
  5
4B2
330
1F
100
AcDbEntity
  8
SPOJOVACÍ
  6
CONTINUOUS
100
AcDbLine
 10
566.4334433606383
 20
319.0984676589189
 30
0.0
 11
562.3890390010457
 21
317.738550645646
 31
0.0
  0
LINE
  5
4B3
330
1F
100
AcDbEntity
  8
SPOJOVACÍ
  6
CONTINUOUS
100
AcDbLine
 10
562.0113876301004
 20
318.1171321944759
 30
0.0
 11
562.3890390010457
 21
318.3347933305242
 31
0.0
  0
LINE
  5
4B4
330
1F
100
AcDbEntity
  8
SPOJOVACÍ
  6
CONTINUOUS
100
AcDbLine
 10
562.0113876301004
 20
318.1171321944759
 30
0.0
 11
562.3890390010457
 21
317.738550645646
 31
0.0
  0
LINE
  5
4B5
330
1F
100
AcDbEntity
  8
SPOJOVACÍ
  6
CONTINUOUS
100
AcDbLine
 10
566.8110947359493
 20
319.3170589709382
 30
0.0
 11
566.4334433606383
 21
319.6947103440663
 31
0.0
  0
LINE
  5
4B6
330
1F
100
AcDbEntity
  8
SPOJOVACÍ
  6
CONTINUOUS
100
AcDbLine
 10
566.8110947359493
 20
319.3170589709382
 30
0.0
 11
566.4334433606383
 21
319.0984676589189
 31
0.0
  0
LINE
  5
4B7
330
1F
100
AcDbEntity
  8
SPOJOVACÍ
  6
CONTINUOUS
100
AcDbLine
 10
566.8110947359493
 20
319.3170589709382
 30
0.0
 11
562.0113876301004
 21
318.1171321944759
 31
0.0
  0
LINE
  5
4B8
330
1F
100
AcDbEntity
  8
SPOJOVACÍ
  6
CONTINUOUS
100
AcDbLine
 10
566.4334433606383
 20
322.8145199630355
 30
0.0
 11
562.3890390010457
 21
321.4546029497626
 31
0.0
  0
LINE
  5
4B9
330
1F
100
AcDbEntity
  8
SPOJOVACÍ
  6
CONTINUOUS
100
AcDbLine
 10
566.4334433606383
 20
322.2182772778808
 30
0.0
 11
562.3890390010457
 21
320.8583602646151
 31
0.0
  0
LINE
  5
4BA
330
1F
100
AcDbEntity
  8
SPOJOVACÍ
  6
CONTINUOUS
100
AcDbLine
 10
562.0113876301004
 20
321.2369418134451
 30
0.0
 11
562.3890390010457
 21
321.4546029497626
 31
0.0
  0
LINE
  5
4BB
330
1F
100
AcDbEntity
  8
SPOJOVACÍ
  6
CONTINUOUS
100
AcDbLine
 10
562.0113876301004
 20
321.2369418134451
 30
0.0
 11
562.3890390010457
 21
320.8583602646151
 31
0.0
  0
LINE
  5
4BC
330
1F
100
AcDbEntity
  8
SPOJOVACÍ
  6
CONTINUOUS
100
AcDbLine
 10
566.8110947359493
 20
322.4368685899073
 30
0.0
 11
566.4334433606383
 21
322.8145199630355
 31
0.0
  0
LINE
  5
4BD
330
1F
100
AcDbEntity
  8
SPOJOVACÍ
  6
CONTINUOUS
100
AcDbLine
 10
566.8110947359493
 20
322.4368685899073
 30
0.0
 11
566.4334433606383
 21
322.2182772778808
 31
0.0
  0
LINE
  5
4BE
330
1F
100
AcDbEntity
  8
SPOJOVACÍ
  6
CONTINUOUS
100
AcDbLine
 10
566.8110947359493
 20
322.4368685899073
 30
0.0
 11
562.0113876301004
 21
321.2369418134451
 31
0.0
  0
LINE
  5
4BF
330
1F
100
AcDbEntity
  8
SPOJOVACÍ
  6
CONTINUOUS
100
AcDbLine
 10
565.427923324951
 20
307.0908283110668
 30
0.0
 11
563.2736361834942
 21
306.7801495952928
 31
0.0
  0
LINE
  5
4C0
330
1F
100
AcDbEntity
  8
SPOJOVACÍ
  6
CONTINUOUS
100
AcDbLine
 10
565.0502719540056
 20
307.468479684195
 30
0.0
 11
563.6512875544396
 21
306.9978107316103
 31
0.0
  0
LINE
  5
4C1
330
1F
100
AcDbEntity
  8
SPOJOVACÍ
  6
CONTINUOUS
100
AcDbLine
 10
565.0502719540056
 20
306.8722369990475
 30
0.0
 11
563.6512875544396
 21
306.4015680464629
 31
0.0
  0
LINE
  5
4C2
330
1F
100
AcDbEntity
  8
SPOJOVACÍ
  6
CONTINUOUS
100
AcDbLine
 10
563.2736361834942
 20
306.7801495952928
 30
0.0
 11
563.6512875544396
 21
306.9978107316103
 31
0.0
  0
LINE
  5
4C3
330
1F
100
AcDbEntity
  8
SPOJOVACÍ
  6
CONTINUOUS
100
AcDbLine
 10
563.2736361834942
 20
306.7801495952928
 30
0.0
 11
563.6512875544396
 21
306.4015680464629
 31
0.0
  0
LINE
  5
4C4
330
1F
100
AcDbEntity
  8
SPOJOVACÍ
  6
CONTINUOUS
100
AcDbLine
 10
565.427923324951
 20
307.0908283110668
 30
0.0
 11
565.0502719540056
 21
307.468479684195
 31
0.0
  0
LINE
  5
4C5
330
1F
100
AcDbEntity
  8
SPOJOVACÍ
  6
CONTINUOUS
100
AcDbLine
 10
565.427923324951
 20
307.0908283110668
 30
0.0
 11
565.0502719540056
 21
306.8722369990475
 31
0.0
  0
LINE
  5
4C6
330
1F
100
AcDbEntity
  8
SPOJOVACÍ
  6
CONTINUOUS
100
AcDbLine
 10
565.9925400354224
 20
310.1045978893864
 30
0.0
 11
562.8764511189912
 21
309.4711481726164
 31
0.0
  0
LINE
  5
4C7
330
1F
100
AcDbEntity
  8
SPOJOVACÍ
  6
CONTINUOUS
100
AcDbLine
 10
565.6148886601115
 20
310.4831794384929
 30
0.0
 11
563.2541024899366
 21
309.6888093086647
 31
0.0
  0
LINE
  5
4C8
330
1F
100
AcDbEntity
  8
SPOJOVACÍ
  6
CONTINUOUS
100
AcDbLine
 10
565.6148886601115
 20
309.8869367533382
 30
0.0
 11
563.2541024899366
 21
309.0925666237865
 31
0.0
  0
LINE
  5
4C9
330
1F
100
AcDbEntity
  8
SPOJOVACÍ
  6
CONTINUOUS
100
AcDbLine
 10
562.8764511189912
 20
309.4711481726164
 30
0.0
 11
563.2541024899366
 21
309.6888093086647
 31
0.0
  0
LINE
  5
4CA
330
1F
100
AcDbEntity
  8
SPOJOVACÍ
  6
CONTINUOUS
100
AcDbLine
 10
562.8764511189912
 20
309.4711481726164
 30
0.0
 11
563.2541024899366
 21
309.0925666237865
 31
0.0
  0
LINE
  5
4CB
330
1F
100
AcDbEntity
  8
SPOJOVACÍ
  6
CONTINUOUS
100
AcDbLine
 10
565.9925400354224
 20
310.1045978893864
 30
0.0
 11
565.6148886601115
 21
310.4831794384929
 31
0.0
  0
LINE
  5
4CC
330
1F
100
AcDbEntity
  8
SPOJOVACÍ
  6
CONTINUOUS
100
AcDbLine
 10
565.9925400354224
 20
310.1045978893864
 30
0.0
 11
565.6148886601115
 21
309.8869367533382
 31
0.0
  0
LINE
  5
4CD
330
1F
100
AcDbEntity
  8
SPOJOVACÍ
  6
CONTINUOUS
100
AcDbLine
 10
566.5571567415283
 20
313.1192976436843
 30
0.0
 11
562.4318270887854
 21
312.1463337613797
 31
0.0
  0
LINE
  5
4CE
330
1F
100
AcDbEntity
  8
SPOJOVACÍ
  6
CONTINUOUS
100
AcDbLine
 10
566.178575193244
 20
313.4969490168125
 30
0.0
 11
562.8094784597307
 21
312.363994897428
 31
0.0
  0
LINE
  5
4CF
330
1F
100
AcDbEntity
  8
SPOJOVACÍ
  6
CONTINUOUS
100
AcDbLine
 10
566.178575193244
 20
312.9007063316578
 30
0.0
 11
562.8094784597307
 21
311.7677522122733
 31
0.0
  0
LINE
  5
4D0
330
1F
100
AcDbEntity
  8
SPOJOVACÍ
  6
CONTINUOUS
100
AcDbLine
 10
562.4318270887854
 20
312.1463337613797
 30
0.0
 11
562.8094784597307
 21
312.363994897428
 31
0.0
  0
LINE
  5
4D1
330
1F
100
AcDbEntity
  8
SPOJOVACÍ
  6
CONTINUOUS
100
AcDbLine
 10
562.4318270887854
 20
312.1463337613797
 30
0.0
 11
562.8094784597307
 21
311.7677522122733
 31
0.0
  0
LINE
  5
4D2
330
1F
100
AcDbEntity
  8
SPOJOVACÍ
  6
CONTINUOUS
100
AcDbLine
 10
566.5571567415283
 20
313.1192976436843
 30
0.0
 11
566.178575193244
 21
313.4969490168125
 31
0.0
  0
LINE
  5
4D3
330
1F
100
AcDbEntity
  8
SPOJOVACÍ
  6
CONTINUOUS
100
AcDbLine
 10
566.5571567415283
 20
313.1192976436843
 30
0.0
 11
566.178575193244
 21
312.9007063316578
 31
0.0
  0
LINE
  5
4D4
330
1F
100
AcDbEntity
  8
SPOJOVACÍ
  6
CONTINUOUS
100
AcDbLine
 10
566.4334433606383
 20
325.9343295822739
 30
0.0
 11
562.3890390010457
 21
324.5753427444335
 31
0.0
  0
LINE
  5
4D5
330
1F
100
AcDbEntity
  8
SPOJOVACÍ
  6
CONTINUOUS
100
AcDbLine
 10
566.4334433606383
 20
325.3380868971191
 30
0.0
 11
562.3890390010457
 21
323.9791000595553
 31
0.0
  0
LINE
  5
4D6
330
1F
100
AcDbEntity
  8
SPOJOVACÍ
  6
CONTINUOUS
100
AcDbLine
 10
562.0113876301004
 20
324.356751432407
 30
0.0
 11
562.3890390010457
 21
324.5753427444335
 31
0.0
  0
LINE
  5
4D7
330
1F
100
AcDbEntity
  8
SPOJOVACÍ
  6
CONTINUOUS
100
AcDbLine
 10
562.0113876301004
 20
324.356751432407
 30
0.0
 11
562.3890390010457
 21
323.9791000595553
 31
0.0
  0
LINE
  5
4D8
330
1F
100
AcDbEntity
  8
SPOJOVACÍ
  6
CONTINUOUS
100
AcDbLine
 10
566.8110947359493
 20
325.5566782091457
 30
0.0
 11
566.4334433606383
 21
325.9343295822739
 31
0.0
  0
LINE
  5
4D9
330
1F
100
AcDbEntity
  8
SPOJOVACÍ
  6
CONTINUOUS
100
AcDbLine
 10
566.8110947359493
 20
325.5566782091457
 30
0.0
 11
566.4334433606383
 21
325.3380868971191
 31
0.0
  0
LINE
  5
4DA
330
1F
100
AcDbEntity
  8
SPOJOVACÍ
  6
CONTINUOUS
100
AcDbLine
 10
566.8110947359493
 20
325.5566782091457
 30
0.0
 11
562.0113876301004
 21
324.356751432407
 31
0.0
  0
LINE
  5
4DB
330
1F
100
AcDbEntity
  8
SPOJOVACÍ
  6
CONTINUOUS
100
AcDbLine
 10
566.4334433606383
 20
329.0550693769375
 30
0.0
 11
562.3890390010457
 21
327.6951523636719
 31
0.0
  0
LINE
  5
4DC
330
1F
100
AcDbEntity
  8
SPOJOVACÍ
  6
CONTINUOUS
100
AcDbLine
 10
566.4334433606383
 20
328.4588266920593
 30
0.0
 11
562.3890390010457
 21
327.0989096785172
 31
0.0
  0
LINE
  5
4DD
330
1F
100
AcDbEntity
  8
SPOJOVACÍ
  6
CONTINUOUS
100
AcDbLine
 10
562.0113876301004
 20
327.4765610516453
 30
0.0
 11
562.3890390010457
 21
327.6951523636719
 31
0.0
  0
LINE
  5
4DE
330
1F
100
AcDbEntity
  8
SPOJOVACÍ
  6
CONTINUOUS
100
AcDbLine
 10
562.0113876301004
 20
327.4765610516453
 30
0.0
 11
562.3890390010457
 21
327.0989096785172
 31
0.0
  0
LINE
  5
4DF
330
1F
100
AcDbEntity
  8
SPOJOVACÍ
  6
CONTINUOUS
100
AcDbLine
 10
566.8110947359493
 20
328.6764878281076
 30
0.0
 11
566.4334433606383
 21
329.0550693769375
 31
0.0
  0
LINE
  5
4E0
330
1F
100
AcDbEntity
  8
SPOJOVACÍ
  6
CONTINUOUS
100
AcDbLine
 10
566.8110947359493
 20
328.6764878281076
 30
0.0
 11
566.4334433606383
 21
328.4588266920593
 31
0.0
  0
LINE
  5
4E1
330
1F
100
AcDbEntity
  8
SPOJOVACÍ
  6
CONTINUOUS
100
AcDbLine
 10
566.8110947359493
 20
328.6764878281076
 30
0.0
 11
562.0113876301004
 21
327.4765610516453
 31
0.0
  0
LINE
  5
4E2
330
1F
100
AcDbEntity
  8
SPOJOVACÍ
  6
CONTINUOUS
100
AcDbLine
 10
563.3071225109417
 20
312.5407282987773
 30
0.0
 11
563.061556099474
 21
314.5117708100635
 31
0.0
  0
LINE
  5
4E3
330
1F
100
AcDbEntity
  8
SPOJOVACÍ
  6
CONTINUOUS
100
AcDbLine
 10
563.645706503503
 20
309.8339167328788
 30
0.0
 11
563.3787460481655
 21
311.9705305357322
 31
0.0
  0
LINE
  5
4E4
330
1F
100
AcDbEntity
  8
SPOJOVACÍ
  6
CONTINUOUS
100
AcDbLine
 10
563.9852206646721
 20
307.1168732334456
 30
0.0
 11
563.7173300363612
 21
309.26185861843
 31
0.0
  0
LINE
  5
4E5
330
1F
100
AcDbEntity
  8
SPOJOVACÍ
  6
CONTINUOUS
100
AcDbLine
 10
564.7972641369235
 20
306.8006134629151
 30
0.0
 11
564.4112411830248
 21
303.7114996451102
 31
0.0
  0
LINE
  5
4E6
330
1F
100
AcDbEntity
  8
SPOJOVACÍ
  6
CONTINUOUS
100
AcDbLine
 10
565.1646835746034
 20
309.7418293291241
 30
0.0
 11
564.8744687294494
 21
307.4210407187686
 31
0.0
  0
LINE
  5
4E7
330
1F
100
AcDbEntity
  8
SPOJOVACÍ
  6
CONTINUOUS
100
AcDbLine
 10
565.5339633669611
 20
312.6942073048533
 30
0.0
 11
565.2437485174416
 21
310.3724885187887
 31
0.0
  0
LINE
  5
4E8
330
1F
100
AcDbEntity
  8
SPOJOVACÍ
  6
CONTINUOUS
100
AcDbLine
 10
564.4112411830248
 20
303.7114996451102
 30
0.0
 11
564.0568442018959
 21
306.5476056463787
 31
0.0
  0
LINE
  5
4E9
330
1F
100
AcDbEntity
  8
SPOJOVACÍ
  6
CONTINUOUS
100
AcDbLine
 10
565.7609262622101
 20
314.5117708100635
 30
0.0
 11
565.6111679594871
 21
313.3146345607067
 31
0.0
  0
LINE
  5
4EA
330
1F
100
AcDbEntity
  8
SPOJOVACÍ
  6
CONTINUOUS
100
AcDbLine
 10
563.061556099474
 20
314.8484944479471
 30
0.0
 11
563.061556099474
 21
314.5117708100635
 31
0.0
  0
LINE
  5
4EB
330
1F
100
AcDbEntity
  8
SPOJOVACÍ
  6
CONTINUOUS
100
AcDbLine
 10
563.061556099474
 20
317.97109459456
 30
0.0
 11
563.061556099474
 21
315.4521785395311
 31
0.0
  0
LINE
  5
4EC
330
1F
100
AcDbEntity
  8
SPOJOVACÍ
  6
CONTINUOUS
100
AcDbLine
 10
565.7609262622101
 20
315.7591365519522
 30
0.0
 11
565.7609262622101
 21
314.5117708100635
 31
0.0
  0
LINE
  5
4ED
330
1F
100
AcDbEntity
  8
SPOJOVACÍ
  6
CONTINUOUS
100
AcDbLine
 10
565.7609262622101
 20
318.8733651164341
 30
0.0
 11
565.7609262622101
 21
316.3553792371069
 31
0.0
  0
LINE
  5
4EE
330
1F
100
AcDbEntity
  8
SPOJOVACÍ
  6
CONTINUOUS
100
AcDbLine
 10
563.061556099474
 20
321.092764565202
 30
0.0
 11
563.061556099474
 21
318.571988158493
 31
0.0
  0
LINE
  5
4EF
330
1F
100
AcDbEntity
  8
SPOJOVACÍ
  6
CONTINUOUS
100
AcDbLine
 10
563.061556099474
 20
324.2153647115458
 30
0.0
 11
563.061556099474
 21
321.6871468986767
 31
0.0
  0
LINE
  5
4F0
330
1F
100
AcDbEntity
  8
SPOJOVACÍ
  6
CONTINUOUS
100
AcDbLine
 10
563.061556099474
 20
327.3305234517295
 30
0.0
 11
563.061556099474
 21
324.8116073967005
 31
0.0
  0
LINE
  5
4F1
330
1F
100
AcDbEntity
  8
SPOJOVACÍ
  6
CONTINUOUS
100
AcDbLine
 10
565.7609262622101
 20
322.006197196589
 30
0.0
 11
565.7609262622101
 21
319.4779793837199
 31
0.0
  0
LINE
  5
4F2
330
1F
100
AcDbEntity
  8
SPOJOVACÍ
  6
CONTINUOUS
100
AcDbLine
 10
565.7609262622101
 20
325.1213559367727
 30
0.0
 11
565.7609262622101
 21
322.6005795300636
 31
0.0
  0
LINE
  5
4F3
330
1F
100
AcDbEntity
  8
SPOJOVACÍ
  6
CONTINUOUS
100
AcDbLine
 10
565.7609262622101
 20
328.2439560831164
 30
0.0
 11
565.7609262622101
 21
325.7250400280875
 31
0.0
  0
LINE
  5
4F4
330
1F
100
AcDbEntity
  8
SPOJOVACÍ
  6
CONTINUOUS
100
AcDbLine
 10
565.7609262622101
 20
332.8771617219729
 30
0.0
 11
565.7609262622101
 21
328.8392685922929
 31
0.0
  0
LINE
  5
4F5
330
1F
100
AcDbEntity
  8
SPOJOVACÍ
  6
CONTINUOUS
100
AcDbLine
 10
563.061556099474
 20
332.8771617219729
 30
0.0
 11
563.061556099474
 21
327.9342075430442
 31
0.0
  0
LINE
  5
4F6
330
1F
100
AcDbEntity
  8
SPOJOVACÍ
  6
CONTINUOUS
100
AcDbLine
 10
569.5113950716588
 20
338.2768322163294
 30
0.0
 11
568.1617099881079
 21
337.5326915798552
 31
0.0
  0
LINE
  5
4F7
330
1F
100
AcDbEntity
  8
SPOJOVACÍ
  6
CONTINUOUS
100
AcDbLine
 10
568.1617099881079
 20
337.5326915798552
 30
0.0
 11
567.0510800877493
 21
336.463919590443
 31
0.0
  0
LINE
  5
4F8
330
1F
100
AcDbEntity
  8
SPOJOVACÍ
  6
CONTINUOUS
100
AcDbLine
 10
567.0510800877493
 20
336.463919590443
 30
0.0
 11
566.2548496084311
 21
335.1449303121455
 31
0.0
  0
LINE
  5
4F9
330
1F
100
AcDbEntity
  8
SPOJOVACÍ
  6
CONTINUOUS
100
AcDbLine
 10
566.2548496084311
 20
335.1449303121455
 30
0.0
 11
565.8269687441317
 21
333.6640904450953
 31
0.0
  0
LINE
  5
4FA
330
1F
100
AcDbEntity
  8
SPOJOVACÍ
  6
CONTINUOUS
100
AcDbLine
 10
565.8269687441317
 20
333.6640904450953
 30
0.0
 11
565.7609262622101
 21
332.8771617219729
 31
0.0
  0
LINE
  5
4FB
330
1F
100
AcDbEntity
  8
SPOJOVACÍ
  6
CONTINUOUS
100
AcDbLine
 10
561.2635262894584
 20
337.0220250680042
 30
0.0
 11
560.0263924805587
 21
337.9401085784459
 31
0.0
  0
LINE
  5
4FC
330
1F
100
AcDbEntity
  8
SPOJOVACÍ
  6
CONTINUOUS
100
AcDbLine
 10
560.0263924805587
 20
337.9401085784459
 30
0.0
 11
559.3110872943909
 21
338.2768322163294
 31
0.0
  0
LINE
  5
4FD
330
1F
100
AcDbEntity
  8
SPOJOVACÍ
  6
CONTINUOUS
100
AcDbLine
 10
569.5113950716588
 20
338.2768322163294
 30
0.0
 11
559.3110872943909
 21
338.2768322163294
 31
0.0
  0
LINE
  5
4FE
330
1F
100
AcDbEntity
  8
SPOJOVACÍ
  6
CONTINUOUS
100
AcDbLine
 10
569.5113950716588
 20
339.4767589930609
 30
0.0
 11
569.5113950716588
 21
338.2768322163294
 31
0.0
  0
LINE
  5
4FF
330
1F
100
AcDbEntity
  8
SPOJOVACÍ
  6
CONTINUOUS
100
AcDbLine
 10
569.5113950716588
 20
339.4767589930609
 30
0.0
 11
559.3110872943909
 21
339.4767589930609
 31
0.0
  0
LINE
  5
500
330
1F
100
AcDbEntity
  8
SPOJOVACÍ
  6
CONTINUOUS
100
AcDbLine
 10
559.3110872943909
 20
339.4767589930609
 30
0.0
 11
559.3110872943909
 21
338.2768322163294
 31
0.0
  0
LINE
  5
501
330
1F
100
AcDbEntity
  8
SPOJOVACÍ
  6
CONTINUOUS
100
AcDbLine
 10
563.061556099474
 20
332.8771617219729
 30
0.0
 11
562.8345932085905
 21
334.4007896754021
 31
0.0
  0
LINE
  5
502
330
1F
100
AcDbEntity
  8
SPOJOVACÍ
  6
CONTINUOUS
100
AcDbLine
 10
562.8345932085905
 20
334.4007896754021
 30
0.0
 11
562.2216073594429
 21
335.8146568851054
 31
0.0
  0
LINE
  5
503
330
1F
100
AcDbEntity
  8
SPOJOVACÍ
  6
CONTINUOUS
100
AcDbLine
 10
562.2216073594429
 20
335.8146568851054
 30
0.0
 11
561.2635262894584
 21
337.0220250680042
 31
0.0
  0
LWPOLYLINE
  5
504
330
1F
100
AcDbEntity
  8
IZOLACE
100
AcDbPolyline
 90
        4
 70
     1
 43
0.0
 10
549.2054000727842
 20
339.4767589930609
 10
544.2054000727842
 20
339.4767589930609
 10
544.2054000727842
 20
327.4767589930618
 10
549.2054000727842
 20
327.4767589930609
  0
LINE
  5
505
330
1F
100
AcDbEntity
  8
CETRIS
100
AcDbLine
 10
549.2054000727842
 20
339.4767589930618
 30
0.0
 11
649.1975411212372
 21
339.4767589930609
 31
0.0
  0
LINE
  5
506
330
1F
100
AcDbEntity
  8
CETRIS
100
AcDbLine
 10
549.2054000727842
 20
327.4767589930618
 30
0.0
 11
646.9873798429364
 21
327.4767589930609
 31
0.0
  0
LINE
  5
507
330
1F
100
AcDbEntity
  8
CETRIS
100
AcDbLine
 10
549.2054000727842
 20
327.4767589930618
 30
0.0
 11
549.2054000727842
 21
339.4767589930609
 31
0.0
  0
LINE
  5
508
330
1F
100
AcDbEntity
  8
CETRIS
100
AcDbLine
 10
544.2054000727842
 20
327.4767589930618
 30
0.0
 11
544.2054000727842
 21
339.4767589930609
 31
0.0
  0
HATCH
  5
509
330
1F
100
AcDbEntity
  8
IZOLACE
100
AcDbHatch
 10
0.0
 20
0.0
 30
0.0
210
0.0
220
0.0
230
1.0
  2
AR-SAND
 70
     0
 71
     0
 91
        2
 92
        7
 72
     0
 73
     1
 93
        4
 10
123.2990668387394
 20
339.4767589930609
 10
118.08102185755
 20
339.4767589930609
 10
118.08102185755
 20
327.4767589930609
 10
123.2990668387394
 20
327.4767589930609
 97
        0
 92
        7
 72
     0
 73
     1
 93
        4
 10
123.2990668387394
 20
276.2445047083122
 10
118.08102185755
 20
276.2445047083122
 10
118.08102185755
 20
264.2445047083122
 10
123.299066838743
 20
264.2445047083122
 97
        0
 75
     0
 76
     1
 52
90.0
 41
0.1
 77
     0
 78
     4
 53
127.5
 43
-21714.31130879969
 44
-745.7101163568593
 45
-4.894132373293423
 46
-0.1600031295984043
 79
     6
 49
0.0
 49
-3.8608
 49
0.0
 49
-4.318
 49
0.0
 49
-4.1275
 53
97.49999999999985
 43
-21714.31130879969
 44
-745.7101163568593
 45
-7.168251005683543
 46
4.495232831380026
 79
     6
 49
0.0
 49
-2.082799999999999
 49
0.0
 49
-3.4798
 49
0.0
 49
-1.333499999999999
 53
57.5
 43
-21714.31130879969
 44
-748.8343163568595
 45
-0.0143718467854564
 46
7.909923702414579
 79
     6
 49
0.0
 49
-1.27
 49
0.0
 49
-4.572
 49
0.0
 49
-5.969
 53
47.5
 43
-21714.31130879969
 44
-748.8343163568595
 45
-2.229293232572161
 46
7.635564524722972
 79
     6
 49
0.0
 49
-0.635
 49
0.0
 49
-2.997199999999999
 49
0.0
 49
-3.429
 47
0.4414942775221867
 98
        2
 10
120.646911235199
 20
334.9914605794404
 10
121.0886460285184
 20
269.6503022886029
  0
LWPOLYLINE
  5
50A
330
1F
100
AcDbEntity
  8
IZOLACE
100
AcDbPolyline
 90
        4
 70
     1
 43
0.0
 10
123.2990668387394
 20
339.4767589930609
 10
118.08102185755
 20
339.4767589930609
 10
118.08102185755
 20
327.4767589930609
 10
123.2990668387394
 20
327.4767589930609
  0
LWPOLYLINE
  5
50B
330
1F
100
AcDbEntity
  8
IZOLACE
100
AcDbPolyline
 90
        4
 70
     1
 43
0.0
 10
123.2990668387394
 20
264.2445047083122
 10
118.08102185755
 20
264.2445047083122
 10
118.08102185755
 20
276.2445047083122
 10
123.2990668387394
 20
276.2445047083122
  0
LINE
  5
50C
330
1F
100
AcDbEntity
  8
STAVBA_OBRYS
100
AcDbLine
 10
123.2990668387358
 20
276.2445047083122
 30
0.0
 11
116.5086575741299
 21
276.2445047083122
 31
0.0
  0
LINE
  5
50D
330
1F
100
AcDbEntity
  8
IZOLACE
  6
IZOLACE
 48
1.5
100
AcDbLine
 10
171.3367117372511
 20
301.8401970426414
 30
0.0
 11
501.1487811930276
 21
302.0017535813042
 31
0.0
  0
LINE
  5
50E
330
1F
100
AcDbEntity
  8
SPOJOVACÍ
  6
CONTINUOUS
100
AcDbLine
 10
539.0944465047107
 20
287.1463629762686
 30
0.0
 11
543.1388508643033
 21
288.5062799898107
 31
0.0
  0
LINE
  5
50F
330
1F
100
AcDbEntity
  8
SPOJOVACÍ
  6
CONTINUOUS
100
AcDbLine
 10
539.0944465047107
 20
287.7426056614233
 30
0.0
 11
543.1388508643033
 21
289.1025226749654
 31
0.0
  0
LINE
  5
510
330
1F
100
AcDbEntity
  8
SPOJOVACÍ
  6
CONTINUOUS
100
AcDbLine
 10
543.5165022352487
 20
288.7248713018373
 30
0.0
 11
543.1388508643033
 21
288.5062799898107
 31
0.0
  0
LINE
  5
511
330
1F
100
AcDbEntity
  8
SPOJOVACÍ
  6
CONTINUOUS
100
AcDbLine
 10
543.5165022352487
 20
288.7248713018373
 30
0.0
 11
543.1388508643033
 21
289.1025226749654
 31
0.0
  0
LINE
  5
512
330
1F
100
AcDbEntity
  8
SPOJOVACÍ
  6
CONTINUOUS
100
AcDbLine
 10
538.7167951293998
 20
287.524944525375
 30
0.0
 11
539.0944465047107
 21
287.1463629762686
 31
0.0
  0
LINE
  5
513
330
1F
100
AcDbEntity
  8
SPOJOVACÍ
  6
CONTINUOUS
100
AcDbLine
 10
538.7167951293998
 20
287.524944525375
 30
0.0
 11
539.0944465047107
 21
287.7426056614233
 31
0.0
  0
LINE
  5
514
330
1F
100
AcDbEntity
  8
SPOJOVACÍ
  6
CONTINUOUS
100
AcDbLine
 10
538.7167951293998
 20
287.524944525375
 30
0.0
 11
543.5165022352487
 21
288.7248713018373
 31
0.0
  0
LINE
  5
515
330
1F
100
AcDbEntity
  8
SPOJOVACÍ
  6
CONTINUOUS
100
AcDbLine
 10
539.0944465047107
 20
284.0265533573067
 30
0.0
 11
543.1388508643033
 21
285.3864703708488
 31
0.0
  0
LINE
  5
516
330
1F
100
AcDbEntity
  8
SPOJOVACÍ
  6
CONTINUOUS
100
AcDbLine
 10
539.0944465047107
 20
284.6227960424542
 30
0.0
 11
543.1388508643033
 21
285.9827130557271
 31
0.0
  0
LINE
  5
517
330
1F
100
AcDbEntity
  8
SPOJOVACÍ
  6
CONTINUOUS
100
AcDbLine
 10
543.5165022352487
 20
285.6041315068971
 30
0.0
 11
543.1388508643033
 21
285.3864703708488
 31
0.0
  0
LINE
  5
518
330
1F
100
AcDbEntity
  8
SPOJOVACÍ
  6
CONTINUOUS
100
AcDbLine
 10
543.5165022352487
 20
285.6041315068971
 30
0.0
 11
543.1388508643033
 21
285.9827130557271
 31
0.0
  0
LINE
  5
519
330
1F
100
AcDbEntity
  8
SPOJOVACÍ
  6
CONTINUOUS
100
AcDbLine
 10
538.7167951293998
 20
284.4042047304349
 30
0.0
 11
539.0944465047107
 21
284.0265533573067
 31
0.0
  0
LINE
  5
51A
330
1F
100
AcDbEntity
  8
SPOJOVACÍ
  6
CONTINUOUS
100
AcDbLine
 10
538.7167951293998
 20
284.4042047304349
 30
0.0
 11
539.0944465047107
 21
284.6227960424542
 31
0.0
  0
LINE
  5
51B
330
1F
100
AcDbEntity
  8
SPOJOVACÍ
  6
CONTINUOUS
100
AcDbLine
 10
538.7167951293998
 20
284.4042047304349
 30
0.0
 11
543.5165022352487
 21
285.6041315068971
 31
0.0
  0
LINE
  5
51C
330
1F
100
AcDbEntity
  8
SPOJOVACÍ
  6
CONTINUOUS
100
AcDbLine
 10
539.0944465047107
 20
280.9067437383376
 30
0.0
 11
543.1388508643033
 21
282.2666607516105
 31
0.0
  0
LINE
  5
51D
330
1F
100
AcDbEntity
  8
SPOJOVACÍ
  6
CONTINUOUS
100
AcDbLine
 10
539.0944465047107
 20
281.5029864234923
 30
0.0
 11
543.1388508643033
 21
282.8629034367579
 31
0.0
  0
LINE
  5
51E
330
1F
100
AcDbEntity
  8
SPOJOVACÍ
  6
CONTINUOUS
100
AcDbLine
 10
543.5165022352487
 20
282.484321887928
 30
0.0
 11
543.1388508643033
 21
282.2666607516105
 31
0.0
  0
LINE
  5
51F
330
1F
100
AcDbEntity
  8
SPOJOVACÍ
  6
CONTINUOUS
100
AcDbLine
 10
543.5165022352487
 20
282.484321887928
 30
0.0
 11
543.1388508643033
 21
282.8629034367579
 31
0.0
  0
LINE
  5
520
330
1F
100
AcDbEntity
  8
SPOJOVACÍ
  6
CONTINUOUS
100
AcDbLine
 10
538.7167951293998
 20
281.2843951114657
 30
0.0
 11
539.0944465047107
 21
280.9067437383376
 31
0.0
  0
LINE
  5
521
330
1F
100
AcDbEntity
  8
SPOJOVACÍ
  6
CONTINUOUS
100
AcDbLine
 10
538.7167951293998
 20
281.2843951114657
 30
0.0
 11
539.0944465047107
 21
281.5029864234923
 31
0.0
  0
LINE
  5
522
330
1F
100
AcDbEntity
  8
SPOJOVACÍ
  6
CONTINUOUS
100
AcDbLine
 10
538.7167951293998
 20
281.2843951114657
 30
0.0
 11
543.5165022352487
 21
282.484321887928
 31
0.0
  0
LINE
  5
523
330
1F
100
AcDbEntity
  8
SPOJOVACÍ
  6
CONTINUOUS
100
AcDbLine
 10
540.0999665403981
 20
296.6304353903062
 30
0.0
 11
542.2542536818548
 21
296.9411141060802
 31
0.0
  0
LINE
  5
524
330
1F
100
AcDbEntity
  8
SPOJOVACÍ
  6
CONTINUOUS
100
AcDbLine
 10
540.4776179113435
 20
296.2527840171781
 30
0.0
 11
541.8766023109094
 21
296.7234529697627
 31
0.0
  0
LINE
  5
525
330
1F
100
AcDbEntity
  8
SPOJOVACÍ
  6
CONTINUOUS
100
AcDbLine
 10
540.4776179113435
 20
296.8490267023255
 30
0.0
 11
541.8766023109094
 21
297.3196956549102
 31
0.0
  0
LINE
  5
526
330
1F
100
AcDbEntity
  8
SPOJOVACÍ
  6
CONTINUOUS
100
AcDbLine
 10
542.2542536818548
 20
296.9411141060802
 30
0.0
 11
541.8766023109094
 21
296.7234529697627
 31
0.0
  0
LINE
  5
527
330
1F
100
AcDbEntity
  8
SPOJOVACÍ
  6
CONTINUOUS
100
AcDbLine
 10
542.2542536818548
 20
296.9411141060802
 30
0.0
 11
541.8766023109094
 21
297.3196956549102
 31
0.0
  0
LINE
  5
528
330
1F
100
AcDbEntity
  8
SPOJOVACÍ
  6
CONTINUOUS
100
AcDbLine
 10
540.0999665403981
 20
296.6304353903062
 30
0.0
 11
540.4776179113435
 21
296.2527840171781
 31
0.0
  0
LINE
  5
529
330
1F
100
AcDbEntity
  8
SPOJOVACÍ
  6
CONTINUOUS
100
AcDbLine
 10
540.0999665403981
 20
296.6304353903062
 30
0.0
 11
540.4776179113435
 21
296.8490267023255
 31
0.0
  0
LINE
  5
52A
330
1F
100
AcDbEntity
  8
SPOJOVACÍ
  6
CONTINUOUS
100
AcDbLine
 10
539.5353498299266
 20
293.6166658119866
 30
0.0
 11
542.6514387463578
 21
294.2501155287566
 31
0.0
  0
LINE
  5
52B
330
1F
100
AcDbEntity
  8
SPOJOVACÍ
  6
CONTINUOUS
100
AcDbLine
 10
539.9130012052376
 20
293.2380842628802
 30
0.0
 11
542.2737873754124
 21
294.0324543927083
 31
0.0
  0
LINE
  5
52C
330
1F
100
AcDbEntity
  8
SPOJOVACÍ
  6
CONTINUOUS
100
AcDbLine
 10
539.9130012052376
 20
293.8343269480349
 30
0.0
 11
542.2737873754124
 21
294.6286970775866
 31
0.0
  0
LINE
  5
52D
330
1F
100
AcDbEntity
  8
SPOJOVACÍ
  6
CONTINUOUS
100
AcDbLine
 10
542.6514387463578
 20
294.2501155287566
 30
0.0
 11
542.2737873754124
 21
294.0324543927083
 31
0.0
  0
LINE
  5
52E
330
1F
100
AcDbEntity
  8
SPOJOVACÍ
  6
CONTINUOUS
100
AcDbLine
 10
542.6514387463578
 20
294.2501155287566
 30
0.0
 11
542.2737873754124
 21
294.6286970775866
 31
0.0
  0
LINE
  5
52F
330
1F
100
AcDbEntity
  8
SPOJOVACÍ
  6
CONTINUOUS
100
AcDbLine
 10
539.5353498299266
 20
293.6166658119866
 30
0.0
 11
539.9130012052376
 21
293.2380842628802
 31
0.0
  0
LINE
  5
530
330
1F
100
AcDbEntity
  8
SPOJOVACÍ
  6
CONTINUOUS
100
AcDbLine
 10
539.5353498299266
 20
293.6166658119866
 30
0.0
 11
539.9130012052376
 21
293.8343269480349
 31
0.0
  0
LINE
  5
531
330
1F
100
AcDbEntity
  8
SPOJOVACÍ
  6
CONTINUOUS
100
AcDbLine
 10
538.9707331238207
 20
290.6019660576887
 30
0.0
 11
543.0960627765637
 21
291.5749299399933
 31
0.0
  0
LINE
  5
532
330
1F
100
AcDbEntity
  8
SPOJOVACÍ
  6
CONTINUOUS
100
AcDbLine
 10
539.349314672105
 20
290.2243146845605
 30
0.0
 11
542.7184114056183
 21
291.3572688039451
 31
0.0
  0
LINE
  5
533
330
1F
100
AcDbEntity
  8
SPOJOVACÍ
  6
CONTINUOUS
100
AcDbLine
 10
539.349314672105
 20
290.8205573697152
 30
0.0
 11
542.7184114056183
 21
291.9535114890998
 31
0.0
  0
LINE
  5
534
330
1F
100
AcDbEntity
  8
SPOJOVACÍ
  6
CONTINUOUS
100
AcDbLine
 10
543.0960627765637
 20
291.5749299399933
 30
0.0
 11
542.7184114056183
 21
291.3572688039451
 31
0.0
  0
LINE
  5
535
330
1F
100
AcDbEntity
  8
SPOJOVACÍ
  6
CONTINUOUS
100
AcDbLine
 10
543.0960627765637
 20
291.5749299399933
 30
0.0
 11
542.7184114056183
 21
291.9535114890998
 31
0.0
  0
LINE
  5
536
330
1F
100
AcDbEntity
  8
SPOJOVACÍ
  6
CONTINUOUS
100
AcDbLine
 10
538.9707331238207
 20
290.6019660576887
 30
0.0
 11
539.349314672105
 21
290.2243146845605
 31
0.0
  0
LINE
  5
537
330
1F
100
AcDbEntity
  8
SPOJOVACÍ
  6
CONTINUOUS
100
AcDbLine
 10
538.9707331238207
 20
290.6019660576887
 30
0.0
 11
539.349314672105
 21
290.8205573697152
 31
0.0
  0
LINE
  5
538
330
1F
100
AcDbEntity
  8
SPOJOVACÍ
  6
CONTINUOUS
100
AcDbLine
 10
539.0944465047107
 20
277.7869341190992
 30
0.0
 11
543.1388508643033
 21
279.1459209569395
 31
0.0
  0
LINE
  5
539
330
1F
100
AcDbEntity
  8
SPOJOVACÍ
  6
CONTINUOUS
100
AcDbLine
 10
539.0944465047107
 20
278.3831768042539
 30
0.0
 11
543.1388508643033
 21
279.7421636418178
 31
0.0
  0
LINE
  5
53A
330
1F
100
AcDbEntity
  8
SPOJOVACÍ
  6
CONTINUOUS
100
AcDbLine
 10
543.5165022352487
 20
279.3645122689661
 30
0.0
 11
543.1388508643033
 21
279.1459209569395
 31
0.0
  0
LINE
  5
53B
330
1F
100
AcDbEntity
  8
SPOJOVACÍ
  6
CONTINUOUS
100
AcDbLine
 10
543.5165022352487
 20
279.3645122689661
 30
0.0
 11
543.1388508643033
 21
279.7421636418178
 31
0.0
  0
LINE
  5
53C
330
1F
100
AcDbEntity
  8
SPOJOVACÍ
  6
CONTINUOUS
100
AcDbLine
 10
538.7167951293998
 20
278.1645854922274
 30
0.0
 11
539.0944465047107
 21
277.7869341190992
 31
0.0
  0
LINE
  5
53D
330
1F
100
AcDbEntity
  8
SPOJOVACÍ
  6
CONTINUOUS
100
AcDbLine
 10
538.7167951293998
 20
278.1645854922274
 30
0.0
 11
539.0944465047107
 21
278.3831768042539
 31
0.0
  0
LINE
  5
53E
330
1F
100
AcDbEntity
  8
SPOJOVACÍ
  6
CONTINUOUS
100
AcDbLine
 10
538.7167951293998
 20
278.1645854922274
 30
0.0
 11
543.5165022352487
 21
279.3645122689661
 31
0.0
  0
LINE
  5
53F
330
1F
100
AcDbEntity
  8
SPOJOVACÍ
  6
CONTINUOUS
100
AcDbLine
 10
539.0944465047107
 20
274.6661943244355
 30
0.0
 11
543.1388508643033
 21
276.0261113377012
 31
0.0
  0
LINE
  5
540
330
1F
100
AcDbEntity
  8
SPOJOVACÍ
  6
CONTINUOUS
100
AcDbLine
 10
539.0944465047107
 20
275.2624370093137
 30
0.0
 11
543.1388508643033
 21
276.6223540228559
 31
0.0
  0
LINE
  5
541
330
1F
100
AcDbEntity
  8
SPOJOVACÍ
  6
CONTINUOUS
100
AcDbLine
 10
543.5165022352487
 20
276.2447026497277
 30
0.0
 11
543.1388508643033
 21
276.0261113377012
 31
0.0
  0
LINE
  5
542
330
1F
100
AcDbEntity
  8
SPOJOVACÍ
  6
CONTINUOUS
100
AcDbLine
 10
543.5165022352487
 20
276.2447026497277
 30
0.0
 11
543.1388508643033
 21
276.6223540228559
 31
0.0
  0
LINE
  5
543
330
1F
100
AcDbEntity
  8
SPOJOVACÍ
  6
CONTINUOUS
100
AcDbLine
 10
538.7167951293998
 20
275.0447758732655
 30
0.0
 11
539.0944465047107
 21
274.6661943244355
 31
0.0
  0
LINE
  5
544
330
1F
100
AcDbEntity
  8
SPOJOVACÍ
  6
CONTINUOUS
100
AcDbLine
 10
538.7167951293998
 20
275.0447758732655
 30
0.0
 11
539.0944465047107
 21
275.2624370093137
 31
0.0
  0
LINE
  5
545
330
1F
100
AcDbEntity
  8
SPOJOVACÍ
  6
CONTINUOUS
100
AcDbLine
 10
538.7167951293998
 20
275.0447758732655
 30
0.0
 11
543.5165022352487
 21
276.2447026497277
 31
0.0
  0
LINE
  5
546
330
1F
100
AcDbEntity
  8
SPOJOVACÍ
  6
CONTINUOUS
100
AcDbLine
 10
542.2207673544074
 20
291.1805354025957
 30
0.0
 11
542.4663337658751
 21
289.2094928913095
 31
0.0
  0
LINE
  5
547
330
1F
100
AcDbEntity
  8
SPOJOVACÍ
  6
CONTINUOUS
100
AcDbLine
 10
541.882183361846
 20
293.8873469684942
 30
0.0
 11
542.1491438171836
 21
291.7507331656409
 31
0.0
  0
LINE
  5
548
330
1F
100
AcDbEntity
  8
SPOJOVACÍ
  6
CONTINUOUS
100
AcDbLine
 10
541.542669200677
 20
296.6043904679274
 30
0.0
 11
541.8105598289878
 21
294.459405082943
 31
0.0
  0
LINE
  5
549
330
1F
100
AcDbEntity
  8
SPOJOVACÍ
  6
CONTINUOUS
100
AcDbLine
 10
540.7306257284256
 20
296.9206502384579
 30
0.0
 11
541.1166486823242
 21
300.0097640562628
 31
0.0
  0
LINE
  5
54A
330
1F
100
AcDbEntity
  8
SPOJOVACÍ
  6
CONTINUOUS
100
AcDbLine
 10
540.3632062907457
 20
293.9794343722489
 30
0.0
 11
540.6534211358996
 21
296.3002229826045
 31
0.0
  0
LINE
  5
54B
330
1F
100
AcDbEntity
  8
SPOJOVACÍ
  6
CONTINUOUS
100
AcDbLine
 10
539.9939264983879
 20
291.0270563965198
 30
0.0
 11
540.2841413479075
 21
293.3487751825844
 31
0.0
  0
LINE
  5
54C
330
1F
100
AcDbEntity
  8
SPOJOVACÍ
  6
CONTINUOUS
100
AcDbLine
 10
541.1166486823242
 20
300.0097640562628
 30
0.0
 11
541.4710456634532
 21
297.1736580549943
 31
0.0
  0
LINE
  5
54D
330
1F
100
AcDbEntity
  8
SPOJOVACÍ
  6
CONTINUOUS
100
AcDbLine
 10
539.7669636031389
 20
289.2094928913095
 30
0.0
 11
539.916721905862
 21
290.4066291406664
 31
0.0
  0
LINE
  5
54E
330
1F
100
AcDbEntity
  8
SPOJOVACÍ
  6
CONTINUOUS
100
AcDbLine
 10
542.4663337658751
 20
288.872769253426
 30
0.0
 11
542.4663337658751
 21
289.2094928913095
 31
0.0
  0
LINE
  5
54F
330
1F
100
AcDbEntity
  8
SPOJOVACÍ
  6
CONTINUOUS
100
AcDbLine
 10
542.4663337658751
 20
285.750169106813
 30
0.0
 11
542.4663337658751
 21
288.269085161842
 31
0.0
  0
LINE
  5
550
330
1F
100
AcDbEntity
  8
SPOJOVACÍ
  6
CONTINUOUS
100
AcDbLine
 10
539.7669636031389
 20
287.9621271494209
 30
0.0
 11
539.7669636031389
 21
289.2094928913095
 31
0.0
  0
LINE
  5
551
330
1F
100
AcDbEntity
  8
SPOJOVACÍ
  6
CONTINUOUS
100
AcDbLine
 10
539.7669636031389
 20
284.847898584939
 30
0.0
 11
539.7669636031389
 21
287.3658844642661
 31
0.0
  0
LINE
  5
552
330
1F
100
AcDbEntity
  8
SPOJOVACÍ
  6
CONTINUOUS
100
AcDbLine
 10
542.4663337658751
 20
282.628499136171
 30
0.0
 11
542.4663337658751
 21
285.1492755428801
 31
0.0
  0
LINE
  5
553
330
1F
100
AcDbEntity
  8
SPOJOVACÍ
  6
CONTINUOUS
100
AcDbLine
 10
542.4663337658751
 20
279.5058989898273
 30
0.0
 11
542.4663337658751
 21
282.0341168026964
 31
0.0
  0
LINE
  5
554
330
1F
100
AcDbEntity
  8
SPOJOVACÍ
  6
CONTINUOUS
100
AcDbLine
 10
542.4663337658751
 20
276.3907402496436
 30
0.0
 11
542.4663337658751
 21
278.9096563046725
 31
0.0
  0
LINE
  5
555
330
1F
100
AcDbEntity
  8
SPOJOVACÍ
  6
CONTINUOUS
100
AcDbLine
 10
539.7669636031389
 20
281.715066504784
 30
0.0
 11
539.7669636031389
 21
284.2432843176532
 31
0.0
  0
LINE
  5
556
330
1F
100
AcDbEntity
  8
SPOJOVACÍ
  6
CONTINUOUS
100
AcDbLine
 10
539.7669636031389
 20
278.5999077646004
 30
0.0
 11
539.7669636031389
 21
281.1206841713094
 31
0.0
  0
LINE
  5
557
330
1F
100
AcDbEntity
  8
SPOJOVACÍ
  6
CONTINUOUS
100
AcDbLine
 10
539.7669636031389
 20
275.4773076182566
 30
0.0
 11
539.7669636031389
 21
277.9962236732856
 31
0.0
  0
LINE
  5
558
330
1F
100
AcDbEntity
  8
SPOJOVACÍ
  6
CONTINUOUS
100
AcDbLine
 10
539.7669636031389
 20
270.8441019794002
 30
0.0
 11
539.7669636031389
 21
274.8819951090802
 31
0.0
  0
LINE
  5
559
330
1F
100
AcDbEntity
  8
SPOJOVACÍ
  6
CONTINUOUS
100
AcDbLine
 10
542.4663337658751
 20
270.8441019794002
 30
0.0
 11
542.4663337658751
 21
275.7870561583288
 31
0.0
  0
LINE
  5
55A
330
1F
100
AcDbEntity
  8
SPOJOVACÍ
  6
CONTINUOUS
100
AcDbLine
 10
536.0164947936903
 20
265.4444314850436
 30
0.0
 11
537.3661798772412
 21
266.1885721215178
 31
0.0
  0
LINE
  5
55B
330
1F
100
AcDbEntity
  8
SPOJOVACÍ
  6
CONTINUOUS
100
AcDbLine
 10
537.3661798772412
 20
266.1885721215178
 30
0.0
 11
538.4768097775998
 21
267.25734411093
 31
0.0
  0
LINE
  5
55C
330
1F
100
AcDbEntity
  8
SPOJOVACÍ
  6
CONTINUOUS
100
AcDbLine
 10
538.4768097775998
 20
267.25734411093
 30
0.0
 11
539.273040256918
 21
268.5763333892275
 31
0.0
  0
LINE
  5
55D
330
1F
100
AcDbEntity
  8
SPOJOVACÍ
  6
CONTINUOUS
100
AcDbLine
 10
539.273040256918
 20
268.5763333892275
 30
0.0
 11
539.7009211212173
 21
270.0571732562778
 31
0.0
  0
LINE
  5
55E
330
1F
100
AcDbEntity
  8
SPOJOVACÍ
  6
CONTINUOUS
100
AcDbLine
 10
539.7009211212173
 20
270.0571732562778
 30
0.0
 11
539.7669636031389
 21
270.8441019794002
 31
0.0
  0
LINE
  5
55F
330
1F
100
AcDbEntity
  8
SPOJOVACÍ
  6
CONTINUOUS
100
AcDbLine
 10
544.2643635758907
 20
266.6992386333688
 30
0.0
 11
545.5014973847903
 21
265.7811551229272
 31
0.0
  0
LINE
  5
560
330
1F
100
AcDbEntity
  8
SPOJOVACÍ
  6
CONTINUOUS
100
AcDbLine
 10
545.5014973847903
 20
265.7811551229272
 30
0.0
 11
546.2168025709582
 21
265.4444314850436
 31
0.0
  0
LINE
  5
561
330
1F
100
AcDbEntity
  8
SPOJOVACÍ
  6
CONTINUOUS
100
AcDbLine
 10
536.0164947936903
 20
265.4444314850436
 30
0.0
 11
546.2168025709582
 21
265.4444314850436
 31
0.0
  0
LINE
  5
562
330
1F
100
AcDbEntity
  8
SPOJOVACÍ
  6
CONTINUOUS
100
AcDbLine
 10
536.0164947936903
 20
264.2445047083122
 30
0.0
 11
536.0164947936903
 21
265.4444314850436
 31
0.0
  0
LINE
  5
563
330
1F
100
AcDbEntity
  8
SPOJOVACÍ
  6
CONTINUOUS
100
AcDbLine
 10
536.0164947936903
 20
264.2445047083122
 30
0.0
 11
546.2168025709582
 21
264.2445047083122
 31
0.0
  0
LINE
  5
564
330
1F
100
AcDbEntity
  8
SPOJOVACÍ
  6
CONTINUOUS
100
AcDbLine
 10
546.2168025709582
 20
264.2445047083122
 30
0.0
 11
546.2168025709582
 21
265.4444314850436
 31
0.0
  0
LINE
  5
565
330
1F
100
AcDbEntity
  8
SPOJOVACÍ
  6
CONTINUOUS
100
AcDbLine
 10
542.4663337658751
 20
270.8441019794002
 30
0.0
 11
542.6932966567585
 21
269.3204740259709
 31
0.0
  0
LINE
  5
566
330
1F
100
AcDbEntity
  8
SPOJOVACÍ
  6
CONTINUOUS
100
AcDbLine
 10
542.6932966567585
 20
269.3204740259709
 30
0.0
 11
543.3062825059062
 21
267.9066068162676
 31
0.0
  0
LINE
  5
567
330
1F
100
AcDbEntity
  8
SPOJOVACÍ
  6
CONTINUOUS
100
AcDbLine
 10
543.3062825059062
 20
267.9066068162676
 30
0.0
 11
544.2643635758907
 21
266.6992386333688
 31
0.0
  0
LINE
  5
568
330
1F
100
AcDbEntity
  8
SPOJOVACÍ
  6
CONTINUOUS
100
AcDbLine
 10
531.1891927861254
 20
335.8146568851054
 30
0.0
 11
532.1472738561099
 21
337.0220250680042
 31
0.0
  0
LINE
  5
569
330
1F
100
AcDbEntity
  8
SPOJOVACÍ
  6
CONTINUOUS
100
AcDbLine
 10
530.5762069369778
 20
334.4007896754021
 30
0.0
 11
531.1891927861254
 21
335.8146568851054
 31
0.0
  0
LINE
  5
56A
330
1F
100
AcDbEntity
  8
SPOJOVACÍ
  6
CONTINUOUS
100
AcDbLine
 10
530.3492440460943
 20
332.8771617219729
 30
0.0
 11
530.5762069369778
 21
334.4007896754021
 31
0.0
  0
LINE
  5
56B
330
1F
100
AcDbEntity
  8
SPOJOVACÍ
  6
CONTINUOUS
100
AcDbLine
 10
534.0997128511774
 20
339.4767589930609
 30
0.0
 11
534.0997128511774
 21
338.2768322163294
 31
0.0
  0
LINE
  5
56C
330
1F
100
AcDbEntity
  8
SPOJOVACÍ
  6
CONTINUOUS
100
AcDbLine
 10
523.8994050739095
 20
339.4767589930609
 30
0.0
 11
534.0997128511774
 21
339.4767589930609
 31
0.0
  0
LINE
  5
56D
330
1F
100
AcDbEntity
  8
SPOJOVACÍ
  6
CONTINUOUS
100
AcDbLine
 10
523.8994050739095
 20
339.4767589930609
 30
0.0
 11
523.8994050739095
 21
338.2768322163294
 31
0.0
  0
LINE
  5
56E
330
1F
100
AcDbEntity
  8
SPOJOVACÍ
  6
CONTINUOUS
100
AcDbLine
 10
523.8994050739095
 20
338.2768322163294
 30
0.0
 11
534.0997128511774
 21
338.2768322163294
 31
0.0
  0
LINE
  5
56F
330
1F
100
AcDbEntity
  8
SPOJOVACÍ
  6
CONTINUOUS
100
AcDbLine
 10
533.3844076650096
 20
337.9401085784459
 30
0.0
 11
534.0997128511774
 21
338.2768322163294
 31
0.0
  0
LINE
  5
570
330
1F
100
AcDbEntity
  8
SPOJOVACÍ
  6
CONTINUOUS
100
AcDbLine
 10
532.1472738561099
 20
337.0220250680042
 30
0.0
 11
533.3844076650096
 21
337.9401085784459
 31
0.0
  0
LINE
  5
571
330
1F
100
AcDbEntity
  8
SPOJOVACÍ
  6
CONTINUOUS
100
AcDbLine
 10
527.5838314014365
 20
333.6640904450953
 30
0.0
 11
527.6498738833582
 21
332.8771617219729
 31
0.0
  0
LINE
  5
572
330
1F
100
AcDbEntity
  8
SPOJOVACÍ
  6
CONTINUOUS
100
AcDbLine
 10
527.1559505371372
 20
335.1449303121455
 30
0.0
 11
527.5838314014365
 21
333.6640904450953
 31
0.0
  0
LINE
  5
573
330
1F
100
AcDbEntity
  8
SPOJOVACÍ
  6
CONTINUOUS
100
AcDbLine
 10
526.359720057819
 20
336.463919590443
 30
0.0
 11
527.1559505371372
 21
335.1449303121455
 31
0.0
  0
LINE
  5
574
330
1F
100
AcDbEntity
  8
SPOJOVACÍ
  6
CONTINUOUS
100
AcDbLine
 10
525.2490901574604
 20
337.5326915798552
 30
0.0
 11
526.359720057819
 21
336.463919590443
 31
0.0
  0
LINE
  5
575
330
1F
100
AcDbEntity
  8
SPOJOVACÍ
  6
CONTINUOUS
100
AcDbLine
 10
523.8994050739095
 20
338.2768322163294
 30
0.0
 11
525.2490901574604
 21
337.5326915798552
 31
0.0
  0
LINE
  5
576
330
1F
100
AcDbEntity
  8
SPOJOVACÍ
  6
CONTINUOUS
100
AcDbLine
 10
530.3492440460943
 20
332.8771617219729
 30
0.0
 11
530.3492440460943
 21
327.9342075430442
 31
0.0
  0
LINE
  5
577
330
1F
100
AcDbEntity
  8
SPOJOVACÍ
  6
CONTINUOUS
100
AcDbLine
 10
527.6498738833582
 20
332.8771617219729
 30
0.0
 11
527.6498738833582
 21
328.8392685922929
 31
0.0
  0
LINE
  5
578
330
1F
100
AcDbEntity
  8
SPOJOVACÍ
  6
CONTINUOUS
100
AcDbLine
 10
527.6498738833582
 20
328.2439560831164
 30
0.0
 11
527.6498738833582
 21
325.7250400280875
 31
0.0
  0
LINE
  5
579
330
1F
100
AcDbEntity
  8
SPOJOVACÍ
  6
CONTINUOUS
100
AcDbLine
 10
527.6498738833582
 20
325.1213559367727
 30
0.0
 11
527.6498738833582
 21
322.6005795300636
 31
0.0
  0
LINE
  5
57A
330
1F
100
AcDbEntity
  8
SPOJOVACÍ
  6
CONTINUOUS
100
AcDbLine
 10
527.6498738833582
 20
322.006197196589
 30
0.0
 11
527.6498738833582
 21
319.4779793837199
 31
0.0
  0
LINE
  5
57B
330
1F
100
AcDbEntity
  8
SPOJOVACÍ
  6
CONTINUOUS
100
AcDbLine
 10
530.3492440460943
 20
327.3305234517295
 30
0.0
 11
530.3492440460943
 21
324.8116073967005
 31
0.0
  0
LINE
  5
57C
330
1F
100
AcDbEntity
  8
SPOJOVACÍ
  6
CONTINUOUS
100
AcDbLine
 10
530.3492440460943
 20
324.2153647115458
 30
0.0
 11
530.3492440460943
 21
321.6871468986767
 31
0.0
  0
LINE
  5
57D
330
1F
100
AcDbEntity
  8
SPOJOVACÍ
  6
CONTINUOUS
100
AcDbLine
 10
530.3492440460943
 20
321.092764565202
 30
0.0
 11
530.3492440460943
 21
318.571988158493
 31
0.0
  0
LINE
  5
57E
330
1F
100
AcDbEntity
  8
SPOJOVACÍ
  6
CONTINUOUS
100
AcDbLine
 10
527.6498738833582
 20
318.8733651164341
 30
0.0
 11
527.6498738833582
 21
316.3553792371069
 31
0.0
  0
LINE
  5
57F
330
1F
100
AcDbEntity
  8
SPOJOVACÍ
  6
CONTINUOUS
100
AcDbLine
 10
527.6498738833582
 20
315.7591365519522
 30
0.0
 11
527.6498738833582
 21
314.5117708100635
 31
0.0
  0
LINE
  5
580
330
1F
100
AcDbEntity
  8
SPOJOVACÍ
  6
CONTINUOUS
100
AcDbLine
 10
530.3492440460943
 20
317.97109459456
 30
0.0
 11
530.3492440460943
 21
315.4521785395311
 31
0.0
  0
LINE
  5
581
330
1F
100
AcDbEntity
  8
SPOJOVACÍ
  6
CONTINUOUS
100
AcDbLine
 10
530.3492440460943
 20
314.8484944479471
 30
0.0
 11
530.3492440460943
 21
314.5117708100635
 31
0.0
  0
LINE
  5
582
330
1F
100
AcDbEntity
  8
SPOJOVACÍ
  6
CONTINUOUS
100
AcDbLine
 10
527.6498738833582
 20
314.5117708100635
 30
0.0
 11
527.7996321860812
 21
313.3146345607067
 31
0.0
  0
LINE
  5
583
330
1F
100
AcDbEntity
  8
SPOJOVACÍ
  6
CONTINUOUS
100
AcDbLine
 10
528.9995589625434
 20
303.7114996451102
 30
0.0
 11
529.3539559436724
 21
306.5476056463787
 31
0.0
  0
LINE
  5
584
330
1F
100
AcDbEntity
  8
SPOJOVACÍ
  6
CONTINUOUS
100
AcDbLine
 10
527.8768367786072
 20
312.6942073048533
 30
0.0
 11
528.1670516281267
 21
310.3724885187887
 31
0.0
  0
LINE
  5
585
330
1F
100
AcDbEntity
  8
SPOJOVACÍ
  6
CONTINUOUS
100
AcDbLine
 10
528.2461165709649
 20
309.7418293291241
 30
0.0
 11
528.5363314161188
 21
307.4210407187686
 31
0.0
  0
LINE
  5
586
330
1F
100
AcDbEntity
  8
SPOJOVACÍ
  6
CONTINUOUS
100
AcDbLine
 10
528.6135360086448
 20
306.8006134629151
 30
0.0
 11
528.9995589625434
 21
303.7114996451102
 31
0.0
  0
LINE
  5
587
330
1F
100
AcDbEntity
  8
SPOJOVACÍ
  6
CONTINUOUS
100
AcDbLine
 10
529.4255794808962
 20
307.1168732334456
 30
0.0
 11
529.693470109207
 21
309.26185861843
 31
0.0
  0
LINE
  5
588
330
1F
100
AcDbEntity
  8
SPOJOVACÍ
  6
CONTINUOUS
100
AcDbLine
 10
529.7650936420652
 20
309.8339167328788
 30
0.0
 11
530.0320540974028
 21
311.9705305357322
 31
0.0
  0
LINE
  5
589
330
1F
100
AcDbEntity
  8
SPOJOVACÍ
  6
CONTINUOUS
100
AcDbLine
 10
530.1036776346266
 20
312.5407282987773
 30
0.0
 11
530.3492440460943
 21
314.5117708100635
 31
0.0
  0
LINE
  5
58A
330
1F
100
AcDbEntity
  8
SPOJOVACÍ
  6
CONTINUOUS
100
AcDbLine
 10
526.599705409619
 20
328.6764878281076
 30
0.0
 11
531.3994125154679
 21
327.4765610516453
 31
0.0
  0
LINE
  5
58B
330
1F
100
AcDbEntity
  8
SPOJOVACÍ
  6
CONTINUOUS
100
AcDbLine
 10
526.599705409619
 20
328.6764878281076
 30
0.0
 11
526.9773567849299
 21
328.4588266920593
 31
0.0
  0
LINE
  5
58C
330
1F
100
AcDbEntity
  8
SPOJOVACÍ
  6
CONTINUOUS
100
AcDbLine
 10
526.599705409619
 20
328.6764878281076
 30
0.0
 11
526.9773567849299
 21
329.0550693769375
 31
0.0
  0
LINE
  5
58D
330
1F
100
AcDbEntity
  8
SPOJOVACÍ
  6
CONTINUOUS
100
AcDbLine
 10
531.3994125154679
 20
327.4765610516453
 30
0.0
 11
531.0217611445225
 21
327.0989096785172
 31
0.0
  0
LINE
  5
58E
330
1F
100
AcDbEntity
  8
SPOJOVACÍ
  6
CONTINUOUS
100
AcDbLine
 10
531.3994125154679
 20
327.4765610516453
 30
0.0
 11
531.0217611445225
 21
327.6951523636719
 31
0.0
  0
LINE
  5
58F
330
1F
100
AcDbEntity
  8
SPOJOVACÍ
  6
CONTINUOUS
100
AcDbLine
 10
526.9773567849299
 20
328.4588266920593
 30
0.0
 11
531.0217611445225
 21
327.0989096785172
 31
0.0
  0
LINE
  5
590
330
1F
100
AcDbEntity
  8
SPOJOVACÍ
  6
CONTINUOUS
100
AcDbLine
 10
526.9773567849299
 20
329.0550693769375
 30
0.0
 11
531.0217611445225
 21
327.6951523636719
 31
0.0
  0
LINE
  5
591
330
1F
100
AcDbEntity
  8
SPOJOVACÍ
  6
CONTINUOUS
100
AcDbLine
 10
526.599705409619
 20
325.5566782091457
 30
0.0
 11
531.3994125154679
 21
324.356751432407
 31
0.0
  0
LINE
  5
592
330
1F
100
AcDbEntity
  8
SPOJOVACÍ
  6
CONTINUOUS
100
AcDbLine
 10
526.599705409619
 20
325.5566782091457
 30
0.0
 11
526.9773567849299
 21
325.3380868971191
 31
0.0
  0
LINE
  5
593
330
1F
100
AcDbEntity
  8
SPOJOVACÍ
  6
CONTINUOUS
100
AcDbLine
 10
526.599705409619
 20
325.5566782091457
 30
0.0
 11
526.9773567849299
 21
325.9343295822739
 31
0.0
  0
LINE
  5
594
330
1F
100
AcDbEntity
  8
SPOJOVACÍ
  6
CONTINUOUS
100
AcDbLine
 10
531.3994125154679
 20
324.356751432407
 30
0.0
 11
531.0217611445225
 21
323.9791000595553
 31
0.0
  0
LINE
  5
595
330
1F
100
AcDbEntity
  8
SPOJOVACÍ
  6
CONTINUOUS
100
AcDbLine
 10
531.3994125154679
 20
324.356751432407
 30
0.0
 11
531.0217611445225
 21
324.5753427444335
 31
0.0
  0
LINE
  5
596
330
1F
100
AcDbEntity
  8
SPOJOVACÍ
  6
CONTINUOUS
100
AcDbLine
 10
526.9773567849299
 20
325.3380868971191
 30
0.0
 11
531.0217611445225
 21
323.9791000595553
 31
0.0
  0
LINE
  5
597
330
1F
100
AcDbEntity
  8
SPOJOVACÍ
  6
CONTINUOUS
100
AcDbLine
 10
526.9773567849299
 20
325.9343295822739
 30
0.0
 11
531.0217611445225
 21
324.5753427444335
 31
0.0
  0
LINE
  5
598
330
1F
100
AcDbEntity
  8
SPOJOVACÍ
  6
CONTINUOUS
100
AcDbLine
 10
526.85364340404
 20
313.1192976436843
 30
0.0
 11
527.2322249523242
 21
312.9007063316578
 31
0.0
  0
LINE
  5
599
330
1F
100
AcDbEntity
  8
SPOJOVACÍ
  6
CONTINUOUS
100
AcDbLine
 10
526.85364340404
 20
313.1192976436843
 30
0.0
 11
527.2322249523242
 21
313.4969490168125
 31
0.0
  0
LINE
  5
59A
330
1F
100
AcDbEntity
  8
SPOJOVACÍ
  6
CONTINUOUS
100
AcDbLine
 10
530.9789730567829
 20
312.1463337613797
 30
0.0
 11
530.6013216858375
 21
311.7677522122733
 31
0.0
  0
LINE
  5
59B
330
1F
100
AcDbEntity
  8
SPOJOVACÍ
  6
CONTINUOUS
100
AcDbLine
 10
530.9789730567829
 20
312.1463337613797
 30
0.0
 11
530.6013216858375
 21
312.363994897428
 31
0.0
  0
LINE
  5
59C
330
1F
100
AcDbEntity
  8
SPOJOVACÍ
  6
CONTINUOUS
100
AcDbLine
 10
527.2322249523242
 20
312.9007063316578
 30
0.0
 11
530.6013216858375
 21
311.7677522122733
 31
0.0
  0
LINE
  5
59D
330
1F
100
AcDbEntity
  8
SPOJOVACÍ
  6
CONTINUOUS
100
AcDbLine
 10
527.2322249523242
 20
313.4969490168125
 30
0.0
 11
530.6013216858375
 21
312.363994897428
 31
0.0
  0
LINE
  5
59E
330
1F
100
AcDbEntity
  8
SPOJOVACÍ
  6
CONTINUOUS
100
AcDbLine
 10
526.85364340404
 20
313.1192976436843
 30
0.0
 11
530.9789730567829
 21
312.1463337613797
 31
0.0
  0
LINE
  5
59F
330
1F
100
AcDbEntity
  8
SPOJOVACÍ
  6
CONTINUOUS
100
AcDbLine
 10
527.4182601101458
 20
310.1045978893864
 30
0.0
 11
527.7959114854568
 21
309.8869367533382
 31
0.0
  0
LINE
  5
5A0
330
1F
100
AcDbEntity
  8
SPOJOVACÍ
  6
CONTINUOUS
100
AcDbLine
 10
527.4182601101458
 20
310.1045978893864
 30
0.0
 11
527.7959114854568
 21
310.4831794384929
 31
0.0
  0
LINE
  5
5A1
330
1F
100
AcDbEntity
  8
SPOJOVACÍ
  6
CONTINUOUS
100
AcDbLine
 10
530.534349026577
 20
309.4711481726164
 30
0.0
 11
530.1566976556316
 21
309.0925666237865
 31
0.0
  0
LINE
  5
5A2
330
1F
100
AcDbEntity
  8
SPOJOVACÍ
  6
CONTINUOUS
100
AcDbLine
 10
530.534349026577
 20
309.4711481726164
 30
0.0
 11
530.1566976556316
 21
309.6888093086647
 31
0.0
  0
LINE
  5
5A3
330
1F
100
AcDbEntity
  8
SPOJOVACÍ
  6
CONTINUOUS
100
AcDbLine
 10
527.7959114854568
 20
309.8869367533382
 30
0.0
 11
530.1566976556316
 21
309.0925666237865
 31
0.0
  0
LINE
  5
5A4
330
1F
100
AcDbEntity
  8
SPOJOVACÍ
  6
CONTINUOUS
100
AcDbLine
 10
527.7959114854568
 20
310.4831794384929
 30
0.0
 11
530.1566976556316
 21
309.6888093086647
 31
0.0
  0
LINE
  5
5A5
330
1F
100
AcDbEntity
  8
SPOJOVACÍ
  6
CONTINUOUS
100
AcDbLine
 10
527.4182601101458
 20
310.1045978893864
 30
0.0
 11
530.534349026577
 21
309.4711481726164
 31
0.0
  0
LINE
  5
5A6
330
1F
100
AcDbEntity
  8
SPOJOVACÍ
  6
CONTINUOUS
100
AcDbLine
 10
527.9828768206173
 20
307.0908283110668
 30
0.0
 11
528.3605281915627
 21
306.8722369990475
 31
0.0
  0
LINE
  5
5A7
330
1F
100
AcDbEntity
  8
SPOJOVACÍ
  6
CONTINUOUS
100
AcDbLine
 10
527.9828768206173
 20
307.0908283110668
 30
0.0
 11
528.3605281915627
 21
307.468479684195
 31
0.0
  0
LINE
  5
5A8
330
1F
100
AcDbEntity
  8
SPOJOVACÍ
  6
CONTINUOUS
100
AcDbLine
 10
530.137163962074
 20
306.7801495952928
 30
0.0
 11
529.7595125911287
 21
306.4015680464629
 31
0.0
  0
LINE
  5
5A9
330
1F
100
AcDbEntity
  8
SPOJOVACÍ
  6
CONTINUOUS
100
AcDbLine
 10
530.137163962074
 20
306.7801495952928
 30
0.0
 11
529.7595125911287
 21
306.9978107316103
 31
0.0
  0
LINE
  5
5AA
330
1F
100
AcDbEntity
  8
SPOJOVACÍ
  6
CONTINUOUS
100
AcDbLine
 10
528.3605281915627
 20
306.8722369990475
 30
0.0
 11
529.7595125911287
 21
306.4015680464629
 31
0.0
  0
LINE
  5
5AB
330
1F
100
AcDbEntity
  8
SPOJOVACÍ
  6
CONTINUOUS
100
AcDbLine
 10
528.3605281915627
 20
307.468479684195
 30
0.0
 11
529.7595125911287
 21
306.9978107316103
 31
0.0
  0
LINE
  5
5AC
330
1F
100
AcDbEntity
  8
SPOJOVACÍ
  6
CONTINUOUS
100
AcDbLine
 10
527.9828768206173
 20
307.0908283110668
 30
0.0
 11
530.137163962074
 21
306.7801495952928
 31
0.0
  0
LINE
  5
5AD
330
1F
100
AcDbEntity
  8
SPOJOVACÍ
  6
CONTINUOUS
100
AcDbLine
 10
526.599705409619
 20
322.4368685899073
 30
0.0
 11
531.3994125154679
 21
321.2369418134451
 31
0.0
  0
LINE
  5
5AE
330
1F
100
AcDbEntity
  8
SPOJOVACÍ
  6
CONTINUOUS
100
AcDbLine
 10
526.599705409619
 20
322.4368685899073
 30
0.0
 11
526.9773567849299
 21
322.2182772778808
 31
0.0
  0
LINE
  5
5AF
330
1F
100
AcDbEntity
  8
SPOJOVACÍ
  6
CONTINUOUS
100
AcDbLine
 10
526.599705409619
 20
322.4368685899073
 30
0.0
 11
526.9773567849299
 21
322.8145199630355
 31
0.0
  0
LINE
  5
5B0
330
1F
100
AcDbEntity
  8
SPOJOVACÍ
  6
CONTINUOUS
100
AcDbLine
 10
531.3994125154679
 20
321.2369418134451
 30
0.0
 11
531.0217611445225
 21
320.8583602646151
 31
0.0
  0
LINE
  5
5B1
330
1F
100
AcDbEntity
  8
SPOJOVACÍ
  6
CONTINUOUS
100
AcDbLine
 10
531.3994125154679
 20
321.2369418134451
 30
0.0
 11
531.0217611445225
 21
321.4546029497626
 31
0.0
  0
LINE
  5
5B2
330
1F
100
AcDbEntity
  8
SPOJOVACÍ
  6
CONTINUOUS
100
AcDbLine
 10
526.9773567849299
 20
322.2182772778808
 30
0.0
 11
531.0217611445225
 21
320.8583602646151
 31
0.0
  0
LINE
  5
5B3
330
1F
100
AcDbEntity
  8
SPOJOVACÍ
  6
CONTINUOUS
100
AcDbLine
 10
526.9773567849299
 20
322.8145199630355
 30
0.0
 11
531.0217611445225
 21
321.4546029497626
 31
0.0
  0
LINE
  5
5B4
330
1F
100
AcDbEntity
  8
SPOJOVACÍ
  6
CONTINUOUS
100
AcDbLine
 10
526.599705409619
 20
319.3170589709382
 30
0.0
 11
531.3994125154679
 21
318.1171321944759
 31
0.0
  0
LINE
  5
5B5
330
1F
100
AcDbEntity
  8
SPOJOVACÍ
  6
CONTINUOUS
100
AcDbLine
 10
526.599705409619
 20
319.3170589709382
 30
0.0
 11
526.9773567849299
 21
319.0984676589189
 31
0.0
  0
LINE
  5
5B6
330
1F
100
AcDbEntity
  8
SPOJOVACÍ
  6
CONTINUOUS
100
AcDbLine
 10
526.599705409619
 20
319.3170589709382
 30
0.0
 11
526.9773567849299
 21
319.6947103440663
 31
0.0
  0
LINE
  5
5B7
330
1F
100
AcDbEntity
  8
SPOJOVACÍ
  6
CONTINUOUS
100
AcDbLine
 10
531.3994125154679
 20
318.1171321944759
 30
0.0
 11
531.0217611445225
 21
317.738550645646
 31
0.0
  0
LINE
  5
5B8
330
1F
100
AcDbEntity
  8
SPOJOVACÍ
  6
CONTINUOUS
100
AcDbLine
 10
531.3994125154679
 20
318.1171321944759
 30
0.0
 11
531.0217611445225
 21
318.3347933305242
 31
0.0
  0
LINE
  5
5B9
330
1F
100
AcDbEntity
  8
SPOJOVACÍ
  6
CONTINUOUS
100
AcDbLine
 10
526.9773567849299
 20
319.0984676589189
 30
0.0
 11
531.0217611445225
 21
317.738550645646
 31
0.0
  0
LINE
  5
5BA
330
1F
100
AcDbEntity
  8
SPOJOVACÍ
  6
CONTINUOUS
100
AcDbLine
 10
526.9773567849299
 20
319.6947103440663
 30
0.0
 11
531.0217611445225
 21
318.3347933305242
 31
0.0
  0
LINE
  5
5BB
330
1F
100
AcDbEntity
  8
SPOJOVACÍ
  6
CONTINUOUS
100
AcDbLine
 10
526.599705409619
 20
316.196319175998
 30
0.0
 11
531.3994125154679
 21
314.9963923995358
 31
0.0
  0
LINE
  5
5BC
330
1F
100
AcDbEntity
  8
SPOJOVACÍ
  6
CONTINUOUS
100
AcDbLine
 10
526.599705409619
 20
316.196319175998
 30
0.0
 11
526.9773567849299
 21
315.9786580399497
 31
0.0
  0
LINE
  5
5BD
330
1F
100
AcDbEntity
  8
SPOJOVACÍ
  6
CONTINUOUS
100
AcDbLine
 10
526.599705409619
 20
316.196319175998
 30
0.0
 11
526.9773567849299
 21
316.5749007251045
 31
0.0
  0
LINE
  5
5BE
330
1F
100
AcDbEntity
  8
SPOJOVACÍ
  6
CONTINUOUS
100
AcDbLine
 10
531.3994125154679
 20
314.9963923995358
 30
0.0
 11
531.0217611445225
 21
314.6187410264076
 31
0.0
  0
LINE
  5
5BF
330
1F
100
AcDbEntity
  8
SPOJOVACÍ
  6
CONTINUOUS
100
AcDbLine
 10
531.3994125154679
 20
314.9963923995358
 30
0.0
 11
531.0217611445225
 21
315.2149837115623
 31
0.0
  0
LINE
  5
5C0
330
1F
100
AcDbEntity
  8
SPOJOVACÍ
  6
CONTINUOUS
100
AcDbLine
 10
526.9773567849299
 20
315.9786580399497
 30
0.0
 11
531.0217611445225
 21
314.6187410264076
 31
0.0
  0
LINE
  5
5C1
330
1F
100
AcDbEntity
  8
SPOJOVACÍ
  6
CONTINUOUS
100
AcDbLine
 10
526.9773567849299
 20
316.5749007251045
 30
0.0
 11
531.0217611445225
 21
315.2149837115623
 31
0.0
  0
LINE
  5
5C2
330
1F
100
AcDbEntity
  8
SPOJOVACÍ
  6
CONTINUOUS
100
AcDbLine
 10
151.7276268094031
 20
316.5749007251045
 30
0.0
 11
155.7720311689956
 21
315.2149837115623
 31
0.0
  0
LINE
  5
5C3
330
1F
100
AcDbEntity
  8
SPOJOVACÍ
  6
CONTINUOUS
100
AcDbLine
 10
151.7276268094031
 20
315.9786580399497
 30
0.0
 11
155.7720311689956
 21
314.6187410264076
 31
0.0
  0
LINE
  5
5C4
330
1F
100
AcDbEntity
  8
SPOJOVACÍ
  6
CONTINUOUS
100
AcDbLine
 10
156.149682539941
 20
314.9963923995358
 30
0.0
 11
155.7720311689956
 21
315.2149837115623
 31
0.0
  0
LINE
  5
5C5
330
1F
100
AcDbEntity
  8
SPOJOVACÍ
  6
CONTINUOUS
100
AcDbLine
 10
156.149682539941
 20
314.9963923995358
 30
0.0
 11
155.7720311689956
 21
314.6187410264076
 31
0.0
  0
LINE
  5
5C6
330
1F
100
AcDbEntity
  8
SPOJOVACÍ
  6
CONTINUOUS
100
AcDbLine
 10
151.3499754340921
 20
316.196319175998
 30
0.0
 11
151.7276268094031
 21
316.5749007251045
 31
0.0
  0
LINE
  5
5C7
330
1F
100
AcDbEntity
  8
SPOJOVACÍ
  6
CONTINUOUS
100
AcDbLine
 10
151.3499754340921
 20
316.196319175998
 30
0.0
 11
151.7276268094031
 21
315.9786580399497
 31
0.0
  0
LINE
  5
5C8
330
1F
100
AcDbEntity
  8
SPOJOVACÍ
  6
CONTINUOUS
100
AcDbLine
 10
151.3499754340921
 20
316.196319175998
 30
0.0
 11
156.149682539941
 21
314.9963923995358
 31
0.0
  0
LINE
  5
5C9
330
1F
100
AcDbEntity
  8
SPOJOVACÍ
  6
CONTINUOUS
100
AcDbLine
 10
151.7276268094031
 20
319.6947103440663
 30
0.0
 11
155.7720311689956
 21
318.3347933305242
 31
0.0
  0
LINE
  5
5CA
330
1F
100
AcDbEntity
  8
SPOJOVACÍ
  6
CONTINUOUS
100
AcDbLine
 10
151.7276268094031
 20
319.0984676589189
 30
0.0
 11
155.7720311689956
 21
317.738550645646
 31
0.0
  0
LINE
  5
5CB
330
1F
100
AcDbEntity
  8
SPOJOVACÍ
  6
CONTINUOUS
100
AcDbLine
 10
156.149682539941
 20
318.1171321944759
 30
0.0
 11
155.7720311689956
 21
318.3347933305242
 31
0.0
  0
LINE
  5
5CC
330
1F
100
AcDbEntity
  8
SPOJOVACÍ
  6
CONTINUOUS
100
AcDbLine
 10
156.149682539941
 20
318.1171321944759
 30
0.0
 11
155.7720311689956
 21
317.738550645646
 31
0.0
  0
LINE
  5
5CD
330
1F
100
AcDbEntity
  8
SPOJOVACÍ
  6
CONTINUOUS
100
AcDbLine
 10
151.3499754340921
 20
319.3170589709382
 30
0.0
 11
151.7276268094031
 21
319.6947103440663
 31
0.0
  0
LINE
  5
5CE
330
1F
100
AcDbEntity
  8
SPOJOVACÍ
  6
CONTINUOUS
100
AcDbLine
 10
151.3499754340921
 20
319.3170589709382
 30
0.0
 11
151.7276268094031
 21
319.0984676589189
 31
0.0
  0
LINE
  5
5CF
330
1F
100
AcDbEntity
  8
SPOJOVACÍ
  6
CONTINUOUS
100
AcDbLine
 10
151.3499754340921
 20
319.3170589709382
 30
0.0
 11
156.149682539941
 21
318.1171321944759
 31
0.0
  0
LINE
  5
5D0
330
1F
100
AcDbEntity
  8
SPOJOVACÍ
  6
CONTINUOUS
100
AcDbLine
 10
151.7276268094031
 20
322.8145199630355
 30
0.0
 11
155.7720311689956
 21
321.4546029497626
 31
0.0
  0
LINE
  5
5D1
330
1F
100
AcDbEntity
  8
SPOJOVACÍ
  6
CONTINUOUS
100
AcDbLine
 10
151.7276268094031
 20
322.2182772778808
 30
0.0
 11
155.7720311689956
 21
320.8583602646151
 31
0.0
  0
LINE
  5
5D2
330
1F
100
AcDbEntity
  8
SPOJOVACÍ
  6
CONTINUOUS
100
AcDbLine
 10
156.149682539941
 20
321.2369418134451
 30
0.0
 11
155.7720311689956
 21
321.4546029497626
 31
0.0
  0
LINE
  5
5D3
330
1F
100
AcDbEntity
  8
SPOJOVACÍ
  6
CONTINUOUS
100
AcDbLine
 10
156.149682539941
 20
321.2369418134451
 30
0.0
 11
155.7720311689956
 21
320.8583602646151
 31
0.0
  0
LINE
  5
5D4
330
1F
100
AcDbEntity
  8
SPOJOVACÍ
  6
CONTINUOUS
100
AcDbLine
 10
151.3499754340921
 20
322.4368685899073
 30
0.0
 11
151.7276268094031
 21
322.8145199630355
 31
0.0
  0
LINE
  5
5D5
330
1F
100
AcDbEntity
  8
SPOJOVACÍ
  6
CONTINUOUS
100
AcDbLine
 10
151.3499754340921
 20
322.4368685899073
 30
0.0
 11
151.7276268094031
 21
322.2182772778808
 31
0.0
  0
LINE
  5
5D6
330
1F
100
AcDbEntity
  8
SPOJOVACÍ
  6
CONTINUOUS
100
AcDbLine
 10
151.3499754340921
 20
322.4368685899073
 30
0.0
 11
156.149682539941
 21
321.2369418134451
 31
0.0
  0
LINE
  5
5D7
330
1F
100
AcDbEntity
  8
SPOJOVACÍ
  6
CONTINUOUS
100
AcDbLine
 10
152.7331468450904
 20
307.0908283110668
 30
0.0
 11
154.8874339865472
 21
306.7801495952928
 31
0.0
  0
LINE
  5
5D8
330
1F
100
AcDbEntity
  8
SPOJOVACÍ
  6
CONTINUOUS
100
AcDbLine
 10
153.1107982160358
 20
307.468479684195
 30
0.0
 11
154.5097826156018
 21
306.9978107316103
 31
0.0
  0
LINE
  5
5D9
330
1F
100
AcDbEntity
  8
SPOJOVACÍ
  6
CONTINUOUS
100
AcDbLine
 10
153.1107982160358
 20
306.8722369990475
 30
0.0
 11
154.5097826156018
 21
306.4015680464629
 31
0.0
  0
LINE
  5
5DA
330
1F
100
AcDbEntity
  8
SPOJOVACÍ
  6
CONTINUOUS
100
AcDbLine
 10
154.8874339865472
 20
306.7801495952928
 30
0.0
 11
154.5097826156018
 21
306.9978107316103
 31
0.0
  0
LINE
  5
5DB
330
1F
100
AcDbEntity
  8
SPOJOVACÍ
  6
CONTINUOUS
100
AcDbLine
 10
154.8874339865472
 20
306.7801495952928
 30
0.0
 11
154.5097826156018
 21
306.4015680464629
 31
0.0
  0
LINE
  5
5DC
330
1F
100
AcDbEntity
  8
SPOJOVACÍ
  6
CONTINUOUS
100
AcDbLine
 10
152.7331468450904
 20
307.0908283110668
 30
0.0
 11
153.1107982160358
 21
307.468479684195
 31
0.0
  0
LINE
  5
5DD
330
1F
100
AcDbEntity
  8
SPOJOVACÍ
  6
CONTINUOUS
100
AcDbLine
 10
152.7331468450904
 20
307.0908283110668
 30
0.0
 11
153.1107982160358
 21
306.8722369990475
 31
0.0
  0
LINE
  5
5DE
330
1F
100
AcDbEntity
  8
SPOJOVACÍ
  6
CONTINUOUS
100
AcDbLine
 10
152.168530134619
 20
310.1045978893864
 30
0.0
 11
155.2846190510502
 21
309.4711481726164
 31
0.0
  0
LINE
  5
5DF
330
1F
100
AcDbEntity
  8
SPOJOVACÍ
  6
CONTINUOUS
100
AcDbLine
 10
152.5461815099299
 20
310.4831794384929
 30
0.0
 11
154.9069676801048
 21
309.6888093086647
 31
0.0
  0
LINE
  5
5E0
330
1F
100
AcDbEntity
  8
SPOJOVACÍ
  6
CONTINUOUS
100
AcDbLine
 10
152.5461815099299
 20
309.8869367533382
 30
0.0
 11
154.9069676801048
 21
309.0925666237865
 31
0.0
  0
LINE
  5
5E1
330
1F
100
AcDbEntity
  8
SPOJOVACÍ
  6
CONTINUOUS
100
AcDbLine
 10
155.2846190510502
 20
309.4711481726164
 30
0.0
 11
154.9069676801048
 21
309.6888093086647
 31
0.0
  0
LINE
  5
5E2
330
1F
100
AcDbEntity
  8
SPOJOVACÍ
  6
CONTINUOUS
100
AcDbLine
 10
155.2846190510502
 20
309.4711481726164
 30
0.0
 11
154.9069676801048
 21
309.0925666237865
 31
0.0
  0
LINE
  5
5E3
330
1F
100
AcDbEntity
  8
SPOJOVACÍ
  6
CONTINUOUS
100
AcDbLine
 10
152.168530134619
 20
310.1045978893864
 30
0.0
 11
152.5461815099299
 21
310.4831794384929
 31
0.0
  0
LINE
  5
5E4
330
1F
100
AcDbEntity
  8
SPOJOVACÍ
  6
CONTINUOUS
100
AcDbLine
 10
152.168530134619
 20
310.1045978893864
 30
0.0
 11
152.5461815099299
 21
309.8869367533382
 31
0.0
  0
LINE
  5
5E5
330
1F
100
AcDbEntity
  8
SPOJOVACÍ
  6
CONTINUOUS
100
AcDbLine
 10
151.6039134285131
 20
313.1192976436843
 30
0.0
 11
155.729243081256
 21
312.1463337613797
 31
0.0
  0
LINE
  5
5E6
330
1F
100
AcDbEntity
  8
SPOJOVACÍ
  6
CONTINUOUS
100
AcDbLine
 10
151.9824949767974
 20
313.4969490168125
 30
0.0
 11
155.3515917103107
 21
312.363994897428
 31
0.0
  0
LINE
  5
5E7
330
1F
100
AcDbEntity
  8
SPOJOVACÍ
  6
CONTINUOUS
100
AcDbLine
 10
151.9824949767974
 20
312.9007063316578
 30
0.0
 11
155.3515917103107
 21
311.7677522122733
 31
0.0
  0
LINE
  5
5E8
330
1F
100
AcDbEntity
  8
SPOJOVACÍ
  6
CONTINUOUS
100
AcDbLine
 10
155.729243081256
 20
312.1463337613797
 30
0.0
 11
155.3515917103107
 21
312.363994897428
 31
0.0
  0
LINE
  5
5E9
330
1F
100
AcDbEntity
  8
SPOJOVACÍ
  6
CONTINUOUS
100
AcDbLine
 10
155.729243081256
 20
312.1463337613797
 30
0.0
 11
155.3515917103107
 21
311.7677522122733
 31
0.0
  0
LINE
  5
5EA
330
1F
100
AcDbEntity
  8
SPOJOVACÍ
  6
CONTINUOUS
100
AcDbLine
 10
151.6039134285131
 20
313.1192976436843
 30
0.0
 11
151.9824949767974
 21
313.4969490168125
 31
0.0
  0
LINE
  5
5EB
330
1F
100
AcDbEntity
  8
SPOJOVACÍ
  6
CONTINUOUS
100
AcDbLine
 10
151.6039134285131
 20
313.1192976436843
 30
0.0
 11
151.9824949767974
 21
312.9007063316578
 31
0.0
  0
LINE
  5
5EC
330
1F
100
AcDbEntity
  8
SPOJOVACÍ
  6
CONTINUOUS
100
AcDbLine
 10
151.7276268094031
 20
325.9343295822739
 30
0.0
 11
155.7720311689956
 21
324.5753427444335
 31
0.0
  0
LINE
  5
5ED
330
1F
100
AcDbEntity
  8
SPOJOVACÍ
  6
CONTINUOUS
100
AcDbLine
 10
151.7276268094031
 20
325.3380868971191
 30
0.0
 11
155.7720311689956
 21
323.9791000595553
 31
0.0
  0
LINE
  5
5EE
330
1F
100
AcDbEntity
  8
SPOJOVACÍ
  6
CONTINUOUS
100
AcDbLine
 10
156.149682539941
 20
324.356751432407
 30
0.0
 11
155.7720311689956
 21
324.5753427444335
 31
0.0
  0
LINE
  5
5EF
330
1F
100
AcDbEntity
  8
SPOJOVACÍ
  6
CONTINUOUS
100
AcDbLine
 10
156.149682539941
 20
324.356751432407
 30
0.0
 11
155.7720311689956
 21
323.9791000595553
 31
0.0
  0
LINE
  5
5F0
330
1F
100
AcDbEntity
  8
SPOJOVACÍ
  6
CONTINUOUS
100
AcDbLine
 10
151.3499754340921
 20
325.5566782091457
 30
0.0
 11
151.7276268094031
 21
325.9343295822739
 31
0.0
  0
LINE
  5
5F1
330
1F
100
AcDbEntity
  8
SPOJOVACÍ
  6
CONTINUOUS
100
AcDbLine
 10
151.3499754340921
 20
325.5566782091457
 30
0.0
 11
151.7276268094031
 21
325.3380868971191
 31
0.0
  0
LINE
  5
5F2
330
1F
100
AcDbEntity
  8
SPOJOVACÍ
  6
CONTINUOUS
100
AcDbLine
 10
151.3499754340921
 20
325.5566782091457
 30
0.0
 11
156.149682539941
 21
324.356751432407
 31
0.0
  0
LINE
  5
5F3
330
1F
100
AcDbEntity
  8
SPOJOVACÍ
  6
CONTINUOUS
100
AcDbLine
 10
151.7276268094031
 20
329.0550693769375
 30
0.0
 11
155.7720311689956
 21
327.6951523636719
 31
0.0
  0
LINE
  5
5F4
330
1F
100
AcDbEntity
  8
SPOJOVACÍ
  6
CONTINUOUS
100
AcDbLine
 10
151.7276268094031
 20
328.4588266920593
 30
0.0
 11
155.7720311689956
 21
327.0989096785172
 31
0.0
  0
LINE
  5
5F5
330
1F
100
AcDbEntity
  8
SPOJOVACÍ
  6
CONTINUOUS
100
AcDbLine
 10
156.149682539941
 20
327.4765610516453
 30
0.0
 11
155.7720311689956
 21
327.6951523636719
 31
0.0
  0
LINE
  5
5F6
330
1F
100
AcDbEntity
  8
SPOJOVACÍ
  6
CONTINUOUS
100
AcDbLine
 10
156.149682539941
 20
327.4765610516453
 30
0.0
 11
155.7720311689956
 21
327.0989096785172
 31
0.0
  0
LINE
  5
5F7
330
1F
100
AcDbEntity
  8
SPOJOVACÍ
  6
CONTINUOUS
100
AcDbLine
 10
151.3499754340921
 20
328.6764878281076
 30
0.0
 11
151.7276268094031
 21
329.0550693769375
 31
0.0
  0
LINE
  5
5F8
330
1F
100
AcDbEntity
  8
SPOJOVACÍ
  6
CONTINUOUS
100
AcDbLine
 10
151.3499754340921
 20
328.6764878281076
 30
0.0
 11
151.7276268094031
 21
328.4588266920593
 31
0.0
  0
LINE
  5
5F9
330
1F
100
AcDbEntity
  8
SPOJOVACÍ
  6
CONTINUOUS
100
AcDbLine
 10
151.3499754340921
 20
328.6764878281076
 30
0.0
 11
156.149682539941
 21
327.4765610516453
 31
0.0
  0
LINE
  5
5FA
330
1F
100
AcDbEntity
  8
SPOJOVACÍ
  6
CONTINUOUS
100
AcDbLine
 10
154.8539476590997
 20
312.5407282987773
 30
0.0
 11
155.0995140705674
 21
314.5117708100635
 31
0.0
  0
LINE
  5
5FB
330
1F
100
AcDbEntity
  8
SPOJOVACÍ
  6
CONTINUOUS
100
AcDbLine
 10
154.5153636665384
 20
309.8339167328788
 30
0.0
 11
154.7823241218759
 21
311.9705305357322
 31
0.0
  0
LINE
  5
5FC
330
1F
100
AcDbEntity
  8
SPOJOVACÍ
  6
CONTINUOUS
100
AcDbLine
 10
154.1758495053693
 20
307.1168732334456
 30
0.0
 11
154.4437401336802
 21
309.26185861843
 31
0.0
  0
LINE
  5
5FD
330
1F
100
AcDbEntity
  8
SPOJOVACÍ
  6
CONTINUOUS
100
AcDbLine
 10
153.3638060331179
 20
306.8006134629151
 30
0.0
 11
153.7498289870166
 21
303.7114996451102
 31
0.0
  0
LINE
  5
5FE
330
1F
100
AcDbEntity
  8
SPOJOVACÍ
  6
CONTINUOUS
100
AcDbLine
 10
152.996386595438
 20
309.7418293291241
 30
0.0
 11
153.286601440592
 21
307.4210407187686
 31
0.0
  0
LINE
  5
5FF
330
1F
100
AcDbEntity
  8
SPOJOVACÍ
  6
CONTINUOUS
100
AcDbLine
 10
152.6271068030803
 20
312.6942073048533
 30
0.0
 11
152.9173216525998
 21
310.3724885187887
 31
0.0
  0
LINE
  5
600
330
1F
100
AcDbEntity
  8
SPOJOVACÍ
  6
CONTINUOUS
100
AcDbLine
 10
153.7498289870166
 20
303.7114996451102
 30
0.0
 11
154.1042259681455
 21
306.5476056463787
 31
0.0
  0
LINE
  5
601
330
1F
100
AcDbEntity
  8
SPOJOVACÍ
  6
CONTINUOUS
100
AcDbLine
 10
152.4001439078313
 20
314.5117708100635
 30
0.0
 11
152.5499022105543
 21
313.3146345607067
 31
0.0
  0
LINE
  5
602
330
1F
100
AcDbEntity
  8
SPOJOVACÍ
  6
CONTINUOUS
100
AcDbLine
 10
155.0995140705674
 20
314.8484944479471
 30
0.0
 11
155.0995140705674
 21
314.5117708100635
 31
0.0
  0
LINE
  5
603
330
1F
100
AcDbEntity
  8
SPOJOVACÍ
  6
CONTINUOUS
100
AcDbLine
 10
155.0995140705674
 20
317.97109459456
 30
0.0
 11
155.0995140705674
 21
315.4521785395311
 31
0.0
  0
LINE
  5
604
330
1F
100
AcDbEntity
  8
SPOJOVACÍ
  6
CONTINUOUS
100
AcDbLine
 10
152.4001439078313
 20
315.7591365519522
 30
0.0
 11
152.4001439078313
 21
314.5117708100635
 31
0.0
  0
LINE
  5
605
330
1F
100
AcDbEntity
  8
SPOJOVACÍ
  6
CONTINUOUS
100
AcDbLine
 10
152.4001439078313
 20
318.8733651164341
 30
0.0
 11
152.4001439078313
 21
316.3553792371069
 31
0.0
  0
LINE
  5
606
330
1F
100
AcDbEntity
  8
SPOJOVACÍ
  6
CONTINUOUS
100
AcDbLine
 10
155.0995140705674
 20
321.092764565202
 30
0.0
 11
155.0995140705674
 21
318.571988158493
 31
0.0
  0
LINE
  5
607
330
1F
100
AcDbEntity
  8
SPOJOVACÍ
  6
CONTINUOUS
100
AcDbLine
 10
155.0995140705674
 20
324.2153647115458
 30
0.0
 11
155.0995140705674
 21
321.6871468986767
 31
0.0
  0
LINE
  5
608
330
1F
100
AcDbEntity
  8
SPOJOVACÍ
  6
CONTINUOUS
100
AcDbLine
 10
155.0995140705674
 20
327.3305234517295
 30
0.0
 11
155.0995140705674
 21
324.8116073967005
 31
0.0
  0
LINE
  5
609
330
1F
100
AcDbEntity
  8
SPOJOVACÍ
  6
CONTINUOUS
100
AcDbLine
 10
152.4001439078313
 20
322.006197196589
 30
0.0
 11
152.4001439078313
 21
319.4779793837199
 31
0.0
  0
LINE
  5
60A
330
1F
100
AcDbEntity
  8
SPOJOVACÍ
  6
CONTINUOUS
100
AcDbLine
 10
152.4001439078313
 20
325.1213559367727
 30
0.0
 11
152.4001439078313
 21
322.6005795300636
 31
0.0
  0
LINE
  5
60B
330
1F
100
AcDbEntity
  8
SPOJOVACÍ
  6
CONTINUOUS
100
AcDbLine
 10
152.4001439078313
 20
328.2439560831164
 30
0.0
 11
152.4001439078313
 21
325.7250400280875
 31
0.0
  0
LINE
  5
60C
330
1F
100
AcDbEntity
  8
SPOJOVACÍ
  6
CONTINUOUS
100
AcDbLine
 10
152.4001439078313
 20
332.8771617219729
 30
0.0
 11
152.4001439078313
 21
328.8392685922929
 31
0.0
  0
LINE
  5
60D
330
1F
100
AcDbEntity
  8
SPOJOVACÍ
  6
CONTINUOUS
100
AcDbLine
 10
155.0995140705674
 20
332.8771617219729
 30
0.0
 11
155.0995140705674
 21
327.9342075430442
 31
0.0
  0
LINE
  5
60E
330
1F
100
AcDbEntity
  8
SPOJOVACÍ
  6
CONTINUOUS
100
AcDbLine
 10
148.6496750983826
 20
338.2768322163294
 30
0.0
 11
149.9993601819335
 21
337.5326915798552
 31
0.0
  0
LINE
  5
60F
330
1F
100
AcDbEntity
  8
SPOJOVACÍ
  6
CONTINUOUS
100
AcDbLine
 10
149.9993601819335
 20
337.5326915798552
 30
0.0
 11
151.1099900822921
 21
336.463919590443
 31
0.0
  0
LINE
  5
610
330
1F
100
AcDbEntity
  8
SPOJOVACÍ
  6
CONTINUOUS
100
AcDbLine
 10
151.1099900822921
 20
336.463919590443
 30
0.0
 11
151.9062205616103
 21
335.1449303121455
 31
0.0
  0
LINE
  5
611
330
1F
100
AcDbEntity
  8
SPOJOVACÍ
  6
CONTINUOUS
100
AcDbLine
 10
151.9062205616103
 20
335.1449303121455
 30
0.0
 11
152.3341014259097
 21
333.6640904450953
 31
0.0
  0
LINE
  5
612
330
1F
100
AcDbEntity
  8
SPOJOVACÍ
  6
CONTINUOUS
100
AcDbLine
 10
152.3341014259097
 20
333.6640904450953
 30
0.0
 11
152.4001439078313
 21
332.8771617219729
 31
0.0
  0
LINE
  5
613
330
1F
100
AcDbEntity
  8
SPOJOVACÍ
  6
CONTINUOUS
100
AcDbLine
 10
156.897543880583
 20
337.0220250680042
 30
0.0
 11
158.1346776894827
 21
337.9401085784459
 31
0.0
  0
LINE
  5
614
330
1F
100
AcDbEntity
  8
SPOJOVACÍ
  6
CONTINUOUS
100
AcDbLine
 10
158.1346776894827
 20
337.9401085784459
 30
0.0
 11
158.8499828756505
 21
338.2768322163294
 31
0.0
  0
LINE
  5
615
330
1F
100
AcDbEntity
  8
SPOJOVACÍ
  6
CONTINUOUS
100
AcDbLine
 10
148.6496750983826
 20
338.2768322163294
 30
0.0
 11
158.8499828756505
 21
338.2768322163294
 31
0.0
  0
LINE
  5
616
330
1F
100
AcDbEntity
  8
SPOJOVACÍ
  6
CONTINUOUS
100
AcDbLine
 10
148.6496750983826
 20
339.4767589930609
 30
0.0
 11
148.6496750983826
 21
338.2768322163294
 31
0.0
  0
LINE
  5
617
330
1F
100
AcDbEntity
  8
SPOJOVACÍ
  6
CONTINUOUS
100
AcDbLine
 10
148.6496750983826
 20
339.4767589930609
 30
0.0
 11
158.8499828756505
 21
339.4767589930609
 31
0.0
  0
LINE
  5
618
330
1F
100
AcDbEntity
  8
SPOJOVACÍ
  6
CONTINUOUS
100
AcDbLine
 10
158.8499828756505
 20
339.4767589930609
 30
0.0
 11
158.8499828756505
 21
338.2768322163294
 31
0.0
  0
LINE
  5
619
330
1F
100
AcDbEntity
  8
SPOJOVACÍ
  6
CONTINUOUS
100
AcDbLine
 10
155.0995140705674
 20
332.8771617219729
 30
0.0
 11
155.3264769614509
 21
334.4007896754021
 31
0.0
  0
LINE
  5
61A
330
1F
100
AcDbEntity
  8
SPOJOVACÍ
  6
CONTINUOUS
100
AcDbLine
 10
155.3264769614509
 20
334.4007896754021
 30
0.0
 11
155.9394628105985
 21
335.8146568851054
 31
0.0
  0
LINE
  5
61B
330
1F
100
AcDbEntity
  8
SPOJOVACÍ
  6
CONTINUOUS
100
AcDbLine
 10
155.9394628105985
 20
335.8146568851054
 30
0.0
 11
156.897543880583
 21
337.0220250680042
 31
0.0
  0
LINE
  5
61C
330
1F
100
AcDbEntity
  8
SPOJOVACÍ
  6
CONTINUOUS
100
AcDbLine
 10
155.9394628105985
 20
267.9066068162676
 30
0.0
 11
156.897543880583
 21
266.6992386333688
 31
0.0
  0
LINE
  5
61D
330
1F
100
AcDbEntity
  8
SPOJOVACÍ
  6
CONTINUOUS
100
AcDbLine
 10
155.3264769614509
 20
269.3204740259709
 30
0.0
 11
155.9394628105985
 21
267.9066068162676
 31
0.0
  0
LINE
  5
61E
330
1F
100
AcDbEntity
  8
SPOJOVACÍ
  6
CONTINUOUS
100
AcDbLine
 10
155.0995140705674
 20
270.8441019794002
 30
0.0
 11
155.3264769614509
 21
269.3204740259709
 31
0.0
  0
LINE
  5
61F
330
1F
100
AcDbEntity
  8
SPOJOVACÍ
  6
CONTINUOUS
100
AcDbLine
 10
158.8499828756505
 20
264.2445047083122
 30
0.0
 11
158.8499828756505
 21
265.4444314850436
 31
0.0
  0
LINE
  5
620
330
1F
100
AcDbEntity
  8
SPOJOVACÍ
  6
CONTINUOUS
100
AcDbLine
 10
148.6496750983826
 20
264.2445047083122
 30
0.0
 11
158.8499828756505
 21
264.2445047083122
 31
0.0
  0
LINE
  5
621
330
1F
100
AcDbEntity
  8
SPOJOVACÍ
  6
CONTINUOUS
100
AcDbLine
 10
148.6496750983826
 20
264.2445047083122
 30
0.0
 11
148.6496750983826
 21
265.4444314850436
 31
0.0
  0
LINE
  5
622
330
1F
100
AcDbEntity
  8
SPOJOVACÍ
  6
CONTINUOUS
100
AcDbLine
 10
148.6496750983826
 20
265.4444314850436
 30
0.0
 11
158.8499828756505
 21
265.4444314850436
 31
0.0
  0
LINE
  5
623
330
1F
100
AcDbEntity
  8
SPOJOVACÍ
  6
CONTINUOUS
100
AcDbLine
 10
158.1346776894827
 20
265.7811551229272
 30
0.0
 11
158.8499828756505
 21
265.4444314850436
 31
0.0
  0
LINE
  5
624
330
1F
100
AcDbEntity
  8
SPOJOVACÍ
  6
CONTINUOUS
100
AcDbLine
 10
156.897543880583
 20
266.6992386333688
 30
0.0
 11
158.1346776894827
 21
265.7811551229272
 31
0.0
  0
LINE
  5
625
330
1F
100
AcDbEntity
  8
SPOJOVACÍ
  6
CONTINUOUS
100
AcDbLine
 10
152.3341014259097
 20
270.0571732562778
 30
0.0
 11
152.4001439078313
 21
270.8441019794002
 31
0.0
  0
LINE
  5
626
330
1F
100
AcDbEntity
  8
SPOJOVACÍ
  6
CONTINUOUS
100
AcDbLine
 10
151.9062205616103
 20
268.5763333892275
 30
0.0
 11
152.3341014259097
 21
270.0571732562778
 31
0.0
  0
LINE
  5
627
330
1F
100
AcDbEntity
  8
SPOJOVACÍ
  6
CONTINUOUS
100
AcDbLine
 10
151.1099900822921
 20
267.25734411093
 30
0.0
 11
151.9062205616103
 21
268.5763333892275
 31
0.0
  0
LINE
  5
628
330
1F
100
AcDbEntity
  8
SPOJOVACÍ
  6
CONTINUOUS
100
AcDbLine
 10
149.9993601819335
 20
266.1885721215178
 30
0.0
 11
151.1099900822921
 21
267.25734411093
 31
0.0
  0
LINE
  5
629
330
1F
100
AcDbEntity
  8
SPOJOVACÍ
  6
CONTINUOUS
100
AcDbLine
 10
148.6496750983826
 20
265.4444314850436
 30
0.0
 11
149.9993601819335
 21
266.1885721215178
 31
0.0
  0
LINE
  5
62A
330
1F
100
AcDbEntity
  8
SPOJOVACÍ
  6
CONTINUOUS
100
AcDbLine
 10
155.0995140705674
 20
270.8441019794002
 30
0.0
 11
155.0995140705674
 21
275.7870561583288
 31
0.0
  0
LINE
  5
62B
330
1F
100
AcDbEntity
  8
SPOJOVACÍ
  6
CONTINUOUS
100
AcDbLine
 10
152.4001439078313
 20
270.8441019794002
 30
0.0
 11
152.4001439078313
 21
274.8819951090802
 31
0.0
  0
LINE
  5
62C
330
1F
100
AcDbEntity
  8
SPOJOVACÍ
  6
CONTINUOUS
100
AcDbLine
 10
152.4001439078313
 20
275.4773076182566
 30
0.0
 11
152.4001439078313
 21
277.9962236732856
 31
0.0
  0
LINE
  5
62D
330
1F
100
AcDbEntity
  8
SPOJOVACÍ
  6
CONTINUOUS
100
AcDbLine
 10
152.4001439078313
 20
278.5999077646004
 30
0.0
 11
152.4001439078313
 21
281.1206841713094
 31
0.0
  0
LINE
  5
62E
330
1F
100
AcDbEntity
  8
SPOJOVACÍ
  6
CONTINUOUS
100
AcDbLine
 10
152.4001439078313
 20
281.715066504784
 30
0.0
 11
152.4001439078313
 21
284.2432843176532
 31
0.0
  0
LINE
  5
62F
330
1F
100
AcDbEntity
  8
SPOJOVACÍ
  6
CONTINUOUS
100
AcDbLine
 10
155.0995140705674
 20
276.3907402496436
 30
0.0
 11
155.0995140705674
 21
278.9096563046725
 31
0.0
  0
LINE
  5
630
330
1F
100
AcDbEntity
  8
SPOJOVACÍ
  6
CONTINUOUS
100
AcDbLine
 10
155.0995140705674
 20
279.5058989898273
 30
0.0
 11
155.0995140705674
 21
282.0341168026964
 31
0.0
  0
LINE
  5
631
330
1F
100
AcDbEntity
  8
SPOJOVACÍ
  6
CONTINUOUS
100
AcDbLine
 10
155.0995140705674
 20
282.628499136171
 30
0.0
 11
155.0995140705674
 21
285.1492755428801
 31
0.0
  0
LINE
  5
632
330
1F
100
AcDbEntity
  8
SPOJOVACÍ
  6
CONTINUOUS
100
AcDbLine
 10
152.4001439078313
 20
284.847898584939
 30
0.0
 11
152.4001439078313
 21
287.3658844642661
 31
0.0
  0
LINE
  5
633
330
1F
100
AcDbEntity
  8
SPOJOVACÍ
  6
CONTINUOUS
100
AcDbLine
 10
152.4001439078313
 20
287.9621271494209
 30
0.0
 11
152.4001439078313
 21
289.2094928913095
 31
0.0
  0
LINE
  5
634
330
1F
100
AcDbEntity
  8
SPOJOVACÍ
  6
CONTINUOUS
100
AcDbLine
 10
155.0995140705674
 20
285.750169106813
 30
0.0
 11
155.0995140705674
 21
288.269085161842
 31
0.0
  0
LINE
  5
635
330
1F
100
AcDbEntity
  8
SPOJOVACÍ
  6
CONTINUOUS
100
AcDbLine
 10
155.0995140705674
 20
288.872769253426
 30
0.0
 11
155.0995140705674
 21
289.2094928913095
 31
0.0
  0
LINE
  5
636
330
1F
100
AcDbEntity
  8
SPOJOVACÍ
  6
CONTINUOUS
100
AcDbLine
 10
152.4001439078313
 20
289.2094928913095
 30
0.0
 11
152.5499022105543
 21
290.4066291406664
 31
0.0
  0
LINE
  5
637
330
1F
100
AcDbEntity
  8
SPOJOVACÍ
  6
CONTINUOUS
100
AcDbLine
 10
153.7498289870166
 20
300.0097640562628
 30
0.0
 11
154.1042259681455
 21
297.1736580549943
 31
0.0
  0
LINE
  5
638
330
1F
100
AcDbEntity
  8
SPOJOVACÍ
  6
CONTINUOUS
100
AcDbLine
 10
152.6271068030803
 20
291.0270563965198
 30
0.0
 11
152.9173216525998
 21
293.3487751825844
 31
0.0
  0
LINE
  5
639
330
1F
100
AcDbEntity
  8
SPOJOVACÍ
  6
CONTINUOUS
100
AcDbLine
 10
152.996386595438
 20
293.9794343722489
 30
0.0
 11
153.286601440592
 21
296.3002229826045
 31
0.0
  0
LINE
  5
63A
330
1F
100
AcDbEntity
  8
SPOJOVACÍ
  6
CONTINUOUS
100
AcDbLine
 10
153.3638060331179
 20
296.9206502384579
 30
0.0
 11
153.7498289870166
 21
300.0097640562628
 31
0.0
  0
LINE
  5
63B
330
1F
100
AcDbEntity
  8
SPOJOVACÍ
  6
CONTINUOUS
100
AcDbLine
 10
154.1758495053693
 20
296.6043904679274
 30
0.0
 11
154.4437401336802
 21
294.459405082943
 31
0.0
  0
LINE
  5
63C
330
1F
100
AcDbEntity
  8
SPOJOVACÍ
  6
CONTINUOUS
100
AcDbLine
 10
154.5153636665384
 20
293.8873469684942
 30
0.0
 11
154.7823241218759
 21
291.7507331656409
 31
0.0
  0
LINE
  5
63D
330
1F
100
AcDbEntity
  8
SPOJOVACÍ
  6
CONTINUOUS
100
AcDbLine
 10
154.8539476590997
 20
291.1805354025957
 30
0.0
 11
155.0995140705674
 21
289.2094928913095
 31
0.0
  0
LINE
  5
63E
330
1F
100
AcDbEntity
  8
SPOJOVACÍ
  6
CONTINUOUS
100
AcDbLine
 10
151.3499754340921
 20
275.0447758732655
 30
0.0
 11
156.149682539941
 21
276.2447026497277
 31
0.0
  0
LINE
  5
63F
330
1F
100
AcDbEntity
  8
SPOJOVACÍ
  6
CONTINUOUS
100
AcDbLine
 10
151.3499754340921
 20
275.0447758732655
 30
0.0
 11
151.7276268094031
 21
275.2624370093137
 31
0.0
  0
LINE
  5
640
330
1F
100
AcDbEntity
  8
SPOJOVACÍ
  6
CONTINUOUS
100
AcDbLine
 10
151.3499754340921
 20
275.0447758732655
 30
0.0
 11
151.7276268094031
 21
274.6661943244355
 31
0.0
  0
LINE
  5
641
330
1F
100
AcDbEntity
  8
SPOJOVACÍ
  6
CONTINUOUS
100
AcDbLine
 10
156.149682539941
 20
276.2447026497277
 30
0.0
 11
155.7720311689956
 21
276.6223540228559
 31
0.0
  0
LINE
  5
642
330
1F
100
AcDbEntity
  8
SPOJOVACÍ
  6
CONTINUOUS
100
AcDbLine
 10
156.149682539941
 20
276.2447026497277
 30
0.0
 11
155.7720311689956
 21
276.0261113377012
 31
0.0
  0
LINE
  5
643
330
1F
100
AcDbEntity
  8
SPOJOVACÍ
  6
CONTINUOUS
100
AcDbLine
 10
151.7276268094031
 20
275.2624370093137
 30
0.0
 11
155.7720311689956
 21
276.6223540228559
 31
0.0
  0
LINE
  5
644
330
1F
100
AcDbEntity
  8
SPOJOVACÍ
  6
CONTINUOUS
100
AcDbLine
 10
151.7276268094031
 20
274.6661943244355
 30
0.0
 11
155.7720311689956
 21
276.0261113377012
 31
0.0
  0
LINE
  5
645
330
1F
100
AcDbEntity
  8
SPOJOVACÍ
  6
CONTINUOUS
100
AcDbLine
 10
151.3499754340921
 20
278.1645854922274
 30
0.0
 11
156.149682539941
 21
279.3645122689661
 31
0.0
  0
LINE
  5
646
330
1F
100
AcDbEntity
  8
SPOJOVACÍ
  6
CONTINUOUS
100
AcDbLine
 10
151.3499754340921
 20
278.1645854922274
 30
0.0
 11
151.7276268094031
 21
278.3831768042539
 31
0.0
  0
LINE
  5
647
330
1F
100
AcDbEntity
  8
SPOJOVACÍ
  6
CONTINUOUS
100
AcDbLine
 10
151.3499754340921
 20
278.1645854922274
 30
0.0
 11
151.7276268094031
 21
277.7869341190992
 31
0.0
  0
LINE
  5
648
330
1F
100
AcDbEntity
  8
SPOJOVACÍ
  6
CONTINUOUS
100
AcDbLine
 10
156.149682539941
 20
279.3645122689661
 30
0.0
 11
155.7720311689956
 21
279.7421636418178
 31
0.0
  0
LINE
  5
649
330
1F
100
AcDbEntity
  8
SPOJOVACÍ
  6
CONTINUOUS
100
AcDbLine
 10
156.149682539941
 20
279.3645122689661
 30
0.0
 11
155.7720311689956
 21
279.1459209569395
 31
0.0
  0
LINE
  5
64A
330
1F
100
AcDbEntity
  8
SPOJOVACÍ
  6
CONTINUOUS
100
AcDbLine
 10
151.7276268094031
 20
278.3831768042539
 30
0.0
 11
155.7720311689956
 21
279.7421636418178
 31
0.0
  0
LINE
  5
64B
330
1F
100
AcDbEntity
  8
SPOJOVACÍ
  6
CONTINUOUS
100
AcDbLine
 10
151.7276268094031
 20
277.7869341190992
 30
0.0
 11
155.7720311689956
 21
279.1459209569395
 31
0.0
  0
LINE
  5
64C
330
1F
100
AcDbEntity
  8
SPOJOVACÍ
  6
CONTINUOUS
100
AcDbLine
 10
151.6039134285131
 20
290.6019660576887
 30
0.0
 11
151.9824949767974
 21
290.8205573697152
 31
0.0
  0
LINE
  5
64D
330
1F
100
AcDbEntity
  8
SPOJOVACÍ
  6
CONTINUOUS
100
AcDbLine
 10
151.6039134285131
 20
290.6019660576887
 30
0.0
 11
151.9824949767974
 21
290.2243146845605
 31
0.0
  0
LINE
  5
64E
330
1F
100
AcDbEntity
  8
SPOJOVACÍ
  6
CONTINUOUS
100
AcDbLine
 10
155.729243081256
 20
291.5749299399933
 30
0.0
 11
155.3515917103107
 21
291.9535114890998
 31
0.0
  0
LINE
  5
64F
330
1F
100
AcDbEntity
  8
SPOJOVACÍ
  6
CONTINUOUS
100
AcDbLine
 10
155.729243081256
 20
291.5749299399933
 30
0.0
 11
155.3515917103107
 21
291.3572688039451
 31
0.0
  0
LINE
  5
650
330
1F
100
AcDbEntity
  8
SPOJOVACÍ
  6
CONTINUOUS
100
AcDbLine
 10
151.9824949767974
 20
290.8205573697152
 30
0.0
 11
155.3515917103107
 21
291.9535114890998
 31
0.0
  0
LINE
  5
651
330
1F
100
AcDbEntity
  8
SPOJOVACÍ
  6
CONTINUOUS
100
AcDbLine
 10
151.9824949767974
 20
290.2243146845605
 30
0.0
 11
155.3515917103107
 21
291.3572688039451
 31
0.0
  0
LINE
  5
652
330
1F
100
AcDbEntity
  8
SPOJOVACÍ
  6
CONTINUOUS
100
AcDbLine
 10
151.6039134285131
 20
290.6019660576887
 30
0.0
 11
155.729243081256
 21
291.5749299399933
 31
0.0
  0
LINE
  5
653
330
1F
100
AcDbEntity
  8
SPOJOVACÍ
  6
CONTINUOUS
100
AcDbLine
 10
152.168530134619
 20
293.6166658119866
 30
0.0
 11
152.5461815099299
 21
293.8343269480349
 31
0.0
  0
LINE
  5
654
330
1F
100
AcDbEntity
  8
SPOJOVACÍ
  6
CONTINUOUS
100
AcDbLine
 10
152.168530134619
 20
293.6166658119866
 30
0.0
 11
152.5461815099299
 21
293.2380842628802
 31
0.0
  0
LINE
  5
655
330
1F
100
AcDbEntity
  8
SPOJOVACÍ
  6
CONTINUOUS
100
AcDbLine
 10
155.2846190510502
 20
294.2501155287566
 30
0.0
 11
154.9069676801048
 21
294.6286970775866
 31
0.0
  0
LINE
  5
656
330
1F
100
AcDbEntity
  8
SPOJOVACÍ
  6
CONTINUOUS
100
AcDbLine
 10
155.2846190510502
 20
294.2501155287566
 30
0.0
 11
154.9069676801048
 21
294.0324543927083
 31
0.0
  0
LINE
  5
657
330
1F
100
AcDbEntity
  8
SPOJOVACÍ
  6
CONTINUOUS
100
AcDbLine
 10
152.5461815099299
 20
293.8343269480349
 30
0.0
 11
154.9069676801048
 21
294.6286970775866
 31
0.0
  0
LINE
  5
658
330
1F
100
AcDbEntity
  8
SPOJOVACÍ
  6
CONTINUOUS
100
AcDbLine
 10
152.5461815099299
 20
293.2380842628802
 30
0.0
 11
154.9069676801048
 21
294.0324543927083
 31
0.0
  0
LINE
  5
659
330
1F
100
AcDbEntity
  8
SPOJOVACÍ
  6
CONTINUOUS
100
AcDbLine
 10
152.168530134619
 20
293.6166658119866
 30
0.0
 11
155.2846190510502
 21
294.2501155287566
 31
0.0
  0
LINE
  5
65A
330
1F
100
AcDbEntity
  8
SPOJOVACÍ
  6
CONTINUOUS
100
AcDbLine
 10
152.7331468450904
 20
296.6304353903062
 30
0.0
 11
153.1107982160358
 21
296.8490267023255
 31
0.0
  0
LINE
  5
65B
330
1F
100
AcDbEntity
  8
SPOJOVACÍ
  6
CONTINUOUS
100
AcDbLine
 10
152.7331468450904
 20
296.6304353903062
 30
0.0
 11
153.1107982160358
 21
296.2527840171781
 31
0.0
  0
LINE
  5
65C
330
1F
100
AcDbEntity
  8
SPOJOVACÍ
  6
CONTINUOUS
100
AcDbLine
 10
154.8874339865472
 20
296.9411141060802
 30
0.0
 11
154.5097826156018
 21
297.3196956549102
 31
0.0
  0
LINE
  5
65D
330
1F
100
AcDbEntity
  8
SPOJOVACÍ
  6
CONTINUOUS
100
AcDbLine
 10
154.8874339865472
 20
296.9411141060802
 30
0.0
 11
154.5097826156018
 21
296.7234529697627
 31
0.0
  0
LINE
  5
65E
330
1F
100
AcDbEntity
  8
SPOJOVACÍ
  6
CONTINUOUS
100
AcDbLine
 10
153.1107982160358
 20
296.8490267023255
 30
0.0
 11
154.5097826156018
 21
297.3196956549102
 31
0.0
  0
LINE
  5
65F
330
1F
100
AcDbEntity
  8
SPOJOVACÍ
  6
CONTINUOUS
100
AcDbLine
 10
153.1107982160358
 20
296.2527840171781
 30
0.0
 11
154.5097826156018
 21
296.7234529697627
 31
0.0
  0
LINE
  5
660
330
1F
100
AcDbEntity
  8
SPOJOVACÍ
  6
CONTINUOUS
100
AcDbLine
 10
152.7331468450904
 20
296.6304353903062
 30
0.0
 11
154.8874339865472
 21
296.9411141060802
 31
0.0
  0
LINE
  5
661
330
1F
100
AcDbEntity
  8
SPOJOVACÍ
  6
CONTINUOUS
100
AcDbLine
 10
151.3499754340921
 20
281.2843951114657
 30
0.0
 11
156.149682539941
 21
282.484321887928
 31
0.0
  0
LINE
  5
662
330
1F
100
AcDbEntity
  8
SPOJOVACÍ
  6
CONTINUOUS
100
AcDbLine
 10
151.3499754340921
 20
281.2843951114657
 30
0.0
 11
151.7276268094031
 21
281.5029864234923
 31
0.0
  0
LINE
  5
663
330
1F
100
AcDbEntity
  8
SPOJOVACÍ
  6
CONTINUOUS
100
AcDbLine
 10
151.3499754340921
 20
281.2843951114657
 30
0.0
 11
151.7276268094031
 21
280.9067437383376
 31
0.0
  0
LINE
  5
664
330
1F
100
AcDbEntity
  8
SPOJOVACÍ
  6
CONTINUOUS
100
AcDbLine
 10
156.149682539941
 20
282.484321887928
 30
0.0
 11
155.7720311689956
 21
282.8629034367579
 31
0.0
  0
LINE
  5
665
330
1F
100
AcDbEntity
  8
SPOJOVACÍ
  6
CONTINUOUS
100
AcDbLine
 10
156.149682539941
 20
282.484321887928
 30
0.0
 11
155.7720311689956
 21
282.2666607516105
 31
0.0
  0
LINE
  5
666
330
1F
100
AcDbEntity
  8
SPOJOVACÍ
  6
CONTINUOUS
100
AcDbLine
 10
151.7276268094031
 20
281.5029864234923
 30
0.0
 11
155.7720311689956
 21
282.8629034367579
 31
0.0
  0
LINE
  5
667
330
1F
100
AcDbEntity
  8
SPOJOVACÍ
  6
CONTINUOUS
100
AcDbLine
 10
151.7276268094031
 20
280.9067437383376
 30
0.0
 11
155.7720311689956
 21
282.2666607516105
 31
0.0
  0
LINE
  5
668
330
1F
100
AcDbEntity
  8
SPOJOVACÍ
  6
CONTINUOUS
100
AcDbLine
 10
151.3499754340921
 20
284.4042047304349
 30
0.0
 11
156.149682539941
 21
285.6041315068971
 31
0.0
  0
LINE
  5
669
330
1F
100
AcDbEntity
  8
SPOJOVACÍ
  6
CONTINUOUS
100
AcDbLine
 10
151.3499754340921
 20
284.4042047304349
 30
0.0
 11
151.7276268094031
 21
284.6227960424542
 31
0.0
  0
LINE
  5
66A
330
1F
100
AcDbEntity
  8
SPOJOVACÍ
  6
CONTINUOUS
100
AcDbLine
 10
151.3499754340921
 20
284.4042047304349
 30
0.0
 11
151.7276268094031
 21
284.0265533573067
 31
0.0
  0
LINE
  5
66B
330
1F
100
AcDbEntity
  8
SPOJOVACÍ
  6
CONTINUOUS
100
AcDbLine
 10
156.149682539941
 20
285.6041315068971
 30
0.0
 11
155.7720311689956
 21
285.9827130557271
 31
0.0
  0
LINE
  5
66C
330
1F
100
AcDbEntity
  8
SPOJOVACÍ
  6
CONTINUOUS
100
AcDbLine
 10
156.149682539941
 20
285.6041315068971
 30
0.0
 11
155.7720311689956
 21
285.3864703708488
 31
0.0
  0
LINE
  5
66D
330
1F
100
AcDbEntity
  8
SPOJOVACÍ
  6
CONTINUOUS
100
AcDbLine
 10
151.7276268094031
 20
284.6227960424542
 30
0.0
 11
155.7720311689956
 21
285.9827130557271
 31
0.0
  0
LINE
  5
66E
330
1F
100
AcDbEntity
  8
SPOJOVACÍ
  6
CONTINUOUS
100
AcDbLine
 10
151.7276268094031
 20
284.0265533573067
 30
0.0
 11
155.7720311689956
 21
285.3864703708488
 31
0.0
  0
LINE
  5
66F
330
1F
100
AcDbEntity
  8
SPOJOVACÍ
  6
CONTINUOUS
100
AcDbLine
 10
151.3499754340921
 20
287.524944525375
 30
0.0
 11
156.149682539941
 21
288.7248713018373
 31
0.0
  0
LINE
  5
670
330
1F
100
AcDbEntity
  8
SPOJOVACÍ
  6
CONTINUOUS
100
AcDbLine
 10
151.3499754340921
 20
287.524944525375
 30
0.0
 11
151.7276268094031
 21
287.7426056614233
 31
0.0
  0
LINE
  5
671
330
1F
100
AcDbEntity
  8
SPOJOVACÍ
  6
CONTINUOUS
100
AcDbLine
 10
151.3499754340921
 20
287.524944525375
 30
0.0
 11
151.7276268094031
 21
287.1463629762686
 31
0.0
  0
LINE
  5
672
330
1F
100
AcDbEntity
  8
SPOJOVACÍ
  6
CONTINUOUS
100
AcDbLine
 10
156.149682539941
 20
288.7248713018373
 30
0.0
 11
155.7720311689956
 21
289.1025226749654
 31
0.0
  0
LINE
  5
673
330
1F
100
AcDbEntity
  8
SPOJOVACÍ
  6
CONTINUOUS
100
AcDbLine
 10
156.149682539941
 20
288.7248713018373
 30
0.0
 11
155.7720311689956
 21
288.5062799898107
 31
0.0
  0
LINE
  5
674
330
1F
100
AcDbEntity
  8
SPOJOVACÍ
  6
CONTINUOUS
100
AcDbLine
 10
151.7276268094031
 20
287.7426056614233
 30
0.0
 11
155.7720311689956
 21
289.1025226749654
 31
0.0
  0
LINE
  5
675
330
1F
100
AcDbEntity
  8
SPOJOVACÍ
  6
CONTINUOUS
100
AcDbLine
 10
151.7276268094031
 20
287.1463629762686
 30
0.0
 11
155.7720311689956
 21
288.5062799898107
 31
0.0
  0
LINE
  5
676
330
1F
100
AcDbEntity
  8
CETRIS
100
AcDbLine
 10
123.2990668387358
 20
327.4767589930609
 30
0.0
 11
123.2990668387394
 21
339.4767589930618
 31
0.0
  0
LINE
  5
677
330
1F
100
AcDbEntity
  8
CETRIS
100
AcDbLine
 10
123.2990668387358
 20
264.2445047083112
 30
0.0
 11
123.2990668387358
 21
276.2445047083122
 31
0.0
  0
HATCH
  5
678
330
1F
100
AcDbEntity
  8
IZOLACE
100
AcDbHatch
 10
0.0
 20
0.0
 30
0.0
210
0.0
220
0.0
230
1.0
  2
SOLID
 70
     1
 71
     0
 91
        3
 92
        7
 72
     0
 73
     1
 93
        4
 10
121.249227308039
 20
326.7115234313653
 10
119.2492273080427
 20
326.7115234313653
 10
119.249227308039
 20
320.0107984938379
 10
121.249227308039
 20
320.0107984938379
 97
        0
 92
        7
 72
     0
 73
     1
 93
        4
 10
121.249227308039
 20
307.5097214868621
 10
119.249227308039
 20
307.5097214868621
 10
119.249227308039
 20
295.0086444798864
 10
121.249227308039
 20
295.0086444798864
 97
        0
 92
        7
 72
     0
 73
     1
 93
        4
 10
121.2492273080426
 20
282.5075674729116
 10
119.2492273080354
 20
282.5075674729116
 10
119.249227308039
 20
276.7072154034642
 10
121.2492273080426
 20
276.7072154034642
 97
        0
 75
     0
 76
     1
 47
0.0846398039763049
 98
        3
 10
120.5429252629985
 20
321.8418474382772
 10
120.7123109786482
 20
305.1677940327201
 10
120.4582910973988
 20
281.9763973692163
  0
LWPOLYLINE
  5
679
330
1F
100
AcDbEntity
  8
IZOLACE
100
AcDbPolyline
 90
        4
 70
     1
 43
0.0
 10
119.249227308039
 20
307.5097214868621
 10
121.2492273080426
 20
307.5097214868621
 10
121.2492273080426
 20
320.0107984938379
 10
119.249227308039
 20
320.0107984938379
  0
LWPOLYLINE
  5
67A
330
1F
100
AcDbEntity
  8
IZOLACE
100
AcDbPolyline
 90
        4
 70
     1
 43
0.0
 10
119.249227308039
 20
282.5075674729116
 10
121.2492273080426
 20
282.5075674729116
 10
121.2492273080426
 20
295.0086444798864
 10
119.249227308039
 20
295.0086444798864
  0
LINE
  5
67B
330
1F
100
AcDbEntity
  8
IZOLACE
100
AcDbLine
 10
119.2492273080463
 20
326.7115234313653
 30
0.0
 11
119.249227308039
 21
276.7072154034642
 31
0.0
  0
LINE
  5
67C
330
1F
100
AcDbEntity
  8
IZOLACE
100
AcDbLine
 10
121.2492273080426
 20
326.7115234313653
 30
0.0
 11
121.2492273080426
 21
276.7072154034642
 31
0.0
  0
LINE
  5
67D
330
1F
100
AcDbEntity
  8
CETRIS
100
AcDbLine
 10
123.2990668387394
 20
327.4767589930609
 30
0.0
 11
544.2054000727842
 21
327.4767589930618
 31
0.0
  0
LINE
  5
67E
330
1F
100
AcDbEntity
  8
CETRIS
100
AcDbLine
 10
123.2990668387394
 20
339.4767589930609
 30
0.0
 11
544.2054000727842
 21
339.4767589930618
 31
0.0
  0
LINE
  5
67F
330
1F
100
AcDbEntity
  8
CETRIS
100
AcDbLine
 10
123.2990668387394
 20
264.2445047083122
 30
0.0
 11
635.3412565129549
 21
264.2445047083122
 31
0.0
  0
LINE
  5
680
330
1F
100
AcDbEntity
  8
CETRIS
100
AcDbLine
 10
123.2990668387394
 20
276.2445047083122
 30
0.0
 11
637.5514177912557
 21
276.2445047083122
 31
0.0
  0
LINE
  5
681
330
1F
100
AcDbEntity
  8
SPOJOVACÍ
  6
DASHDOT2
100
AcDbLine
 10
134.9581959524478
 20
302.2168112155043
 30
0.0
 11
66.55244074347888
 21
302.2168112155034
 31
0.0
  0
LINE
  5
682
330
1F
100
AcDbEntity
  8
SPOJOVACÍ
 48
0.25
100
AcDbLine
 10
81.99076489050298
 20
298.691344792028
 30
0.0
 11
76.34132454978339
 21
302.2168112155043
 31
0.0
  0
LINE
  5
683
330
1F
100
AcDbEntity
  8
SPOJOVACÍ
 48
0.25
100
AcDbLine
 10
81.99076489049934
 20
305.7422776389787
 30
0.0
 11
76.34132454978339
 21
302.2168112155043
 31
0.0
  0
LINE
  5
684
330
1F
100
AcDbEntity
  8
SPOJOVACÍ
  6
DASHED
100
AcDbLine
 10
75.51908726427086
 20
302.2168112155034
 30
0.0
 11
88.22434738797552
 21
300.5058737155034
 31
0.0
  0
LINE
  5
685
330
1F
100
AcDbEntity
  8
SPOJOVACÍ
  6
DASHED
100
AcDbLine
 10
75.51908726427086
 20
302.2168112155034
 30
0.0
 11
88.22434738797552
 21
303.9277487155024
 31
0.0
  0
LINE
  5
686
330
1F
100
AcDbEntity
  8
SPOJOVACÍ
  6
CONTINUOUS
100
AcDbLine
 10
88.22873173857828
 20
304.6150166105173
 30
0.0
 11
86.61595515533576
 21
299.8186058153125
 31
0.0
  0
LINE
  5
687
330
1F
100
AcDbEntity
  8
SPOJOVACÍ
  6
CONTINUOUS
100
AcDbLine
 10
87.06382608065565
 20
299.370734892582
 30
0.0
 11
87.3230617147567
 21
299.8186058153125
 31
0.0
  0
LINE
  5
688
330
1F
100
AcDbEntity
  8
SPOJOVACÍ
  6
CONTINUOUS
100
AcDbLine
 10
87.06382608065565
 20
299.370734892582
 30
0.0
 11
86.61595515533576
 21
299.8186058153125
 31
0.0
  0
LINE
  5
689
330
1F
100
AcDbEntity
  8
SPOJOVACÍ
  6
CONTINUOUS
100
AcDbLine
 10
79.00401995103698
 20
303.2652646743647
 30
0.0
 11
78.68363252539371
 21
301.0436560597375
 31
0.0
  0
LINE
  5
68A
330
1F
100
AcDbEntity
  8
SPOJOVACÍ
  6
CONTINUOUS
100
AcDbLine
 10
79.39347292957268
 20
302.8758116980773
 30
0.0
 11
78.90809557222405
 21
301.4331090360249
 31
0.0
  0
LINE
  5
68B
330
1F
100
AcDbEntity
  8
SPOJOVACÍ
  6
CONTINUOUS
100
AcDbLine
 10
78.77859766051575
 20
302.8758116980773
 30
0.0
 11
78.29322030315984
 21
301.4331090360249
 31
0.0
  0
LINE
  5
68C
330
1F
100
AcDbEntity
  8
SPOJOVACÍ
  6
CONTINUOUS
100
AcDbLine
 10
78.68363252539371
 20
301.0436560597375
 30
0.0
 11
78.90809557222405
 21
301.4331090360249
 31
0.0
  0
LINE
  5
68D
330
1F
100
AcDbEntity
  8
SPOJOVACÍ
  6
CONTINUOUS
100
AcDbLine
 10
78.68363252539371
 20
301.0436560597375
 30
0.0
 11
78.29322030315984
 21
301.4331090360249
 31
0.0
  0
LINE
  5
68E
330
1F
100
AcDbEntity
  8
SPOJOVACÍ
  6
CONTINUOUS
100
AcDbLine
 10
79.00401995103698
 20
303.2652646743647
 30
0.0
 11
79.39347292957268
 21
302.8758116980773
 31
0.0
  0
LINE
  5
68F
330
1F
100
AcDbEntity
  8
SPOJOVACÍ
  6
CONTINUOUS
100
AcDbLine
 10
79.00401995103698
 20
303.2652646743647
 30
0.0
 11
78.77859766051575
 21
302.8758116980773
 31
0.0
  0
LINE
  5
690
330
1F
100
AcDbEntity
  8
SPOJOVACÍ
  6
CONTINUOUS
100
AcDbLine
 10
82.11196982867864
 20
303.8475256570384
 30
0.0
 11
81.45872480826097
 21
300.6340589619687
 31
0.0
  0
LINE
  5
691
330
1F
100
AcDbEntity
  8
SPOJOVACÍ
  6
CONTINUOUS
100
AcDbLine
 10
82.50238205119263
 20
303.458072676249
 30
0.0
 11
81.68318785480755
 21
301.0235119382562
 31
0.0
  0
LINE
  5
692
330
1F
100
AcDbEntity
  8
SPOJOVACÍ
  6
CONTINUOUS
100
AcDbLine
 10
81.88750678212841
 20
303.458072676249
 30
0.0
 11
81.06831258603074
 21
301.0235119382562
 31
0.0
  0
LINE
  5
693
330
1F
100
AcDbEntity
  8
SPOJOVACÍ
  6
CONTINUOUS
100
AcDbLine
 10
81.45872480826097
 20
300.6340589619687
 30
0.0
 11
81.68318785480755
 21
301.0235119382562
 31
0.0
  0
LINE
  5
694
330
1F
100
AcDbEntity
  8
SPOJOVACÍ
  6
CONTINUOUS
100
AcDbLine
 10
81.45872480826097
 20
300.6340589619687
 30
0.0
 11
81.06831258603074
 21
301.0235119382562
 31
0.0
  0
LINE
  5
695
330
1F
100
AcDbEntity
  8
SPOJOVACÍ
  6
CONTINUOUS
100
AcDbLine
 10
82.11196982867864
 20
303.8475256570384
 30
0.0
 11
82.50238205119263
 21
303.458072676249
 31
0.0
  0
LINE
  5
696
330
1F
100
AcDbEntity
  8
SPOJOVACÍ
  6
CONTINUOUS
100
AcDbLine
 10
82.11196982867864
 20
303.8475256570384
 30
0.0
 11
81.88750678212841
 21
303.458072676249
 31
0.0
  0
LINE
  5
697
330
1F
100
AcDbEntity
  8
SPOJOVACÍ
  6
CONTINUOUS
100
AcDbLine
 10
85.22087895029859
 20
304.4297866352101
 30
0.0
 11
84.21750994666968
 21
300.1755404308189
 31
0.0
  0
LINE
  5
698
330
1F
100
AcDbEntity
  8
SPOJOVACÍ
  6
CONTINUOUS
100
AcDbLine
 10
85.61033192883792
 20
304.0393744135419
 30
0.0
 11
84.4419729932199
 21
300.5649934071064
 31
0.0
  0
LINE
  5
699
330
1F
100
AcDbEntity
  8
SPOJOVACÍ
  6
CONTINUOUS
100
AcDbLine
 10
84.99545665977008
 20
304.0393744135419
 30
0.0
 11
83.82709772415569
 21
300.5649934071064
 31
0.0
  0
LINE
  5
69A
330
1F
100
AcDbEntity
  8
SPOJOVACÍ
  6
CONTINUOUS
100
AcDbLine
 10
84.21750994666968
 20
300.1755404308189
 30
0.0
 11
84.4419729932199
 21
300.5649934071064
 31
0.0
  0
LINE
  5
69B
330
1F
100
AcDbEntity
  8
SPOJOVACÍ
  6
CONTINUOUS
100
AcDbLine
 10
84.21750994666968
 20
300.1755404308189
 30
0.0
 11
83.82709772415569
 21
300.5649934071064
 31
0.0
  0
LINE
  5
69C
330
1F
100
AcDbEntity
  8
SPOJOVACÍ
  6
CONTINUOUS
100
AcDbLine
 10
85.22087895029859
 20
304.4297866352101
 30
0.0
 11
85.61033192883792
 21
304.0393744135419
 31
0.0
  0
LINE
  5
69D
330
1F
100
AcDbEntity
  8
SPOJOVACÍ
  6
CONTINUOUS
100
AcDbLine
 10
85.22087895029859
 20
304.4297866352101
 30
0.0
 11
84.99545665977008
 21
304.0393744135419
 31
0.0
  0
LINE
  5
69E
330
1F
100
AcDbEntity
  8
SPOJOVACÍ
  6
CONTINUOUS
100
AcDbLine
 10
112.0006611383289
 20
304.6150166105173
 30
0.0
 11
110.3878845550864
 21
299.8186058153125
 31
0.0
  0
LINE
  5
69F
330
1F
100
AcDbEntity
  8
SPOJOVACÍ
  6
CONTINUOUS
100
AcDbLine
 10
110.8357554804063
 20
299.370734892582
 30
0.0
 11
111.0949911145073
 21
299.8186058153125
 31
0.0
  0
LINE
  5
6A0
330
1F
100
AcDbEntity
  8
SPOJOVACÍ
  6
CONTINUOUS
100
AcDbLine
 10
110.8357554804063
 20
299.370734892582
 30
0.0
 11
110.3878845550864
 21
299.8186058153125
 31
0.0
  0
LINE
  5
6A1
330
1F
100
AcDbEntity
  8
SPOJOVACÍ
  6
CONTINUOUS
100
AcDbLine
 10
112.2587936418642
 20
305.0628875384247
 30
0.0
 11
112.0006611383289
 21
304.6150166105173
 31
0.0
  0
LINE
  5
6A2
330
1F
100
AcDbEntity
  8
SPOJOVACÍ
  6
CONTINUOUS
100
AcDbLine
 10
112.2587936418642
 20
305.0628875384247
 30
0.0
 11
110.8357554804063
 21
299.370734892582
 31
0.0
  0
LINE
  5
6A3
330
1F
100
AcDbEntity
  8
SPOJOVACÍ
  6
CONTINUOUS
100
AcDbLine
 10
109.3117777835034
 20
304.6150166105173
 30
0.0
 11
107.6990012002572
 21
299.8186058153125
 31
0.0
  0
LINE
  5
6A4
330
1F
100
AcDbEntity
  8
SPOJOVACÍ
  6
CONTINUOUS
100
AcDbLine
 10
108.6046712240788
 20
304.6150166105173
 30
0.0
 11
106.9918946408363
 21
299.8186058153125
 31
0.0
  0
LINE
  5
6A5
330
1F
100
AcDbEntity
  8
SPOJOVACÍ
  6
CONTINUOUS
100
AcDbLine
 10
107.4397655661562
 20
299.370734892582
 30
0.0
 11
107.6990012002572
 21
299.8186058153125
 31
0.0
  0
LINE
  5
6A6
330
1F
100
AcDbEntity
  8
SPOJOVACÍ
  6
CONTINUOUS
100
AcDbLine
 10
107.4397655661562
 20
299.370734892582
 30
0.0
 11
106.9918946408363
 21
299.8186058153125
 31
0.0
  0
LINE
  5
6A7
330
1F
100
AcDbEntity
  8
SPOJOVACÍ
  6
CONTINUOUS
100
AcDbLine
 10
108.8628037276141
 20
305.0628875384247
 30
0.0
 11
109.3117777835034
 21
304.6150166105173
 31
0.0
  0
LINE
  5
6A8
330
1F
100
AcDbEntity
  8
SPOJOVACÍ
  6
CONTINUOUS
100
AcDbLine
 10
108.8628037276141
 20
305.0628875384247
 30
0.0
 11
108.6046712240788
 21
304.6150166105173
 31
0.0
  0
LINE
  5
6A9
330
1F
100
AcDbEntity
  8
SPOJOVACÍ
  6
CONTINUOUS
100
AcDbLine
 10
108.8628037276141
 20
305.0628875384247
 30
0.0
 11
107.4397655661562
 21
299.370734892582
 31
0.0
  0
LINE
  5
6AA
330
1F
100
AcDbEntity
  8
SPOJOVACÍ
  6
CONTINUOUS
100
AcDbLine
 10
105.9157878692533
 20
304.6150166105173
 30
0.0
 11
104.3030112860071
 21
299.8186058153125
 31
0.0
  0
LINE
  5
6AB
330
1F
100
AcDbEntity
  8
SPOJOVACÍ
  6
CONTINUOUS
100
AcDbLine
 10
105.2086813098287
 20
304.6150166105173
 30
0.0
 11
103.5959047265862
 21
299.8186058153125
 31
0.0
  0
LINE
  5
6AC
330
1F
100
AcDbEntity
  8
SPOJOVACÍ
  6
CONTINUOUS
100
AcDbLine
 10
104.0437756519061
 20
299.370734892582
 30
0.0
 11
104.3030112860071
 21
299.8186058153125
 31
0.0
  0
LINE
  5
6AD
330
1F
100
AcDbEntity
  8
SPOJOVACÍ
  6
CONTINUOUS
100
AcDbLine
 10
104.0437756519061
 20
299.370734892582
 30
0.0
 11
103.5959047265862
 21
299.8186058153125
 31
0.0
  0
LINE
  5
6AE
330
1F
100
AcDbEntity
  8
SPOJOVACÍ
  6
CONTINUOUS
100
AcDbLine
 10
105.466813813364
 20
305.0628875384247
 30
0.0
 11
105.9157878692533
 21
304.6150166105173
 31
0.0
  0
LINE
  5
6AF
330
1F
100
AcDbEntity
  8
SPOJOVACÍ
  6
CONTINUOUS
100
AcDbLine
 10
105.466813813364
 20
305.0628875384247
 30
0.0
 11
105.2086813098287
 21
304.6150166105173
 31
0.0
  0
LINE
  5
6B0
330
1F
100
AcDbEntity
  8
SPOJOVACÍ
  6
CONTINUOUS
100
AcDbLine
 10
105.466813813364
 20
305.0628875384247
 30
0.0
 11
104.0437756519061
 21
299.370734892582
 31
0.0
  0
LINE
  5
6B1
330
1F
100
AcDbEntity
  8
SPOJOVACÍ
  6
CONTINUOUS
100
AcDbLine
 10
102.5197979550032
 20
304.6150166105173
 30
0.0
 11
100.907021371757
 21
299.8186058153125
 31
0.0
  0
LINE
  5
6B2
330
1F
100
AcDbEntity
  8
SPOJOVACÍ
  6
CONTINUOUS
100
AcDbLine
 10
101.8126913955786
 20
304.6150166105173
 30
0.0
 11
100.1999148123361
 21
299.8186058153125
 31
0.0
  0
LINE
  5
6B3
330
1F
100
AcDbEntity
  8
SPOJOVACÍ
  6
CONTINUOUS
100
AcDbLine
 10
100.647785737656
 20
299.370734892582
 30
0.0
 11
100.907021371757
 21
299.8186058153125
 31
0.0
  0
LINE
  5
6B4
330
1F
100
AcDbEntity
  8
SPOJOVACÍ
  6
CONTINUOUS
100
AcDbLine
 10
100.647785737656
 20
299.370734892582
 30
0.0
 11
100.1999148123361
 21
299.8186058153125
 31
0.0
  0
LINE
  5
6B5
330
1F
100
AcDbEntity
  8
SPOJOVACÍ
  6
CONTINUOUS
100
AcDbLine
 10
102.0708238991139
 20
305.0628875384247
 30
0.0
 11
102.5197979550032
 21
304.6150166105173
 31
0.0
  0
LINE
  5
6B6
330
1F
100
AcDbEntity
  8
SPOJOVACÍ
  6
CONTINUOUS
100
AcDbLine
 10
102.0708238991139
 20
305.0628875384247
 30
0.0
 11
101.8126913955786
 21
304.6150166105173
 31
0.0
  0
LINE
  5
6B7
330
1F
100
AcDbEntity
  8
SPOJOVACÍ
  6
CONTINUOUS
100
AcDbLine
 10
102.0708238991139
 20
305.0628875384247
 30
0.0
 11
100.647785737656
 21
299.370734892582
 31
0.0
  0
LINE
  5
6B8
330
1F
100
AcDbEntity
  8
SPOJOVACÍ
  6
CONTINUOUS
100
AcDbLine
 10
99.12380804075315
 20
304.6150166105173
 30
0.0
 11
97.51103145750699
 21
299.8186058153125
 31
0.0
  0
LINE
  5
6B9
330
1F
100
AcDbEntity
  8
SPOJOVACÍ
  6
CONTINUOUS
100
AcDbLine
 10
98.41670148132857
 20
304.6150166105173
 30
0.0
 11
96.80392489808605
 21
299.8186058153125
 31
0.0
  0
LINE
  5
6BA
330
1F
100
AcDbEntity
  8
SPOJOVACÍ
  6
CONTINUOUS
100
AcDbLine
 10
97.25179582340594
 20
299.370734892582
 30
0.0
 11
97.51103145750699
 21
299.8186058153125
 31
0.0
  0
LINE
  5
6BB
330
1F
100
AcDbEntity
  8
SPOJOVACÍ
  6
CONTINUOUS
100
AcDbLine
 10
97.25179582340594
 20
299.370734892582
 30
0.0
 11
96.80392489808605
 21
299.8186058153125
 31
0.0
  0
LINE
  5
6BC
330
1F
100
AcDbEntity
  8
SPOJOVACÍ
  6
CONTINUOUS
100
AcDbLine
 10
98.67483398486388
 20
305.0628875384247
 30
0.0
 11
99.12380804075315
 21
304.6150166105173
 31
0.0
  0
LINE
  5
6BD
330
1F
100
AcDbEntity
  8
SPOJOVACÍ
  6
CONTINUOUS
100
AcDbLine
 10
98.67483398486388
 20
305.0628875384247
 30
0.0
 11
98.41670148132857
 21
304.6150166105173
 31
0.0
  0
LINE
  5
6BE
330
1F
100
AcDbEntity
  8
SPOJOVACÍ
  6
CONTINUOUS
100
AcDbLine
 10
98.67483398486388
 20
305.0628875384247
 30
0.0
 11
97.25179582340594
 21
299.370734892582
 31
0.0
  0
LINE
  5
6BF
330
1F
100
AcDbEntity
  8
SPOJOVACÍ
  6
CONTINUOUS
100
AcDbLine
 10
95.72781812650305
 20
304.6150166105173
 30
0.0
 11
94.11504154325688
 21
299.8186058153125
 31
0.0
  0
LINE
  5
6C0
330
1F
100
AcDbEntity
  8
SPOJOVACÍ
  6
CONTINUOUS
100
AcDbLine
 10
95.02071156707847
 20
304.6150166105173
 30
0.0
 11
93.40793498383595
 21
299.8186058153125
 31
0.0
  0
LINE
  5
6C1
330
1F
100
AcDbEntity
  8
SPOJOVACÍ
  6
CONTINUOUS
100
AcDbLine
 10
93.85580590915584
 20
299.370734892582
 30
0.0
 11
94.11504154325688
 21
299.8186058153125
 31
0.0
  0
LINE
  5
6C2
330
1F
100
AcDbEntity
  8
SPOJOVACÍ
  6
CONTINUOUS
100
AcDbLine
 10
93.85580590915584
 20
299.370734892582
 30
0.0
 11
93.40793498383595
 21
299.8186058153125
 31
0.0
  0
LINE
  5
6C3
330
1F
100
AcDbEntity
  8
SPOJOVACÍ
  6
CONTINUOUS
100
AcDbLine
 10
95.27884407061378
 20
305.0628875384247
 30
0.0
 11
95.72781812650305
 21
304.6150166105173
 31
0.0
  0
LINE
  5
6C4
330
1F
100
AcDbEntity
  8
SPOJOVACÍ
  6
CONTINUOUS
100
AcDbLine
 10
95.27884407061378
 20
305.0628875384247
 30
0.0
 11
95.02071156707847
 21
304.6150166105173
 31
0.0
  0
LINE
  5
6C5
330
1F
100
AcDbEntity
  8
SPOJOVACÍ
  6
CONTINUOUS
100
AcDbLine
 10
95.27884407061378
 20
305.0628875384247
 30
0.0
 11
93.85580590915584
 21
299.370734892582
 31
0.0
  0
LINE
  5
6C6
330
1F
100
AcDbEntity
  8
SPOJOVACÍ
  6
CONTINUOUS
100
AcDbLine
 10
91.8828541563637
 20
305.0628875384247
 30
0.0
 11
90.45981599490573
 21
299.370734892582
 31
0.0
  0
LINE
  5
6C7
330
1F
100
AcDbEntity
  8
SPOJOVACÍ
  6
CONTINUOUS
100
AcDbLine
 10
91.8828541563637
 20
305.0628875384247
 30
0.0
 11
91.62472165282839
 21
304.6150166105173
 31
0.0
  0
LINE
  5
6C8
330
1F
100
AcDbEntity
  8
SPOJOVACÍ
  6
CONTINUOUS
100
AcDbLine
 10
91.8828541563637
 20
305.0628875384247
 30
0.0
 11
92.33182821225296
 21
304.6150166105173
 31
0.0
  0
LINE
  5
6C9
330
1F
100
AcDbEntity
  8
SPOJOVACÍ
  6
CONTINUOUS
100
AcDbLine
 10
90.45981599490573
 20
299.370734892582
 30
0.0
 11
90.01194506958587
 21
299.8186058153125
 31
0.0
  0
LINE
  5
6CA
330
1F
100
AcDbEntity
  8
SPOJOVACÍ
  6
CONTINUOUS
100
AcDbLine
 10
90.45981599490573
 20
299.370734892582
 30
0.0
 11
90.7190516290068
 21
299.8186058153125
 31
0.0
  0
LINE
  5
6CB
330
1F
100
AcDbEntity
  8
SPOJOVACÍ
  6
CONTINUOUS
100
AcDbLine
 10
91.62472165282839
 20
304.6150166105173
 30
0.0
 11
90.01194506958587
 21
299.8186058153125
 31
0.0
  0
LINE
  5
6CC
330
1F
100
AcDbEntity
  8
SPOJOVACÍ
  6
CONTINUOUS
100
AcDbLine
 10
92.33182821225296
 20
304.6150166105173
 30
0.0
 11
90.7190516290068
 21
299.8186058153125
 31
0.0
  0
LINE
  5
6CD
330
1F
100
AcDbEntity
  8
SPOJOVACÍ
  6
CONTINUOUS
100
AcDbLine
 10
88.93583829800286
 20
304.6150166105173
 30
0.0
 11
87.3230617147567
 21
299.8186058153125
 31
0.0
  0
LINE
  5
6CE
330
1F
100
AcDbEntity
  8
SPOJOVACÍ
  6
CONTINUOUS
100
AcDbLine
 10
88.4868642421136
 20
305.0628875384247
 30
0.0
 11
88.93583829800286
 21
304.6150166105173
 31
0.0
  0
LINE
  5
6CF
330
1F
100
AcDbEntity
  8
SPOJOVACÍ
  6
CONTINUOUS
100
AcDbLine
 10
88.4868642421136
 20
305.0628875384247
 30
0.0
 11
88.22873173857828
 21
304.6150166105173
 31
0.0
  0
LINE
  5
6D0
330
1F
100
AcDbEntity
  8
SPOJOVACÍ
  6
CONTINUOUS
100
AcDbLine
 10
88.4868642421136
 20
305.0628875384247
 30
0.0
 11
87.06382608065565
 21
299.370734892582
 31
0.0
  0
LINE
  5
6D1
330
1F
100
AcDbEntity
  8
SPOJOVACÍ
  6
CONTINUOUS
100
AcDbLine
 10
115.6547835561143
 20
305.0628875384247
 30
0.0
 11
114.2317453946563
 21
299.370734892582
 31
0.0
  0
LINE
  5
6D2
330
1F
100
AcDbEntity
  8
SPOJOVACÍ
  6
CONTINUOUS
100
AcDbLine
 10
115.6547835561143
 20
305.0628875384247
 30
0.0
 11
115.396651052579
 21
304.6150166105173
 31
0.0
  0
LINE
  5
6D3
330
1F
100
AcDbEntity
  8
SPOJOVACÍ
  6
CONTINUOUS
100
AcDbLine
 10
115.6547835561143
 20
305.0628875384247
 30
0.0
 11
116.1037576120036
 21
304.6150166105173
 31
0.0
  0
LINE
  5
6D4
330
1F
100
AcDbEntity
  8
SPOJOVACÍ
  6
CONTINUOUS
100
AcDbLine
 10
114.2317453946563
 20
299.370734892582
 30
0.0
 11
113.7838744693365
 21
299.8186058153125
 31
0.0
  0
LINE
  5
6D5
330
1F
100
AcDbEntity
  8
SPOJOVACÍ
  6
CONTINUOUS
100
AcDbLine
 10
114.2317453946563
 20
299.370734892582
 30
0.0
 11
114.4909810287574
 21
299.8186058153125
 31
0.0
  0
LINE
  5
6D6
330
1F
100
AcDbEntity
  8
SPOJOVACÍ
  6
CONTINUOUS
100
AcDbLine
 10
115.396651052579
 20
304.6150166105173
 30
0.0
 11
113.7838744693365
 21
299.8186058153125
 31
0.0
  0
LINE
  5
6D7
330
1F
100
AcDbEntity
  8
SPOJOVACÍ
  6
CONTINUOUS
100
AcDbLine
 10
116.1037576120036
 20
304.6150166105173
 30
0.0
 11
114.4909810287574
 21
299.8186058153125
 31
0.0
  0
LINE
  5
6D8
330
1F
100
AcDbEntity
  8
SPOJOVACÍ
  6
CONTINUOUS
100
AcDbLine
 10
119.0507734703644
 20
305.0628875384247
 30
0.0
 11
117.6277353089064
 21
299.370734892582
 31
0.0
  0
LINE
  5
6D9
330
1F
100
AcDbEntity
  8
SPOJOVACÍ
  6
CONTINUOUS
100
AcDbLine
 10
119.0507734703644
 20
305.0628875384247
 30
0.0
 11
118.7926409668291
 21
304.6150166105173
 31
0.0
  0
LINE
  5
6DA
330
1F
100
AcDbEntity
  8
SPOJOVACÍ
  6
CONTINUOUS
100
AcDbLine
 10
119.0507734703644
 20
305.0628875384247
 30
0.0
 11
119.4997475262537
 21
304.6150166105173
 31
0.0
  0
LINE
  5
6DB
330
1F
100
AcDbEntity
  8
SPOJOVACÍ
  6
CONTINUOUS
100
AcDbLine
 10
117.6277353089064
 20
299.370734892582
 30
0.0
 11
117.1798643835866
 21
299.8186058153125
 31
0.0
  0
LINE
  5
6DC
330
1F
100
AcDbEntity
  8
SPOJOVACÍ
  6
CONTINUOUS
100
AcDbLine
 10
117.6277353089064
 20
299.370734892582
 30
0.0
 11
117.8869709430075
 21
299.8186058153125
 31
0.0
  0
LINE
  5
6DD
330
1F
100
AcDbEntity
  8
SPOJOVACÍ
  6
CONTINUOUS
100
AcDbLine
 10
118.7926409668291
 20
304.6150166105173
 30
0.0
 11
117.1798643835866
 21
299.8186058153125
 31
0.0
  0
LINE
  5
6DE
330
1F
100
AcDbEntity
  8
SPOJOVACÍ
  6
CONTINUOUS
100
AcDbLine
 10
119.4997475262537
 20
304.6150166105173
 30
0.0
 11
117.8869709430075
 21
299.8186058153125
 31
0.0
  0
LINE
  5
6DF
330
1F
100
AcDbEntity
  8
SPOJOVACÍ
  6
CONTINUOUS
100
AcDbLine
 10
112.7077676977535
 20
304.6150166105173
 30
0.0
 11
111.0949911145073
 21
299.8186058153125
 31
0.0
  0
LINE
  5
6E0
330
1F
100
AcDbEntity
  8
SPOJOVACÍ
  6
CONTINUOUS
100
AcDbLine
 10
112.2587936418642
 20
305.0628875384247
 30
0.0
 11
112.7077676977535
 21
304.6150166105173
 31
0.0
  0
LINE
  5
6E1
330
1F
100
AcDbEntity
  8
SPOJOVACÍ
  6
DASHED
100
AcDbLine
 10
88.22434738797552
 20
300.5058737155034
 30
0.0
 11
120.4370982831317
 21
300.5058737155034
 31
0.0
  0
LINE
  5
6E2
330
1F
100
AcDbEntity
  8
SPOJOVACÍ
  6
DASHED
100
AcDbLine
 10
88.22434738797552
 20
303.9277487155024
 30
0.0
 11
120.4370982831353
 21
303.9277487155024
 31
0.0
  0
LINE
  5
6E3
330
1F
100
AcDbEntity
  8
CETRIS
100
AcDbLine
 10
118.08102185755
 20
105.9293576852135
 30
0.0
 11
118.08102185755
 21
585.9156485483392
 31
0.0
  0
LINE
  5
6E4
330
1F
100
AcDbEntity
  8
CETRIS
100
AcDbLine
 10
106.08102185755
 20
105.9293576852135
 30
0.0
 11
106.08102185755
 21
585.9156485483392
 31
0.0
  0
LINE
  5
6E5
330
1F
100
AcDbEntity
  8
CETRIS
100
AcDbLine
 10
42.84876757279948
 20
105.9293576852135
 30
0.0
 11
42.84876757279948
 21
585.9156485483392
 31
0.0
  0
LINE
  5
6E6
330
1F
100
AcDbEntity
  8
CETRIS
100
AcDbLine
 10
54.84876757279948
 20
105.9293576852135
 30
0.0
 11
54.84876757279948
 21
585.9156485483392
 31
0.0
  0
LINE
  5
6E7
330
1F
100
AcDbEntity
  8
IZOLACE
  6
IZOLACE
 48
1.5
100
AcDbLine
 10
80.32377298455708
 20
107.691611798654
 30
0.0
 11
80.32377298455708
 21
262.3342459695988
 31
0.0
  0
LINE
  5
6E8
330
1F
100
AcDbEntity
  8
SPOJOVACÍ
  6
CONTINUOUS
100
AcDbLine
 10
65.7506258407559
 20
282.4038886410846
 30
0.0
 11
67.11054285429804
 21
286.4482930006772
 31
0.0
  0
LINE
  5
6E9
330
1F
100
AcDbEntity
  8
SPOJOVACÍ
  6
CONTINUOUS
100
AcDbLine
 10
66.34686852591062
 20
282.4038886410846
 30
0.0
 11
67.70678553945277
 21
286.4482930006772
 31
0.0
  0
LINE
  5
6EA
330
1F
100
AcDbEntity
  8
SPOJOVACÍ
  6
CONTINUOUS
100
AcDbLine
 10
67.3291341663246
 20
286.8259443716226
 30
0.0
 11
67.11054285429804
 21
286.4482930006772
 31
0.0
  0
LINE
  5
6EB
330
1F
100
AcDbEntity
  8
SPOJOVACÍ
  6
CONTINUOUS
100
AcDbLine
 10
67.3291341663246
 20
286.8259443716226
 30
0.0
 11
67.70678553945277
 21
286.4482930006772
 31
0.0
  0
LINE
  5
6EC
330
1F
100
AcDbEntity
  8
SPOJOVACÍ
  6
CONTINUOUS
100
AcDbLine
 10
66.12920738986236
 20
282.0262372657737
 30
0.0
 11
65.7506258407559
 21
282.4038886410846
 31
0.0
  0
LINE
  5
6ED
330
1F
100
AcDbEntity
  8
SPOJOVACÍ
  6
CONTINUOUS
100
AcDbLine
 10
66.12920738986236
 20
282.0262372657737
 30
0.0
 11
66.34686852591062
 21
282.4038886410846
 31
0.0
  0
LINE
  5
6EE
330
1F
100
AcDbEntity
  8
SPOJOVACÍ
  6
CONTINUOUS
100
AcDbLine
 10
66.12920738986236
 20
282.0262372657737
 30
0.0
 11
67.3291341663246
 21
286.8259443716226
 31
0.0
  0
LINE
  5
6EF
330
1F
100
AcDbEntity
  8
SPOJOVACÍ
  6
CONTINUOUS
100
AcDbLine
 10
62.63081622179402
 20
282.4038886410846
 30
0.0
 11
63.99073323533617
 21
286.4482930006772
 31
0.0
  0
LINE
  5
6F0
330
1F
100
AcDbEntity
  8
SPOJOVACÍ
  6
CONTINUOUS
100
AcDbLine
 10
63.22705890694146
 20
282.4038886410846
 30
0.0
 11
64.5869759202144
 21
286.4482930006772
 31
0.0
  0
LINE
  5
6F1
330
1F
100
AcDbEntity
  8
SPOJOVACÍ
  6
CONTINUOUS
100
AcDbLine
 10
64.20839437138443
 20
286.8259443716226
 30
0.0
 11
63.99073323533617
 21
286.4482930006772
 31
0.0
  0
LINE
  5
6F2
330
1F
100
AcDbEntity
  8
SPOJOVACÍ
  6
CONTINUOUS
100
AcDbLine
 10
64.20839437138443
 20
286.8259443716226
 30
0.0
 11
64.5869759202144
 21
286.4482930006772
 31
0.0
  0
LINE
  5
6F3
330
1F
100
AcDbEntity
  8
SPOJOVACÍ
  6
CONTINUOUS
100
AcDbLine
 10
63.0084675949222
 20
282.0262372657737
 30
0.0
 11
62.63081622179402
 21
282.4038886410846
 31
0.0
  0
LINE
  5
6F4
330
1F
100
AcDbEntity
  8
SPOJOVACÍ
  6
CONTINUOUS
100
AcDbLine
 10
63.0084675949222
 20
282.0262372657737
 30
0.0
 11
63.22705890694146
 21
282.4038886410846
 31
0.0
  0
LINE
  5
6F5
330
1F
100
AcDbEntity
  8
SPOJOVACÍ
  6
CONTINUOUS
100
AcDbLine
 10
63.0084675949222
 20
282.0262372657737
 30
0.0
 11
64.20839437138443
 21
286.8259443716226
 31
0.0
  0
LINE
  5
6F6
330
1F
100
AcDbEntity
  8
SPOJOVACÍ
  6
CONTINUOUS
100
AcDbLine
 10
59.51100660282486
 20
282.4038886410846
 30
0.0
 11
60.8709236160978
 21
286.4482930006772
 31
0.0
  0
LINE
  5
6F7
330
1F
100
AcDbEntity
  8
SPOJOVACÍ
  6
CONTINUOUS
100
AcDbLine
 10
60.10724928797959
 20
282.4038886410846
 30
0.0
 11
61.46716630124524
 21
286.4482930006772
 31
0.0
  0
LINE
  5
6F8
330
1F
100
AcDbEntity
  8
SPOJOVACÍ
  6
CONTINUOUS
100
AcDbLine
 10
61.08858475241527
 20
286.8259443716226
 30
0.0
 11
60.8709236160978
 21
286.4482930006772
 31
0.0
  0
LINE
  5
6F9
330
1F
100
AcDbEntity
  8
SPOJOVACÍ
  6
CONTINUOUS
100
AcDbLine
 10
61.08858475241527
 20
286.8259443716226
 30
0.0
 11
61.46716630124524
 21
286.4482930006772
 31
0.0
  0
LINE
  5
6FA
330
1F
100
AcDbEntity
  8
SPOJOVACÍ
  6
CONTINUOUS
100
AcDbLine
 10
59.88865797595304
 20
282.0262372657737
 30
0.0
 11
59.51100660282486
 21
282.4038886410846
 31
0.0
  0
LINE
  5
6FB
330
1F
100
AcDbEntity
  8
SPOJOVACÍ
  6
CONTINUOUS
100
AcDbLine
 10
59.88865797595304
 20
282.0262372657737
 30
0.0
 11
60.10724928797959
 21
282.4038886410846
 31
0.0
  0
LINE
  5
6FC
330
1F
100
AcDbEntity
  8
SPOJOVACÍ
  6
CONTINUOUS
100
AcDbLine
 10
59.88865797595304
 20
282.0262372657737
 30
0.0
 11
61.08858475241527
 21
286.8259443716226
 31
0.0
  0
LINE
  5
6FD
330
1F
100
AcDbEntity
  8
SPOJOVACÍ
  6
CONTINUOUS
100
AcDbLine
 10
75.23469825479356
 20
283.409408676772
 30
0.0
 11
75.54537697056753
 21
285.5636958182287
 31
0.0
  0
LINE
  5
6FE
330
1F
100
AcDbEntity
  8
SPOJOVACÍ
  6
CONTINUOUS
100
AcDbLine
 10
74.85704688166539
 20
283.7870600477174
 30
0.0
 11
75.32771583425006
 21
285.1860444472833
 31
0.0
  0
LINE
  5
6FF
330
1F
100
AcDbEntity
  8
SPOJOVACÍ
  6
CONTINUOUS
100
AcDbLine
 10
75.45328956681283
 20
283.7870600477174
 30
0.0
 11
75.9239585193975
 21
285.1860444472833
 31
0.0
  0
LINE
  5
700
330
1F
100
AcDbEntity
  8
SPOJOVACÍ
  6
CONTINUOUS
100
AcDbLine
 10
75.54537697056753
 20
285.5636958182287
 30
0.0
 11
75.32771583425006
 21
285.1860444472833
 31
0.0
  0
LINE
  5
701
330
1F
100
AcDbEntity
  8
SPOJOVACÍ
  6
CONTINUOUS
100
AcDbLine
 10
75.54537697056753
 20
285.5636958182287
 30
0.0
 11
75.9239585193975
 21
285.1860444472833
 31
0.0
  0
LINE
  5
702
330
1F
100
AcDbEntity
  8
SPOJOVACÍ
  6
CONTINUOUS
100
AcDbLine
 10
75.23469825479356
 20
283.409408676772
 30
0.0
 11
74.85704688166539
 21
283.7870600477174
 31
0.0
  0
LINE
  5
703
330
1F
100
AcDbEntity
  8
SPOJOVACÍ
  6
CONTINUOUS
100
AcDbLine
 10
75.23469825479356
 20
283.409408676772
 30
0.0
 11
75.45328956681283
 21
283.7870600477174
 31
0.0
  0
LINE
  5
704
330
1F
100
AcDbEntity
  8
SPOJOVACÍ
  6
CONTINUOUS
100
AcDbLine
 10
72.22092867647393
 20
282.8447919663005
 30
0.0
 11
72.85437839324391
 21
285.9608808827317
 31
0.0
  0
LINE
  5
705
330
1F
100
AcDbEntity
  8
SPOJOVACÍ
  6
CONTINUOUS
100
AcDbLine
 10
71.84234712736747
 20
283.2224433416115
 30
0.0
 11
72.63671725719564
 21
285.5832295117863
 31
0.0
  0
LINE
  5
706
330
1F
100
AcDbEntity
  8
SPOJOVACÍ
  6
CONTINUOUS
100
AcDbLine
 10
72.4385898125222
 20
283.2224433416115
 30
0.0
 11
73.23295994207388
 21
285.5832295117863
 31
0.0
  0
LINE
  5
707
330
1F
100
AcDbEntity
  8
SPOJOVACÍ
  6
CONTINUOUS
100
AcDbLine
 10
72.85437839324391
 20
285.9608808827317
 30
0.0
 11
72.63671725719564
 21
285.5832295117863
 31
0.0
  0
LINE
  5
708
330
1F
100
AcDbEntity
  8
SPOJOVACÍ
  6
CONTINUOUS
100
AcDbLine
 10
72.85437839324391
 20
285.9608808827317
 30
0.0
 11
73.23295994207388
 21
285.5832295117863
 31
0.0
  0
LINE
  5
709
330
1F
100
AcDbEntity
  8
SPOJOVACÍ
  6
CONTINUOUS
100
AcDbLine
 10
72.22092867647393
 20
282.8447919663005
 30
0.0
 11
71.84234712736747
 21
283.2224433416115
 31
0.0
  0
LINE
  5
70A
330
1F
100
AcDbEntity
  8
SPOJOVACÍ
  6
CONTINUOUS
100
AcDbLine
 10
72.22092867647393
 20
282.8447919663005
 30
0.0
 11
72.4385898125222
 21
283.2224433416115
 31
0.0
  0
LINE
  5
70B
330
1F
100
AcDbEntity
  8
SPOJOVACÍ
  6
CONTINUOUS
100
AcDbLine
 10
69.20622892217602
 20
282.2801752601947
 30
0.0
 11
70.17919280448063
 21
286.4055049129376
 31
0.0
  0
LINE
  5
70C
330
1F
100
AcDbEntity
  8
SPOJOVACÍ
  6
CONTINUOUS
100
AcDbLine
 10
68.82857754904785
 20
282.6587568084789
 30
0.0
 11
69.96153166843237
 21
286.0278535419922
 31
0.0
  0
LINE
  5
70D
330
1F
100
AcDbEntity
  8
SPOJOVACÍ
  6
CONTINUOUS
100
AcDbLine
 10
69.42482023420257
 20
282.6587568084789
 30
0.0
 11
70.55777435358709
 21
286.0278535419922
 31
0.0
  0
LINE
  5
70E
330
1F
100
AcDbEntity
  8
SPOJOVACÍ
  6
CONTINUOUS
100
AcDbLine
 10
70.17919280448063
 20
286.4055049129376
 30
0.0
 11
69.96153166843237
 21
286.0278535419922
 31
0.0
  0
LINE
  5
70F
330
1F
100
AcDbEntity
  8
SPOJOVACÍ
  6
CONTINUOUS
100
AcDbLine
 10
70.17919280448063
 20
286.4055049129376
 30
0.0
 11
70.55777435358709
 21
286.0278535419922
 31
0.0
  0
LINE
  5
710
330
1F
100
AcDbEntity
  8
SPOJOVACÍ
  6
CONTINUOUS
100
AcDbLine
 10
69.20622892217602
 20
282.2801752601947
 30
0.0
 11
68.82857754904785
 21
282.6587568084789
 31
0.0
  0
LINE
  5
711
330
1F
100
AcDbEntity
  8
SPOJOVACÍ
  6
CONTINUOUS
100
AcDbLine
 10
69.20622892217602
 20
282.2801752601947
 30
0.0
 11
69.42482023420257
 21
282.6587568084789
 31
0.0
  0
LINE
  5
712
330
1F
100
AcDbEntity
  8
SPOJOVACÍ
  6
CONTINUOUS
100
AcDbLine
 10
56.3911969835865
 20
282.4038886410846
 30
0.0
 11
57.75018382142684
 21
286.4482930006772
 31
0.0
  0
LINE
  5
713
330
1F
100
AcDbEntity
  8
SPOJOVACÍ
  6
CONTINUOUS
100
AcDbLine
 10
56.98743966874122
 20
282.4038886410846
 30
0.0
 11
58.34642650630508
 21
286.4482930006772
 31
0.0
  0
LINE
  5
714
330
1F
100
AcDbEntity
  8
SPOJOVACÍ
  6
CONTINUOUS
100
AcDbLine
 10
57.96877513345339
 20
286.8259443716226
 30
0.0
 11
57.75018382142684
 21
286.4482930006772
 31
0.0
  0
LINE
  5
715
330
1F
100
AcDbEntity
  8
SPOJOVACÍ
  6
CONTINUOUS
100
AcDbLine
 10
57.96877513345339
 20
286.8259443716226
 30
0.0
 11
58.34642650630508
 21
286.4482930006772
 31
0.0
  0
LINE
  5
716
330
1F
100
AcDbEntity
  8
SPOJOVACÍ
  6
CONTINUOUS
100
AcDbLine
 10
56.76884835671467
 20
282.0262372657737
 30
0.0
 11
56.3911969835865
 21
282.4038886410846
 31
0.0
  0
LINE
  5
717
330
1F
100
AcDbEntity
  8
SPOJOVACÍ
  6
CONTINUOUS
100
AcDbLine
 10
56.76884835671467
 20
282.0262372657737
 30
0.0
 11
56.98743966874122
 21
282.4038886410846
 31
0.0
  0
LINE
  5
718
330
1F
100
AcDbEntity
  8
SPOJOVACÍ
  6
CONTINUOUS
100
AcDbLine
 10
56.76884835671467
 20
282.0262372657737
 30
0.0
 11
57.96877513345339
 21
286.8259443716226
 31
0.0
  0
LINE
  5
719
330
1F
100
AcDbEntity
  8
SPOJOVACÍ
  6
CONTINUOUS
100
AcDbLine
 10
53.27045718892282
 20
282.4038886410846
 30
0.0
 11
54.63037420218848
 21
286.4482930006772
 31
0.0
  0
LINE
  5
71A
330
1F
100
AcDbEntity
  8
SPOJOVACÍ
  6
CONTINUOUS
100
AcDbLine
 10
53.86669987380106
 20
282.4038886410846
 30
0.0
 11
55.2266168873432
 21
286.4482930006772
 31
0.0
  0
LINE
  5
71B
330
1F
100
AcDbEntity
  8
SPOJOVACÍ
  6
CONTINUOUS
100
AcDbLine
 10
54.84896551421503
 20
286.8259443716226
 30
0.0
 11
54.63037420218848
 21
286.4482930006772
 31
0.0
  0
LINE
  5
71C
330
1F
100
AcDbEntity
  8
SPOJOVACÍ
  6
CONTINUOUS
100
AcDbLine
 10
54.84896551421503
 20
286.8259443716226
 30
0.0
 11
55.2266168873432
 21
286.4482930006772
 31
0.0
  0
LINE
  5
71D
330
1F
100
AcDbEntity
  8
SPOJOVACÍ
  6
CONTINUOUS
100
AcDbLine
 10
53.64903873775279
 20
282.0262372657737
 30
0.0
 11
53.27045718892282
 21
282.4038886410846
 31
0.0
  0
LINE
  5
71E
330
1F
100
AcDbEntity
  8
SPOJOVACÍ
  6
CONTINUOUS
100
AcDbLine
 10
53.64903873775279
 20
282.0262372657737
 30
0.0
 11
53.86669987380106
 21
282.4038886410846
 31
0.0
  0
LINE
  5
71F
330
1F
100
AcDbEntity
  8
SPOJOVACÍ
  6
CONTINUOUS
100
AcDbLine
 10
53.64903873775279
 20
282.0262372657737
 30
0.0
 11
54.84896551421503
 21
286.8259443716226
 31
0.0
  0
LINE
  5
720
330
1F
100
AcDbEntity
  8
SPOJOVACÍ
  6
CONTINUOUS
100
AcDbLine
 10
69.78479826708303
 20
285.5302094907813
 30
0.0
 11
67.81375575579682
 21
285.775775902249
 31
0.0
  0
LINE
  5
721
330
1F
100
AcDbEntity
  8
SPOJOVACÍ
  6
CONTINUOUS
100
AcDbLine
 10
72.49160983298157
 20
285.1916254982199
 30
0.0
 11
70.35499603012818
 21
285.4585859535575
 31
0.0
  0
LINE
  5
722
330
1F
100
AcDbEntity
  8
SPOJOVACÍ
  6
CONTINUOUS
100
AcDbLine
 10
75.20865333241477
 20
284.8521113370509
 30
0.0
 11
73.06366794743031
 21
285.1200019653617
 31
0.0
  0
LINE
  5
723
330
1F
100
AcDbEntity
  8
SPOJOVACÍ
  6
CONTINUOUS
100
AcDbLine
 10
75.52491310294522
 20
284.0400678647995
 30
0.0
 11
78.61402692075012
 21
284.4260908186981
 31
0.0
  0
LINE
  5
724
330
1F
100
AcDbEntity
  8
SPOJOVACÍ
  6
CONTINUOUS
100
AcDbLine
 10
72.58369723673627
 20
283.6726484271196
 30
0.0
 11
74.90448584709179
 21
283.9628632722735
 31
0.0
  0
LINE
  5
725
330
1F
100
AcDbEntity
  8
SPOJOVACÍ
  6
CONTINUOUS
100
AcDbLine
 10
69.63131926100709
 20
283.3033686347619
 30
0.0
 11
71.95303804707169
 21
283.5935834842814
 31
0.0
  0
LINE
  5
726
330
1F
100
AcDbEntity
  8
SPOJOVACÍ
  6
CONTINUOUS
100
AcDbLine
 10
78.61402692075012
 20
284.4260908186981
 30
0.0
 11
75.77792091948163
 21
284.7804877998271
 31
0.0
  0
LINE
  5
727
330
1F
100
AcDbEntity
  8
SPOJOVACÍ
  6
CONTINUOUS
100
AcDbLine
 10
67.81375575579682
 20
283.0764057395128
 30
0.0
 11
69.01089200515366
 21
283.2261640422359
 31
0.0
  0
LINE
  5
728
330
1F
100
AcDbEntity
  8
SPOJOVACÍ
  6
CONTINUOUS
100
AcDbLine
 10
67.47703211791327
 20
285.775775902249
 30
0.0
 11
67.81375575579682
 21
285.775775902249
 31
0.0
  0
LINE
  5
729
330
1F
100
AcDbEntity
  8
SPOJOVACÍ
  6
CONTINUOUS
100
AcDbLine
 10
64.3544319713003
 20
285.775775902249
 30
0.0
 11
66.87334802632927
 21
285.775775902249
 31
0.0
  0
LINE
  5
72A
330
1F
100
AcDbEntity
  8
SPOJOVACÍ
  6
CONTINUOUS
100
AcDbLine
 10
66.56639001390818
 20
283.0764057395128
 30
0.0
 11
67.81375575579682
 21
283.0764057395128
 31
0.0
  0
LINE
  5
72B
330
1F
100
AcDbEntity
  8
SPOJOVACÍ
  6
CONTINUOUS
100
AcDbLine
 10
63.45216144942629
 20
283.0764057395128
 30
0.0
 11
65.97014732875345
 21
283.0764057395128
 31
0.0
  0
LINE
  5
72C
330
1F
100
AcDbEntity
  8
SPOJOVACÍ
  6
CONTINUOUS
100
AcDbLine
 10
61.23276200065834
 20
285.775775902249
 30
0.0
 11
63.75353840736739
 21
285.775775902249
 31
0.0
  0
LINE
  5
72D
330
1F
100
AcDbEntity
  8
SPOJOVACÍ
  6
CONTINUOUS
100
AcDbLine
 10
58.11016185431459
 20
285.775775902249
 30
0.0
 11
60.6383796671837
 21
285.775775902249
 31
0.0
  0
LINE
  5
72E
330
1F
100
AcDbEntity
  8
SPOJOVACÍ
  6
CONTINUOUS
100
AcDbLine
 10
54.9950031141309
 20
285.775775902249
 30
0.0
 11
57.51391916915986
 21
285.775775902249
 31
0.0
  0
LINE
  5
72F
330
1F
100
AcDbEntity
  8
SPOJOVACÍ
  6
CONTINUOUS
100
AcDbLine
 10
60.31932936927137
 20
283.0764057395128
 30
0.0
 11
62.84754718214049
 21
283.0764057395128
 31
0.0
  0
LINE
  5
730
330
1F
100
AcDbEntity
  8
SPOJOVACÍ
  6
CONTINUOUS
100
AcDbLine
 10
57.20417062908769
 20
283.0764057395128
 30
0.0
 11
59.72494703579673
 21
283.0764057395128
 31
0.0
  0
LINE
  5
731
330
1F
100
AcDbEntity
  8
SPOJOVACÍ
  6
CONTINUOUS
100
AcDbLine
 10
54.08157048274393
 20
283.0764057395128
 30
0.0
 11
56.60048653777289
 21
283.0764057395128
 31
0.0
  0
LINE
  5
732
330
1F
100
AcDbEntity
  8
SPOJOVACÍ
  6
CONTINUOUS
100
AcDbLine
 10
49.44836484388748
 20
283.0764057395128
 30
0.0
 11
53.48625797356749
 21
283.0764057395128
 31
0.0
  0
LINE
  5
733
330
1F
100
AcDbEntity
  8
SPOJOVACÍ
  6
CONTINUOUS
100
AcDbLine
 10
49.44836484388748
 20
285.775775902249
 30
0.0
 11
54.3913190228161
 21
285.775775902249
 31
0.0
  0
LINE
  5
734
330
1F
100
AcDbEntity
  8
SPOJOVACÍ
  6
CONTINUOUS
100
AcDbLine
 10
44.04869434953093
 20
279.3259369300642
 30
0.0
 11
44.79283498600511
 21
280.6756220136151
 31
0.0
  0
LINE
  5
735
330
1F
100
AcDbEntity
  8
SPOJOVACÍ
  6
CONTINUOUS
100
AcDbLine
 10
44.79283498600511
 20
280.6756220136151
 30
0.0
 11
45.86160697541731
 21
281.7862519139737
 31
0.0
  0
LINE
  5
736
330
1F
100
AcDbEntity
  8
SPOJOVACÍ
  6
CONTINUOUS
100
AcDbLine
 10
45.86160697541731
 20
281.7862519139737
 30
0.0
 11
47.18059625371483
 21
282.5824823932919
 31
0.0
  0
LINE
  5
737
330
1F
100
AcDbEntity
  8
SPOJOVACÍ
  6
CONTINUOUS
100
AcDbLine
 10
47.18059625371483
 20
282.5824823932919
 30
0.0
 11
48.66143612076507
 21
283.0103632575912
 31
0.0
  0
LINE
  5
738
330
1F
100
AcDbEntity
  8
SPOJOVACÍ
  6
CONTINUOUS
100
AcDbLine
 10
48.66143612076507
 20
283.0103632575912
 30
0.0
 11
49.44836484388748
 21
283.0764057395128
 31
0.0
  0
LINE
  5
739
330
1F
100
AcDbEntity
  8
SPOJOVACÍ
  6
CONTINUOUS
100
AcDbLine
 10
45.30350149785613
 20
287.5738057122646
 30
0.0
 11
44.38541798741448
 21
288.8109395211643
 31
0.0
  0
LINE
  5
73A
330
1F
100
AcDbEntity
  8
SPOJOVACÍ
  6
CONTINUOUS
100
AcDbLine
 10
44.38541798741448
 20
288.8109395211643
 30
0.0
 11
44.04869434953093
 21
289.5262447073321
 31
0.0
  0
LINE
  5
73B
330
1F
100
AcDbEntity
  8
SPOJOVACÍ
  6
CONTINUOUS
100
AcDbLine
 10
44.04869434953093
 20
279.3259369300642
 30
0.0
 11
44.04869434953093
 21
289.5262447073321
 31
0.0
  0
LINE
  5
73C
330
1F
100
AcDbEntity
  8
SPOJOVACÍ
  6
CONTINUOUS
100
AcDbLine
 10
42.84876757279948
 20
279.3259369300642
 30
0.0
 11
44.04869434953093
 21
279.3259369300642
 31
0.0
  0
LINE
  5
73D
330
1F
100
AcDbEntity
  8
SPOJOVACÍ
  6
CONTINUOUS
100
AcDbLine
 10
42.84876757279948
 20
279.3259369300642
 30
0.0
 11
42.84876757279948
 21
289.5262447073321
 31
0.0
  0
LINE
  5
73E
330
1F
100
AcDbEntity
  8
SPOJOVACÍ
  6
CONTINUOUS
100
AcDbLine
 10
42.84876757279948
 20
289.5262447073321
 30
0.0
 11
44.04869434953093
 21
289.5262447073321
 31
0.0
  0
LINE
  5
73F
330
1F
100
AcDbEntity
  8
SPOJOVACÍ
  6
CONTINUOUS
100
AcDbLine
 10
49.44836484388748
 20
285.775775902249
 30
0.0
 11
47.92473689045823
 21
286.0027387931324
 31
0.0
  0
LINE
  5
740
330
1F
100
AcDbEntity
  8
SPOJOVACÍ
  6
CONTINUOUS
100
AcDbLine
 10
47.92473689045823
 20
286.0027387931324
 30
0.0
 11
46.51086968075492
 21
286.6157246422801
 31
0.0
  0
LINE
  5
741
330
1F
100
AcDbEntity
  8
SPOJOVACÍ
  6
CONTINUOUS
100
AcDbLine
 10
46.51086968075492
 20
286.6157246422801
 30
0.0
 11
45.30350149785613
 21
287.5738057122646
 31
0.0
  0
LINE
  5
742
330
1F
100
AcDbEntity
  8
CETRIS
100
AcDbLine
 10
54.84876757279948
 20
299.6319319289389
 30
0.0
 11
42.84876757279948
 21
299.6319319289389
 31
0.0
  0
LINE
  5
743
330
1F
100
AcDbEntity
  8
CETRIS
100
AcDbLine
 10
54.84876757279948
 20
304.6319319289389
 30
0.0
 11
42.84876757279948
 21
304.6319319289389
 31
0.0
  0
LWPOLYLINE
  5
744
330
1F
100
AcDbEntity
  8
IZOLACE
100
AcDbPolyline
 90
        4
 70
     1
 43
0.0
 10
42.84876757279948
 20
304.6319319289389
 10
42.84876757279948
 20
299.6319319289389
 10
54.84876757279948
 20
299.6319319289389
 10
54.84876757279948
 20
304.6319319289389
  0
LINE
  5
745
330
1F
100
AcDbEntity
  8
SPOJOVACÍ
  6
CONTINUOUS
100
AcDbLine
 10
46.51086968075492
 20
317.6481392155976
 30
0.0
 11
45.30350149785613
 21
316.6900581456132
 31
0.0
  0
LINE
  5
746
330
1F
100
AcDbEntity
  8
SPOJOVACÍ
  6
CONTINUOUS
100
AcDbLine
 10
47.92473689045823
 20
318.2611250647453
 30
0.0
 11
46.51086968075492
 21
317.6481392155976
 31
0.0
  0
LINE
  5
747
330
1F
100
AcDbEntity
  8
SPOJOVACÍ
  6
CONTINUOUS
100
AcDbLine
 10
49.44836484388748
 20
318.4880879556287
 30
0.0
 11
47.92473689045823
 21
318.2611250647453
 31
0.0
  0
LINE
  5
748
330
1F
100
AcDbEntity
  8
SPOJOVACÍ
  6
CONTINUOUS
100
AcDbLine
 10
42.84876757279948
 20
314.7376191505457
 30
0.0
 11
44.04869434953093
 21
314.7376191505457
 31
0.0
  0
LINE
  5
749
330
1F
100
AcDbEntity
  8
SPOJOVACÍ
  6
CONTINUOUS
100
AcDbLine
 10
42.84876757279948
 20
324.9379269278136
 30
0.0
 11
42.84876757279948
 21
314.7376191505457
 31
0.0
  0
LINE
  5
74A
330
1F
100
AcDbEntity
  8
SPOJOVACÍ
  6
CONTINUOUS
100
AcDbLine
 10
42.84876757279948
 20
324.9379269278136
 30
0.0
 11
44.04869434953093
 21
324.9379269278136
 31
0.0
  0
LINE
  5
74B
330
1F
100
AcDbEntity
  8
SPOJOVACÍ
  6
CONTINUOUS
100
AcDbLine
 10
44.04869434953093
 20
324.9379269278136
 30
0.0
 11
44.04869434953093
 21
314.7376191505457
 31
0.0
  0
LINE
  5
74C
330
1F
100
AcDbEntity
  8
SPOJOVACÍ
  6
CONTINUOUS
100
AcDbLine
 10
44.38541798741448
 20
315.4529243367135
 30
0.0
 11
44.04869434953093
 21
314.7376191505457
 31
0.0
  0
LINE
  5
74D
330
1F
100
AcDbEntity
  8
SPOJOVACÍ
  6
CONTINUOUS
100
AcDbLine
 10
45.30350149785613
 20
316.6900581456132
 30
0.0
 11
44.38541798741448
 21
315.4529243367135
 31
0.0
  0
LINE
  5
74E
330
1F
100
AcDbEntity
  8
SPOJOVACÍ
  6
CONTINUOUS
100
AcDbLine
 10
48.66143612076507
 20
321.2535006002865
 30
0.0
 11
49.44836484388748
 21
321.1874581183649
 31
0.0
  0
LINE
  5
74F
330
1F
100
AcDbEntity
  8
SPOJOVACÍ
  6
CONTINUOUS
100
AcDbLine
 10
47.18059625371483
 20
321.6813814645859
 30
0.0
 11
48.66143612076507
 21
321.2535006002865
 31
0.0
  0
LINE
  5
750
330
1F
100
AcDbEntity
  8
SPOJOVACÍ
  6
CONTINUOUS
100
AcDbLine
 10
45.86160697541731
 20
322.4776119439041
 30
0.0
 11
47.18059625371483
 21
321.6813814645859
 31
0.0
  0
LINE
  5
751
330
1F
100
AcDbEntity
  8
SPOJOVACÍ
  6
CONTINUOUS
100
AcDbLine
 10
44.79283498600511
 20
323.5882418442627
 30
0.0
 11
45.86160697541731
 21
322.4776119439041
 31
0.0
  0
LINE
  5
752
330
1F
100
AcDbEntity
  8
SPOJOVACÍ
  6
CONTINUOUS
100
AcDbLine
 10
44.04869434953093
 20
324.9379269278136
 30
0.0
 11
44.79283498600511
 21
323.5882418442627
 31
0.0
  0
LINE
  5
753
330
1F
100
AcDbEntity
  8
SPOJOVACÍ
  6
CONTINUOUS
100
AcDbLine
 10
49.44836484388748
 20
318.4880879556287
 30
0.0
 11
54.3913190228161
 21
318.4880879556287
 31
0.0
  0
LINE
  5
754
330
1F
100
AcDbEntity
  8
SPOJOVACÍ
  6
CONTINUOUS
100
AcDbLine
 10
49.44836484388748
 20
321.1874581183649
 30
0.0
 11
53.48625797356749
 21
321.1874581183649
 31
0.0
  0
LINE
  5
755
330
1F
100
AcDbEntity
  8
SPOJOVACÍ
  6
CONTINUOUS
100
AcDbLine
 10
54.08157048274393
 20
321.1874581183649
 30
0.0
 11
56.60048653777289
 21
321.1874581183649
 31
0.0
  0
LINE
  5
756
330
1F
100
AcDbEntity
  8
SPOJOVACÍ
  6
CONTINUOUS
100
AcDbLine
 10
57.20417062908769
 20
321.1874581183649
 30
0.0
 11
59.72494703579673
 21
321.1874581183649
 31
0.0
  0
LINE
  5
757
330
1F
100
AcDbEntity
  8
SPOJOVACÍ
  6
CONTINUOUS
100
AcDbLine
 10
60.31932936927137
 20
321.1874581183649
 30
0.0
 11
62.84754718214049
 21
321.1874581183649
 31
0.0
  0
LINE
  5
758
330
1F
100
AcDbEntity
  8
SPOJOVACÍ
  6
CONTINUOUS
100
AcDbLine
 10
54.9950031141309
 20
318.4880879556287
 30
0.0
 11
57.51391916915986
 21
318.4880879556287
 31
0.0
  0
LINE
  5
759
330
1F
100
AcDbEntity
  8
SPOJOVACÍ
  6
CONTINUOUS
100
AcDbLine
 10
58.11016185431459
 20
318.4880879556287
 30
0.0
 11
60.6383796671837
 21
318.4880879556287
 31
0.0
  0
LINE
  5
75A
330
1F
100
AcDbEntity
  8
SPOJOVACÍ
  6
CONTINUOUS
100
AcDbLine
 10
61.23276200065834
 20
318.4880879556287
 30
0.0
 11
63.75353840736739
 21
318.4880879556287
 31
0.0
  0
LINE
  5
75B
330
1F
100
AcDbEntity
  8
SPOJOVACÍ
  6
CONTINUOUS
100
AcDbLine
 10
63.45216144942629
 20
321.1874581183649
 30
0.0
 11
65.97014732875345
 21
321.1874581183649
 31
0.0
  0
LINE
  5
75C
330
1F
100
AcDbEntity
  8
SPOJOVACÍ
  6
CONTINUOUS
100
AcDbLine
 10
66.56639001390818
 20
321.1874581183649
 30
0.0
 11
67.81375575579682
 21
321.1874581183649
 31
0.0
  0
LINE
  5
75D
330
1F
100
AcDbEntity
  8
SPOJOVACÍ
  6
CONTINUOUS
100
AcDbLine
 10
64.3544319713003
 20
318.4880879556287
 30
0.0
 11
66.87334802632927
 21
318.4880879556287
 31
0.0
  0
LINE
  5
75E
330
1F
100
AcDbEntity
  8
SPOJOVACÍ
  6
CONTINUOUS
100
AcDbLine
 10
67.47703211791327
 20
318.4880879556287
 30
0.0
 11
67.81375575579682
 21
318.4880879556287
 31
0.0
  0
LINE
  5
75F
330
1F
100
AcDbEntity
  8
SPOJOVACÍ
  6
CONTINUOUS
100
AcDbLine
 10
67.81375575579682
 20
321.1874581183649
 30
0.0
 11
69.01089200515366
 21
321.0376998156418
 31
0.0
  0
LINE
  5
760
330
1F
100
AcDbEntity
  8
SPOJOVACÍ
  6
CONTINUOUS
100
AcDbLine
 10
78.61402692075012
 20
319.8377730391796
 30
0.0
 11
75.77792091948163
 21
319.4833760580507
 31
0.0
  0
LINE
  5
761
330
1F
100
AcDbEntity
  8
SPOJOVACÍ
  6
CONTINUOUS
100
AcDbLine
 10
69.63131926100709
 20
320.9604952231159
 30
0.0
 11
71.95303804707169
 21
320.6702803735963
 31
0.0
  0
LINE
  5
762
330
1F
100
AcDbEntity
  8
SPOJOVACÍ
  6
CONTINUOUS
100
AcDbLine
 10
72.58369723673627
 20
320.5912154307582
 30
0.0
 11
74.90448584709179
 21
320.3010005856042
 31
0.0
  0
LINE
  5
763
330
1F
100
AcDbEntity
  8
SPOJOVACÍ
  6
CONTINUOUS
100
AcDbLine
 10
75.52491310294522
 20
320.2237959930783
 30
0.0
 11
78.61402692075012
 21
319.8377730391796
 31
0.0
  0
LINE
  5
764
330
1F
100
AcDbEntity
  8
SPOJOVACÍ
  6
CONTINUOUS
100
AcDbLine
 10
75.20865333241477
 20
319.4117525208269
 30
0.0
 11
73.06366794743031
 21
319.143861892516
 31
0.0
  0
LINE
  5
765
330
1F
100
AcDbEntity
  8
SPOJOVACÍ
  6
CONTINUOUS
100
AcDbLine
 10
72.49160983298157
 20
319.0722383596578
 30
0.0
 11
70.35499603012818
 21
318.8052779043203
 31
0.0
  0
LINE
  5
766
330
1F
100
AcDbEntity
  8
SPOJOVACÍ
  6
CONTINUOUS
100
AcDbLine
 10
69.78479826708303
 20
318.7336543670965
 30
0.0
 11
67.81375575579682
 21
318.4880879556287
 31
0.0
  0
LINE
  5
767
330
1F
100
AcDbEntity
  8
SPOJOVACÍ
  6
CONTINUOUS
100
AcDbLine
 10
53.64903873775279
 20
322.2376265921041
 30
0.0
 11
54.84896551421503
 21
317.4379194862551
 31
0.0
  0
LINE
  5
768
330
1F
100
AcDbEntity
  8
SPOJOVACÍ
  6
CONTINUOUS
100
AcDbLine
 10
53.64903873775279
 20
322.2376265921041
 30
0.0
 11
53.86669987380106
 21
321.8599752167931
 31
0.0
  0
LINE
  5
769
330
1F
100
AcDbEntity
  8
SPOJOVACÍ
  6
CONTINUOUS
100
AcDbLine
 10
53.64903873775279
 20
322.2376265921041
 30
0.0
 11
53.27045718892282
 21
321.8599752167931
 31
0.0
  0
LINE
  5
76A
330
1F
100
AcDbEntity
  8
SPOJOVACÍ
  6
CONTINUOUS
100
AcDbLine
 10
54.84896551421503
 20
317.4379194862551
 30
0.0
 11
55.2266168873432
 21
317.8155708572005
 31
0.0
  0
LINE
  5
76B
330
1F
100
AcDbEntity
  8
SPOJOVACÍ
  6
CONTINUOUS
100
AcDbLine
 10
54.84896551421503
 20
317.4379194862551
 30
0.0
 11
54.63037420218848
 21
317.8155708572005
 31
0.0
  0
LINE
  5
76C
330
1F
100
AcDbEntity
  8
SPOJOVACÍ
  6
CONTINUOUS
100
AcDbLine
 10
53.86669987380106
 20
321.8599752167931
 30
0.0
 11
55.2266168873432
 21
317.8155708572005
 31
0.0
  0
LINE
  5
76D
330
1F
100
AcDbEntity
  8
SPOJOVACÍ
  6
CONTINUOUS
100
AcDbLine
 10
53.27045718892282
 20
321.8599752167931
 30
0.0
 11
54.63037420218848
 21
317.8155708572005
 31
0.0
  0
LINE
  5
76E
330
1F
100
AcDbEntity
  8
SPOJOVACÍ
  6
CONTINUOUS
100
AcDbLine
 10
56.76884835671467
 20
322.2376265921041
 30
0.0
 11
57.96877513345339
 21
317.4379194862551
 31
0.0
  0
LINE
  5
76F
330
1F
100
AcDbEntity
  8
SPOJOVACÍ
  6
CONTINUOUS
100
AcDbLine
 10
56.76884835671467
 20
322.2376265921041
 30
0.0
 11
56.98743966874122
 21
321.8599752167931
 31
0.0
  0
LINE
  5
770
330
1F
100
AcDbEntity
  8
SPOJOVACÍ
  6
CONTINUOUS
100
AcDbLine
 10
56.76884835671467
 20
322.2376265921041
 30
0.0
 11
56.3911969835865
 21
321.8599752167931
 31
0.0
  0
LINE
  5
771
330
1F
100
AcDbEntity
  8
SPOJOVACÍ
  6
CONTINUOUS
100
AcDbLine
 10
57.96877513345339
 20
317.4379194862551
 30
0.0
 11
58.34642650630508
 21
317.8155708572005
 31
0.0
  0
LINE
  5
772
330
1F
100
AcDbEntity
  8
SPOJOVACÍ
  6
CONTINUOUS
100
AcDbLine
 10
57.96877513345339
 20
317.4379194862551
 30
0.0
 11
57.75018382142684
 21
317.8155708572005
 31
0.0
  0
LINE
  5
773
330
1F
100
AcDbEntity
  8
SPOJOVACÍ
  6
CONTINUOUS
100
AcDbLine
 10
56.98743966874122
 20
321.8599752167931
 30
0.0
 11
58.34642650630508
 21
317.8155708572005
 31
0.0
  0
LINE
  5
774
330
1F
100
AcDbEntity
  8
SPOJOVACÍ
  6
CONTINUOUS
100
AcDbLine
 10
56.3911969835865
 20
321.8599752167931
 30
0.0
 11
57.75018382142684
 21
317.8155708572005
 31
0.0
  0
LINE
  5
775
330
1F
100
AcDbEntity
  8
SPOJOVACÍ
  6
CONTINUOUS
100
AcDbLine
 10
69.20622892217602
 20
321.9836885976831
 30
0.0
 11
69.42482023420257
 21
321.6051070493988
 31
0.0
  0
LINE
  5
776
330
1F
100
AcDbEntity
  8
SPOJOVACÍ
  6
CONTINUOUS
100
AcDbLine
 10
69.20622892217602
 20
321.9836885976831
 30
0.0
 11
68.82857754904785
 21
321.6051070493988
 31
0.0
  0
LINE
  5
777
330
1F
100
AcDbEntity
  8
SPOJOVACÍ
  6
CONTINUOUS
100
AcDbLine
 10
70.17919280448063
 20
317.8583589449401
 30
0.0
 11
70.55777435358709
 21
318.2360103158855
 31
0.0
  0
LINE
  5
778
330
1F
100
AcDbEntity
  8
SPOJOVACÍ
  6
CONTINUOUS
100
AcDbLine
 10
70.17919280448063
 20
317.8583589449401
 30
0.0
 11
69.96153166843237
 21
318.2360103158855
 31
0.0
  0
LINE
  5
779
330
1F
100
AcDbEntity
  8
SPOJOVACÍ
  6
CONTINUOUS
100
AcDbLine
 10
69.42482023420257
 20
321.6051070493988
 30
0.0
 11
70.55777435358709
 21
318.2360103158855
 31
0.0
  0
LINE
  5
77A
330
1F
100
AcDbEntity
  8
SPOJOVACÍ
  6
CONTINUOUS
100
AcDbLine
 10
68.82857754904785
 20
321.6051070493988
 30
0.0
 11
69.96153166843237
 21
318.2360103158855
 31
0.0
  0
LINE
  5
77B
330
1F
100
AcDbEntity
  8
SPOJOVACÍ
  6
CONTINUOUS
100
AcDbLine
 10
69.20622892217602
 20
321.9836885976831
 30
0.0
 11
70.17919280448063
 21
317.8583589449401
 31
0.0
  0
LINE
  5
77C
330
1F
100
AcDbEntity
  8
SPOJOVACÍ
  6
CONTINUOUS
100
AcDbLine
 10
72.22092867647393
 20
321.4190718915772
 30
0.0
 11
72.4385898125222
 21
321.0414205162662
 31
0.0
  0
LINE
  5
77D
330
1F
100
AcDbEntity
  8
SPOJOVACÍ
  6
CONTINUOUS
100
AcDbLine
 10
72.22092867647393
 20
321.4190718915772
 30
0.0
 11
71.84234712736747
 21
321.0414205162662
 31
0.0
  0
LINE
  5
77E
330
1F
100
AcDbEntity
  8
SPOJOVACÍ
  6
CONTINUOUS
100
AcDbLine
 10
72.85437839324391
 20
318.302982975146
 30
0.0
 11
73.23295994207388
 21
318.6806343460914
 31
0.0
  0
LINE
  5
77F
330
1F
100
AcDbEntity
  8
SPOJOVACÍ
  6
CONTINUOUS
100
AcDbLine
 10
72.85437839324391
 20
318.302982975146
 30
0.0
 11
72.63671725719564
 21
318.6806343460914
 31
0.0
  0
LINE
  5
780
330
1F
100
AcDbEntity
  8
SPOJOVACÍ
  6
CONTINUOUS
100
AcDbLine
 10
72.4385898125222
 20
321.0414205162662
 30
0.0
 11
73.23295994207388
 21
318.6806343460914
 31
0.0
  0
LINE
  5
781
330
1F
100
AcDbEntity
  8
SPOJOVACÍ
  6
CONTINUOUS
100
AcDbLine
 10
71.84234712736747
 20
321.0414205162662
 30
0.0
 11
72.63671725719564
 21
318.6806343460914
 31
0.0
  0
LINE
  5
782
330
1F
100
AcDbEntity
  8
SPOJOVACÍ
  6
CONTINUOUS
100
AcDbLine
 10
72.22092867647393
 20
321.4190718915772
 30
0.0
 11
72.85437839324391
 21
318.302982975146
 31
0.0
  0
LINE
  5
783
330
1F
100
AcDbEntity
  8
SPOJOVACÍ
  6
CONTINUOUS
100
AcDbLine
 10
75.23469825479356
 20
320.8544551811058
 30
0.0
 11
75.45328956681283
 21
320.4768038101604
 31
0.0
  0
LINE
  5
784
330
1F
100
AcDbEntity
  8
SPOJOVACÍ
  6
CONTINUOUS
100
AcDbLine
 10
75.23469825479356
 20
320.8544551811058
 30
0.0
 11
74.85704688166539
 21
320.4768038101604
 31
0.0
  0
LINE
  5
785
330
1F
100
AcDbEntity
  8
SPOJOVACÍ
  6
CONTINUOUS
100
AcDbLine
 10
75.54537697056753
 20
318.700168039649
 30
0.0
 11
75.9239585193975
 21
319.0778194105944
 31
0.0
  0
LINE
  5
786
330
1F
100
AcDbEntity
  8
SPOJOVACÍ
  6
CONTINUOUS
100
AcDbLine
 10
75.54537697056753
 20
318.700168039649
 30
0.0
 11
75.32771583425006
 21
319.0778194105944
 31
0.0
  0
LINE
  5
787
330
1F
100
AcDbEntity
  8
SPOJOVACÍ
  6
CONTINUOUS
100
AcDbLine
 10
75.45328956681283
 20
320.4768038101604
 30
0.0
 11
75.9239585193975
 21
319.0778194105944
 31
0.0
  0
LINE
  5
788
330
1F
100
AcDbEntity
  8
SPOJOVACÍ
  6
CONTINUOUS
100
AcDbLine
 10
74.85704688166539
 20
320.4768038101604
 30
0.0
 11
75.32771583425006
 21
319.0778194105944
 31
0.0
  0
LINE
  5
789
330
1F
100
AcDbEntity
  8
SPOJOVACÍ
  6
CONTINUOUS
100
AcDbLine
 10
75.23469825479356
 20
320.8544551811058
 30
0.0
 11
75.54537697056753
 21
318.700168039649
 31
0.0
  0
LINE
  5
78A
330
1F
100
AcDbEntity
  8
SPOJOVACÍ
  6
CONTINUOUS
100
AcDbLine
 10
59.88865797595304
 20
322.2376265921041
 30
0.0
 11
61.08858475241527
 21
317.4379194862551
 31
0.0
  0
LINE
  5
78B
330
1F
100
AcDbEntity
  8
SPOJOVACÍ
  6
CONTINUOUS
100
AcDbLine
 10
59.88865797595304
 20
322.2376265921041
 30
0.0
 11
60.10724928797959
 21
321.8599752167931
 31
0.0
  0
LINE
  5
78C
330
1F
100
AcDbEntity
  8
SPOJOVACÍ
  6
CONTINUOUS
100
AcDbLine
 10
59.88865797595304
 20
322.2376265921041
 30
0.0
 11
59.51100660282486
 21
321.8599752167931
 31
0.0
  0
LINE
  5
78D
330
1F
100
AcDbEntity
  8
SPOJOVACÍ
  6
CONTINUOUS
100
AcDbLine
 10
61.08858475241527
 20
317.4379194862551
 30
0.0
 11
61.46716630124524
 21
317.8155708572005
 31
0.0
  0
LINE
  5
78E
330
1F
100
AcDbEntity
  8
SPOJOVACÍ
  6
CONTINUOUS
100
AcDbLine
 10
61.08858475241527
 20
317.4379194862551
 30
0.0
 11
60.8709236160978
 21
317.8155708572005
 31
0.0
  0
LINE
  5
78F
330
1F
100
AcDbEntity
  8
SPOJOVACÍ
  6
CONTINUOUS
100
AcDbLine
 10
60.10724928797959
 20
321.8599752167931
 30
0.0
 11
61.46716630124524
 21
317.8155708572005
 31
0.0
  0
LINE
  5
790
330
1F
100
AcDbEntity
  8
SPOJOVACÍ
  6
CONTINUOUS
100
AcDbLine
 10
59.51100660282486
 20
321.8599752167931
 30
0.0
 11
60.8709236160978
 21
317.8155708572005
 31
0.0
  0
LINE
  5
791
330
1F
100
AcDbEntity
  8
SPOJOVACÍ
  6
CONTINUOUS
100
AcDbLine
 10
63.0084675949222
 20
322.2376265921041
 30
0.0
 11
64.20839437138443
 21
317.4379194862551
 31
0.0
  0
LINE
  5
792
330
1F
100
AcDbEntity
  8
SPOJOVACÍ
  6
CONTINUOUS
100
AcDbLine
 10
63.0084675949222
 20
322.2376265921041
 30
0.0
 11
63.22705890694146
 21
321.8599752167931
 31
0.0
  0
LINE
  5
793
330
1F
100
AcDbEntity
  8
SPOJOVACÍ
  6
CONTINUOUS
100
AcDbLine
 10
63.0084675949222
 20
322.2376265921041
 30
0.0
 11
62.63081622179402
 21
321.8599752167931
 31
0.0
  0
LINE
  5
794
330
1F
100
AcDbEntity
  8
SPOJOVACÍ
  6
CONTINUOUS
100
AcDbLine
 10
64.20839437138443
 20
317.4379194862551
 30
0.0
 11
64.5869759202144
 21
317.8155708572005
 31
0.0
  0
LINE
  5
795
330
1F
100
AcDbEntity
  8
SPOJOVACÍ
  6
CONTINUOUS
100
AcDbLine
 10
64.20839437138443
 20
317.4379194862551
 30
0.0
 11
63.99073323533617
 21
317.8155708572005
 31
0.0
  0
LINE
  5
796
330
1F
100
AcDbEntity
  8
SPOJOVACÍ
  6
CONTINUOUS
100
AcDbLine
 10
63.22705890694146
 20
321.8599752167931
 30
0.0
 11
64.5869759202144
 21
317.8155708572005
 31
0.0
  0
LINE
  5
797
330
1F
100
AcDbEntity
  8
SPOJOVACÍ
  6
CONTINUOUS
100
AcDbLine
 10
62.63081622179402
 20
321.8599752167931
 30
0.0
 11
63.99073323533617
 21
317.8155708572005
 31
0.0
  0
LINE
  5
798
330
1F
100
AcDbEntity
  8
SPOJOVACÍ
  6
CONTINUOUS
100
AcDbLine
 10
66.12920738986236
 20
322.2376265921041
 30
0.0
 11
67.3291341663246
 21
317.4379194862551
 31
0.0
  0
LINE
  5
799
330
1F
100
AcDbEntity
  8
SPOJOVACÍ
  6
CONTINUOUS
100
AcDbLine
 10
66.12920738986236
 20
322.2376265921041
 30
0.0
 11
66.34686852591062
 21
321.8599752167931
 31
0.0
  0
LINE
  5
79A
330
1F
100
AcDbEntity
  8
SPOJOVACÍ
  6
CONTINUOUS
100
AcDbLine
 10
66.12920738986236
 20
322.2376265921041
 30
0.0
 11
65.7506258407559
 21
321.8599752167931
 31
0.0
  0
LINE
  5
79B
330
1F
100
AcDbEntity
  8
SPOJOVACÍ
  6
CONTINUOUS
100
AcDbLine
 10
67.3291341663246
 20
317.4379194862551
 30
0.0
 11
67.70678553945277
 21
317.8155708572005
 31
0.0
  0
LINE
  5
79C
330
1F
100
AcDbEntity
  8
SPOJOVACÍ
  6
CONTINUOUS
100
AcDbLine
 10
67.3291341663246
 20
317.4379194862551
 30
0.0
 11
67.11054285429804
 21
317.8155708572005
 31
0.0
  0
LINE
  5
79D
330
1F
100
AcDbEntity
  8
SPOJOVACÍ
  6
CONTINUOUS
100
AcDbLine
 10
66.34686852591062
 20
321.8599752167931
 30
0.0
 11
67.70678553945277
 21
317.8155708572005
 31
0.0
  0
LINE
  5
79E
330
1F
100
AcDbEntity
  8
SPOJOVACÍ
  6
CONTINUOUS
100
AcDbLine
 10
65.7506258407559
 20
321.8599752167931
 30
0.0
 11
67.11054285429804
 21
317.8155708572005
 31
0.0
  0
HATCH
  5
79F
330
1F
100
AcDbEntity
  8
IZOLACE
100
AcDbHatch
 10
0.0
 20
0.0
 30
0.0
210
0.0
220
0.0
230
1.0
  2
AR-SAND
 70
     0
 71
     0
 91
        1
 92
        7
 72
     0
 73
     1
 93
        4
 10
42.84876757279948
 20
304.6319319289389
 10
42.84876757279948
 20
299.6319319289389
 10
54.84876757279948
 20
299.6319319289389
 10
54.84876757279948
 20
304.6319319289389
 97
        0
 75
     0
 76
     1
 52
180.0
 41
0.1
 77
     0
 78
     4
 53
217.5
 43
1128.035642922718
 44
-21958.88477694353
 45
0.1600031295984039
 46
-4.894132373293423
 79
     6
 49
0.0
 49
-3.8608
 49
0.0
 49
-4.318
 49
0.0
 49
-4.1275
 53
187.5
 43
1128.035642922718
 44
-21958.88477694353
 45
-4.495232831380026
 46
-7.168251005683543
 79
     6
 49
0.0
 49
-2.0828
 49
0.0
 49
-3.4798
 49
0.0
 49
-1.3335
 53
147.4999999999999
 43
1131.159842922716
 44
-21958.88477694353
 45
-7.909923702414579
 46
-0.014371846785456
 79
     6
 49
0.0
 49
-1.27
 49
0.0
 49
-4.572
 49
0.0
 49
-5.969
 53
137.5
 43
1131.159842922716
 44
-21958.88477694353
 45
-7.635564524722972
 46
-2.229293232572161
 79
     6
 49
0.0
 49
-0.635
 49
0.0
 49
-2.997199999999999
 49
0.0
 49
-3.429
 47
0.2359071171925059
 98
        1
 10
49.01530167358237
 20
301.6560840261329
  0
INSERT
  5
7A0
330
1F
100
AcDbEntity
  8
POPIS
100
AcDbBlockReference
  2
E_PUNKT
 10
42.87783590366984
 20
284.493602566182
 30
0.0
 50
90.0
  0
HATCH
  5
7A1
330
1F
100
AcDbEntity
  8
CETRIS
100
AcDbHatch
 10
0.0
 20
0.0
 30
0.0
210
0.0
220
0.0
230
1.0
  2
ANSI31
 70
     0
 71
     0
 91
        6
 92
        7
 72
     0
 73
     1
 93
        4
 10
118.08102185755
 20
585.9156485483392
 10
106.08102185755
 20
585.9156485483392
 10
106.08102185755
 20
305.7422776389787
 10
118.08102185755
 20
305.7422776389787
 97
        0
 92
        7
 72
     0
 73
     1
 93
       14
 10
54.84876757279948
 20
585.9156485483392
 10
42.84876757279948
 20
585.9156485483392
 10
42.84876757279948
 20
324.9379269278136
 10
44.04869434952729
 20
324.9379269278136
 10
44.79283498600511
 20
323.5882418442618
 10
45.86160697542095
 20
322.4776119438986
 10
47.18059625371483
 20
321.6813814645859
 10
48.66143612076507
 20
321.2535006002865
 10
49.44836484389111
 20
321.1874581183649
 10
53.49658874317561
 20
321.1874581183649
 10
53.27045718892282
 20
321.8599752167922
 10
53.7169403246628
 20
322.3053613450549
 10
54.09283142810114
 20
321.1874581183649
 10
54.84876757279948
 20
321.1874581183649
 97
        0
 92
        7
 72
     0
 73
     1
 93
       12
 10
54.84876757279948
 20
317.438261461639
 10
54.6303742021812
 20
317.8155708572196
 10
54.40424264793569
 20
318.4880879556287
 10
49.44836484389111
 20
318.4880879556287
 10
47.9247368904546
 20
318.2611250647453
 10
46.51086968075492
 20
317.6481392155976
 10
45.3035014978634
 20
316.6900581456168
 10
44.38541798740721
 20
315.4529243367099
 10
44.04869434953456
 20
314.7376191505457
 10
42.84876757280312
 20
314.7376191505457
 10
42.84876757279948
 20
304.6319319289389
 10
54.84876757279948
 20
304.6319319289389
 97
        0
 92
        7
 72
     0
 73
     1
 93
       12
 10
54.84876757279948
 20
299.6319319289389
 10
42.84876757279948
 20
299.6319319289389
 10
42.84876757280312
 20
289.5262447073321
 10
44.04869434953456
 20
289.5262447073321
 10
44.38541798742176
 20
288.8109395211697
 10
45.30350149784886
 20
287.5738057122628
 10
46.51086968075856
 20
286.6157246422829
 10
47.92473689046187
 20
286.0027387931316
 10
49.44836484389111
 20
285.775775902249
 10
54.40424264793205
 20
285.775775902249
 10
54.6303742021812
 20
286.4482930006627
 10
54.84876757279948
 20
286.8256023962414
 97
        0
 92
        7
 72
     0
 73
     1
 93
        4
 10
118.0810218575536
 20
259.4308790947636
 10
106.0810218575463
 20
275.8433261684106
 10
106.08102185755
 20
105.9293576852135
 10
118.0810218575536
 20
105.9293576852135
 97
        0
 92
        7
 72
     0
 73
     1
 93
        4
 10
118.0810218575536
 20
298.6913447920299
 10
106.08102185755
 20
298.691344792029
 10
106.08102185755
 20
275.8433261684087
 10
118.08102185755
 20
259.4308790947645
 97
        0
 75
     0
 76
     1
 52
0.0
 41
1.0
 77
     0
 78
     1
 53
45.0
 43
-21714.31130879969
 44
99.8939568444614
 45
-2.245064030267287
 46
2.245064030267288
 79
     0
 47
0.8051415304097151
 98
        6
 10
111.2252276641886
 20
408.3037223773856
 10
47.44175423885486
 20
377.054373237944
 10
48.28415948709903
 20
309.2803789953243
 10
48.95853492386255
 20
291.3563228098494
 10
111.7939005609298
 20
156.0925150239993
 10
110.9883276278562
 20
284.9151608855602
  0
HATCH
  5
7A2
330
1F
100
AcDbEntity
  8
CETRIS
100
AcDbHatch
 10
0.0
 20
0.0
 30
0.0
210
0.0
220
0.0
230
1.0
  2
ANSI31
 70
     0
 71
     0
 91
        1
 92
        7
 72
     0
 73
     1
 93
       15
 10
54.84876757279948
 20
283.0764057395128
 10
54.09283142810114
 20
283.0764057395128
 10
53.86669987380833
 20
282.4038886411083
 10
53.64903873774915
 20
282.0262372657737
 10
53.27045718892282
 20
282.4038886410846
 10
53.49658874317924
 20
283.0764057395128
 10
49.44836484388748
 20
283.0764057395128
 10
48.66143612076871
 20
283.0103632575912
 10
47.1805962537112
 20
282.58248239329
 10
45.86160697541004
 20
281.7862519139673
 10
44.7928349859942
 20
280.675622013616
 10
44.04869434953093
 20
279.3259369300642
 10
42.84876757279948
 20
279.3259369300642
 10
42.84876757279585
 20
105.9293576852135
 10
54.84876757279948
 20
105.9293576852135
 97
        0
 75
     0
 76
     1
 52
0.0
 41
1.0
 77
     0
 78
     1
 53
45.0
 43
-21714.31130879969
 44
99.8939568444614
 45
-2.245064030267287
 46
2.245064030267288
 79
     0
 47
0.4795348606788023
 98
        1
 10
50.67476287755585
 20
241.6365877596029
  0
LINE
  5
7AF
330
1F
100
AcDbEntity
  8
POPIS
100
AcDbLine
 10
546.4478843960667
 20
339.4767589930609
 30
0.0
 11
546.4478843960667
 21
399.1374223267969
 31
0.0
  0
TEXT
  5
7B0
330
1F
100
AcDbEntity
  8
POPIS
100
AcDbText
 10
528.7914369076158
 20
403.8384854633206
 30
0.0
 40
25.0
  1
02
 41
0.85
  7
SIMPLEX7
100
AcDbText
  0
INSERT
  5
7B1
330
1F
100
AcDbEntity
  8
POPIS
100
AcDbBlockReference
  2
E_PUNKT
 10
546.8504779920324
 20
339.4476906621887
 30
0.0
  0
ENDSEC
  0
SECTION
  2
OBJECTS
  0
DICTIONARY
  5
C
330
0
100
AcDbDictionary
  3
ACAD_GROUP
350
D
  3
ACAD_LAYOUT
350
1A
  3
ACAD_MLINESTYLE
350
17
  3
ACAD_PLOTSETTINGS
350
19
  3
ACAD_PLOTSTYLENAME
350
E
  3
ACDBHEADERROUNDTRIPXREC
350
7B3
  0
DICTIONARY
  5
7D6
330
1F
100
AcDbDictionary
280
     1
  3
ACAD_LAYOUTSELFREF
360
7D7
  0
DICTIONARY
  5
7D4
330
1B
100
AcDbDictionary
280
     1
  3
ACAD_LAYOUTSELFREF
360
7D5
  0
DICTIONARY
  5
D
102
{ACAD_REACTORS
330
C
102
}
330
C
100
AcDbDictionary
  0
DICTIONARY
  5
1A
102
{ACAD_REACTORS
330
C
102
}
330
C
100
AcDbDictionary
  0
DICTIONARY
  5
17
102
{ACAD_REACTORS
330
C
102
}
330
C
100
AcDbDictionary
  3
STANDARD
350
18
  0
DICTIONARY
  5
19
102
{ACAD_REACTORS
330
C
102
}
330
C
100
AcDbDictionary
  0
ACDBDICTIONARYWDFLT
  5
E
102
{ACAD_REACTORS
330
C
102
}
330
C
100
AcDbDictionary
281
     1
  3
Normal
350
F
100
AcDbDictionaryWithDefault
340
F
  0
DICTIONARY
  5
7B3
102
{ACAD_REACTORS
330
C
102
}
330
C
100
AcDbDictionary
  3
CEPSNTYPE
350
7BD
  3
DIMSTYLEDATA
350
7C1
  3
FINGERPRINTGUID
350
7BE
  3
HYPERLINKBASE
350
7B6
  3
INSUNITS
350
7BC
  3
LAYOUTDICT
350
7B8
  3
LWETCUNION
350
7BB
  3
PLOTSETDICT
350
7B9
  3
PLOTSTYLNAMDICT
350
7BA
  3
PSVPSCALE
350
7C0
  3
PUCSBASE
350
7C4
  3
PUCSORGBACK
350
7CA
  3
PUCSORGBOTTOM
350
7C6
  3
PUCSORGFRONT
350
7C9
  3
PUCSORGLEFT
350
7C7
  3
PUCSORGRIGHT
350
7C8
  3
PUCSORGTOP
350
7C5
  3
PUCSORTHOREF
350
7C2
  3
PUCSORTHOVIEW
350
7C3
  3
STYLESHEET
350
7B7
  3
TSTACKALIGN
350
7B4
  3
TSTACKSIZE
350
7B5
  3
UCSBASE
350
7CD
  3
UCSORGBACK
350
7D3
  3
UCSORGBOTTOM
350
7CF
  3
UCSORGFRONT
350
7D2
  3
UCSORGLEFT
350
7D0
  3
UCSORGRIGHT
350
7D1
  3
UCSORGTOP
350
7CE
  3
UCSORTHOREF
350
7CB
  3
UCSORTHOVIEW
350
7CC
  3
VERSIONGUID
350
7BF
  0
XRECORD
  5
7D7
102
{ACAD_REACTORS
330
7D6
102
}
330
7D6
100
AcDbXrecord
340
1F
  0
XRECORD
  5
7D5
102
{ACAD_REACTORS
330
7D4
102
}
330
7D4
100
AcDbXrecord
340
1B
  0
MLINESTYLE
  5
18
102
{ACAD_REACTORS
330
17
102
}
330
17
100
AcDbMlineStyle
  2
STANDARD
 70
     0
  3

 62
   256
 51
90.0
 52
90.0
 71
     2
 49
0.5
 62
   256
  6
BYLAYER
 49
-0.5
 62
   256
  6
BYLAYER
  0
ACDBPLACEHOLDER
  5
F
102
{ACAD_REACTORS
330
E
102
}
330
E
100
AcDbPlaceHolder
280
     0
  0
XRECORD
  5
7BD
102
{ACAD_REACTORS
330
7B3
102
}
330
7B3
100
AcDbXrecord
 90
        0
  0
XRECORD
  5
7C1
102
{ACAD_REACTORS
330
7B3
102
}
330
7B3
100
AcDbXrecord
1000
DSTYLE
1002
{
1070
   278
 70
    44
1002
}
  0
XRECORD
  5
7BE
102
{ACAD_REACTORS
330
7B3
102
}
330
7B3
100
AcDbXrecord
  1
{E0A79919-1611-4D48-A6CF-929FE36A9D62}
  0
XRECORD
  5
7B6
102
{ACAD_REACTORS
330
7B3
102
}
330
7B3
100
AcDbXrecord
  1

  0
XRECORD
  5
7BC
102
{ACAD_REACTORS
330
7B3
102
}
330
7B3
100
AcDbXrecord
 90
        4
  0
XRECORD
  5
7B8
102
{ACAD_REACTORS
330
7B3
102
}
330
7B3
100
AcDbXrecord
340
1A
  0
XRECORD
  5
7BB
102
{ACAD_REACTORS
330
7B3
102
}
330
7B3
100
AcDbXrecord
 90
    10781
  0
XRECORD
  5
7B9
102
{ACAD_REACTORS
330
7B3
102
}
330
7B3
100
AcDbXrecord
340
19
  0
XRECORD
  5
7BA
102
{ACAD_REACTORS
330
7B3
102
}
330
7B3
100
AcDbXrecord
340
E
  0
XRECORD
  5
7C0
102
{ACAD_REACTORS
330
7B3
102
}
330
7B3
100
AcDbXrecord
 40
0.0
  0
XRECORD
  5
7C4
102
{ACAD_REACTORS
330
7B3
102
}
330
7B3
100
AcDbXrecord
340
0
  0
XRECORD
  5
7CA
102
{ACAD_REACTORS
330
7B3
102
}
330
7B3
100
AcDbXrecord
 10
0.0
 20
0.0
 30
0.0
  0
XRECORD
  5
7C6
102
{ACAD_REACTORS
330
7B3
102
}
330
7B3
100
AcDbXrecord
 10
0.0
 20
0.0
 30
0.0
  0
XRECORD
  5
7C9
102
{ACAD_REACTORS
330
7B3
102
}
330
7B3
100
AcDbXrecord
 10
0.0
 20
0.0
 30
0.0
  0
XRECORD
  5
7C7
102
{ACAD_REACTORS
330
7B3
102
}
330
7B3
100
AcDbXrecord
 10
0.0
 20
0.0
 30
0.0
  0
XRECORD
  5
7C8
102
{ACAD_REACTORS
330
7B3
102
}
330
7B3
100
AcDbXrecord
 10
0.0
 20
0.0
 30
0.0
  0
XRECORD
  5
7C5
102
{ACAD_REACTORS
330
7B3
102
}
330
7B3
100
AcDbXrecord
 10
0.0
 20
0.0
 30
0.0
  0
XRECORD
  5
7C2
102
{ACAD_REACTORS
330
7B3
102
}
330
7B3
100
AcDbXrecord
340
0
  0
XRECORD
  5
7C3
102
{ACAD_REACTORS
330
7B3
102
}
330
7B3
100
AcDbXrecord
 70
     0
  0
XRECORD
  5
7B7
102
{ACAD_REACTORS
330
7B3
102
}
330
7B3
100
AcDbXrecord
  1

  0
XRECORD
  5
7B4
102
{ACAD_REACTORS
330
7B3
102
}
330
7B3
100
AcDbXrecord
 90
        1
  0
XRECORD
  5
7B5
102
{ACAD_REACTORS
330
7B3
102
}
330
7B3
100
AcDbXrecord
 90
       70
  0
XRECORD
  5
7CD
102
{ACAD_REACTORS
330
7B3
102
}
330
7B3
100
AcDbXrecord
340
0
  0
XRECORD
  5
7D3
102
{ACAD_REACTORS
330
7B3
102
}
330
7B3
100
AcDbXrecord
 10
0.0
 20
0.0
 30
0.0
  0
XRECORD
  5
7CF
102
{ACAD_REACTORS
330
7B3
102
}
330
7B3
100
AcDbXrecord
 10
0.0
 20
0.0
 30
0.0
  0
XRECORD
  5
7D2
102
{ACAD_REACTORS
330
7B3
102
}
330
7B3
100
AcDbXrecord
 10
0.0
 20
0.0
 30
0.0
  0
XRECORD
  5
7D0
102
{ACAD_REACTORS
330
7B3
102
}
330
7B3
100
AcDbXrecord
 10
0.0
 20
0.0
 30
0.0
  0
XRECORD
  5
7D1
102
{ACAD_REACTORS
330
7B3
102
}
330
7B3
100
AcDbXrecord
 10
0.0
 20
0.0
 30
0.0
  0
XRECORD
  5
7CE
102
{ACAD_REACTORS
330
7B3
102
}
330
7B3
100
AcDbXrecord
 10
0.0
 20
0.0
 30
0.0
  0
XRECORD
  5
7CB
102
{ACAD_REACTORS
330
7B3
102
}
330
7B3
100
AcDbXrecord
340
0
  0
XRECORD
  5
7CC
102
{ACAD_REACTORS
330
7B3
102
}
330
7B3
100
AcDbXrecord
 70
     0
  0
XRECORD
  5
7BF
102
{ACAD_REACTORS
330
7B3
102
}
330
7B3
100
AcDbXrecord
  1
{54E28200-5FE8-4452-BFC0-BA6EBF7CBB0D}
  0
ENDSEC
  0
EOF
